ISO-10303-21;
HEADER;
FILE_DESCRIPTION( ( 'STEP AP214' ), '1' );
FILE_NAME( '//expscmdclustefs.cadenas.external/client_exchange/iodir/jobs/output/wkb75788150_no0/STEP/SM00_5000_2_14b.stp', '  ', ( '  ' ), ( '  ' ), 'PSStep 15.0.47', 'PARTsolutions', '  ' );
FILE_SCHEMA( ( 'AUTOMOTIVE_DESIGN { 1 0 10303 214 1 1 1 1 }' ) );
ENDSEC;
DATA;
#1 = MECHANICAL_DESIGN_GEOMETRIC_PRESENTATION_REPRESENTATION( ' ', ( #10, #11, #12, #13, #14, #15, #16, #17 ), #6 );
#2 = PRODUCT_DEFINITION_CONTEXT( '', #18, 'design' );
#3 = APPLICATION_PROTOCOL_DEFINITION( 'international standard', 'automotive_design', 2001, #18 );
#4 = PRODUCT_CATEGORY_RELATIONSHIP( 'NONE', 'NONE', #19, #20 );
#5 = SHAPE_DEFINITION_REPRESENTATION( #21, #22 );
#6 =  ( GEOMETRIC_REPRESENTATION_CONTEXT( 3 )GLOBAL_UNCERTAINTY_ASSIGNED_CONTEXT( ( #25 ) )GLOBAL_UNIT_ASSIGNED_CONTEXT( ( #27, #28, #29 ) )REPRESENTATION_CONTEXT( 'NONE', 'WORKSPACE' ) );
#10 = STYLED_ITEM( '', ( #31 ), #32 );
#11 = STYLED_ITEM( '', ( #33 ), #34 );
#12 = STYLED_ITEM( '', ( #35 ), #36 );
#13 = STYLED_ITEM( '', ( #37 ), #38 );
#14 = STYLED_ITEM( '', ( #39 ), #40 );
#15 = STYLED_ITEM( '', ( #41 ), #42 );
#16 = STYLED_ITEM( '', ( #43 ), #44 );
#17 = STYLED_ITEM( '', ( #45 ), #46 );
#18 = APPLICATION_CONTEXT( 'core data for automotive mechanical design processes' );
#19 = PRODUCT_CATEGORY( 'part', 'NONE' );
#20 = PRODUCT_RELATED_PRODUCT_CATEGORY( 'detail', ' ', ( #47 ) );
#21 = PRODUCT_DEFINITION_SHAPE( 'NONE', 'NONE', #48 );
#22 = ADVANCED_BREP_SHAPE_REPRESENTATION( 'HI_SM00 5000', ( #49, #50 ), #6 );
#25 = UNCERTAINTY_MEASURE_WITH_UNIT( LENGTH_MEASURE( 0.00100000000000000 ), #27, '', '' );
#27 =  ( CONVERSION_BASED_UNIT( 'MILLIMETRE', #53 )LENGTH_UNIT(  )NAMED_UNIT( #56 ) );
#28 =  ( NAMED_UNIT( #58 )PLANE_ANGLE_UNIT(  )SI_UNIT( $, .RADIAN. ) );
#29 =  ( NAMED_UNIT( #58 )SI_UNIT( $, .STERADIAN. )SOLID_ANGLE_UNIT(  ) );
#31 = PRESENTATION_STYLE_ASSIGNMENT( ( #64 ) );
#32 = ADVANCED_FACE( '', ( #65, #66 ), #67, .F. );
#33 = PRESENTATION_STYLE_ASSIGNMENT( ( #68 ) );
#34 = ADVANCED_FACE( '', ( #69, #70 ), #71, .T. );
#35 = PRESENTATION_STYLE_ASSIGNMENT( ( #72 ) );
#36 = ADVANCED_FACE( '', ( #73, #74, #75 ), #76, .T. );
#37 = PRESENTATION_STYLE_ASSIGNMENT( ( #77 ) );
#38 = ADVANCED_FACE( '', ( #78, #79 ), #80, .T. );
#39 = PRESENTATION_STYLE_ASSIGNMENT( ( #81 ) );
#40 = ADVANCED_FACE( '', ( #82, #83 ), #84, .T. );
#41 = PRESENTATION_STYLE_ASSIGNMENT( ( #85 ) );
#42 = ADVANCED_FACE( '', ( #86, #87, #88 ), #89, .F. );
#43 = PRESENTATION_STYLE_ASSIGNMENT( ( #90 ) );
#44 = ADVANCED_FACE( '', ( #91, #92 ), #93, .T. );
#45 = PRESENTATION_STYLE_ASSIGNMENT( ( #94 ) );
#46 = ADVANCED_FACE( '', ( #95, #96 ), #97, .F. );
#47 = PRODUCT( 'HI_SM00 5000', 'HI_SM00 5000', 'PART-HI_SM00 5000-DESC', ( #98 ) );
#48 = PRODUCT_DEFINITION( 'NONE', 'NONE', #99, #2 );
#49 = MANIFOLD_SOLID_BREP( 'HI_SM00 5000', #100 );
#50 = AXIS2_PLACEMENT_3D( '', #101, #102, #103 );
#53 = LENGTH_MEASURE_WITH_UNIT( LENGTH_MEASURE( 1.00000000000000 ), #104 );
#56 = DIMENSIONAL_EXPONENTS( 1.00000000000000, 0.000000000000000, 0.000000000000000, 0.000000000000000, 0.000000000000000, 0.000000000000000, 0.000000000000000 );
#58 = DIMENSIONAL_EXPONENTS( 0.000000000000000, 0.000000000000000, 0.000000000000000, 0.000000000000000, 0.000000000000000, 0.000000000000000, 0.000000000000000 );
#64 = SURFACE_STYLE_USAGE( .BOTH., #105 );
#65 = FACE_OUTER_BOUND( '', #106, .T. );
#66 = FACE_OUTER_BOUND( '', #107, .T. );
#67 = CYLINDRICAL_SURFACE( '', #108, 25.0000000000000 );
#68 = SURFACE_STYLE_USAGE( .BOTH., #109 );
#69 = FACE_OUTER_BOUND( '', #110, .T. );
#70 = FACE_OUTER_BOUND( '', #111, .T. );
#71 = CYLINDRICAL_SURFACE( '', #112, 26.5000000000000 );
#72 = SURFACE_STYLE_USAGE( .BOTH., #113 );
#73 = FACE_BOUND( '', #114, .T. );
#74 = FACE_OUTER_BOUND( '', #115, .T. );
#75 = FACE_OUTER_BOUND( '', #116, .T. );
#76 = TOROIDAL_SURFACE( '', #117, 23.8397435897436, 22.1602564102564 );
#77 = SURFACE_STYLE_USAGE( .BOTH., #118 );
#78 = FACE_OUTER_BOUND( '', #119, .T. );
#79 = FACE_OUTER_BOUND( '', #120, .T. );
#80 = CYLINDRICAL_SURFACE( '', #121, 26.5000000000000 );
#81 = SURFACE_STYLE_USAGE( .BOTH., #122 );
#82 = FACE_BOUND( '', #123, .T. );
#83 = FACE_OUTER_BOUND( '', #124, .T. );
#84 = PLANE( '', #125 );
#85 = SURFACE_STYLE_USAGE( .BOTH., #126 );
#86 = FACE_BOUND( '', #127, .T. );
#87 = FACE_OUTER_BOUND( '', #128, .T. );
#88 = FACE_OUTER_BOUND( '', #129, .T. );
#89 = TOROIDAL_SURFACE( '', #130, 23.9743589743590, 20.5256410256410 );
#90 = SURFACE_STYLE_USAGE( .BOTH., #131 );
#91 = FACE_OUTER_BOUND( '', #132, .T. );
#92 = FACE_BOUND( '', #133, .T. );
#93 = PLANE( '', #134 );
#94 = SURFACE_STYLE_USAGE( .BOTH., #135 );
#95 = FACE_OUTER_BOUND( '', #136, .T. );
#96 = FACE_OUTER_BOUND( '', #137, .T. );
#97 = CYLINDRICAL_SURFACE( '', #138, 25.0000000000000 );
#98 = PRODUCT_CONTEXT( '', #18, 'mechanical' );
#99 = PRODUCT_DEFINITION_FORMATION_WITH_SPECIFIED_SOURCE( ' ', 'NONE', #47, .NOT_KNOWN. );
#100 = CLOSED_SHELL( '', ( #38, #36, #40, #32, #42, #46, #44, #34 ) );
#101 = CARTESIAN_POINT( '', ( 0.000000000000000, 0.000000000000000, 0.000000000000000 ) );
#102 = DIRECTION( '', ( 0.000000000000000, 0.000000000000000, 1.00000000000000 ) );
#103 = DIRECTION( '', ( 1.00000000000000, 0.000000000000000, 0.000000000000000 ) );
#104 =  ( LENGTH_UNIT(  )NAMED_UNIT( #56 )SI_UNIT( .MILLI., .METRE. ) );
#105 = SURFACE_SIDE_STYLE( '', ( #140 ) );
#106 = EDGE_LOOP( '', ( #141 ) );
#107 = EDGE_LOOP( '', ( #142 ) );
#108 = AXIS2_PLACEMENT_3D( '', #143, #144, #145 );
#109 = SURFACE_SIDE_STYLE( '', ( #146 ) );
#110 = EDGE_LOOP( '', ( #147 ) );
#111 = EDGE_LOOP( '', ( #148 ) );
#112 = AXIS2_PLACEMENT_3D( '', #149, #150, #151 );
#113 = SURFACE_SIDE_STYLE( '', ( #152 ) );
#114 = VERTEX_LOOP( '', #153 );
#115 = EDGE_LOOP( '', ( #154 ) );
#116 = EDGE_LOOP( '', ( #155 ) );
#117 = AXIS2_PLACEMENT_3D( '', #156, #157, #158 );
#118 = SURFACE_SIDE_STYLE( '', ( #159 ) );
#119 = EDGE_LOOP( '', ( #160 ) );
#120 = EDGE_LOOP( '', ( #161 ) );
#121 = AXIS2_PLACEMENT_3D( '', #162, #163, #164 );
#122 = SURFACE_SIDE_STYLE( '', ( #165 ) );
#123 = EDGE_LOOP( '', ( #166 ) );
#124 = EDGE_LOOP( '', ( #167 ) );
#125 = AXIS2_PLACEMENT_3D( '', #168, #169, #170 );
#126 = SURFACE_SIDE_STYLE( '', ( #171 ) );
#127 = VERTEX_LOOP( '', #172 );
#128 = EDGE_LOOP( '', ( #173 ) );
#129 = EDGE_LOOP( '', ( #174 ) );
#130 = AXIS2_PLACEMENT_3D( '', #175, #176, #177 );
#131 = SURFACE_SIDE_STYLE( '', ( #178 ) );
#132 = EDGE_LOOP( '', ( #179 ) );
#133 = EDGE_LOOP( '', ( #180 ) );
#134 = AXIS2_PLACEMENT_3D( '', #181, #182, #183 );
#135 = SURFACE_SIDE_STYLE( '', ( #184 ) );
#136 = EDGE_LOOP( '', ( #185 ) );
#137 = EDGE_LOOP( '', ( #186 ) );
#138 = AXIS2_PLACEMENT_3D( '', #187, #188, #189 );
#140 = SURFACE_STYLE_FILL_AREA( #190 );
#141 = ORIENTED_EDGE( '', *, *, #191, .T. );
#142 = ORIENTED_EDGE( '', *, *, #192, .F. );
#143 = CARTESIAN_POINT( '', ( 108.000000000000, 0.000000000000000, 0.000000000000000 ) );
#144 = DIRECTION( '', ( -1.00000000000000, -0.000000000000000, 0.000000000000000 ) );
#145 = DIRECTION( '', ( -0.000000000000000, 0.000000000000000, -1.00000000000000 ) );
#146 = SURFACE_STYLE_FILL_AREA( #193 );
#147 = ORIENTED_EDGE( '', *, *, #194, .T. );
#148 = ORIENTED_EDGE( '', *, *, #195, .F. );
#149 = CARTESIAN_POINT( '', ( 108.000000000000, 0.000000000000000, 0.000000000000000 ) );
#150 = DIRECTION( '', ( -1.00000000000000, -0.000000000000000, 0.000000000000000 ) );
#151 = DIRECTION( '', ( -0.000000000000000, 0.000000000000000, -1.00000000000000 ) );
#152 = SURFACE_STYLE_FILL_AREA( #196 );
#153 = VERTEX_POINT( '', #197 );
#154 = ORIENTED_EDGE( '', *, *, #198, .T. );
#155 = ORIENTED_EDGE( '', *, *, #194, .F. );
#156 = CARTESIAN_POINT( '', ( 54.0000000000000, 0.000000000000000, 0.000000000000000 ) );
#157 = DIRECTION( '', ( 1.00000000000000, 0.000000000000000, -0.000000000000000 ) );
#158 = DIRECTION( '', ( -0.000000000000000, 0.000000000000000, -1.00000000000000 ) );
#159 = SURFACE_STYLE_FILL_AREA( #199 );
#160 = ORIENTED_EDGE( '', *, *, #200, .T. );
#161 = ORIENTED_EDGE( '', *, *, #198, .F. );
#162 = CARTESIAN_POINT( '', ( 108.000000000000, 0.000000000000000, 0.000000000000000 ) );
#163 = DIRECTION( '', ( -1.00000000000000, -0.000000000000000, 0.000000000000000 ) );
#164 = DIRECTION( '', ( -0.000000000000000, 0.000000000000000, -1.00000000000000 ) );
#165 = SURFACE_STYLE_FILL_AREA( #201 );
#166 = ORIENTED_EDGE( '', *, *, #192, .T. );
#167 = ORIENTED_EDGE( '', *, *, #200, .F. );
#168 = CARTESIAN_POINT( '', ( 0.000000000000000, 26.5000000000000, 0.000000000000000 ) );
#169 = DIRECTION( '', ( -1.00000000000000, 0.000000000000000, 0.000000000000000 ) );
#170 = DIRECTION( '', ( 0.000000000000000, 0.000000000000000, 1.00000000000000 ) );
#171 = SURFACE_STYLE_FILL_AREA( #202 );
#172 = VERTEX_POINT( '', #203 );
#173 = ORIENTED_EDGE( '', *, *, #191, .F. );
#174 = ORIENTED_EDGE( '', *, *, #204, .T. );
#175 = CARTESIAN_POINT( '', ( 54.0000000000000, 0.000000000000000, 0.000000000000000 ) );
#176 = DIRECTION( '', ( 1.00000000000000, 0.000000000000000, -0.000000000000000 ) );
#177 = DIRECTION( '', ( -0.000000000000000, 0.000000000000000, -1.00000000000000 ) );
#178 = SURFACE_STYLE_FILL_AREA( #205 );
#179 = ORIENTED_EDGE( '', *, *, #195, .T. );
#180 = ORIENTED_EDGE( '', *, *, #206, .F. );
#181 = CARTESIAN_POINT( '', ( 108.000000000000, 25.0000000000000, 0.000000000000000 ) );
#182 = DIRECTION( '', ( 1.00000000000000, 0.000000000000000, -0.000000000000000 ) );
#183 = DIRECTION( '', ( -0.000000000000000, 0.000000000000000, -1.00000000000000 ) );
#184 = SURFACE_STYLE_FILL_AREA( #207 );
#185 = ORIENTED_EDGE( '', *, *, #206, .T. );
#186 = ORIENTED_EDGE( '', *, *, #204, .F. );
#187 = CARTESIAN_POINT( '', ( 108.000000000000, 0.000000000000000, 0.000000000000000 ) );
#188 = DIRECTION( '', ( -1.00000000000000, -0.000000000000000, 0.000000000000000 ) );
#189 = DIRECTION( '', ( -0.000000000000000, 0.000000000000000, -1.00000000000000 ) );
#190 = FILL_AREA_STYLE( '', ( #208 ) );
#191 = EDGE_CURVE( '', #209, #209, #210, .T. );
#192 = EDGE_CURVE( '', #211, #211, #212, .T. );
#193 = FILL_AREA_STYLE( '', ( #213 ) );
#194 = EDGE_CURVE( '', #214, #214, #215, .T. );
#195 = EDGE_CURVE( '', #216, #216, #217, .T. );
#196 = FILL_AREA_STYLE( '', ( #218 ) );
#197 = CARTESIAN_POINT( '', ( 54.0000000000000, 0.000000000000000, -46.0000000000000 ) );
#198 = EDGE_CURVE( '', #219, #219, #220, .T. );
#199 = FILL_AREA_STYLE( '', ( #221 ) );
#200 = EDGE_CURVE( '', #222, #222, #223, .T. );
#201 = FILL_AREA_STYLE( '', ( #224 ) );
#202 = FILL_AREA_STYLE( '', ( #225 ) );
#203 = CARTESIAN_POINT( '', ( 54.0000000000000, 0.000000000000000, -44.5000000000000 ) );
#204 = EDGE_CURVE( '', #226, #226, #227, .T. );
#205 = FILL_AREA_STYLE( '', ( #228 ) );
#206 = EDGE_CURVE( '', #229, #229, #230, .T. );
#207 = FILL_AREA_STYLE( '', ( #231 ) );
#208 = FILL_AREA_STYLE_COLOUR( '', #232 );
#209 = VERTEX_POINT( '', #233 );
#210 = CIRCLE( '', #234, 25.0000000000000 );
#211 = VERTEX_POINT( '', #235 );
#212 = CIRCLE( '', #236, 25.0000000000000 );
#213 = FILL_AREA_STYLE_COLOUR( '', #237 );
#214 = VERTEX_POINT( '', #238 );
#215 = CIRCLE( '', #239, 26.5000000000000 );
#216 = VERTEX_POINT( '', #240 );
#217 = CIRCLE( '', #241, 26.5000000000000 );
#218 = FILL_AREA_STYLE_COLOUR( '', #242 );
#219 = VERTEX_POINT( '', #243 );
#220 = CIRCLE( '', #244, 26.5000000000000 );
#221 = FILL_AREA_STYLE_COLOUR( '', #245 );
#222 = VERTEX_POINT( '', #246 );
#223 = CIRCLE( '', #247, 26.5000000000000 );
#224 = FILL_AREA_STYLE_COLOUR( '', #248 );
#225 = FILL_AREA_STYLE_COLOUR( '', #249 );
#226 = VERTEX_POINT( '', #250 );
#227 = CIRCLE( '', #251, 25.0000000000000 );
#228 = FILL_AREA_STYLE_COLOUR( '', #252 );
#229 = VERTEX_POINT( '', #253 );
#230 = CIRCLE( '', #254, 25.0000000000000 );
#231 = FILL_AREA_STYLE_COLOUR( '', #255 );
#232 = COLOUR_RGB( '', 0.500000000000000, 0.500000000000000, 0.500000000000000 );
#233 = CARTESIAN_POINT( '', ( 33.5000000000000, 0.000000000000000, -25.0000000000000 ) );
#234 = AXIS2_PLACEMENT_3D( '', #256, #257, #258 );
#235 = CARTESIAN_POINT( '', ( 0.000000000000000, 0.000000000000000, -25.0000000000000 ) );
#236 = AXIS2_PLACEMENT_3D( '', #259, #260, #261 );
#237 = COLOUR_RGB( '', 0.500000000000000, 0.500000000000000, 0.500000000000000 );
#238 = CARTESIAN_POINT( '', ( 76.0000000000000, 0.000000000000000, -26.5000000000000 ) );
#239 = AXIS2_PLACEMENT_3D( '', #262, #263, #264 );
#240 = CARTESIAN_POINT( '', ( 108.000000000000, 0.000000000000000, -26.5000000000000 ) );
#241 = AXIS2_PLACEMENT_3D( '', #265, #266, #267 );
#242 = COLOUR_RGB( '', 0.500000000000000, 0.500000000000000, 0.500000000000000 );
#243 = CARTESIAN_POINT( '', ( 32.0000000000000, 0.000000000000000, -26.5000000000000 ) );
#244 = AXIS2_PLACEMENT_3D( '', #268, #269, #270 );
#245 = COLOUR_RGB( '', 0.500000000000000, 0.500000000000000, 0.500000000000000 );
#246 = CARTESIAN_POINT( '', ( 0.000000000000000, 0.000000000000000, -26.5000000000000 ) );
#247 = AXIS2_PLACEMENT_3D( '', #271, #272, #273 );
#248 = COLOUR_RGB( '', 0.500000000000000, 0.500000000000000, 0.500000000000000 );
#249 = COLOUR_RGB( '', 0.500000000000000, 0.500000000000000, 0.500000000000000 );
#250 = CARTESIAN_POINT( '', ( 74.5000000000000, 0.000000000000000, -25.0000000000000 ) );
#251 = AXIS2_PLACEMENT_3D( '', #274, #275, #276 );
#252 = COLOUR_RGB( '', 0.500000000000000, 0.500000000000000, 0.500000000000000 );
#253 = CARTESIAN_POINT( '', ( 108.000000000000, 0.000000000000000, -25.0000000000000 ) );
#254 = AXIS2_PLACEMENT_3D( '', #277, #278, #279 );
#255 = COLOUR_RGB( '', 0.500000000000000, 0.500000000000000, 0.500000000000000 );
#256 = CARTESIAN_POINT( '', ( 33.5000000000000, 0.000000000000000, 0.000000000000000 ) );
#257 = DIRECTION( '', ( 1.00000000000000, 0.000000000000000, -0.000000000000000 ) );
#258 = DIRECTION( '', ( -0.000000000000000, 0.000000000000000, -1.00000000000000 ) );
#259 = CARTESIAN_POINT( '', ( 0.000000000000000, 0.000000000000000, 0.000000000000000 ) );
#260 = DIRECTION( '', ( 1.00000000000000, 0.000000000000000, -0.000000000000000 ) );
#261 = DIRECTION( '', ( -0.000000000000000, 0.000000000000000, -1.00000000000000 ) );
#262 = CARTESIAN_POINT( '', ( 76.0000000000000, 0.000000000000000, 0.000000000000000 ) );
#263 = DIRECTION( '', ( 1.00000000000000, 0.000000000000000, -0.000000000000000 ) );
#264 = DIRECTION( '', ( -0.000000000000000, 0.000000000000000, -1.00000000000000 ) );
#265 = CARTESIAN_POINT( '', ( 108.000000000000, 0.000000000000000, 0.000000000000000 ) );
#266 = DIRECTION( '', ( 1.00000000000000, 0.000000000000000, -0.000000000000000 ) );
#267 = DIRECTION( '', ( -0.000000000000000, 0.000000000000000, -1.00000000000000 ) );
#268 = CARTESIAN_POINT( '', ( 32.0000000000000, 0.000000000000000, 0.000000000000000 ) );
#269 = DIRECTION( '', ( 1.00000000000000, 0.000000000000000, -0.000000000000000 ) );
#270 = DIRECTION( '', ( -0.000000000000000, 0.000000000000000, -1.00000000000000 ) );
#271 = CARTESIAN_POINT( '', ( 0.000000000000000, 0.000000000000000, 0.000000000000000 ) );
#272 = DIRECTION( '', ( 1.00000000000000, 0.000000000000000, -0.000000000000000 ) );
#273 = DIRECTION( '', ( -0.000000000000000, 0.000000000000000, -1.00000000000000 ) );
#274 = CARTESIAN_POINT( '', ( 74.5000000000000, 0.000000000000000, 0.000000000000000 ) );
#275 = DIRECTION( '', ( 1.00000000000000, 0.000000000000000, -0.000000000000000 ) );
#276 = DIRECTION( '', ( -0.000000000000000, 0.000000000000000, -1.00000000000000 ) );
#277 = CARTESIAN_POINT( '', ( 108.000000000000, 0.000000000000000, 0.000000000000000 ) );
#278 = DIRECTION( '', ( 1.00000000000000, 0.000000000000000, -0.000000000000000 ) );
#279 = DIRECTION( '', ( -0.000000000000000, 0.000000000000000, -1.00000000000000 ) );
ENDSEC;
END-ISO-10303-21;
