ISO-10303-21;
HEADER;
/* Generated by software containing ST-Developer
 * from STEP Tools, Inc. (www.steptools.com) 
 */

FILE_DESCRIPTION(
/* description */ (''),
/* implementation_level */ '2;1');

FILE_NAME(
/* name */ '25-5B2',
/* time_stamp */ '2007-05-17T17:53:31+08:00',
/* author */ (''),
/* organization */ (''),
/* preprocessor_version */ 'ST-DEVELOPER v9',
/* originating_system */ 'UGS - NX 4.0',
/* authorisation */ '');

FILE_SCHEMA (('CONFIG_CONTROL_DESIGN'));
ENDSEC;

DATA;
#10=SHAPE_REPRESENTATION_RELATIONSHIP('None',
'relationship between 25-5B2-None and 25-5B2-None',#94,#11);
#11=ADVANCED_BREP_SHAPE_REPRESENTATION('25-5B2-None',(#95),#261);
#12=CC_DESIGN_APPROVAL(#24,(#82));
#13=CC_DESIGN_APPROVAL(#25,(#84));
#14=CC_DESIGN_APPROVAL(#26,(#31));
#15=APPROVAL_PERSON_ORGANIZATION(#69,#24,#18);
#16=APPROVAL_PERSON_ORGANIZATION(#70,#25,#19);
#17=APPROVAL_PERSON_ORGANIZATION(#71,#26,#20);
#18=APPROVAL_ROLE('approver');
#19=APPROVAL_ROLE('approver');
#20=APPROVAL_ROLE('approver');
#21=APPROVAL_DATE_TIME(#39,#24);
#22=APPROVAL_DATE_TIME(#40,#25);
#23=APPROVAL_DATE_TIME(#41,#26);
#24=APPROVAL(#27,' ');
#25=APPROVAL(#28,' ');
#26=APPROVAL(#29,' ');
#27=APPROVAL_STATUS('not_yet_approved');
#28=APPROVAL_STATUS('not_yet_approved');
#29=APPROVAL_STATUS('not_yet_approved');
#30=CC_DESIGN_SECURITY_CLASSIFICATION(#31,(#84));
#31=SECURITY_CLASSIFICATION(' ',' ',#32);
#32=SECURITY_CLASSIFICATION_LEVEL('confidential');
#33=CC_DESIGN_DATE_AND_TIME_ASSIGNMENT(#37,#35,(#82));
#34=CC_DESIGN_DATE_AND_TIME_ASSIGNMENT(#38,#36,(#31));
#35=DATE_TIME_ROLE('creation_date');
#36=DATE_TIME_ROLE('classification_date');
#37=DATE_AND_TIME(#52,#42);
#38=DATE_AND_TIME(#53,#43);
#39=DATE_AND_TIME(#54,#44);
#40=DATE_AND_TIME(#55,#45);
#41=DATE_AND_TIME(#56,#46);
#42=LOCAL_TIME(0,0,0.,#47);
#43=LOCAL_TIME(0,0,0.,#48);
#44=LOCAL_TIME(0,0,0.,#49);
#45=LOCAL_TIME(0,0,0.,#50);
#46=LOCAL_TIME(0,0,0.,#51);
#47=COORDINATED_UNIVERSAL_TIME_OFFSET(0,0,.BEHIND.);
#48=COORDINATED_UNIVERSAL_TIME_OFFSET(0,0,.BEHIND.);
#49=COORDINATED_UNIVERSAL_TIME_OFFSET(0,0,.BEHIND.);
#50=COORDINATED_UNIVERSAL_TIME_OFFSET(0,0,.BEHIND.);
#51=COORDINATED_UNIVERSAL_TIME_OFFSET(0,0,.BEHIND.);
#52=CALENDAR_DATE(0,1,1);
#53=CALENDAR_DATE(0,1,1);
#54=CALENDAR_DATE(0,1,1);
#55=CALENDAR_DATE(0,1,1);
#56=CALENDAR_DATE(0,1,1);
#57=CC_DESIGN_PERSON_AND_ORGANIZATION_ASSIGNMENT(#65,#61,(#82,#84));
#58=CC_DESIGN_PERSON_AND_ORGANIZATION_ASSIGNMENT(#66,#62,(#86));
#59=CC_DESIGN_PERSON_AND_ORGANIZATION_ASSIGNMENT(#67,#63,(#84));
#60=CC_DESIGN_PERSON_AND_ORGANIZATION_ASSIGNMENT(#68,#64,(#31));
#61=PERSON_AND_ORGANIZATION_ROLE('creator');
#62=PERSON_AND_ORGANIZATION_ROLE('design_owner');
#63=PERSON_AND_ORGANIZATION_ROLE('design_supplier');
#64=PERSON_AND_ORGANIZATION_ROLE('classification_officer');
#65=PERSON_AND_ORGANIZATION(#79,#72);
#66=PERSON_AND_ORGANIZATION(#79,#73);
#67=PERSON_AND_ORGANIZATION(#79,#74);
#68=PERSON_AND_ORGANIZATION(#79,#75);
#69=PERSON_AND_ORGANIZATION(#79,#76);
#70=PERSON_AND_ORGANIZATION(#79,#77);
#71=PERSON_AND_ORGANIZATION(#79,#78);
#72=ORGANIZATION(' ',' ',' ');
#73=ORGANIZATION(' ',' ',' ');
#74=ORGANIZATION(' ',' ',' ');
#75=ORGANIZATION(' ',' ',' ');
#76=ORGANIZATION(' ',' ',' ');
#77=ORGANIZATION(' ',' ',' ');
#78=ORGANIZATION(' ',' ',' ');
#79=PERSON(' ',' ',' ',(' '),$,$);
#80=SHAPE_DEFINITION_REPRESENTATION(#81,#94);
#81=PRODUCT_DEFINITION_SHAPE('','',#82);
#82=PRODUCT_DEFINITION(' ','',#84,#83);
#83=DESIGN_CONTEXT('',#93,'design');
#84=PRODUCT_DEFINITION_FORMATION_WITH_SPECIFIED_SOURCE(' ',' ',#86,.NOT_KNOWN.);
#85=PRODUCT_RELATED_PRODUCT_CATEGORY('detail','',(#86));
#86=PRODUCT('25-5B2','25-5B2',' ',(#91));
#87=PRODUCT_CATEGORY_RELATIONSHIP(' ',' ',#89,#90);
#88=PRODUCT_CATEGORY_RELATIONSHIP('','',#90,#85);
#89=PRODUCT_CATEGORY('part',' ');
#90=PRODUCT_CATEGORY(' ','');
#91=MECHANICAL_CONTEXT(' ',#93,'mechanical');
#92=APPLICATION_PROTOCOL_DEFINITION('international standard',
'config_control_design',1994,#93);
#93=APPLICATION_CONTEXT(
'configuration controlled 3D designs of mechanical parts and assemblies
');
#94=SHAPE_REPRESENTATION('25-5B2-None',(#185),#261);
#95=MANIFOLD_SOLID_BREP('',#96);
#96=CLOSED_SHELL('',(#105,#106,#107,#108,#109,#110,#111,#112));
#97=PLANE('',#192);
#98=PLANE('',#194);
#99=PLANE('',#198);
#100=PLANE('',#200);
#101=FACE_OUTER_BOUND('',#133,.T.);
#102=FACE_OUTER_BOUND('',#135,.T.);
#103=FACE_OUTER_BOUND('',#139,.T.);
#104=FACE_OUTER_BOUND('',#142,.T.);
#105=ADVANCED_FACE('',(#117,#118),#113,.T.);
#106=ADVANCED_FACE('',(#119,#120),#114,.F.);
#107=ADVANCED_FACE('',(#101,#121),#97,.T.);
#108=ADVANCED_FACE('',(#102,#122),#98,.F.);
#109=ADVANCED_FACE('',(#123,#124),#115,.T.);
#110=ADVANCED_FACE('',(#103,#125),#99,.F.);
#111=ADVANCED_FACE('',(#126,#104),#100,.F.);
#112=ADVANCED_FACE('',(#127,#128),#116,.T.);
#113=CYLINDRICAL_SURFACE('',#188,23.);
#114=CYLINDRICAL_SURFACE('',#191,12.5);
#115=CYLINDRICAL_SURFACE('',#196,21.);
#116=CYLINDRICAL_SURFACE('',#201,20.);
#117=FACE_BOUND('',#129,.T.);
#118=FACE_BOUND('',#130,.T.);
#119=FACE_BOUND('',#131,.T.);
#120=FACE_BOUND('',#132,.T.);
#121=FACE_BOUND('',#134,.T.);
#122=FACE_BOUND('',#136,.T.);
#123=FACE_BOUND('',#137,.T.);
#124=FACE_BOUND('',#138,.T.);
#125=FACE_BOUND('',#140,.T.);
#126=FACE_BOUND('',#141,.T.);
#127=FACE_BOUND('',#143,.T.);
#128=FACE_BOUND('',#144,.T.);
#129=EDGE_LOOP('',(#145));
#130=EDGE_LOOP('',(#146));
#131=EDGE_LOOP('',(#147));
#132=EDGE_LOOP('',(#148));
#133=EDGE_LOOP('',(#149));
#134=EDGE_LOOP('',(#150));
#135=EDGE_LOOP('',(#151));
#136=EDGE_LOOP('',(#152));
#137=EDGE_LOOP('',(#153));
#138=EDGE_LOOP('',(#154));
#139=EDGE_LOOP('',(#155));
#140=EDGE_LOOP('',(#156));
#141=EDGE_LOOP('',(#157));
#142=EDGE_LOOP('',(#158));
#143=EDGE_LOOP('',(#159));
#144=EDGE_LOOP('',(#160));
#145=ORIENTED_EDGE('',*,*,#169,.T.);
#146=ORIENTED_EDGE('',*,*,#170,.F.);
#147=ORIENTED_EDGE('',*,*,#171,.T.);
#148=ORIENTED_EDGE('',*,*,#172,.F.);
#149=ORIENTED_EDGE('',*,*,#170,.T.);
#150=ORIENTED_EDGE('',*,*,#171,.F.);
#151=ORIENTED_EDGE('',*,*,#173,.F.);
#152=ORIENTED_EDGE('',*,*,#172,.T.);
#153=ORIENTED_EDGE('',*,*,#174,.T.);
#154=ORIENTED_EDGE('',*,*,#173,.T.);
#155=ORIENTED_EDGE('',*,*,#169,.F.);
#156=ORIENTED_EDGE('',*,*,#175,.F.);
#157=ORIENTED_EDGE('',*,*,#176,.T.);
#158=ORIENTED_EDGE('',*,*,#174,.F.);
#159=ORIENTED_EDGE('',*,*,#176,.F.);
#160=ORIENTED_EDGE('',*,*,#175,.T.);
#161=VERTEX_POINT('',#238);
#162=VERTEX_POINT('',#240);
#163=VERTEX_POINT('',#243);
#164=VERTEX_POINT('',#245);
#165=VERTEX_POINT('',#249);
#166=VERTEX_POINT('',#252);
#167=VERTEX_POINT('',#255);
#168=VERTEX_POINT('',#258);
#169=EDGE_CURVE('',#161,#161,#177,.T.);
#170=EDGE_CURVE('',#162,#162,#178,.T.);
#171=EDGE_CURVE('',#163,#163,#179,.T.);
#172=EDGE_CURVE('',#164,#164,#180,.T.);
#173=EDGE_CURVE('',#165,#165,#181,.T.);
#174=EDGE_CURVE('',#166,#166,#182,.T.);
#175=EDGE_CURVE('',#167,#167,#183,.T.);
#176=EDGE_CURVE('',#168,#168,#184,.T.);
#177=CIRCLE('',#186,23.);
#178=CIRCLE('',#187,23.);
#179=CIRCLE('',#189,12.5);
#180=CIRCLE('',#190,12.5);
#181=CIRCLE('',#193,21.);
#182=CIRCLE('',#195,21.);
#183=CIRCLE('',#197,20.);
#184=CIRCLE('',#199,20.);
#185=AXIS2_PLACEMENT_3D('',#236,#202,#203);
#186=AXIS2_PLACEMENT_3D('',#237,#204,#205);
#187=AXIS2_PLACEMENT_3D('',#239,#206,#207);
#188=AXIS2_PLACEMENT_3D('',#241,#208,#209);
#189=AXIS2_PLACEMENT_3D('',#242,#210,#211);
#190=AXIS2_PLACEMENT_3D('',#244,#212,#213);
#191=AXIS2_PLACEMENT_3D('',#246,#214,#215);
#192=AXIS2_PLACEMENT_3D('',#247,#216,#217);
#193=AXIS2_PLACEMENT_3D('',#248,#218,#219);
#194=AXIS2_PLACEMENT_3D('',#250,#220,#221);
#195=AXIS2_PLACEMENT_3D('',#251,#222,#223);
#196=AXIS2_PLACEMENT_3D('',#253,#224,#225);
#197=AXIS2_PLACEMENT_3D('',#254,#226,#227);
#198=AXIS2_PLACEMENT_3D('',#256,#228,#229);
#199=AXIS2_PLACEMENT_3D('',#257,#230,#231);
#200=AXIS2_PLACEMENT_3D('',#259,#232,#233);
#201=AXIS2_PLACEMENT_3D('',#260,#234,#235);
#202=DIRECTION('',(0.,0.,1.));
#203=DIRECTION('',(1.,0.,0.));
#204=DIRECTION('',(0.,0.,1.));
#205=DIRECTION('',(1.,0.,0.));
#206=DIRECTION('',(0.,0.,1.));
#207=DIRECTION('',(1.,0.,0.));
#208=DIRECTION('',(0.,0.,-1.));
#209=DIRECTION('',(-1.,0.,0.));
#210=DIRECTION('',(0.,0.,1.));
#211=DIRECTION('',(1.,0.,0.));
#212=DIRECTION('',(0.,0.,1.));
#213=DIRECTION('',(1.,0.,0.));
#214=DIRECTION('',(0.,0.,-1.));
#215=DIRECTION('',(-1.,0.,0.));
#216=DIRECTION('',(0.,0.,1.));
#217=DIRECTION('',(1.,0.,0.));
#218=DIRECTION('',(0.,0.,1.));
#219=DIRECTION('',(1.,0.,0.));
#220=DIRECTION('',(0.,0.,1.));
#221=DIRECTION('',(1.,0.,0.));
#222=DIRECTION('',(0.,0.,-1.));
#223=DIRECTION('',(-1.,0.,0.));
#224=DIRECTION('',(0.,0.,-1.));
#225=DIRECTION('',(-1.,0.,0.));
#226=DIRECTION('',(0.,0.,-1.));
#227=DIRECTION('',(-1.,0.,0.));
#228=DIRECTION('',(0.,0.,1.));
#229=DIRECTION('',(1.,0.,0.));
#230=DIRECTION('',(0.,0.,-1.));
#231=DIRECTION('',(-1.,0.,0.));
#232=DIRECTION('',(0.,0.,-1.));
#233=DIRECTION('',(-1.,0.,0.));
#234=DIRECTION('',(0.,0.,-1.));
#235=DIRECTION('',(-1.,0.,0.));
#236=CARTESIAN_POINT('',(0.,0.,0.));
#237=CARTESIAN_POINT('',(0.,0.,19.));
#238=CARTESIAN_POINT('',(23.,0.,19.));
#239=CARTESIAN_POINT('',(0.,0.,69.));
#240=CARTESIAN_POINT('',(23.,0.,69.));
#241=CARTESIAN_POINT('',(0.,0.,69.));
#242=CARTESIAN_POINT('',(0.,0.,69.));
#243=CARTESIAN_POINT('',(12.5,0.,69.));
#244=CARTESIAN_POINT('',(0.,0.,0.));
#245=CARTESIAN_POINT('',(12.5,0.,0.));
#246=CARTESIAN_POINT('',(0.,0.,69.));
#247=CARTESIAN_POINT('',(0.,0.,69.));
#248=CARTESIAN_POINT('',(0.,0.,0.));
#249=CARTESIAN_POINT('',(21.,0.,0.));
#250=CARTESIAN_POINT('',(0.,0.,0.));
#251=CARTESIAN_POINT('',(0.,0.,17.));
#252=CARTESIAN_POINT('',(-21.,0.,17.));
#253=CARTESIAN_POINT('',(0.,0.,19.));
#254=CARTESIAN_POINT('',(0.,0.,19.));
#255=CARTESIAN_POINT('',(-20.,0.,19.));
#256=CARTESIAN_POINT('',(0.,0.,19.));
#257=CARTESIAN_POINT('',(0.,0.,17.));
#258=CARTESIAN_POINT('',(-20.,0.,17.));
#259=CARTESIAN_POINT('',(0.,0.,17.));
#260=CARTESIAN_POINT('',(0.,0.,18.));
#261=(
GEOMETRIC_REPRESENTATION_CONTEXT(3)
GLOBAL_UNCERTAINTY_ASSIGNED_CONTEXT((#262))
GLOBAL_UNIT_ASSIGNED_CONTEXT((#268,#264,#263))
REPRESENTATION_CONTEXT('25-5B2','TOP_LEVEL_ASSEMBLY_PART')
);
#262=UNCERTAINTY_MEASURE_WITH_UNIT(LENGTH_MEASURE(2.E-005),#268,
'DISTANCE_ACCURACY_VALUE','Maximum Tolerance applied to model');
#263=(
NAMED_UNIT(*)
SI_UNIT($,.STERADIAN.)
SOLID_ANGLE_UNIT()
);
#264=(
CONVERSION_BASED_UNIT('DEGREE',#266)
NAMED_UNIT(#265)
PLANE_ANGLE_UNIT()
);
#265=DIMENSIONAL_EXPONENTS(0.,0.,0.,0.,0.,0.,0.);
#266=PLANE_ANGLE_MEASURE_WITH_UNIT(PLANE_ANGLE_MEASURE(0.0174532925),#267);
#267=(
NAMED_UNIT(*)
PLANE_ANGLE_UNIT()
SI_UNIT($,.RADIAN.)
);
#268=(
LENGTH_UNIT()
NAMED_UNIT(*)
SI_UNIT(.MILLI.,.METRE.)
);
ENDSEC;
END-ISO-10303-21;
