ISO-10303-21;
HEADER;
FILE_DESCRIPTION(('STEP AP214'),'1');
FILE_NAME('270_015_000_10.stp','2021-05-27T06:03:34',('TraceParts'),('TraceParts S.A.'),'Spatial InterOp 3D',' ',' ');
FILE_SCHEMA(('AUTOMOTIVE_DESIGN { 1 0 10303 214 1 1 1 1 }'));
ENDSEC;
DATA;
#1=PRODUCT_DEFINITION_CONTEXT('',#9,'design');
#2=APPLICATION_PROTOCOL_DEFINITION('INTERNATIONAL STANDARD','automotive_design',1994,#9);
#3=PRODUCT_CATEGORY_RELATIONSHIP('NONE','NONE',#10,#11);
#4=SHAPE_DEFINITION_REPRESENTATION(#12,#13);
#5= (GEOMETRIC_REPRESENTATION_CONTEXT(3)GLOBAL_UNCERTAINTY_ASSIGNED_CONTEXT((#16))GLOBAL_UNIT_ASSIGNED_CONTEXT((#18,#19,#20))REPRESENTATION_CONTEXT('NONE','WORKSPACE'));
#9=APPLICATION_CONTEXT(' ');
#10=PRODUCT_CATEGORY('part','NONE');
#11=PRODUCT_RELATED_PRODUCT_CATEGORY('detail',' ',(#22));
#12=PRODUCT_DEFINITION_SHAPE('NONE','NONE',#23);
#13=ADVANCED_BREP_SHAPE_REPRESENTATION('270_015_000_10',(#24,#25),#5);
#16=UNCERTAINTY_MEASURE_WITH_UNIT(LENGTH_MEASURE(1.0E-06),#18,'','');
#18= (CONVERSION_BASED_UNIT('MILLIMETRE',#28)LENGTH_UNIT()NAMED_UNIT(#31));
#19= (NAMED_UNIT(#33)PLANE_ANGLE_UNIT()SI_UNIT($,.RADIAN.));
#20= (NAMED_UNIT(#33)SOLID_ANGLE_UNIT()SI_UNIT($,.STERADIAN.));
#22=PRODUCT('270_015_000_10','270_015_000_10','PART-270_015_000_10-DESC',(#39));
#23=PRODUCT_DEFINITION('','NONE',#40,#1);
#24=MANIFOLD_SOLID_BREP('270_015_000_10',#41);
#25=AXIS2_PLACEMENT_3D('',#42,#43,#44);
#28=LENGTH_MEASURE_WITH_UNIT(LENGTH_MEASURE(1.0),#45);
#31=DIMENSIONAL_EXPONENTS(1.0,0.0,0.0,0.0,0.0,0.0,0.0);
#33=DIMENSIONAL_EXPONENTS(0.0,0.0,0.0,0.0,0.0,0.0,0.0);
#39=PRODUCT_CONTEXT('',#9,'mechanical');
#40=PRODUCT_DEFINITION_FORMATION_WITH_SPECIFIED_SOURCE(' ','NONE',#22,.NOT_KNOWN.);
#41=CLOSED_SHELL('',(#46,#47,#48,#49,#50,#51));
#42=CARTESIAN_POINT('',(0.0,0.0,0.0));
#43=DIRECTION('',(0.0,0.0,1.0));
#44=DIRECTION('',(1.0,0.0,0.0));
#45= (NAMED_UNIT(#31)LENGTH_UNIT()SI_UNIT(.MILLI.,.METRE.));
#46=ADVANCED_FACE('',(#53),#54,.T.);
#47=ADVANCED_FACE('',(#55),#56,.F.);
#48=ADVANCED_FACE('',(#57),#58,.F.);
#49=ADVANCED_FACE('',(#59),#60,.F.);
#50=ADVANCED_FACE('',(#61),#62,.F.);
#51=ADVANCED_FACE('',(#63),#64,.F.);
#53=FACE_OUTER_BOUND('',#65,.T.);
#54=PLANE('',#66);
#55=FACE_OUTER_BOUND('',#67,.T.);
#56=PLANE('',#68);
#57=FACE_OUTER_BOUND('',#69,.T.);
#58=PLANE('',#70);
#59=FACE_OUTER_BOUND('',#71,.T.);
#60=PLANE('',#72);
#61=FACE_OUTER_BOUND('',#73,.T.);
#62=PLANE('',#74);
#63=FACE_OUTER_BOUND('',#75,.T.);
#64=PLANE('',#76);
#65=EDGE_LOOP('',(#77,#78,#79,#80));
#66=AXIS2_PLACEMENT_3D('',#81,#82,#83);
#67=EDGE_LOOP('',(#84,#85,#86,#87));
#68=AXIS2_PLACEMENT_3D('',#88,#89,#90);
#69=EDGE_LOOP('',(#91,#92,#93,#94));
#70=AXIS2_PLACEMENT_3D('',#95,#96,#97);
#71=EDGE_LOOP('',(#98,#99,#100,#101));
#72=AXIS2_PLACEMENT_3D('',#102,#103,#104);
#73=EDGE_LOOP('',(#105,#106,#107,#108));
#74=AXIS2_PLACEMENT_3D('',#109,#110,#111);
#75=EDGE_LOOP('',(#112,#113,#114,#115));
#76=AXIS2_PLACEMENT_3D('',#116,#117,#118);
#77=ORIENTED_EDGE('',*,*,#119,.T.);
#78=ORIENTED_EDGE('',*,*,#120,.T.);
#79=ORIENTED_EDGE('',*,*,#121,.T.);
#80=ORIENTED_EDGE('',*,*,#122,.T.);
#81=CARTESIAN_POINT('',(0.0,15.0,10.0));
#82=DIRECTION('',(0.0,0.0,1.0));
#83=DIRECTION('',(1.0,0.0,0.0));
#84=ORIENTED_EDGE('',*,*,#123,.T.);
#85=ORIENTED_EDGE('',*,*,#124,.T.);
#86=ORIENTED_EDGE('',*,*,#125,.T.);
#87=ORIENTED_EDGE('',*,*,#126,.T.);
#88=CARTESIAN_POINT('',(0.0,15.0,0.0));
#89=DIRECTION('',(0.0,0.0,1.0));
#90=DIRECTION('',(1.0,0.0,0.0));
#91=ORIENTED_EDGE('',*,*,#127,.T.);
#92=ORIENTED_EDGE('',*,*,#124,.F.);
#93=ORIENTED_EDGE('',*,*,#128,.F.);
#94=ORIENTED_EDGE('',*,*,#122,.F.);
#95=CARTESIAN_POINT('',(0.0,0.0,5.0));
#96=DIRECTION('',(0.0,1.0,0.0));
#97=DIRECTION('',(0.0,0.0,1.0));
#98=ORIENTED_EDGE('',*,*,#129,.T.);
#99=ORIENTED_EDGE('',*,*,#125,.F.);
#100=ORIENTED_EDGE('',*,*,#127,.F.);
#101=ORIENTED_EDGE('',*,*,#121,.F.);
#102=CARTESIAN_POINT('',(-30.0,15.0,5.0));
#103=DIRECTION('',(1.0,0.0,0.0));
#104=DIRECTION('',(0.0,0.0,-1.0));
#105=ORIENTED_EDGE('',*,*,#130,.T.);
#106=ORIENTED_EDGE('',*,*,#126,.F.);
#107=ORIENTED_EDGE('',*,*,#129,.F.);
#108=ORIENTED_EDGE('',*,*,#120,.F.);
#109=CARTESIAN_POINT('',(0.0,30.0,5.0));
#110=DIRECTION('',(0.0,-1.0,0.0));
#111=DIRECTION('',(0.0,0.0,-1.0));
#112=ORIENTED_EDGE('',*,*,#128,.T.);
#113=ORIENTED_EDGE('',*,*,#123,.F.);
#114=ORIENTED_EDGE('',*,*,#130,.F.);
#115=ORIENTED_EDGE('',*,*,#119,.F.);
#116=CARTESIAN_POINT('',(30.0,15.0,5.0));
#117=DIRECTION('',(-1.0,0.0,0.0));
#118=DIRECTION('',(0.0,0.0,1.0));
#119=EDGE_CURVE('',#131,#132,#133,.T.);
#120=EDGE_CURVE('',#132,#134,#135,.T.);
#121=EDGE_CURVE('',#134,#136,#137,.T.);
#122=EDGE_CURVE('',#136,#131,#138,.T.);
#123=EDGE_CURVE('',#139,#140,#141,.T.);
#124=EDGE_CURVE('',#140,#142,#143,.T.);
#125=EDGE_CURVE('',#142,#144,#145,.T.);
#126=EDGE_CURVE('',#144,#139,#146,.T.);
#127=EDGE_CURVE('',#136,#142,#147,.T.);
#128=EDGE_CURVE('',#131,#140,#148,.T.);
#129=EDGE_CURVE('',#134,#144,#149,.T.);
#130=EDGE_CURVE('',#132,#139,#150,.T.);
#131=VERTEX_POINT('',#151);
#132=VERTEX_POINT('',#152);
#133=LINE('',#153,#154);
#134=VERTEX_POINT('',#155);
#135=LINE('',#156,#157);
#136=VERTEX_POINT('',#158);
#137=LINE('',#159,#160);
#138=LINE('',#161,#162);
#139=VERTEX_POINT('',#163);
#140=VERTEX_POINT('',#164);
#141=LINE('',#165,#166);
#142=VERTEX_POINT('',#167);
#143=LINE('',#168,#169);
#144=VERTEX_POINT('',#170);
#145=LINE('',#171,#172);
#146=LINE('',#173,#174);
#147=LINE('',#175,#176);
#148=LINE('',#177,#178);
#149=LINE('',#179,#180);
#150=LINE('',#181,#182);
#151=CARTESIAN_POINT('',(30.0,0.0,10.0));
#152=CARTESIAN_POINT('',(30.0,30.0,10.0));
#153=CARTESIAN_POINT('',(30.0,15.0,10.0));
#154=VECTOR('',#183,1.0);
#155=CARTESIAN_POINT('',(-30.0,30.0,10.0));
#156=CARTESIAN_POINT('',(0.0,30.0,10.0));
#157=VECTOR('',#184,1.0);
#158=CARTESIAN_POINT('',(-30.0,0.0,10.0));
#159=CARTESIAN_POINT('',(-30.0,15.0,10.0));
#160=VECTOR('',#185,1.0);
#161=CARTESIAN_POINT('',(0.0,0.0,10.0));
#162=VECTOR('',#186,1.0);
#163=CARTESIAN_POINT('',(30.0,30.0,0.0));
#164=CARTESIAN_POINT('',(30.0,0.0,0.0));
#165=CARTESIAN_POINT('',(30.0,15.0,0.0));
#166=VECTOR('',#187,1.0);
#167=CARTESIAN_POINT('',(-30.0,0.0,0.0));
#168=CARTESIAN_POINT('',(0.0,0.0,0.0));
#169=VECTOR('',#188,1.0);
#170=CARTESIAN_POINT('',(-30.0,30.0,0.0));
#171=CARTESIAN_POINT('',(-30.0,15.0,0.0));
#172=VECTOR('',#189,1.0);
#173=CARTESIAN_POINT('',(0.0,30.0,0.0));
#174=VECTOR('',#190,1.0);
#175=CARTESIAN_POINT('',(-30.0,0.0,5.0));
#176=VECTOR('',#191,1.0);
#177=CARTESIAN_POINT('',(30.0,0.0,5.0));
#178=VECTOR('',#192,1.0);
#179=CARTESIAN_POINT('',(-30.0,30.0,5.0));
#180=VECTOR('',#193,1.0);
#181=CARTESIAN_POINT('',(30.0,30.0,5.0));
#182=VECTOR('',#194,1.0);
#183=DIRECTION('',(0.0,1.0,0.0));
#184=DIRECTION('',(-1.0,0.0,0.0));
#185=DIRECTION('',(0.0,-1.0,0.0));
#186=DIRECTION('',(1.0,0.0,0.0));
#187=DIRECTION('',(0.0,-1.0,0.0));
#188=DIRECTION('',(-1.0,0.0,0.0));
#189=DIRECTION('',(0.0,1.0,0.0));
#190=DIRECTION('',(1.0,0.0,0.0));
#191=DIRECTION('',(0.0,0.0,-1.0));
#192=DIRECTION('',(0.0,0.0,-1.0));
#193=DIRECTION('',(0.0,0.0,-1.0));
#194=DIRECTION('',(0.0,0.0,-1.0));
ENDSEC;
END-ISO-10303-21;
