ISO-10303-21;
HEADER;
FILE_DESCRIPTION(('STEP AP203'),'1');
FILE_NAME('C:/TPO v2/SharedFS/Outgoing/pa_50_30.stp','2014-08-06T06:57:09',('TraceParts'),('TraceParts S.A.'),'XStep 1.0',' ',' ');
FILE_SCHEMA(('CONFIG_CONTROL_DESIGN'));
ENDSEC;
DATA;
#1=DESIGN_CONTEXT('',#27,'design');
#2=APPLICATION_PROTOCOL_DEFINITION('INTERNATIONAL STANDARD','config_control_design',1994,#27);
#3=PRODUCT_CATEGORY_RELATIONSHIP('NONE','NONE',#28,#29);
#4=DATE_AND_TIME(#30,#31);
#5=DATE_TIME_ROLE('creation_date');
#6=DATE_TIME_ROLE('classification_date');
#7=PERSON_AND_ORGANIZATION_ROLE('creator');
#8=PERSON_AND_ORGANIZATION_ROLE('design_supplier');
#9=PERSON_AND_ORGANIZATION_ROLE('classification_officer');
#10=PERSON_AND_ORGANIZATION_ROLE('design_owner');
#11=APPROVAL_PERSON_ORGANIZATION(#32,#33,#34);
#12=APPROVAL_DATE_TIME(#4,#33);
#13=CC_DESIGN_APPROVAL(#33,(#35,#36,#37));
#14=CC_DESIGN_DATE_AND_TIME_ASSIGNMENT(#4,#5,(#37));
#15=CC_DESIGN_DATE_AND_TIME_ASSIGNMENT(#4,#6,(#35));
#16=CC_DESIGN_PERSON_AND_ORGANIZATION_ASSIGNMENT(#32,#10,(#38));
#17=CC_DESIGN_PERSON_AND_ORGANIZATION_ASSIGNMENT(#32,#7,(#37));
#18=CC_DESIGN_PERSON_AND_ORGANIZATION_ASSIGNMENT(#32,#7,(#36));
#19=CC_DESIGN_PERSON_AND_ORGANIZATION_ASSIGNMENT(#32,#8,(#36));
#20=CC_DESIGN_SECURITY_CLASSIFICATION(#35,(#36));
#21=CC_DESIGN_PERSON_AND_ORGANIZATION_ASSIGNMENT(#32,#9,(#35));
#22=SHAPE_DEFINITION_REPRESENTATION(#39,#40);
#23= (GEOMETRIC_REPRESENTATION_CONTEXT(3)GLOBAL_UNCERTAINTY_ASSIGNED_CONTEXT((#43))GLOBAL_UNIT_ASSIGNED_CONTEXT((#45,#46,#47))REPRESENTATION_CONTEXT('NONE','WORKSPACE'));
#27=APPLICATION_CONTEXT('CONFIGURATION CONTROLLED 3D DESIGNS OF MECHANICAL PARTS AND ASSEMBLIES');
#28=PRODUCT_CATEGORY('part','NONE');
#29=PRODUCT_RELATED_PRODUCT_CATEGORY('detail',' ',(#38));
#30=CALENDAR_DATE(2014,6,7);
#31=LOCAL_TIME(8,57,9.0,#49);
#32=PERSON_AND_ORGANIZATION(#50,#51);
#33=APPROVAL(#52,'SOLID MODEL');
#34=APPROVAL_ROLE('APPROVED');
#35=SECURITY_CLASSIFICATION('','',#53);
#36=PRODUCT_DEFINITION_FORMATION_WITH_SPECIFIED_SOURCE(' ','NONE',#38,.NOT_KNOWN.);
#37=PRODUCT_DEFINITION('NONE','NONE',#36,#1);
#38=PRODUCT('1','1','PART-1-DESC',(#54));
#39=PRODUCT_DEFINITION_SHAPE('NONE','NONE',#37);
#40=ADVANCED_BREP_SHAPE_REPRESENTATION('1',(#55,#56),#23);
#43=UNCERTAINTY_MEASURE_WITH_UNIT(LENGTH_MEASURE(1.0E-006),#45,'','');
#45= (CONVERSION_BASED_UNIT('MILLIMETRE',#59)LENGTH_UNIT()NAMED_UNIT(#62));
#46= (NAMED_UNIT(#64)PLANE_ANGLE_UNIT()SI_UNIT($,.RADIAN.));
#47= (NAMED_UNIT(#64)SOLID_ANGLE_UNIT()SI_UNIT($,.STERADIAN.));
#49=COORDINATED_UNIVERSAL_TIME_OFFSET(1,0,.AHEAD.);
#50=PERSON('','UNSPECIFIED',$,$,$,$);
#51=ORGANIZATION('UNSPECIFIED','UNSPECIFIED','UNSPECIFIED');
#52=APPROVAL_STATUS('approved');
#53=SECURITY_CLASSIFICATION_LEVEL('unclassified');
#54=MECHANICAL_CONTEXT('',#27,'mechanical');
#55=MANIFOLD_SOLID_BREP('1',#70);
#56=AXIS2_PLACEMENT_3D('',#71,#72,#73);
#59=LENGTH_MEASURE_WITH_UNIT(LENGTH_MEASURE(1.0),#74);
#62=DIMENSIONAL_EXPONENTS(1.0,0.0,0.0,0.0,0.0,0.0,0.0);
#64=DIMENSIONAL_EXPONENTS(0.0,0.0,0.0,0.0,0.0,0.0,0.0);
#70=CLOSED_SHELL('',(#75,#76,#77,#78,#79,#80,#81,#82,#83,#84,#85,#86,#87,#88,#89,#90,#91,#92,#93,#94,#95,#96));
#71=CARTESIAN_POINT('',(0.0,0.0,0.0));
#72=DIRECTION('',(0.0,0.0,1.0));
#73=DIRECTION('',(1.0,0.0,0.0));
#74= (NAMED_UNIT(#62)LENGTH_UNIT()SI_UNIT(.MILLI.,.METRE.));
#75=ADVANCED_FACE('',(#98),#99,.T.);
#76=ADVANCED_FACE('',(#100),#101,.T.);
#77=ADVANCED_FACE('',(#102),#103,.T.);
#78=ADVANCED_FACE('',(#104),#105,.F.);
#79=ADVANCED_FACE('',(#106),#107,.T.);
#80=ADVANCED_FACE('',(#108),#109,.F.);
#81=ADVANCED_FACE('',(#110),#111,.T.);
#82=ADVANCED_FACE('',(#112),#113,.F.);
#83=ADVANCED_FACE('',(#114),#115,.F.);
#84=ADVANCED_FACE('',(#116),#117,.T.);
#85=ADVANCED_FACE('',(#118),#119,.F.);
#86=ADVANCED_FACE('',(#120,#121),#122,.F.);
#87=ADVANCED_FACE('',(#123,#124),#125,.T.);
#88=ADVANCED_FACE('',(#126),#127,.T.);
#89=ADVANCED_FACE('',(#128),#129,.F.);
#90=ADVANCED_FACE('',(#130,#131),#132,.F.);
#91=ADVANCED_FACE('',(#133,#134),#135,.T.);
#92=ADVANCED_FACE('',(#136),#137,.T.);
#93=ADVANCED_FACE('',(#138),#139,.T.);
#94=ADVANCED_FACE('',(#140),#141,.T.);
#95=ADVANCED_FACE('',(#142,#143),#144,.T.);
#96=ADVANCED_FACE('',(#145,#146),#147,.T.);
#98=FACE_OUTER_BOUND('',#148,.T.);
#99=CYLINDRICAL_SURFACE('',#149,25.0);
#100=FACE_OUTER_BOUND('',#150,.T.);
#101=TOROIDAL_SURFACE('',#151,24.4,0.6);
#102=FACE_OUTER_BOUND('',#152,.T.);
#103=TOROIDAL_SURFACE('',#153,24.4,0.6);
#104=FACE_OUTER_BOUND('',#154,.T.);
#105=CYLINDRICAL_SURFACE('',#155,17.5);
#106=FACE_OUTER_BOUND('',#156,.T.);
#107=CYLINDRICAL_SURFACE('',#157,17.3);
#108=FACE_OUTER_BOUND('',#158,.T.);
#109=CYLINDRICAL_SURFACE('',#159,17.5);
#110=FACE_OUTER_BOUND('',#160,.T.);
#111=CYLINDRICAL_SURFACE('',#161,17.3);
#112=FACE_OUTER_BOUND('',#162,.T.);
#113=CYLINDRICAL_SURFACE('',#163,6.0);
#114=FACE_OUTER_BOUND('',#164,.T.);
#115=CYLINDRICAL_SURFACE('',#165,6.0);
#116=FACE_OUTER_BOUND('',#166,.T.);
#117=CYLINDRICAL_SURFACE('',#167,17.3);
#118=FACE_OUTER_BOUND('',#168,.T.);
#119=CYLINDRICAL_SURFACE('',#169,17.5);
#120=FACE_BOUND('',#170,.T.);
#121=FACE_OUTER_BOUND('',#171,.T.);
#122=PLANE('',#172);
#123=FACE_BOUND('',#173,.T.);
#124=FACE_OUTER_BOUND('',#174,.T.);
#125=PLANE('',#175);
#126=FACE_OUTER_BOUND('',#176,.T.);
#127=CYLINDRICAL_SURFACE('',#177,17.3);
#128=FACE_OUTER_BOUND('',#178,.T.);
#129=CYLINDRICAL_SURFACE('',#179,17.5);
#130=FACE_BOUND('',#180,.T.);
#131=FACE_OUTER_BOUND('',#181,.T.);
#132=PLANE('',#182);
#133=FACE_BOUND('',#183,.T.);
#134=FACE_OUTER_BOUND('',#184,.T.);
#135=PLANE('',#185);
#136=FACE_OUTER_BOUND('',#186,.T.);
#137=TOROIDAL_SURFACE('',#187,24.4,0.6);
#138=FACE_OUTER_BOUND('',#188,.T.);
#139=TOROIDAL_SURFACE('',#189,24.4,0.6);
#140=FACE_OUTER_BOUND('',#190,.T.);
#141=CYLINDRICAL_SURFACE('',#191,25.0);
#142=FACE_BOUND('',#192,.T.);
#143=FACE_OUTER_BOUND('',#193,.T.);
#144=PLANE('',#194);
#145=FACE_BOUND('',#195,.T.);
#146=FACE_OUTER_BOUND('',#196,.T.);
#147=PLANE('',#197);
#148=EDGE_LOOP('',(#198,#199,#200,#201));
#149=AXIS2_PLACEMENT_3D('',#202,#203,#204);
#150=EDGE_LOOP('',(#205,#206,#207,#208));
#151=AXIS2_PLACEMENT_3D('',#209,#210,#211);
#152=EDGE_LOOP('',(#212,#213,#214,#215));
#153=AXIS2_PLACEMENT_3D('',#216,#217,#218);
#154=EDGE_LOOP('',(#219,#220,#221,#222));
#155=AXIS2_PLACEMENT_3D('',#223,#224,#225);
#156=EDGE_LOOP('',(#226,#227,#228,#229));
#157=AXIS2_PLACEMENT_3D('',#230,#231,#232);
#158=EDGE_LOOP('',(#233,#234,#235,#236));
#159=AXIS2_PLACEMENT_3D('',#237,#238,#239);
#160=EDGE_LOOP('',(#240,#241,#242,#243));
#161=AXIS2_PLACEMENT_3D('',#244,#245,#246);
#162=EDGE_LOOP('',(#247,#248,#249,#250));
#163=AXIS2_PLACEMENT_3D('',#251,#252,#253);
#164=EDGE_LOOP('',(#254,#255,#256,#257));
#165=AXIS2_PLACEMENT_3D('',#258,#259,#260);
#166=EDGE_LOOP('',(#261,#262,#263,#264));
#167=AXIS2_PLACEMENT_3D('',#265,#266,#267);
#168=EDGE_LOOP('',(#268,#269,#270,#271));
#169=AXIS2_PLACEMENT_3D('',#272,#273,#274);
#170=EDGE_LOOP('',(#275,#276));
#171=EDGE_LOOP('',(#277,#278));
#172=AXIS2_PLACEMENT_3D('',#279,#280,#281);
#173=EDGE_LOOP('',(#282,#283));
#174=EDGE_LOOP('',(#284,#285,#286));
#175=AXIS2_PLACEMENT_3D('',#287,#288,#289);
#176=EDGE_LOOP('',(#290,#291,#292,#293));
#177=AXIS2_PLACEMENT_3D('',#294,#295,#296);
#178=EDGE_LOOP('',(#297,#298,#299,#300));
#179=AXIS2_PLACEMENT_3D('',#301,#302,#303);
#180=EDGE_LOOP('',(#304,#305));
#181=EDGE_LOOP('',(#306,#307));
#182=AXIS2_PLACEMENT_3D('',#308,#309,#310);
#183=EDGE_LOOP('',(#311,#312));
#184=EDGE_LOOP('',(#313,#314,#315));
#185=AXIS2_PLACEMENT_3D('',#316,#317,#318);
#186=EDGE_LOOP('',(#319,#320,#321,#322,#323,#324));
#187=AXIS2_PLACEMENT_3D('',#325,#326,#327);
#188=EDGE_LOOP('',(#328,#329,#330,#331,#332,#333));
#189=AXIS2_PLACEMENT_3D('',#334,#335,#336);
#190=EDGE_LOOP('',(#337,#338,#339,#340,#341,#342));
#191=AXIS2_PLACEMENT_3D('',#343,#344,#345);
#192=EDGE_LOOP('',(#346,#347));
#193=EDGE_LOOP('',(#348,#349));
#194=AXIS2_PLACEMENT_3D('',#350,#351,#352);
#195=EDGE_LOOP('',(#353,#354));
#196=EDGE_LOOP('',(#355,#356));
#197=AXIS2_PLACEMENT_3D('',#357,#358,#359);
#198=ORIENTED_EDGE('',*,*,#360,.F.);
#199=ORIENTED_EDGE('',*,*,#361,.T.);
#200=ORIENTED_EDGE('',*,*,#362,.F.);
#201=ORIENTED_EDGE('',*,*,#363,.F.);
#202=CARTESIAN_POINT('',(15.0,0.0,0.0));
#203=DIRECTION('',(-1.0,0.0,0.0));
#204=DIRECTION('',(0.0,0.0,-1.0));
#205=ORIENTED_EDGE('',*,*,#364,.F.);
#206=ORIENTED_EDGE('',*,*,#363,.T.);
#207=ORIENTED_EDGE('',*,*,#365,.F.);
#208=ORIENTED_EDGE('',*,*,#366,.F.);
#209=CARTESIAN_POINT('',(29.4,-3.67381906146713E-017,0.0));
#210=DIRECTION('',(1.0,6.12303176911189E-017,0.0));
#211=DIRECTION('',(0.0,0.0,1.0));
#212=ORIENTED_EDGE('',*,*,#367,.F.);
#213=ORIENTED_EDGE('',*,*,#361,.F.);
#214=ORIENTED_EDGE('',*,*,#368,.F.);
#215=ORIENTED_EDGE('',*,*,#369,.F.);
#216=CARTESIAN_POINT('',(0.6,-3.67381906146713E-017,7.34763812293426E-017));
#217=DIRECTION('',(-1.0,6.12303176911189E-017,-1.22460635382238E-016));
#218=DIRECTION('',(1.22460635382238E-016,0.0,-1.0));
#219=ORIENTED_EDGE('',*,*,#370,.F.);
#220=ORIENTED_EDGE('',*,*,#371,.T.);
#221=ORIENTED_EDGE('',*,*,#372,.F.);
#222=ORIENTED_EDGE('',*,*,#373,.F.);
#223=CARTESIAN_POINT('',(-0.4,0.0,0.0));
#224=DIRECTION('',(-1.0,0.0,0.0));
#225=DIRECTION('',(0.0,0.0,-1.0));
#226=ORIENTED_EDGE('',*,*,#374,.F.);
#227=ORIENTED_EDGE('',*,*,#375,.F.);
#228=ORIENTED_EDGE('',*,*,#376,.F.);
#229=ORIENTED_EDGE('',*,*,#377,.T.);
#230=CARTESIAN_POINT('',(-0.4,0.0,0.0));
#231=DIRECTION('',(-1.0,0.0,0.0));
#232=DIRECTION('',(0.0,0.0,-1.0));
#233=ORIENTED_EDGE('',*,*,#378,.F.);
#234=ORIENTED_EDGE('',*,*,#379,.F.);
#235=ORIENTED_EDGE('',*,*,#380,.F.);
#236=ORIENTED_EDGE('',*,*,#381,.T.);
#237=CARTESIAN_POINT('',(30.4,0.0,0.0));
#238=DIRECTION('',(-1.0,0.0,0.0));
#239=DIRECTION('',(0.0,0.0,-1.0));
#240=ORIENTED_EDGE('',*,*,#382,.F.);
#241=ORIENTED_EDGE('',*,*,#383,.T.);
#242=ORIENTED_EDGE('',*,*,#384,.F.);
#243=ORIENTED_EDGE('',*,*,#385,.F.);
#244=CARTESIAN_POINT('',(30.4,0.0,0.0));
#245=DIRECTION('',(-1.0,0.0,0.0));
#246=DIRECTION('',(0.0,0.0,-1.0));
#247=ORIENTED_EDGE('',*,*,#386,.F.);
#248=ORIENTED_EDGE('',*,*,#387,.F.);
#249=ORIENTED_EDGE('',*,*,#388,.F.);
#250=ORIENTED_EDGE('',*,*,#389,.F.);
#251=CARTESIAN_POINT('',(15.0,0.0,0.0));
#252=DIRECTION('',(-1.0,0.0,0.0));
#253=DIRECTION('',(0.0,0.0,-1.0));
#254=ORIENTED_EDGE('',*,*,#386,.T.);
#255=ORIENTED_EDGE('',*,*,#390,.F.);
#256=ORIENTED_EDGE('',*,*,#388,.T.);
#257=ORIENTED_EDGE('',*,*,#391,.F.);
#258=CARTESIAN_POINT('',(15.0,0.0,0.0));
#259=DIRECTION('',(-1.0,0.0,0.0));
#260=DIRECTION('',(0.0,0.0,-1.0));
#261=ORIENTED_EDGE('',*,*,#382,.T.);
#262=ORIENTED_EDGE('',*,*,#392,.F.);
#263=ORIENTED_EDGE('',*,*,#384,.T.);
#264=ORIENTED_EDGE('',*,*,#393,.T.);
#265=CARTESIAN_POINT('',(30.4,0.0,0.0));
#266=DIRECTION('',(-1.0,0.0,0.0));
#267=DIRECTION('',(0.0,0.0,-1.0));
#268=ORIENTED_EDGE('',*,*,#378,.T.);
#269=ORIENTED_EDGE('',*,*,#394,.T.);
#270=ORIENTED_EDGE('',*,*,#380,.T.);
#271=ORIENTED_EDGE('',*,*,#395,.F.);
#272=CARTESIAN_POINT('',(30.4,0.0,0.0));
#273=DIRECTION('',(-1.0,0.0,0.0));
#274=DIRECTION('',(0.0,0.0,-1.0));
#275=ORIENTED_EDGE('',*,*,#383,.F.);
#276=ORIENTED_EDGE('',*,*,#393,.F.);
#277=ORIENTED_EDGE('',*,*,#394,.F.);
#278=ORIENTED_EDGE('',*,*,#381,.F.);
#279=CARTESIAN_POINT('',(29.8,0.0,0.0));
#280=DIRECTION('',(-1.0,0.0,0.0));
#281=DIRECTION('',(0.0,0.0,1.0));
#282=ORIENTED_EDGE('',*,*,#379,.T.);
#283=ORIENTED_EDGE('',*,*,#395,.T.);
#284=ORIENTED_EDGE('',*,*,#396,.T.);
#285=ORIENTED_EDGE('',*,*,#366,.T.);
#286=ORIENTED_EDGE('',*,*,#397,.T.);
#287=CARTESIAN_POINT('',(30.0,0.0,0.0));
#288=DIRECTION('',(1.0,0.0,0.0));
#289=DIRECTION('',(0.0,0.0,-1.0));
#290=ORIENTED_EDGE('',*,*,#374,.T.);
#291=ORIENTED_EDGE('',*,*,#398,.T.);
#292=ORIENTED_EDGE('',*,*,#376,.T.);
#293=ORIENTED_EDGE('',*,*,#399,.F.);
#294=CARTESIAN_POINT('',(-0.4,0.0,0.0));
#295=DIRECTION('',(-1.0,0.0,0.0));
#296=DIRECTION('',(0.0,0.0,-1.0));
#297=ORIENTED_EDGE('',*,*,#370,.T.);
#298=ORIENTED_EDGE('',*,*,#400,.F.);
#299=ORIENTED_EDGE('',*,*,#372,.T.);
#300=ORIENTED_EDGE('',*,*,#401,.T.);
#301=CARTESIAN_POINT('',(-0.4,0.0,0.0));
#302=DIRECTION('',(-1.0,0.0,0.0));
#303=DIRECTION('',(0.0,0.0,-1.0));
#304=ORIENTED_EDGE('',*,*,#398,.F.);
#305=ORIENTED_EDGE('',*,*,#377,.F.);
#306=ORIENTED_EDGE('',*,*,#371,.F.);
#307=ORIENTED_EDGE('',*,*,#401,.F.);
#308=CARTESIAN_POINT('',(0.199999999999999,0.0,0.0));
#309=DIRECTION('',(1.0,0.0,0.0));
#310=DIRECTION('',(0.0,0.0,-1.0));
#311=ORIENTED_EDGE('',*,*,#400,.T.);
#312=ORIENTED_EDGE('',*,*,#373,.T.);
#313=ORIENTED_EDGE('',*,*,#402,.T.);
#314=ORIENTED_EDGE('',*,*,#369,.T.);
#315=ORIENTED_EDGE('',*,*,#403,.T.);
#316=CARTESIAN_POINT('',(0.0,0.0,0.0));
#317=DIRECTION('',(-1.0,0.0,0.0));
#318=DIRECTION('',(0.0,0.0,1.0));
#319=ORIENTED_EDGE('',*,*,#367,.T.);
#320=ORIENTED_EDGE('',*,*,#402,.F.);
#321=ORIENTED_EDGE('',*,*,#403,.F.);
#322=ORIENTED_EDGE('',*,*,#368,.T.);
#323=ORIENTED_EDGE('',*,*,#404,.F.);
#324=ORIENTED_EDGE('',*,*,#405,.F.);
#325=CARTESIAN_POINT('',(0.6,-3.67381906146713E-017,7.34763812293426E-017));
#326=DIRECTION('',(-1.0,6.12303176911189E-017,-1.22460635382238E-016));
#327=DIRECTION('',(1.22460635382238E-016,0.0,-1.0));
#328=ORIENTED_EDGE('',*,*,#364,.T.);
#329=ORIENTED_EDGE('',*,*,#396,.F.);
#330=ORIENTED_EDGE('',*,*,#397,.F.);
#331=ORIENTED_EDGE('',*,*,#365,.T.);
#332=ORIENTED_EDGE('',*,*,#406,.T.);
#333=ORIENTED_EDGE('',*,*,#407,.T.);
#334=CARTESIAN_POINT('',(29.4,-3.67381906146713E-017,0.0));
#335=DIRECTION('',(1.0,6.12303176911189E-017,0.0));
#336=DIRECTION('',(0.0,0.0,1.0));
#337=ORIENTED_EDGE('',*,*,#360,.T.);
#338=ORIENTED_EDGE('',*,*,#407,.F.);
#339=ORIENTED_EDGE('',*,*,#406,.F.);
#340=ORIENTED_EDGE('',*,*,#362,.T.);
#341=ORIENTED_EDGE('',*,*,#405,.T.);
#342=ORIENTED_EDGE('',*,*,#404,.T.);
#343=CARTESIAN_POINT('',(15.0,0.0,0.0));
#344=DIRECTION('',(-1.0,0.0,0.0));
#345=DIRECTION('',(0.0,0.0,-1.0));
#346=ORIENTED_EDGE('',*,*,#390,.T.);
#347=ORIENTED_EDGE('',*,*,#389,.T.);
#348=ORIENTED_EDGE('',*,*,#375,.T.);
#349=ORIENTED_EDGE('',*,*,#399,.T.);
#350=CARTESIAN_POINT('',(0.0,0.0,0.0));
#351=DIRECTION('',(-1.0,0.0,0.0));
#352=DIRECTION('',(0.0,0.0,1.0));
#353=ORIENTED_EDGE('',*,*,#387,.T.);
#354=ORIENTED_EDGE('',*,*,#391,.T.);
#355=ORIENTED_EDGE('',*,*,#392,.T.);
#356=ORIENTED_EDGE('',*,*,#385,.T.);
#357=CARTESIAN_POINT('',(30.0,0.0,0.0));
#358=DIRECTION('',(1.0,0.0,0.0));
#359=DIRECTION('',(0.0,0.0,-1.0));
#360=EDGE_CURVE('',#408,#409,#410,.T.);
#361=EDGE_CURVE('',#408,#411,#412,.T.);
#362=EDGE_CURVE('',#413,#411,#414,.T.);
#363=EDGE_CURVE('',#409,#413,#415,.T.);
#364=EDGE_CURVE('',#409,#416,#417,.T.);
#365=EDGE_CURVE('',#418,#413,#419,.T.);
#366=EDGE_CURVE('',#416,#418,#420,.T.);
#367=EDGE_CURVE('',#411,#421,#422,.T.);
#368=EDGE_CURVE('',#423,#408,#424,.T.);
#369=EDGE_CURVE('',#421,#423,#425,.T.);
#370=EDGE_CURVE('',#426,#427,#428,.T.);
#371=EDGE_CURVE('',#426,#429,#430,.T.);
#372=EDGE_CURVE('',#431,#429,#432,.T.);
#373=EDGE_CURVE('',#427,#431,#433,.T.);
#374=EDGE_CURVE('',#434,#435,#436,.T.);
#375=EDGE_CURVE('',#437,#434,#438,.T.);
#376=EDGE_CURVE('',#439,#437,#440,.T.);
#377=EDGE_CURVE('',#439,#435,#441,.T.);
#378=EDGE_CURVE('',#442,#443,#444,.T.);
#379=EDGE_CURVE('',#445,#442,#446,.T.);
#380=EDGE_CURVE('',#447,#445,#448,.T.);
#381=EDGE_CURVE('',#447,#443,#449,.T.);
#382=EDGE_CURVE('',#450,#451,#452,.T.);
#383=EDGE_CURVE('',#450,#453,#454,.T.);
#384=EDGE_CURVE('',#455,#453,#456,.T.);
#385=EDGE_CURVE('',#451,#455,#457,.T.);
#386=EDGE_CURVE('',#458,#459,#460,.T.);
#387=EDGE_CURVE('',#461,#458,#462,.T.);
#388=EDGE_CURVE('',#463,#461,#464,.T.);
#389=EDGE_CURVE('',#459,#463,#465,.T.);
#390=EDGE_CURVE('',#463,#459,#466,.T.);
#391=EDGE_CURVE('',#458,#461,#467,.T.);
#392=EDGE_CURVE('',#455,#451,#468,.T.);
#393=EDGE_CURVE('',#453,#450,#469,.T.);
#394=EDGE_CURVE('',#443,#447,#470,.T.);
#395=EDGE_CURVE('',#442,#445,#471,.T.);
#396=EDGE_CURVE('',#472,#416,#473,.T.);
#397=EDGE_CURVE('',#418,#472,#474,.T.);
#398=EDGE_CURVE('',#435,#439,#475,.T.);
#399=EDGE_CURVE('',#434,#437,#476,.T.);
#400=EDGE_CURVE('',#431,#427,#477,.T.);
#401=EDGE_CURVE('',#429,#426,#478,.T.);
#402=EDGE_CURVE('',#479,#421,#480,.T.);
#403=EDGE_CURVE('',#423,#479,#481,.T.);
#404=EDGE_CURVE('',#482,#408,#483,.T.);
#405=EDGE_CURVE('',#411,#482,#484,.T.);
#406=EDGE_CURVE('',#413,#485,#486,.T.);
#407=EDGE_CURVE('',#485,#409,#487,.T.);
#408=VERTEX_POINT('',#488);
#409=VERTEX_POINT('',#489);
#410=LINE('',#490,#491);
#411=VERTEX_POINT('',#492);
#412=CIRCLE('',#493,25.0);
#413=VERTEX_POINT('',#494);
#414=LINE('',#495,#496);
#415=CIRCLE('',#497,25.0);
#416=VERTEX_POINT('',#498);
#417=CIRCLE('',#499,0.6);
#418=VERTEX_POINT('',#500);
#419=CIRCLE('',#501,0.6);
#420=CIRCLE('',#502,24.4);
#421=VERTEX_POINT('',#503);
#422=CIRCLE('',#504,0.6);
#423=VERTEX_POINT('',#505);
#424=CIRCLE('',#506,0.6);
#425=CIRCLE('',#507,24.4);
#426=VERTEX_POINT('',#508);
#427=VERTEX_POINT('',#509);
#428=LINE('',#510,#511);
#429=VERTEX_POINT('',#512);
#430=CIRCLE('',#513,17.5);
#431=VERTEX_POINT('',#514);
#432=LINE('',#515,#516);
#433=CIRCLE('',#517,17.5);
#434=VERTEX_POINT('',#518);
#435=VERTEX_POINT('',#519);
#436=LINE('',#520,#521);
#437=VERTEX_POINT('',#522);
#438=CIRCLE('',#523,17.3);
#439=VERTEX_POINT('',#524);
#440=LINE('',#525,#526);
#441=CIRCLE('',#527,17.3);
#442=VERTEX_POINT('',#528);
#443=VERTEX_POINT('',#529);
#444=LINE('',#530,#531);
#445=VERTEX_POINT('',#532);
#446=CIRCLE('',#533,17.5);
#447=VERTEX_POINT('',#534);
#448=LINE('',#535,#536);
#449=CIRCLE('',#537,17.5);
#450=VERTEX_POINT('',#538);
#451=VERTEX_POINT('',#539);
#452=LINE('',#540,#541);
#453=VERTEX_POINT('',#542);
#454=CIRCLE('',#543,17.3);
#455=VERTEX_POINT('',#544);
#456=LINE('',#545,#546);
#457=CIRCLE('',#547,17.3);
#458=VERTEX_POINT('',#548);
#459=VERTEX_POINT('',#549);
#460=LINE('',#550,#551);
#461=VERTEX_POINT('',#552);
#462=CIRCLE('',#553,6.0);
#463=VERTEX_POINT('',#554);
#464=LINE('',#555,#556);
#465=CIRCLE('',#557,6.0);
#466=CIRCLE('',#558,6.0);
#467=CIRCLE('',#559,6.0);
#468=CIRCLE('',#560,17.3);
#469=CIRCLE('',#561,17.3);
#470=CIRCLE('',#562,17.5);
#471=CIRCLE('',#563,17.5);
#472=VERTEX_POINT('',#564);
#473=CIRCLE('',#565,24.4);
#474=CIRCLE('',#566,24.4);
#475=CIRCLE('',#567,17.3);
#476=CIRCLE('',#568,17.3);
#477=CIRCLE('',#569,17.5);
#478=CIRCLE('',#570,17.5);
#479=VERTEX_POINT('',#571);
#480=CIRCLE('',#572,24.4);
#481=CIRCLE('',#573,24.4);
#482=VERTEX_POINT('',#574);
#483=CIRCLE('',#575,25.0);
#484=CIRCLE('',#576,25.0);
#485=VERTEX_POINT('',#577);
#486=CIRCLE('',#578,25.0);
#487=CIRCLE('',#579,25.0);
#488=CARTESIAN_POINT('',(0.6,3.02477769394127E-015,-25.0));
#489=CARTESIAN_POINT('',(29.4,-3.09825407517061E-015,-25.0));
#490=CARTESIAN_POINT('',(15.0,-3.06151588455594E-015,-25.0));
#491=VECTOR('',#580,1.0);
#492=CARTESIAN_POINT('',(0.6,-3.09825407517061E-015,25.0));
#493=AXIS2_PLACEMENT_3D('',#581,#582,#583);
#494=CARTESIAN_POINT('',(29.4,3.02477769394127E-015,25.0));
#495=CARTESIAN_POINT('',(15.0,3.06151588455594E-015,25.0));
#496=VECTOR('',#584,1.0);
#497=AXIS2_PLACEMENT_3D('',#585,#586,#587);
#498=CARTESIAN_POINT('',(30.0,-2.9880395033266E-015,-24.4));
#499=AXIS2_PLACEMENT_3D('',#588,#589,#590);
#500=CARTESIAN_POINT('',(30.0,2.9880395033266E-015,24.4));
#501=AXIS2_PLACEMENT_3D('',#591,#592,#593);
#502=AXIS2_PLACEMENT_3D('',#594,#595,#596);
#503=CARTESIAN_POINT('',(0.0,-2.9880395033266E-015,24.4));
#504=AXIS2_PLACEMENT_3D('',#597,#598,#599);
#505=CARTESIAN_POINT('',(0.0,2.9880395033266E-015,-24.4));
#506=AXIS2_PLACEMENT_3D('',#600,#601,#602);
#507=AXIS2_PLACEMENT_3D('',#603,#604,#605);
#508=CARTESIAN_POINT('',(0.199999999999999,0.0,-17.5));
#509=CARTESIAN_POINT('',(0.0,-2.14306111918916E-015,-17.5));
#510=CARTESIAN_POINT('',(0.0999999999999996,-2.14306111918916E-015,-17.5));
#511=VECTOR('',#606,1.0);
#512=CARTESIAN_POINT('',(0.199999999999999,2.14306111918916E-015,17.5));
#513=AXIS2_PLACEMENT_3D('',#607,#608,#609);
#514=CARTESIAN_POINT('',(0.0,-2.14306111918916E-015,17.5));
#515=CARTESIAN_POINT('',(0.0999999999999996,2.14306111918916E-015,17.5));
#516=VECTOR('',#610,1.0);
#517=AXIS2_PLACEMENT_3D('',#611,#612,#613);
#518=CARTESIAN_POINT('',(0.0,-2.11856899211271E-015,-17.3));
#519=CARTESIAN_POINT('',(0.199999999999999,0.0,-17.3));
#520=CARTESIAN_POINT('',(0.0999999999999996,-2.11856899211271E-015,-17.3));
#521=VECTOR('',#614,1.0);
#522=CARTESIAN_POINT('',(0.0,2.11856899211271E-015,17.3));
#523=AXIS2_PLACEMENT_3D('',#615,#616,#617);
#524=CARTESIAN_POINT('',(0.199999999999999,2.11856899211271E-015,17.3));
#525=CARTESIAN_POINT('',(0.0999999999999996,2.11856899211271E-015,17.3));
#526=VECTOR('',#618,1.0);
#527=AXIS2_PLACEMENT_3D('',#619,#620,#621);
#528=CARTESIAN_POINT('',(30.0,-2.14306111918916E-015,-17.5));
#529=CARTESIAN_POINT('',(29.8,0.0,-17.5));
#530=CARTESIAN_POINT('',(29.9,-2.14306111918916E-015,-17.5));
#531=VECTOR('',#622,1.0);
#532=CARTESIAN_POINT('',(30.0,2.14306111918916E-015,17.5));
#533=AXIS2_PLACEMENT_3D('',#623,#624,#625);
#534=CARTESIAN_POINT('',(29.8,2.14306111918916E-015,17.5));
#535=CARTESIAN_POINT('',(29.9,2.14306111918916E-015,17.5));
#536=VECTOR('',#626,1.0);
#537=AXIS2_PLACEMENT_3D('',#627,#628,#629);
#538=CARTESIAN_POINT('',(29.8,0.0,-17.3));
#539=CARTESIAN_POINT('',(30.0,-2.11856899211271E-015,-17.3));
#540=CARTESIAN_POINT('',(29.9,-2.11856899211271E-015,-17.3));
#541=VECTOR('',#630,1.0);
#542=CARTESIAN_POINT('',(29.8,2.11856899211271E-015,17.3));
#543=AXIS2_PLACEMENT_3D('',#631,#632,#633);
#544=CARTESIAN_POINT('',(30.0,-2.11856899211271E-015,17.3));
#545=CARTESIAN_POINT('',(29.9,2.11856899211271E-015,17.3));
#546=VECTOR('',#634,1.0);
#547=AXIS2_PLACEMENT_3D('',#635,#636,#637);
#548=CARTESIAN_POINT('',(30.0,-7.34763812293426E-016,-6.0));
#549=CARTESIAN_POINT('',(0.0,-7.34763812293426E-016,-6.0));
#550=CARTESIAN_POINT('',(15.0,-7.34763812293426E-016,-6.0));
#551=VECTOR('',#638,1.0);
#552=CARTESIAN_POINT('',(30.0,7.34763812293426E-016,6.0));
#553=AXIS2_PLACEMENT_3D('',#639,#640,#641);
#554=CARTESIAN_POINT('',(0.0,-7.34763812293426E-016,6.0));
#555=CARTESIAN_POINT('',(15.0,7.34763812293426E-016,6.0));
#556=VECTOR('',#642,1.0);
#557=AXIS2_PLACEMENT_3D('',#643,#644,#645);
#558=AXIS2_PLACEMENT_3D('',#646,#647,#648);
#559=AXIS2_PLACEMENT_3D('',#649,#650,#651);
#560=AXIS2_PLACEMENT_3D('',#652,#653,#654);
#561=AXIS2_PLACEMENT_3D('',#655,#656,#657);
#562=AXIS2_PLACEMENT_3D('',#658,#659,#660);
#563=AXIS2_PLACEMENT_3D('',#661,#662,#663);
#564=CARTESIAN_POINT('',(30.0,-24.4,0.0));
#565=AXIS2_PLACEMENT_3D('',#664,#665,#666);
#566=AXIS2_PLACEMENT_3D('',#667,#668,#669);
#567=AXIS2_PLACEMENT_3D('',#670,#671,#672);
#568=AXIS2_PLACEMENT_3D('',#673,#674,#675);
#569=AXIS2_PLACEMENT_3D('',#676,#677,#678);
#570=AXIS2_PLACEMENT_3D('',#679,#680,#681);
#571=CARTESIAN_POINT('',(-1.77635683940025E-015,-24.4,-1.82958608062301E-031));
#572=AXIS2_PLACEMENT_3D('',#682,#683,#684);
#573=AXIS2_PLACEMENT_3D('',#685,#686,#687);
#574=CARTESIAN_POINT('',(0.599999999999998,-25.0,7.34763812293424E-017));
#575=AXIS2_PLACEMENT_3D('',#688,#689,#690);
#576=AXIS2_PLACEMENT_3D('',#691,#692,#693);
#577=CARTESIAN_POINT('',(29.4,-25.0,0.0));
#578=AXIS2_PLACEMENT_3D('',#694,#695,#696);
#579=AXIS2_PLACEMENT_3D('',#697,#698,#699);
#580=DIRECTION('',(1.0,0.0,0.0));
#581=CARTESIAN_POINT('',(0.6,-3.67381906146713E-017,7.34763812293426E-017));
#582=DIRECTION('',(1.0,0.0,0.0));
#583=DIRECTION('',(0.0,0.0,-1.0));
#584=DIRECTION('',(-1.0,0.0,0.0));
#585=CARTESIAN_POINT('',(29.4,-3.67381906146713E-017,0.0));
#586=DIRECTION('',(1.0,0.0,0.0));
#587=DIRECTION('',(0.0,0.0,-1.0));
#588=CARTESIAN_POINT('',(29.4,-3.02477769394127E-015,-24.4));
#589=DIRECTION('',(6.12303176911189E-017,-1.0,1.22460635382238E-016));
#590=DIRECTION('',(7.49830360911069E-033,-1.22460635382238E-016,-1.0));
#591=CARTESIAN_POINT('',(29.4,2.95130131271193E-015,24.4));
#592=DIRECTION('',(6.12303176911189E-017,-1.0,1.22460635382238E-016));
#593=DIRECTION('',(-7.49830360911069E-033,1.22460635382238E-016,1.0));
#594=CARTESIAN_POINT('',(30.0,-4.93038065763132E-032,0.0));
#595=DIRECTION('',(1.0,0.0,0.0));
#596=DIRECTION('',(0.0,-1.0,0.0));
#597=CARTESIAN_POINT('',(0.599999999999997,-3.02477769394127E-015,24.4));
#598=DIRECTION('',(-6.12303176911188E-017,-1.0,-1.22460635382238E-016));
#599=DIRECTION('',(-1.22460635382238E-016,-1.22460635382238E-016,1.0));
#600=CARTESIAN_POINT('',(0.600000000000003,2.95130131271193E-015,-24.4));
#601=DIRECTION('',(-6.12303176911188E-017,-1.0,-1.22460635382238E-016));
#602=DIRECTION('',(1.22460635382238E-016,1.22460635382238E-016,-1.0));
#603=CARTESIAN_POINT('',(0.0,-4.93038065763132E-032,9.86076131526265E-032));
#604=DIRECTION('',(-1.0,0.0,0.0));
#605=DIRECTION('',(0.0,-1.0,-7.49830360911069E-033));
#606=DIRECTION('',(-1.0,0.0,0.0));
#607=CARTESIAN_POINT('',(0.199999999999999,0.0,0.0));
#608=DIRECTION('',(1.0,0.0,0.0));
#609=DIRECTION('',(0.0,0.0,-1.0));
#610=DIRECTION('',(1.0,0.0,0.0));
#611=CARTESIAN_POINT('',(0.0,0.0,0.0));
#612=DIRECTION('',(1.0,0.0,0.0));
#613=DIRECTION('',(0.0,0.0,-1.0));
#614=DIRECTION('',(1.0,0.0,0.0));
#615=CARTESIAN_POINT('',(0.0,0.0,0.0));
#616=DIRECTION('',(-1.0,0.0,0.0));
#617=DIRECTION('',(0.0,0.0,-1.0));
#618=DIRECTION('',(-1.0,0.0,0.0));
#619=CARTESIAN_POINT('',(0.199999999999999,0.0,0.0));
#620=DIRECTION('',(-1.0,0.0,0.0));
#621=DIRECTION('',(0.0,0.0,-1.0));
#622=DIRECTION('',(-1.0,0.0,0.0));
#623=CARTESIAN_POINT('',(30.0,0.0,0.0));
#624=DIRECTION('',(-1.0,0.0,0.0));
#625=DIRECTION('',(0.0,0.0,-1.0));
#626=DIRECTION('',(1.0,0.0,0.0));
#627=CARTESIAN_POINT('',(29.8,0.0,0.0));
#628=DIRECTION('',(-1.0,0.0,0.0));
#629=DIRECTION('',(0.0,0.0,-1.0));
#630=DIRECTION('',(1.0,0.0,0.0));
#631=CARTESIAN_POINT('',(29.8,0.0,0.0));
#632=DIRECTION('',(1.0,0.0,0.0));
#633=DIRECTION('',(0.0,0.0,-1.0));
#634=DIRECTION('',(-1.0,0.0,0.0));
#635=CARTESIAN_POINT('',(30.0,0.0,0.0));
#636=DIRECTION('',(1.0,0.0,0.0));
#637=DIRECTION('',(0.0,0.0,-1.0));
#638=DIRECTION('',(-1.0,0.0,0.0));
#639=CARTESIAN_POINT('',(30.0,0.0,0.0));
#640=DIRECTION('',(-1.0,0.0,0.0));
#641=DIRECTION('',(0.0,0.0,-1.0));
#642=DIRECTION('',(1.0,0.0,0.0));
#643=CARTESIAN_POINT('',(0.0,0.0,0.0));
#644=DIRECTION('',(1.0,0.0,0.0));
#645=DIRECTION('',(0.0,0.0,-1.0));
#646=CARTESIAN_POINT('',(0.0,0.0,0.0));
#647=DIRECTION('',(1.0,0.0,0.0));
#648=DIRECTION('',(0.0,0.0,-1.0));
#649=CARTESIAN_POINT('',(30.0,0.0,0.0));
#650=DIRECTION('',(-1.0,0.0,0.0));
#651=DIRECTION('',(0.0,0.0,-1.0));
#652=CARTESIAN_POINT('',(30.0,0.0,0.0));
#653=DIRECTION('',(1.0,0.0,0.0));
#654=DIRECTION('',(0.0,0.0,-1.0));
#655=CARTESIAN_POINT('',(29.8,0.0,0.0));
#656=DIRECTION('',(1.0,0.0,0.0));
#657=DIRECTION('',(0.0,0.0,-1.0));
#658=CARTESIAN_POINT('',(29.8,0.0,0.0));
#659=DIRECTION('',(-1.0,0.0,0.0));
#660=DIRECTION('',(0.0,0.0,-1.0));
#661=CARTESIAN_POINT('',(30.0,0.0,0.0));
#662=DIRECTION('',(-1.0,0.0,0.0));
#663=DIRECTION('',(0.0,0.0,-1.0));
#664=CARTESIAN_POINT('',(30.0,-4.93038065763132E-032,0.0));
#665=DIRECTION('',(1.0,0.0,0.0));
#666=DIRECTION('',(0.0,-1.0,0.0));
#667=CARTESIAN_POINT('',(30.0,-4.93038065763132E-032,0.0));
#668=DIRECTION('',(1.0,0.0,0.0));
#669=DIRECTION('',(0.0,-1.0,0.0));
#670=CARTESIAN_POINT('',(0.199999999999999,0.0,0.0));
#671=DIRECTION('',(-1.0,0.0,0.0));
#672=DIRECTION('',(0.0,0.0,-1.0));
#673=CARTESIAN_POINT('',(0.0,0.0,0.0));
#674=DIRECTION('',(-1.0,0.0,0.0));
#675=DIRECTION('',(0.0,0.0,-1.0));
#676=CARTESIAN_POINT('',(0.0,0.0,0.0));
#677=DIRECTION('',(1.0,0.0,0.0));
#678=DIRECTION('',(0.0,0.0,-1.0));
#679=CARTESIAN_POINT('',(0.199999999999999,0.0,0.0));
#680=DIRECTION('',(1.0,0.0,0.0));
#681=DIRECTION('',(0.0,0.0,-1.0));
#682=CARTESIAN_POINT('',(0.0,-4.93038065763132E-032,9.86076131526265E-032));
#683=DIRECTION('',(-1.0,0.0,0.0));
#684=DIRECTION('',(0.0,-1.0,-7.49830360911069E-033));
#685=CARTESIAN_POINT('',(0.0,-4.93038065763132E-032,9.86076131526265E-032));
#686=DIRECTION('',(-1.0,0.0,0.0));
#687=DIRECTION('',(0.0,-1.0,-7.49830360911069E-033));
#688=CARTESIAN_POINT('',(0.6,-3.67381906146713E-017,7.34763812293426E-017));
#689=DIRECTION('',(1.0,0.0,0.0));
#690=DIRECTION('',(0.0,0.0,-1.0));
#691=CARTESIAN_POINT('',(0.6,-3.67381906146713E-017,7.34763812293426E-017));
#692=DIRECTION('',(1.0,0.0,0.0));
#693=DIRECTION('',(0.0,0.0,-1.0));
#694=CARTESIAN_POINT('',(29.4,-3.67381906146713E-017,0.0));
#695=DIRECTION('',(1.0,0.0,0.0));
#696=DIRECTION('',(0.0,0.0,-1.0));
#697=CARTESIAN_POINT('',(29.4,-3.67381906146713E-017,0.0));
#698=DIRECTION('',(1.0,0.0,0.0));
#699=DIRECTION('',(0.0,0.0,-1.0));
ENDSEC;
END-ISO-10303-21;
