ISO-10303-21;
HEADER;
FILE_DESCRIPTION(('STEP AP203'),'1');
FILE_NAME('C:/TPO v2/SharedFS/Outgoing/pa_179_50.stp','2014-08-06T06:57:28',('TraceParts'),('TraceParts S.A.'),'XStep 1.0',' ',' ');
FILE_SCHEMA(('CONFIG_CONTROL_DESIGN'));
ENDSEC;
DATA;
#1=DESIGN_CONTEXT('',#27,'design');
#2=APPLICATION_PROTOCOL_DEFINITION('INTERNATIONAL STANDARD','config_control_design',1994,#27);
#3=PRODUCT_CATEGORY_RELATIONSHIP('NONE','NONE',#28,#29);
#4=DATE_AND_TIME(#30,#31);
#5=DATE_TIME_ROLE('creation_date');
#6=DATE_TIME_ROLE('classification_date');
#7=PERSON_AND_ORGANIZATION_ROLE('creator');
#8=PERSON_AND_ORGANIZATION_ROLE('design_supplier');
#9=PERSON_AND_ORGANIZATION_ROLE('classification_officer');
#10=PERSON_AND_ORGANIZATION_ROLE('design_owner');
#11=APPROVAL_PERSON_ORGANIZATION(#32,#33,#34);
#12=APPROVAL_DATE_TIME(#4,#33);
#13=CC_DESIGN_APPROVAL(#33,(#35,#36,#37));
#14=CC_DESIGN_DATE_AND_TIME_ASSIGNMENT(#4,#5,(#37));
#15=CC_DESIGN_DATE_AND_TIME_ASSIGNMENT(#4,#6,(#35));
#16=CC_DESIGN_PERSON_AND_ORGANIZATION_ASSIGNMENT(#32,#10,(#38));
#17=CC_DESIGN_PERSON_AND_ORGANIZATION_ASSIGNMENT(#32,#7,(#37));
#18=CC_DESIGN_PERSON_AND_ORGANIZATION_ASSIGNMENT(#32,#7,(#36));
#19=CC_DESIGN_PERSON_AND_ORGANIZATION_ASSIGNMENT(#32,#8,(#36));
#20=CC_DESIGN_SECURITY_CLASSIFICATION(#35,(#36));
#21=CC_DESIGN_PERSON_AND_ORGANIZATION_ASSIGNMENT(#32,#9,(#35));
#22=SHAPE_DEFINITION_REPRESENTATION(#39,#40);
#23= (GEOMETRIC_REPRESENTATION_CONTEXT(3)GLOBAL_UNCERTAINTY_ASSIGNED_CONTEXT((#43))GLOBAL_UNIT_ASSIGNED_CONTEXT((#45,#46,#47))REPRESENTATION_CONTEXT('NONE','WORKSPACE'));
#27=APPLICATION_CONTEXT('CONFIGURATION CONTROLLED 3D DESIGNS OF MECHANICAL PARTS AND ASSEMBLIES');
#28=PRODUCT_CATEGORY('part','NONE');
#29=PRODUCT_RELATED_PRODUCT_CATEGORY('detail',' ',(#38));
#30=CALENDAR_DATE(2014,6,7);
#31=LOCAL_TIME(8,57,28.0,#49);
#32=PERSON_AND_ORGANIZATION(#50,#51);
#33=APPROVAL(#52,'SOLID MODEL');
#34=APPROVAL_ROLE('APPROVED');
#35=SECURITY_CLASSIFICATION('','',#53);
#36=PRODUCT_DEFINITION_FORMATION_WITH_SPECIFIED_SOURCE(' ','NONE',#38,.NOT_KNOWN.);
#37=PRODUCT_DEFINITION('NONE','NONE',#36,#1);
#38=PRODUCT('1','1','PART-1-DESC',(#54));
#39=PRODUCT_DEFINITION_SHAPE('NONE','NONE',#37);
#40=ADVANCED_BREP_SHAPE_REPRESENTATION('1',(#55,#56),#23);
#43=UNCERTAINTY_MEASURE_WITH_UNIT(LENGTH_MEASURE(1.0E-006),#45,'','');
#45= (CONVERSION_BASED_UNIT('MILLIMETRE',#59)LENGTH_UNIT()NAMED_UNIT(#62));
#46= (NAMED_UNIT(#64)PLANE_ANGLE_UNIT()SI_UNIT($,.RADIAN.));
#47= (NAMED_UNIT(#64)SOLID_ANGLE_UNIT()SI_UNIT($,.STERADIAN.));
#49=COORDINATED_UNIVERSAL_TIME_OFFSET(1,0,.AHEAD.);
#50=PERSON('','UNSPECIFIED',$,$,$,$);
#51=ORGANIZATION('UNSPECIFIED','UNSPECIFIED','UNSPECIFIED');
#52=APPROVAL_STATUS('approved');
#53=SECURITY_CLASSIFICATION_LEVEL('unclassified');
#54=MECHANICAL_CONTEXT('',#27,'mechanical');
#55=MANIFOLD_SOLID_BREP('1',#70);
#56=AXIS2_PLACEMENT_3D('',#71,#72,#73);
#59=LENGTH_MEASURE_WITH_UNIT(LENGTH_MEASURE(1.0),#74);
#62=DIMENSIONAL_EXPONENTS(1.0,0.0,0.0,0.0,0.0,0.0,0.0);
#64=DIMENSIONAL_EXPONENTS(0.0,0.0,0.0,0.0,0.0,0.0,0.0);
#70=CLOSED_SHELL('',(#75,#76,#77,#78,#79,#80,#81,#82,#83,#84,#85,#86,#87,#88,#89,#90));
#71=CARTESIAN_POINT('',(0.0,0.0,0.0));
#72=DIRECTION('',(0.0,0.0,1.0));
#73=DIRECTION('',(1.0,0.0,0.0));
#74= (NAMED_UNIT(#62)LENGTH_UNIT()SI_UNIT(.MILLI.,.METRE.));
#75=ADVANCED_FACE('',(#92),#93,.T.);
#76=ADVANCED_FACE('',(#94),#95,.T.);
#77=ADVANCED_FACE('',(#96),#97,.T.);
#78=ADVANCED_FACE('',(#98),#99,.F.);
#79=ADVANCED_FACE('',(#100),#101,.F.);
#80=ADVANCED_FACE('',(#102),#103,.F.);
#81=ADVANCED_FACE('',(#104),#105,.F.);
#82=ADVANCED_FACE('',(#106,#107),#108,.T.);
#83=ADVANCED_FACE('',(#109,#110),#111,.T.);
#84=ADVANCED_FACE('',(#112),#113,.F.);
#85=ADVANCED_FACE('',(#114),#115,.F.);
#86=ADVANCED_FACE('',(#116),#117,.T.);
#87=ADVANCED_FACE('',(#118),#119,.T.);
#88=ADVANCED_FACE('',(#120),#121,.T.);
#89=ADVANCED_FACE('',(#122,#123),#124,.T.);
#90=ADVANCED_FACE('',(#125,#126),#127,.T.);
#92=FACE_OUTER_BOUND('',#128,.T.);
#93=CYLINDRICAL_SURFACE('',#129,89.6);
#94=FACE_OUTER_BOUND('',#130,.T.);
#95=TOROIDAL_SURFACE('',#131,88.6,1.0);
#96=FACE_OUTER_BOUND('',#132,.T.);
#97=TOROIDAL_SURFACE('',#133,88.6,1.0);
#98=FACE_OUTER_BOUND('',#134,.T.);
#99=CYLINDRICAL_SURFACE('',#135,62.72);
#100=FACE_OUTER_BOUND('',#136,.T.);
#101=CYLINDRICAL_SURFACE('',#137,62.72);
#102=FACE_OUTER_BOUND('',#138,.T.);
#103=CYLINDRICAL_SURFACE('',#139,20.0);
#104=FACE_OUTER_BOUND('',#140,.T.);
#105=CYLINDRICAL_SURFACE('',#141,20.0);
#106=FACE_BOUND('',#142,.T.);
#107=FACE_OUTER_BOUND('',#143,.T.);
#108=PLANE('',#144);
#109=FACE_BOUND('',#145,.T.);
#110=FACE_OUTER_BOUND('',#146,.T.);
#111=PLANE('',#147);
#112=FACE_OUTER_BOUND('',#148,.T.);
#113=CYLINDRICAL_SURFACE('',#149,62.72);
#114=FACE_OUTER_BOUND('',#150,.T.);
#115=CYLINDRICAL_SURFACE('',#151,62.72);
#116=FACE_OUTER_BOUND('',#152,.T.);
#117=TOROIDAL_SURFACE('',#153,88.6,1.0);
#118=FACE_OUTER_BOUND('',#154,.T.);
#119=TOROIDAL_SURFACE('',#155,88.6,1.0);
#120=FACE_OUTER_BOUND('',#156,.T.);
#121=CYLINDRICAL_SURFACE('',#157,89.6);
#122=FACE_BOUND('',#158,.T.);
#123=FACE_OUTER_BOUND('',#159,.T.);
#124=PLANE('',#160);
#125=FACE_BOUND('',#161,.T.);
#126=FACE_OUTER_BOUND('',#162,.T.);
#127=PLANE('',#163);
#128=EDGE_LOOP('',(#164,#165,#166,#167));
#129=AXIS2_PLACEMENT_3D('',#168,#169,#170);
#130=EDGE_LOOP('',(#171,#172,#173,#174));
#131=AXIS2_PLACEMENT_3D('',#175,#176,#177);
#132=EDGE_LOOP('',(#178,#179,#180,#181));
#133=AXIS2_PLACEMENT_3D('',#182,#183,#184);
#134=EDGE_LOOP('',(#185,#186,#187,#188));
#135=AXIS2_PLACEMENT_3D('',#189,#190,#191);
#136=EDGE_LOOP('',(#192,#193,#194,#195));
#137=AXIS2_PLACEMENT_3D('',#196,#197,#198);
#138=EDGE_LOOP('',(#199,#200,#201,#202));
#139=AXIS2_PLACEMENT_3D('',#203,#204,#205);
#140=EDGE_LOOP('',(#206,#207,#208,#209));
#141=AXIS2_PLACEMENT_3D('',#210,#211,#212);
#142=EDGE_LOOP('',(#213,#214));
#143=EDGE_LOOP('',(#215,#216));
#144=AXIS2_PLACEMENT_3D('',#217,#218,#219);
#145=EDGE_LOOP('',(#220,#221));
#146=EDGE_LOOP('',(#222,#223));
#147=AXIS2_PLACEMENT_3D('',#224,#225,#226);
#148=EDGE_LOOP('',(#227,#228,#229,#230));
#149=AXIS2_PLACEMENT_3D('',#231,#232,#233);
#150=EDGE_LOOP('',(#234,#235,#236,#237));
#151=AXIS2_PLACEMENT_3D('',#238,#239,#240);
#152=EDGE_LOOP('',(#241,#242,#243,#244,#245,#246));
#153=AXIS2_PLACEMENT_3D('',#247,#248,#249);
#154=EDGE_LOOP('',(#250,#251,#252,#253,#254,#255));
#155=AXIS2_PLACEMENT_3D('',#256,#257,#258);
#156=EDGE_LOOP('',(#259,#260,#261,#262,#263,#264));
#157=AXIS2_PLACEMENT_3D('',#265,#266,#267);
#158=EDGE_LOOP('',(#268,#269));
#159=EDGE_LOOP('',(#270,#271,#272));
#160=AXIS2_PLACEMENT_3D('',#273,#274,#275);
#161=EDGE_LOOP('',(#276,#277));
#162=EDGE_LOOP('',(#278,#279,#280));
#163=AXIS2_PLACEMENT_3D('',#281,#282,#283);
#164=ORIENTED_EDGE('',*,*,#284,.F.);
#165=ORIENTED_EDGE('',*,*,#285,.T.);
#166=ORIENTED_EDGE('',*,*,#286,.F.);
#167=ORIENTED_EDGE('',*,*,#287,.F.);
#168=CARTESIAN_POINT('',(25.0,0.0,0.0));
#169=DIRECTION('',(-1.0,0.0,0.0));
#170=DIRECTION('',(0.0,0.0,-1.0));
#171=ORIENTED_EDGE('',*,*,#288,.F.);
#172=ORIENTED_EDGE('',*,*,#287,.T.);
#173=ORIENTED_EDGE('',*,*,#289,.F.);
#174=ORIENTED_EDGE('',*,*,#290,.F.);
#175=CARTESIAN_POINT('',(49.0,-6.12303176911189E-017,0.0));
#176=DIRECTION('',(1.0,6.12303176911189E-017,0.0));
#177=DIRECTION('',(0.0,0.0,1.0));
#178=ORIENTED_EDGE('',*,*,#291,.F.);
#179=ORIENTED_EDGE('',*,*,#285,.F.);
#180=ORIENTED_EDGE('',*,*,#292,.F.);
#181=ORIENTED_EDGE('',*,*,#293,.F.);
#182=CARTESIAN_POINT('',(1.0,-6.12303176911189E-017,1.22460635382238E-016));
#183=DIRECTION('',(-1.0,6.12303176911189E-017,-1.22460635382238E-016));
#184=DIRECTION('',(1.22460635382238E-016,0.0,-1.0));
#185=ORIENTED_EDGE('',*,*,#294,.F.);
#186=ORIENTED_EDGE('',*,*,#295,.T.);
#187=ORIENTED_EDGE('',*,*,#296,.F.);
#188=ORIENTED_EDGE('',*,*,#297,.F.);
#189=CARTESIAN_POINT('',(25.0,0.0,0.0));
#190=DIRECTION('',(-1.0,0.0,0.0));
#191=DIRECTION('',(0.0,0.0,-1.0));
#192=ORIENTED_EDGE('',*,*,#298,.F.);
#193=ORIENTED_EDGE('',*,*,#299,.F.);
#194=ORIENTED_EDGE('',*,*,#300,.F.);
#195=ORIENTED_EDGE('',*,*,#301,.T.);
#196=CARTESIAN_POINT('',(25.0,0.0,0.0));
#197=DIRECTION('',(-1.0,0.0,0.0));
#198=DIRECTION('',(0.0,0.0,-1.0));
#199=ORIENTED_EDGE('',*,*,#302,.F.);
#200=ORIENTED_EDGE('',*,*,#303,.F.);
#201=ORIENTED_EDGE('',*,*,#304,.F.);
#202=ORIENTED_EDGE('',*,*,#305,.F.);
#203=CARTESIAN_POINT('',(25.0,0.0,0.0));
#204=DIRECTION('',(-1.0,0.0,0.0));
#205=DIRECTION('',(0.0,0.0,-1.0));
#206=ORIENTED_EDGE('',*,*,#302,.T.);
#207=ORIENTED_EDGE('',*,*,#306,.F.);
#208=ORIENTED_EDGE('',*,*,#304,.T.);
#209=ORIENTED_EDGE('',*,*,#307,.F.);
#210=CARTESIAN_POINT('',(25.0,0.0,0.0));
#211=DIRECTION('',(-1.0,0.0,0.0));
#212=DIRECTION('',(0.0,0.0,-1.0));
#213=ORIENTED_EDGE('',*,*,#306,.T.);
#214=ORIENTED_EDGE('',*,*,#305,.T.);
#215=ORIENTED_EDGE('',*,*,#295,.F.);
#216=ORIENTED_EDGE('',*,*,#308,.F.);
#217=CARTESIAN_POINT('',(5.0,0.0,0.0));
#218=DIRECTION('',(-1.0,0.0,0.0));
#219=DIRECTION('',(0.0,0.0,1.0));
#220=ORIENTED_EDGE('',*,*,#303,.T.);
#221=ORIENTED_EDGE('',*,*,#307,.T.);
#222=ORIENTED_EDGE('',*,*,#309,.F.);
#223=ORIENTED_EDGE('',*,*,#301,.F.);
#224=CARTESIAN_POINT('',(45.0,0.0,0.0));
#225=DIRECTION('',(1.0,0.0,0.0));
#226=DIRECTION('',(0.0,0.0,-1.0));
#227=ORIENTED_EDGE('',*,*,#298,.T.);
#228=ORIENTED_EDGE('',*,*,#309,.T.);
#229=ORIENTED_EDGE('',*,*,#300,.T.);
#230=ORIENTED_EDGE('',*,*,#310,.F.);
#231=CARTESIAN_POINT('',(25.0,0.0,0.0));
#232=DIRECTION('',(-1.0,0.0,0.0));
#233=DIRECTION('',(0.0,0.0,-1.0));
#234=ORIENTED_EDGE('',*,*,#294,.T.);
#235=ORIENTED_EDGE('',*,*,#311,.F.);
#236=ORIENTED_EDGE('',*,*,#296,.T.);
#237=ORIENTED_EDGE('',*,*,#308,.T.);
#238=CARTESIAN_POINT('',(25.0,0.0,0.0));
#239=DIRECTION('',(-1.0,0.0,0.0));
#240=DIRECTION('',(0.0,0.0,-1.0));
#241=ORIENTED_EDGE('',*,*,#291,.T.);
#242=ORIENTED_EDGE('',*,*,#312,.F.);
#243=ORIENTED_EDGE('',*,*,#313,.F.);
#244=ORIENTED_EDGE('',*,*,#292,.T.);
#245=ORIENTED_EDGE('',*,*,#314,.F.);
#246=ORIENTED_EDGE('',*,*,#315,.F.);
#247=CARTESIAN_POINT('',(1.0,-6.12303176911189E-017,1.22460635382238E-016));
#248=DIRECTION('',(-1.0,6.12303176911189E-017,-1.22460635382238E-016));
#249=DIRECTION('',(1.22460635382238E-016,0.0,-1.0));
#250=ORIENTED_EDGE('',*,*,#288,.T.);
#251=ORIENTED_EDGE('',*,*,#316,.F.);
#252=ORIENTED_EDGE('',*,*,#317,.F.);
#253=ORIENTED_EDGE('',*,*,#289,.T.);
#254=ORIENTED_EDGE('',*,*,#318,.T.);
#255=ORIENTED_EDGE('',*,*,#319,.T.);
#256=CARTESIAN_POINT('',(49.0,-6.12303176911189E-017,0.0));
#257=DIRECTION('',(1.0,6.12303176911189E-017,0.0));
#258=DIRECTION('',(0.0,0.0,1.0));
#259=ORIENTED_EDGE('',*,*,#284,.T.);
#260=ORIENTED_EDGE('',*,*,#319,.F.);
#261=ORIENTED_EDGE('',*,*,#318,.F.);
#262=ORIENTED_EDGE('',*,*,#286,.T.);
#263=ORIENTED_EDGE('',*,*,#315,.T.);
#264=ORIENTED_EDGE('',*,*,#314,.T.);
#265=CARTESIAN_POINT('',(25.0,0.0,0.0));
#266=DIRECTION('',(-1.0,0.0,0.0));
#267=DIRECTION('',(0.0,0.0,-1.0));
#268=ORIENTED_EDGE('',*,*,#311,.T.);
#269=ORIENTED_EDGE('',*,*,#297,.T.);
#270=ORIENTED_EDGE('',*,*,#312,.T.);
#271=ORIENTED_EDGE('',*,*,#293,.T.);
#272=ORIENTED_EDGE('',*,*,#313,.T.);
#273=CARTESIAN_POINT('',(0.0,0.0,0.0));
#274=DIRECTION('',(-1.0,0.0,0.0));
#275=DIRECTION('',(0.0,0.0,1.0));
#276=ORIENTED_EDGE('',*,*,#299,.T.);
#277=ORIENTED_EDGE('',*,*,#310,.T.);
#278=ORIENTED_EDGE('',*,*,#316,.T.);
#279=ORIENTED_EDGE('',*,*,#290,.T.);
#280=ORIENTED_EDGE('',*,*,#317,.T.);
#281=CARTESIAN_POINT('',(50.0,0.0,0.0));
#282=DIRECTION('',(1.0,0.0,0.0));
#283=DIRECTION('',(0.0,0.0,-1.0));
#284=EDGE_CURVE('',#320,#321,#322,.T.);
#285=EDGE_CURVE('',#320,#323,#324,.T.);
#286=EDGE_CURVE('',#325,#323,#326,.T.);
#287=EDGE_CURVE('',#321,#325,#327,.T.);
#288=EDGE_CURVE('',#321,#328,#329,.T.);
#289=EDGE_CURVE('',#330,#325,#331,.T.);
#290=EDGE_CURVE('',#328,#330,#332,.T.);
#291=EDGE_CURVE('',#323,#333,#334,.T.);
#292=EDGE_CURVE('',#335,#320,#336,.T.);
#293=EDGE_CURVE('',#333,#335,#337,.T.);
#294=EDGE_CURVE('',#338,#339,#340,.T.);
#295=EDGE_CURVE('',#338,#341,#342,.T.);
#296=EDGE_CURVE('',#343,#341,#344,.T.);
#297=EDGE_CURVE('',#339,#343,#345,.T.);
#298=EDGE_CURVE('',#346,#347,#348,.T.);
#299=EDGE_CURVE('',#349,#346,#350,.T.);
#300=EDGE_CURVE('',#351,#349,#352,.T.);
#301=EDGE_CURVE('',#351,#347,#353,.T.);
#302=EDGE_CURVE('',#354,#355,#356,.T.);
#303=EDGE_CURVE('',#357,#354,#358,.T.);
#304=EDGE_CURVE('',#359,#357,#360,.T.);
#305=EDGE_CURVE('',#355,#359,#361,.T.);
#306=EDGE_CURVE('',#359,#355,#362,.T.);
#307=EDGE_CURVE('',#354,#357,#363,.T.);
#308=EDGE_CURVE('',#341,#338,#364,.T.);
#309=EDGE_CURVE('',#347,#351,#365,.T.);
#310=EDGE_CURVE('',#346,#349,#366,.T.);
#311=EDGE_CURVE('',#343,#339,#367,.T.);
#312=EDGE_CURVE('',#368,#333,#369,.T.);
#313=EDGE_CURVE('',#335,#368,#370,.T.);
#314=EDGE_CURVE('',#371,#320,#372,.T.);
#315=EDGE_CURVE('',#323,#371,#373,.T.);
#316=EDGE_CURVE('',#374,#328,#375,.T.);
#317=EDGE_CURVE('',#330,#374,#376,.T.);
#318=EDGE_CURVE('',#325,#377,#378,.T.);
#319=EDGE_CURVE('',#377,#321,#379,.T.);
#320=VERTEX_POINT('',#380);
#321=VERTEX_POINT('',#381);
#322=LINE('',#382,#383);
#323=VERTEX_POINT('',#384);
#324=CIRCLE('',#385,89.6);
#325=VERTEX_POINT('',#386);
#326=LINE('',#387,#388);
#327=CIRCLE('',#389,89.6);
#328=VERTEX_POINT('',#390);
#329=CIRCLE('',#391,1.0);
#330=VERTEX_POINT('',#392);
#331=CIRCLE('',#393,1.0);
#332=CIRCLE('',#394,88.6);
#333=VERTEX_POINT('',#395);
#334=CIRCLE('',#396,1.0);
#335=VERTEX_POINT('',#397);
#336=CIRCLE('',#398,1.0);
#337=CIRCLE('',#399,88.6);
#338=VERTEX_POINT('',#400);
#339=VERTEX_POINT('',#401);
#340=LINE('',#402,#403);
#341=VERTEX_POINT('',#404);
#342=CIRCLE('',#405,62.72);
#343=VERTEX_POINT('',#406);
#344=LINE('',#407,#408);
#345=CIRCLE('',#409,62.72);
#346=VERTEX_POINT('',#410);
#347=VERTEX_POINT('',#411);
#348=LINE('',#412,#413);
#349=VERTEX_POINT('',#414);
#350=CIRCLE('',#415,62.72);
#351=VERTEX_POINT('',#416);
#352=LINE('',#417,#418);
#353=CIRCLE('',#419,62.72);
#354=VERTEX_POINT('',#420);
#355=VERTEX_POINT('',#421);
#356=LINE('',#422,#423);
#357=VERTEX_POINT('',#424);
#358=CIRCLE('',#425,20.0);
#359=VERTEX_POINT('',#426);
#360=LINE('',#427,#428);
#361=CIRCLE('',#429,20.0);
#362=CIRCLE('',#430,20.0);
#363=CIRCLE('',#431,20.0);
#364=CIRCLE('',#432,62.72);
#365=CIRCLE('',#433,62.72);
#366=CIRCLE('',#434,62.72);
#367=CIRCLE('',#435,62.72);
#368=VERTEX_POINT('',#436);
#369=CIRCLE('',#437,88.6);
#370=CIRCLE('',#438,88.6);
#371=VERTEX_POINT('',#439);
#372=CIRCLE('',#440,89.6);
#373=CIRCLE('',#441,89.6);
#374=VERTEX_POINT('',#442);
#375=CIRCLE('',#443,88.6);
#376=CIRCLE('',#444,88.6);
#377=VERTEX_POINT('',#445);
#378=CIRCLE('',#446,89.6);
#379=CIRCLE('',#447,89.6);
#380=CARTESIAN_POINT('',(1.0,1.09112426125574E-014,-89.6));
#381=CARTESIAN_POINT('',(49.0,-1.10337032479396E-014,-89.6));
#382=CARTESIAN_POINT('',(25.0,-1.09724729302485E-014,-89.6));
#383=VECTOR('',#448,1.0);
#384=CARTESIAN_POINT('',(1.0,-1.10337032479396E-014,89.6));
#385=AXIS2_PLACEMENT_3D('',#449,#450,#451);
#386=CARTESIAN_POINT('',(49.0,1.09112426125574E-014,89.6));
#387=CARTESIAN_POINT('',(25.0,1.09724729302485E-014,89.6));
#388=VECTOR('',#452,1.0);
#389=AXIS2_PLACEMENT_3D('',#453,#454,#455);
#390=CARTESIAN_POINT('',(50.0,-1.08500122948663E-014,-88.6));
#391=AXIS2_PLACEMENT_3D('',#456,#457,#458);
#392=CARTESIAN_POINT('',(50.0,1.08500122948663E-014,88.6));
#393=AXIS2_PLACEMENT_3D('',#459,#460,#461);
#394=AXIS2_PLACEMENT_3D('',#462,#463,#464);
#395=CARTESIAN_POINT('',(0.0,-1.08500122948663E-014,88.6));
#396=AXIS2_PLACEMENT_3D('',#465,#466,#467);
#397=CARTESIAN_POINT('',(0.0,1.08500122948663E-014,-88.6));
#398=AXIS2_PLACEMENT_3D('',#468,#469,#470);
#399=AXIS2_PLACEMENT_3D('',#471,#472,#473);
#400=CARTESIAN_POINT('',(5.0,0.0,-62.72));
#401=CARTESIAN_POINT('',(0.0,-7.68073105117395E-015,-62.72));
#402=CARTESIAN_POINT('',(2.5,-7.68073105117395E-015,-62.72));
#403=VECTOR('',#474,1.0);
#404=CARTESIAN_POINT('',(5.0,7.68073105117395E-015,62.72));
#405=AXIS2_PLACEMENT_3D('',#475,#476,#477);
#406=CARTESIAN_POINT('',(0.0,-7.68073105117395E-015,62.72));
#407=CARTESIAN_POINT('',(2.5,7.68073105117395E-015,62.72));
#408=VECTOR('',#478,1.0);
#409=AXIS2_PLACEMENT_3D('',#479,#480,#481);
#410=CARTESIAN_POINT('',(50.0,-7.68073105117395E-015,-62.72));
#411=CARTESIAN_POINT('',(45.0,0.0,-62.72));
#412=CARTESIAN_POINT('',(47.5,-7.68073105117395E-015,-62.72));
#413=VECTOR('',#482,1.0);
#414=CARTESIAN_POINT('',(50.0,7.68073105117395E-015,62.72));
#415=AXIS2_PLACEMENT_3D('',#483,#484,#485);
#416=CARTESIAN_POINT('',(45.0,7.68073105117395E-015,62.72));
#417=CARTESIAN_POINT('',(47.5,7.68073105117395E-015,62.72));
#418=VECTOR('',#486,1.0);
#419=AXIS2_PLACEMENT_3D('',#487,#488,#489);
#420=CARTESIAN_POINT('',(45.0,-2.44921270764475E-015,-20.0));
#421=CARTESIAN_POINT('',(5.0,-2.44921270764475E-015,-20.0));
#422=CARTESIAN_POINT('',(25.0,-2.44921270764475E-015,-20.0));
#423=VECTOR('',#490,1.0);
#424=CARTESIAN_POINT('',(45.0,2.44921270764475E-015,20.0));
#425=AXIS2_PLACEMENT_3D('',#491,#492,#493);
#426=CARTESIAN_POINT('',(5.0,-2.44921270764475E-015,20.0));
#427=CARTESIAN_POINT('',(25.0,2.44921270764475E-015,20.0));
#428=VECTOR('',#494,1.0);
#429=AXIS2_PLACEMENT_3D('',#495,#496,#497);
#430=AXIS2_PLACEMENT_3D('',#498,#499,#500);
#431=AXIS2_PLACEMENT_3D('',#501,#502,#503);
#432=AXIS2_PLACEMENT_3D('',#504,#505,#506);
#433=AXIS2_PLACEMENT_3D('',#507,#508,#509);
#434=AXIS2_PLACEMENT_3D('',#510,#511,#512);
#435=AXIS2_PLACEMENT_3D('',#513,#514,#515);
#436=CARTESIAN_POINT('',(-7.105427357601E-015,-88.6,-6.64349699767207E-031));
#437=AXIS2_PLACEMENT_3D('',#516,#517,#518);
#438=AXIS2_PLACEMENT_3D('',#519,#520,#521);
#439=CARTESIAN_POINT('',(0.999999999999993,-89.6,1.22460635382237E-016));
#440=AXIS2_PLACEMENT_3D('',#522,#523,#524);
#441=AXIS2_PLACEMENT_3D('',#525,#526,#527);
#442=CARTESIAN_POINT('',(50.0,-88.6,0.0));
#443=AXIS2_PLACEMENT_3D('',#528,#529,#530);
#444=AXIS2_PLACEMENT_3D('',#531,#532,#533);
#445=CARTESIAN_POINT('',(49.0,-89.6,0.0));
#446=AXIS2_PLACEMENT_3D('',#534,#535,#536);
#447=AXIS2_PLACEMENT_3D('',#537,#538,#539);
#448=DIRECTION('',(1.0,0.0,0.0));
#449=CARTESIAN_POINT('',(1.0,-6.12303176911189E-017,1.22460635382238E-016));
#450=DIRECTION('',(1.0,0.0,0.0));
#451=DIRECTION('',(0.0,0.0,-1.0));
#452=DIRECTION('',(-1.0,0.0,0.0));
#453=CARTESIAN_POINT('',(49.0,-6.12303176911189E-017,0.0));
#454=DIRECTION('',(1.0,0.0,0.0));
#455=DIRECTION('',(0.0,0.0,-1.0));
#456=CARTESIAN_POINT('',(49.0,-1.09112426125574E-014,-88.6));
#457=DIRECTION('',(6.12303176911189E-017,-1.0,1.22460635382238E-016));
#458=DIRECTION('',(7.49830360911069E-033,-1.22460635382238E-016,-1.0));
#459=CARTESIAN_POINT('',(49.0,1.07887819771751E-014,88.6));
#460=DIRECTION('',(6.12303176911189E-017,-1.0,1.22460635382238E-016));
#461=DIRECTION('',(-7.49830360911069E-033,1.22460635382238E-016,1.0));
#462=CARTESIAN_POINT('',(50.0,0.0,0.0));
#463=DIRECTION('',(1.0,0.0,0.0));
#464=DIRECTION('',(0.0,-1.0,0.0));
#465=CARTESIAN_POINT('',(0.999999999999989,-1.09112426125574E-014,88.6));
#466=DIRECTION('',(-6.12303176911189E-017,-1.0,-1.22460635382238E-016));
#467=DIRECTION('',(-1.22460635382238E-016,-1.22460635382238E-016,1.0));
#468=CARTESIAN_POINT('',(1.00000000000001,1.07887819771751E-014,-88.6));
#469=DIRECTION('',(-6.12303176911189E-017,-1.0,-1.22460635382238E-016));
#470=DIRECTION('',(1.22460635382238E-016,1.22460635382238E-016,-1.0));
#471=CARTESIAN_POINT('',(0.0,0.0,0.0));
#472=DIRECTION('',(-1.0,0.0,0.0));
#473=DIRECTION('',(0.0,-1.0,-7.49830360911069E-033));
#474=DIRECTION('',(-1.0,0.0,0.0));
#475=CARTESIAN_POINT('',(5.0,0.0,0.0));
#476=DIRECTION('',(1.0,0.0,0.0));
#477=DIRECTION('',(0.0,0.0,-1.0));
#478=DIRECTION('',(1.0,0.0,0.0));
#479=CARTESIAN_POINT('',(0.0,0.0,0.0));
#480=DIRECTION('',(1.0,0.0,0.0));
#481=DIRECTION('',(0.0,0.0,-1.0));
#482=DIRECTION('',(-1.0,0.0,0.0));
#483=CARTESIAN_POINT('',(50.0,0.0,0.0));
#484=DIRECTION('',(-1.0,0.0,0.0));
#485=DIRECTION('',(0.0,0.0,-1.0));
#486=DIRECTION('',(1.0,0.0,0.0));
#487=CARTESIAN_POINT('',(45.0,0.0,0.0));
#488=DIRECTION('',(-1.0,0.0,0.0));
#489=DIRECTION('',(0.0,0.0,-1.0));
#490=DIRECTION('',(-1.0,0.0,0.0));
#491=CARTESIAN_POINT('',(45.0,0.0,0.0));
#492=DIRECTION('',(-1.0,0.0,0.0));
#493=DIRECTION('',(0.0,0.0,-1.0));
#494=DIRECTION('',(1.0,0.0,0.0));
#495=CARTESIAN_POINT('',(5.0,0.0,0.0));
#496=DIRECTION('',(1.0,0.0,0.0));
#497=DIRECTION('',(0.0,0.0,-1.0));
#498=CARTESIAN_POINT('',(5.0,0.0,0.0));
#499=DIRECTION('',(1.0,0.0,0.0));
#500=DIRECTION('',(0.0,0.0,-1.0));
#501=CARTESIAN_POINT('',(45.0,0.0,0.0));
#502=DIRECTION('',(-1.0,0.0,0.0));
#503=DIRECTION('',(0.0,0.0,-1.0));
#504=CARTESIAN_POINT('',(5.0,0.0,0.0));
#505=DIRECTION('',(1.0,0.0,0.0));
#506=DIRECTION('',(0.0,0.0,-1.0));
#507=CARTESIAN_POINT('',(45.0,0.0,0.0));
#508=DIRECTION('',(-1.0,0.0,0.0));
#509=DIRECTION('',(0.0,0.0,-1.0));
#510=CARTESIAN_POINT('',(50.0,0.0,0.0));
#511=DIRECTION('',(-1.0,0.0,0.0));
#512=DIRECTION('',(0.0,0.0,-1.0));
#513=CARTESIAN_POINT('',(0.0,0.0,0.0));
#514=DIRECTION('',(1.0,0.0,0.0));
#515=DIRECTION('',(0.0,0.0,-1.0));
#516=CARTESIAN_POINT('',(0.0,0.0,0.0));
#517=DIRECTION('',(-1.0,0.0,0.0));
#518=DIRECTION('',(0.0,-1.0,-7.49830360911069E-033));
#519=CARTESIAN_POINT('',(0.0,0.0,0.0));
#520=DIRECTION('',(-1.0,0.0,0.0));
#521=DIRECTION('',(0.0,-1.0,-7.49830360911069E-033));
#522=CARTESIAN_POINT('',(1.0,-6.12303176911189E-017,1.22460635382238E-016));
#523=DIRECTION('',(1.0,0.0,0.0));
#524=DIRECTION('',(0.0,0.0,-1.0));
#525=CARTESIAN_POINT('',(1.0,-6.12303176911189E-017,1.22460635382238E-016));
#526=DIRECTION('',(1.0,0.0,0.0));
#527=DIRECTION('',(0.0,0.0,-1.0));
#528=CARTESIAN_POINT('',(50.0,0.0,0.0));
#529=DIRECTION('',(1.0,0.0,0.0));
#530=DIRECTION('',(0.0,-1.0,0.0));
#531=CARTESIAN_POINT('',(50.0,0.0,0.0));
#532=DIRECTION('',(1.0,0.0,0.0));
#533=DIRECTION('',(0.0,-1.0,0.0));
#534=CARTESIAN_POINT('',(49.0,-6.12303176911189E-017,0.0));
#535=DIRECTION('',(1.0,0.0,0.0));
#536=DIRECTION('',(0.0,0.0,-1.0));
#537=CARTESIAN_POINT('',(49.0,-6.12303176911189E-017,0.0));
#538=DIRECTION('',(1.0,0.0,0.0));
#539=DIRECTION('',(0.0,0.0,-1.0));
ENDSEC;
END-ISO-10303-21;
