ISO-10303-21;
HEADER;
FILE_DESCRIPTION(('STEP AP214'),'1');
FILE_NAME('C:/TPO v2/SharedFS/Outgoing/ds-4-0_5.stp','2016-08-07T13:18:48',('TraceParts'),('TraceParts S.A.'),'Spatial InterOp 3D',' ',' ');
FILE_SCHEMA(('automotive_design'));
ENDSEC;
DATA;
#1=PRODUCT_DEFINITION_CONTEXT('',#9,'design');
#2=APPLICATION_PROTOCOL_DEFINITION('INTERNATIONAL STANDARD','automotive_design',1994,#9);
#3=PRODUCT_CATEGORY_RELATIONSHIP('NONE','NONE',#10,#11);
#4=SHAPE_DEFINITION_REPRESENTATION(#12,#13);
#5= (GEOMETRIC_REPRESENTATION_CONTEXT(3)GLOBAL_UNCERTAINTY_ASSIGNED_CONTEXT((#16))GLOBAL_UNIT_ASSIGNED_CONTEXT((#18,#19,#20))REPRESENTATION_CONTEXT('NONE','WORKSPACE'));
#9=APPLICATION_CONTEXT(' ');
#10=PRODUCT_CATEGORY('part','NONE');
#11=PRODUCT_RELATED_PRODUCT_CATEGORY('detail',' ',(#22));
#12=PRODUCT_DEFINITION_SHAPE('NONE','NONE',#23);
#13=ADVANCED_BREP_SHAPE_REPRESENTATION('ds-4-0_5',(#24,#25),#5);
#16=UNCERTAINTY_MEASURE_WITH_UNIT(LENGTH_MEASURE(1.0E-006),#18,'','');
#18= (CONVERSION_BASED_UNIT('MILLIMETRE',#28)LENGTH_UNIT()NAMED_UNIT(#31));
#19= (NAMED_UNIT(#33)PLANE_ANGLE_UNIT()SI_UNIT($,.RADIAN.));
#20= (NAMED_UNIT(#33)SOLID_ANGLE_UNIT()SI_UNIT($,.STERADIAN.));
#22=PRODUCT('ds-4-0_5','ds-4-0_5','PART-ds-4-0_5-DESC',(#39));
#23=PRODUCT_DEFINITION('NONE','NONE',#40,#1);
#24=MANIFOLD_SOLID_BREP('ds-4-0_5',#41);
#25=AXIS2_PLACEMENT_3D('',#42,#43,#44);
#28=LENGTH_MEASURE_WITH_UNIT(LENGTH_MEASURE(1.0),#45);
#31=DIMENSIONAL_EXPONENTS(1.0,0.0,0.0,0.0,0.0,0.0,0.0);
#33=DIMENSIONAL_EXPONENTS(0.0,0.0,0.0,0.0,0.0,0.0,0.0);
#39=PRODUCT_CONTEXT('',#9,'mechanical');
#40=PRODUCT_DEFINITION_FORMATION_WITH_SPECIFIED_SOURCE(' ','NONE',#22,.NOT_KNOWN.);
#41=CLOSED_SHELL('',(#46,#47,#48,#49,#50,#51,#52,#53,#54,#55,#56,#57,#58,#59,#60,#61));
#42=CARTESIAN_POINT('',(0.0,0.0,0.0));
#43=DIRECTION('',(0.0,0.0,1.0));
#44=DIRECTION('',(1.0,0.0,0.0));
#45= (NAMED_UNIT(#31)LENGTH_UNIT()SI_UNIT(.MILLI.,.METRE.));
#46=ADVANCED_FACE('',(#63),#64,.F.);
#47=ADVANCED_FACE('',(#65),#66,.F.);
#48=ADVANCED_FACE('',(#67),#68,.T.);
#49=ADVANCED_FACE('',(#69),#70,.T.);
#50=ADVANCED_FACE('',(#71),#72,.F.);
#51=ADVANCED_FACE('',(#73),#74,.T.);
#52=ADVANCED_FACE('',(#75),#76,.F.);
#53=ADVANCED_FACE('',(#77),#78,.T.);
#54=ADVANCED_FACE('',(#79),#80,.T.);
#55=ADVANCED_FACE('',(#81),#82,.F.);
#56=ADVANCED_FACE('',(#83),#84,.F.);
#57=ADVANCED_FACE('',(#85),#86,.F.);
#58=ADVANCED_FACE('',(#87),#88,.F.);
#59=ADVANCED_FACE('',(#89),#90,.F.);
#60=ADVANCED_FACE('',(#91),#92,.F.);
#61=ADVANCED_FACE('',(#93),#94,.F.);
#63=FACE_OUTER_BOUND('',#95,.T.);
#64=CYLINDRICAL_SURFACE('',#96,9.6);
#65=FACE_OUTER_BOUND('',#97,.T.);
#66=CYLINDRICAL_SURFACE('',#98,9.6);
#67=FACE_OUTER_BOUND('',#99,.T.);
#68=PLANE('',#100);
#69=FACE_OUTER_BOUND('',#101,.T.);
#70=PLANE('',#102);
#71=FACE_OUTER_BOUND('',#103,.T.);
#72=CYLINDRICAL_SURFACE('',#104,9.6);
#73=FACE_OUTER_BOUND('',#105,.T.);
#74=PLANE('',#106);
#75=FACE_OUTER_BOUND('',#107,.T.);
#76=PLANE('',#108);
#77=FACE_OUTER_BOUND('',#109,.T.);
#78=PLANE('',#110);
#79=FACE_OUTER_BOUND('',#111,.T.);
#80=PLANE('',#112);
#81=FACE_OUTER_BOUND('',#113,.T.);
#82=CYLINDRICAL_SURFACE('',#114,9.6);
#83=FACE_OUTER_BOUND('',#115,.T.);
#84=PLANE('',#116);
#85=FACE_OUTER_BOUND('',#117,.T.);
#86=PLANE('',#118);
#87=FACE_OUTER_BOUND('',#119,.T.);
#88=PLANE('',#120);
#89=FACE_OUTER_BOUND('',#121,.T.);
#90=PLANE('',#122);
#91=FACE_OUTER_BOUND('',#123,.T.);
#92=PLANE('',#124);
#93=FACE_OUTER_BOUND('',#125,.T.);
#94=PLANE('',#126);
#95=EDGE_LOOP('',(#127,#128,#129,#130));
#96=AXIS2_PLACEMENT_3D('',#131,#132,#133);
#97=EDGE_LOOP('',(#134,#135,#136,#137));
#98=AXIS2_PLACEMENT_3D('',#138,#139,#140);
#99=EDGE_LOOP('',(#141,#142,#143,#144));
#100=AXIS2_PLACEMENT_3D('',#145,#146,#147);
#101=EDGE_LOOP('',(#148,#149,#150,#151));
#102=AXIS2_PLACEMENT_3D('',#152,#153,#154);
#103=EDGE_LOOP('',(#155,#156,#157,#158));
#104=AXIS2_PLACEMENT_3D('',#159,#160,#161);
#105=EDGE_LOOP('',(#162,#163,#164,#165,#166,#167,#168,#169,#170,#171,#172,#173,#174,#175));
#106=AXIS2_PLACEMENT_3D('',#176,#177,#178);
#107=EDGE_LOOP('',(#179,#180,#181,#182));
#108=AXIS2_PLACEMENT_3D('',#183,#184,#185);
#109=EDGE_LOOP('',(#186,#187,#188,#189));
#110=AXIS2_PLACEMENT_3D('',#190,#191,#192);
#111=EDGE_LOOP('',(#193,#194,#195,#196));
#112=AXIS2_PLACEMENT_3D('',#197,#198,#199);
#113=EDGE_LOOP('',(#200,#201,#202,#203));
#114=AXIS2_PLACEMENT_3D('',#204,#205,#206);
#115=EDGE_LOOP('',(#207,#208,#209,#210));
#116=AXIS2_PLACEMENT_3D('',#211,#212,#213);
#117=EDGE_LOOP('',(#214,#215,#216,#217,#218,#219,#220,#221,#222,#223,#224,#225,#226,#227));
#118=AXIS2_PLACEMENT_3D('',#228,#229,#230);
#119=EDGE_LOOP('',(#231,#232,#233,#234));
#120=AXIS2_PLACEMENT_3D('',#235,#236,#237);
#121=EDGE_LOOP('',(#238,#239,#240,#241));
#122=AXIS2_PLACEMENT_3D('',#242,#243,#244);
#123=EDGE_LOOP('',(#245,#246,#247,#248));
#124=AXIS2_PLACEMENT_3D('',#249,#250,#251);
#125=EDGE_LOOP('',(#252,#253,#254,#255));
#126=AXIS2_PLACEMENT_3D('',#256,#257,#258);
#127=ORIENTED_EDGE('',*,*,#259,.F.);
#128=ORIENTED_EDGE('',*,*,#260,.F.);
#129=ORIENTED_EDGE('',*,*,#261,.F.);
#130=ORIENTED_EDGE('',*,*,#262,.F.);
#131=CARTESIAN_POINT('',(15.0,20.0,0.25));
#132=DIRECTION('',(0.0,0.0,1.0));
#133=DIRECTION('',(1.0,0.0,0.0));
#134=ORIENTED_EDGE('',*,*,#263,.F.);
#135=ORIENTED_EDGE('',*,*,#264,.F.);
#136=ORIENTED_EDGE('',*,*,#265,.F.);
#137=ORIENTED_EDGE('',*,*,#266,.F.);
#138=CARTESIAN_POINT('',(15.0,100.0,0.25));
#139=DIRECTION('',(0.0,0.0,1.0));
#140=DIRECTION('',(1.0,0.0,0.0));
#141=ORIENTED_EDGE('',*,*,#267,.F.);
#142=ORIENTED_EDGE('',*,*,#268,.F.);
#143=ORIENTED_EDGE('',*,*,#269,.F.);
#144=ORIENTED_EDGE('',*,*,#270,.F.);
#145=CARTESIAN_POINT('',(7.5,90.4,0.25));
#146=DIRECTION('',(0.0,1.0,0.0));
#147=DIRECTION('',(0.0,0.0,1.0));
#148=ORIENTED_EDGE('',*,*,#265,.T.);
#149=ORIENTED_EDGE('',*,*,#271,.F.);
#150=ORIENTED_EDGE('',*,*,#272,.F.);
#151=ORIENTED_EDGE('',*,*,#273,.F.);
#152=CARTESIAN_POINT('',(7.5,109.6,0.25));
#153=DIRECTION('',(0.0,-1.0,0.0));
#154=DIRECTION('',(0.0,0.0,-1.0));
#155=ORIENTED_EDGE('',*,*,#263,.T.);
#156=ORIENTED_EDGE('',*,*,#274,.F.);
#157=ORIENTED_EDGE('',*,*,#269,.T.);
#158=ORIENTED_EDGE('',*,*,#275,.F.);
#159=CARTESIAN_POINT('',(15.0,100.0,0.25));
#160=DIRECTION('',(0.0,0.0,1.0));
#161=DIRECTION('',(1.0,0.0,0.0));
#162=ORIENTED_EDGE('',*,*,#271,.T.);
#163=ORIENTED_EDGE('',*,*,#264,.T.);
#164=ORIENTED_EDGE('',*,*,#275,.T.);
#165=ORIENTED_EDGE('',*,*,#268,.T.);
#166=ORIENTED_EDGE('',*,*,#276,.T.);
#167=ORIENTED_EDGE('',*,*,#277,.T.);
#168=ORIENTED_EDGE('',*,*,#260,.T.);
#169=ORIENTED_EDGE('',*,*,#278,.T.);
#170=ORIENTED_EDGE('',*,*,#279,.T.);
#171=ORIENTED_EDGE('',*,*,#280,.T.);
#172=ORIENTED_EDGE('',*,*,#281,.T.);
#173=ORIENTED_EDGE('',*,*,#282,.T.);
#174=ORIENTED_EDGE('',*,*,#283,.T.);
#175=ORIENTED_EDGE('',*,*,#284,.T.);
#176=CARTESIAN_POINT('',(15.0,60.0,0.5));
#177=DIRECTION('',(0.0,0.0,1.0));
#178=DIRECTION('',(1.0,0.0,0.0));
#179=ORIENTED_EDGE('',*,*,#267,.T.);
#180=ORIENTED_EDGE('',*,*,#285,.F.);
#181=ORIENTED_EDGE('',*,*,#286,.T.);
#182=ORIENTED_EDGE('',*,*,#276,.F.);
#183=CARTESIAN_POINT('',(0.0,60.0,0.25));
#184=DIRECTION('',(1.0,0.0,0.0));
#185=DIRECTION('',(0.0,0.0,-1.0));
#186=ORIENTED_EDGE('',*,*,#287,.F.);
#187=ORIENTED_EDGE('',*,*,#279,.F.);
#188=ORIENTED_EDGE('',*,*,#288,.F.);
#189=ORIENTED_EDGE('',*,*,#289,.F.);
#190=CARTESIAN_POINT('',(7.5,10.4,0.25));
#191=DIRECTION('',(0.0,1.0,0.0));
#192=DIRECTION('',(0.0,0.0,1.0));
#193=ORIENTED_EDGE('',*,*,#261,.T.);
#194=ORIENTED_EDGE('',*,*,#277,.F.);
#195=ORIENTED_EDGE('',*,*,#286,.F.);
#196=ORIENTED_EDGE('',*,*,#290,.F.);
#197=CARTESIAN_POINT('',(7.5,29.6,0.25));
#198=DIRECTION('',(0.0,-1.0,0.0));
#199=DIRECTION('',(0.0,0.0,-1.0));
#200=ORIENTED_EDGE('',*,*,#259,.T.);
#201=ORIENTED_EDGE('',*,*,#291,.F.);
#202=ORIENTED_EDGE('',*,*,#288,.T.);
#203=ORIENTED_EDGE('',*,*,#278,.F.);
#204=CARTESIAN_POINT('',(15.0,20.0,0.25));
#205=DIRECTION('',(0.0,0.0,1.0));
#206=DIRECTION('',(1.0,0.0,0.0));
#207=ORIENTED_EDGE('',*,*,#287,.T.);
#208=ORIENTED_EDGE('',*,*,#292,.F.);
#209=ORIENTED_EDGE('',*,*,#293,.F.);
#210=ORIENTED_EDGE('',*,*,#280,.F.);
#211=CARTESIAN_POINT('',(0.0,60.0,0.25));
#212=DIRECTION('',(1.0,0.0,0.0));
#213=DIRECTION('',(0.0,0.0,-1.0));
#214=ORIENTED_EDGE('',*,*,#273,.T.);
#215=ORIENTED_EDGE('',*,*,#294,.T.);
#216=ORIENTED_EDGE('',*,*,#295,.T.);
#217=ORIENTED_EDGE('',*,*,#296,.T.);
#218=ORIENTED_EDGE('',*,*,#297,.T.);
#219=ORIENTED_EDGE('',*,*,#292,.T.);
#220=ORIENTED_EDGE('',*,*,#289,.T.);
#221=ORIENTED_EDGE('',*,*,#291,.T.);
#222=ORIENTED_EDGE('',*,*,#262,.T.);
#223=ORIENTED_EDGE('',*,*,#290,.T.);
#224=ORIENTED_EDGE('',*,*,#285,.T.);
#225=ORIENTED_EDGE('',*,*,#270,.T.);
#226=ORIENTED_EDGE('',*,*,#274,.T.);
#227=ORIENTED_EDGE('',*,*,#266,.T.);
#228=CARTESIAN_POINT('',(15.0,60.0,0.0));
#229=DIRECTION('',(0.0,0.0,1.0));
#230=DIRECTION('',(1.0,0.0,0.0));
#231=ORIENTED_EDGE('',*,*,#293,.T.);
#232=ORIENTED_EDGE('',*,*,#297,.F.);
#233=ORIENTED_EDGE('',*,*,#298,.F.);
#234=ORIENTED_EDGE('',*,*,#281,.F.);
#235=CARTESIAN_POINT('',(15.0,0.0,0.25));
#236=DIRECTION('',(0.0,1.0,0.0));
#237=DIRECTION('',(0.0,0.0,1.0));
#238=ORIENTED_EDGE('',*,*,#272,.T.);
#239=ORIENTED_EDGE('',*,*,#284,.F.);
#240=ORIENTED_EDGE('',*,*,#299,.T.);
#241=ORIENTED_EDGE('',*,*,#294,.F.);
#242=CARTESIAN_POINT('',(0.0,60.0,0.25));
#243=DIRECTION('',(1.0,0.0,0.0));
#244=DIRECTION('',(0.0,0.0,-1.0));
#245=ORIENTED_EDGE('',*,*,#300,.T.);
#246=ORIENTED_EDGE('',*,*,#295,.F.);
#247=ORIENTED_EDGE('',*,*,#299,.F.);
#248=ORIENTED_EDGE('',*,*,#283,.F.);
#249=CARTESIAN_POINT('',(15.0,120.0,0.25));
#250=DIRECTION('',(0.0,-1.0,0.0));
#251=DIRECTION('',(0.0,0.0,-1.0));
#252=ORIENTED_EDGE('',*,*,#298,.T.);
#253=ORIENTED_EDGE('',*,*,#296,.F.);
#254=ORIENTED_EDGE('',*,*,#300,.F.);
#255=ORIENTED_EDGE('',*,*,#282,.F.);
#256=CARTESIAN_POINT('',(30.0,60.0,0.25));
#257=DIRECTION('',(-1.0,0.0,0.0));
#258=DIRECTION('',(0.0,0.0,1.0));
#259=EDGE_CURVE('',#301,#302,#303,.T.);
#260=EDGE_CURVE('',#304,#301,#305,.T.);
#261=EDGE_CURVE('',#306,#304,#307,.T.);
#262=EDGE_CURVE('',#302,#306,#308,.T.);
#263=EDGE_CURVE('',#309,#310,#311,.T.);
#264=EDGE_CURVE('',#312,#309,#313,.T.);
#265=EDGE_CURVE('',#314,#312,#315,.T.);
#266=EDGE_CURVE('',#310,#314,#316,.T.);
#267=EDGE_CURVE('',#317,#318,#319,.T.);
#268=EDGE_CURVE('',#320,#317,#321,.T.);
#269=EDGE_CURVE('',#322,#320,#323,.T.);
#270=EDGE_CURVE('',#318,#322,#324,.T.);
#271=EDGE_CURVE('',#325,#312,#326,.T.);
#272=EDGE_CURVE('',#327,#325,#328,.T.);
#273=EDGE_CURVE('',#314,#327,#329,.T.);
#274=EDGE_CURVE('',#322,#310,#330,.T.);
#275=EDGE_CURVE('',#309,#320,#331,.T.);
#276=EDGE_CURVE('',#317,#332,#333,.T.);
#277=EDGE_CURVE('',#332,#304,#334,.T.);
#278=EDGE_CURVE('',#301,#335,#336,.T.);
#279=EDGE_CURVE('',#335,#337,#338,.T.);
#280=EDGE_CURVE('',#337,#339,#340,.T.);
#281=EDGE_CURVE('',#339,#341,#342,.T.);
#282=EDGE_CURVE('',#341,#343,#344,.T.);
#283=EDGE_CURVE('',#343,#345,#346,.T.);
#284=EDGE_CURVE('',#345,#325,#347,.T.);
#285=EDGE_CURVE('',#348,#318,#349,.T.);
#286=EDGE_CURVE('',#348,#332,#350,.T.);
#287=EDGE_CURVE('',#337,#351,#352,.T.);
#288=EDGE_CURVE('',#353,#335,#354,.T.);
#289=EDGE_CURVE('',#351,#353,#355,.T.);
#290=EDGE_CURVE('',#306,#348,#356,.T.);
#291=EDGE_CURVE('',#353,#302,#357,.T.);
#292=EDGE_CURVE('',#358,#351,#359,.T.);
#293=EDGE_CURVE('',#339,#358,#360,.T.);
#294=EDGE_CURVE('',#327,#361,#362,.T.);
#295=EDGE_CURVE('',#361,#363,#364,.T.);
#296=EDGE_CURVE('',#363,#365,#366,.T.);
#297=EDGE_CURVE('',#365,#358,#367,.T.);
#298=EDGE_CURVE('',#341,#365,#368,.T.);
#299=EDGE_CURVE('',#345,#361,#369,.T.);
#300=EDGE_CURVE('',#343,#363,#370,.T.);
#301=VERTEX_POINT('',#371);
#302=VERTEX_POINT('',#372);
#303=LINE('',#373,#374);
#304=VERTEX_POINT('',#375);
#305=CIRCLE('',#376,9.6);
#306=VERTEX_POINT('',#377);
#307=LINE('',#378,#379);
#308=CIRCLE('',#380,9.6);
#309=VERTEX_POINT('',#381);
#310=VERTEX_POINT('',#382);
#311=LINE('',#383,#384);
#312=VERTEX_POINT('',#385);
#313=CIRCLE('',#386,9.6);
#314=VERTEX_POINT('',#387);
#315=LINE('',#388,#389);
#316=CIRCLE('',#390,9.6);
#317=VERTEX_POINT('',#391);
#318=VERTEX_POINT('',#392);
#319=LINE('',#393,#394);
#320=VERTEX_POINT('',#395);
#321=LINE('',#396,#397);
#322=VERTEX_POINT('',#398);
#323=LINE('',#399,#400);
#324=LINE('',#401,#402);
#325=VERTEX_POINT('',#403);
#326=LINE('',#404,#405);
#327=VERTEX_POINT('',#406);
#328=LINE('',#407,#408);
#329=LINE('',#409,#410);
#330=CIRCLE('',#411,9.6);
#331=CIRCLE('',#412,9.6);
#332=VERTEX_POINT('',#413);
#333=LINE('',#414,#415);
#334=LINE('',#416,#417);
#335=VERTEX_POINT('',#418);
#336=CIRCLE('',#419,9.6);
#337=VERTEX_POINT('',#420);
#338=LINE('',#421,#422);
#339=VERTEX_POINT('',#423);
#340=LINE('',#424,#425);
#341=VERTEX_POINT('',#426);
#342=LINE('',#427,#428);
#343=VERTEX_POINT('',#429);
#344=LINE('',#430,#431);
#345=VERTEX_POINT('',#432);
#346=LINE('',#433,#434);
#347=LINE('',#435,#436);
#348=VERTEX_POINT('',#437);
#349=LINE('',#438,#439);
#350=LINE('',#440,#441);
#351=VERTEX_POINT('',#442);
#352=LINE('',#443,#444);
#353=VERTEX_POINT('',#445);
#354=LINE('',#446,#447);
#355=LINE('',#448,#449);
#356=LINE('',#450,#451);
#357=CIRCLE('',#452,9.6);
#358=VERTEX_POINT('',#453);
#359=LINE('',#454,#455);
#360=LINE('',#456,#457);
#361=VERTEX_POINT('',#458);
#362=LINE('',#459,#460);
#363=VERTEX_POINT('',#461);
#364=LINE('',#462,#463);
#365=VERTEX_POINT('',#464);
#366=LINE('',#465,#466);
#367=LINE('',#467,#468);
#368=LINE('',#469,#470);
#369=LINE('',#471,#472);
#370=LINE('',#473,#474);
#371=CARTESIAN_POINT('',(24.6,20.0,0.5));
#372=CARTESIAN_POINT('',(24.6,20.0,0.0));
#373=CARTESIAN_POINT('',(24.6,20.0,0.25));
#374=VECTOR('',#475,1.0);
#375=CARTESIAN_POINT('',(15.0,29.6,0.5));
#376=AXIS2_PLACEMENT_3D('',#476,#477,#478);
#377=CARTESIAN_POINT('',(15.0,29.6,0.0));
#378=CARTESIAN_POINT('',(15.0,29.6,0.25));
#379=VECTOR('',#479,1.0);
#380=AXIS2_PLACEMENT_3D('',#480,#481,#482);
#381=CARTESIAN_POINT('',(24.6,100.0,0.5));
#382=CARTESIAN_POINT('',(24.6,100.0,0.0));
#383=CARTESIAN_POINT('',(24.6,100.0,0.25));
#384=VECTOR('',#483,1.0);
#385=CARTESIAN_POINT('',(15.0,109.6,0.5));
#386=AXIS2_PLACEMENT_3D('',#484,#485,#486);
#387=CARTESIAN_POINT('',(15.0,109.6,0.0));
#388=CARTESIAN_POINT('',(15.0,109.6,0.25));
#389=VECTOR('',#487,1.0);
#390=AXIS2_PLACEMENT_3D('',#488,#489,#490);
#391=CARTESIAN_POINT('',(0.0,90.4,0.5));
#392=CARTESIAN_POINT('',(0.0,90.4,0.0));
#393=CARTESIAN_POINT('',(0.0,90.4,0.25));
#394=VECTOR('',#491,1.0);
#395=CARTESIAN_POINT('',(15.0,90.4,0.5));
#396=CARTESIAN_POINT('',(11.25,90.4,0.5));
#397=VECTOR('',#492,1.0);
#398=CARTESIAN_POINT('',(15.0,90.4,0.0));
#399=CARTESIAN_POINT('',(15.0,90.4,0.25));
#400=VECTOR('',#493,1.0);
#401=CARTESIAN_POINT('',(11.25,90.4,0.0));
#402=VECTOR('',#494,1.0);
#403=CARTESIAN_POINT('',(0.0,109.6,0.5));
#404=CARTESIAN_POINT('',(11.25,109.6,0.5));
#405=VECTOR('',#495,1.0);
#406=CARTESIAN_POINT('',(0.0,109.6,0.0));
#407=CARTESIAN_POINT('',(0.0,109.6,0.25));
#408=VECTOR('',#496,1.0);
#409=CARTESIAN_POINT('',(11.25,109.6,0.0));
#410=VECTOR('',#497,1.0);
#411=AXIS2_PLACEMENT_3D('',#498,#499,#500);
#412=AXIS2_PLACEMENT_3D('',#501,#502,#503);
#413=CARTESIAN_POINT('',(0.0,29.6,0.5));
#414=CARTESIAN_POINT('',(0.0,60.0,0.5));
#415=VECTOR('',#504,1.0);
#416=CARTESIAN_POINT('',(11.25,29.6,0.5));
#417=VECTOR('',#505,1.0);
#418=CARTESIAN_POINT('',(15.0,10.4,0.5));
#419=AXIS2_PLACEMENT_3D('',#506,#507,#508);
#420=CARTESIAN_POINT('',(0.0,10.4,0.5));
#421=CARTESIAN_POINT('',(11.25,10.4,0.5));
#422=VECTOR('',#509,1.0);
#423=CARTESIAN_POINT('',(0.0,0.0,0.5));
#424=CARTESIAN_POINT('',(0.0,60.0,0.5));
#425=VECTOR('',#510,1.0);
#426=CARTESIAN_POINT('',(30.0,0.0,0.5));
#427=CARTESIAN_POINT('',(15.0,0.0,0.5));
#428=VECTOR('',#511,1.0);
#429=CARTESIAN_POINT('',(30.0,120.0,0.5));
#430=CARTESIAN_POINT('',(30.0,60.0,0.5));
#431=VECTOR('',#512,1.0);
#432=CARTESIAN_POINT('',(0.0,120.0,0.5));
#433=CARTESIAN_POINT('',(15.0,120.0,0.5));
#434=VECTOR('',#513,1.0);
#435=CARTESIAN_POINT('',(0.0,60.0,0.5));
#436=VECTOR('',#514,1.0);
#437=CARTESIAN_POINT('',(0.0,29.6,0.0));
#438=CARTESIAN_POINT('',(0.0,60.0,0.0));
#439=VECTOR('',#515,1.0);
#440=CARTESIAN_POINT('',(0.0,29.6,0.25));
#441=VECTOR('',#516,1.0);
#442=CARTESIAN_POINT('',(0.0,10.4,0.0));
#443=CARTESIAN_POINT('',(0.0,10.4,0.25));
#444=VECTOR('',#517,1.0);
#445=CARTESIAN_POINT('',(15.0,10.4,0.0));
#446=CARTESIAN_POINT('',(15.0,10.4,0.25));
#447=VECTOR('',#518,1.0);
#448=CARTESIAN_POINT('',(11.25,10.4,0.0));
#449=VECTOR('',#519,1.0);
#450=CARTESIAN_POINT('',(11.25,29.6,0.0));
#451=VECTOR('',#520,1.0);
#452=AXIS2_PLACEMENT_3D('',#521,#522,#523);
#453=CARTESIAN_POINT('',(0.0,0.0,0.0));
#454=CARTESIAN_POINT('',(0.0,60.0,0.0));
#455=VECTOR('',#524,1.0);
#456=CARTESIAN_POINT('',(0.0,0.0,0.25));
#457=VECTOR('',#525,1.0);
#458=CARTESIAN_POINT('',(0.0,120.0,0.0));
#459=CARTESIAN_POINT('',(0.0,60.0,0.0));
#460=VECTOR('',#526,1.0);
#461=CARTESIAN_POINT('',(30.0,120.0,0.0));
#462=CARTESIAN_POINT('',(15.0,120.0,0.0));
#463=VECTOR('',#527,1.0);
#464=CARTESIAN_POINT('',(30.0,0.0,0.0));
#465=CARTESIAN_POINT('',(30.0,60.0,0.0));
#466=VECTOR('',#528,1.0);
#467=CARTESIAN_POINT('',(15.0,0.0,0.0));
#468=VECTOR('',#529,1.0);
#469=CARTESIAN_POINT('',(30.0,0.0,0.25));
#470=VECTOR('',#530,1.0);
#471=CARTESIAN_POINT('',(0.0,120.0,0.25));
#472=VECTOR('',#531,1.0);
#473=CARTESIAN_POINT('',(30.0,120.0,0.25));
#474=VECTOR('',#532,1.0);
#475=DIRECTION('',(-0.0,-0.0,-1.0));
#476=CARTESIAN_POINT('',(15.0,20.0,0.5));
#477=DIRECTION('',(0.0,0.0,-1.0));
#478=DIRECTION('',(1.0,0.0,0.0));
#479=DIRECTION('',(0.0,0.0,1.0));
#480=CARTESIAN_POINT('',(15.0,20.0,0.0));
#481=DIRECTION('',(0.0,0.0,1.0));
#482=DIRECTION('',(1.0,0.0,0.0));
#483=DIRECTION('',(-0.0,-0.0,-1.0));
#484=CARTESIAN_POINT('',(15.0,100.0,0.5));
#485=DIRECTION('',(0.0,0.0,-1.0));
#486=DIRECTION('',(1.0,0.0,0.0));
#487=DIRECTION('',(0.0,0.0,1.0));
#488=CARTESIAN_POINT('',(15.0,100.0,0.0));
#489=DIRECTION('',(0.0,0.0,1.0));
#490=DIRECTION('',(1.0,0.0,0.0));
#491=DIRECTION('',(0.0,0.0,-1.0));
#492=DIRECTION('',(-1.0,0.0,0.0));
#493=DIRECTION('',(0.0,0.0,1.0));
#494=DIRECTION('',(1.0,0.0,0.0));
#495=DIRECTION('',(1.0,0.0,-0.0));
#496=DIRECTION('',(-0.0,0.0,1.0));
#497=DIRECTION('',(-1.0,0.0,0.0));
#498=CARTESIAN_POINT('',(15.0,100.0,0.0));
#499=DIRECTION('',(0.0,0.0,1.0));
#500=DIRECTION('',(1.0,0.0,0.0));
#501=CARTESIAN_POINT('',(15.0,100.0,0.5));
#502=DIRECTION('',(0.0,0.0,-1.0));
#503=DIRECTION('',(1.0,0.0,0.0));
#504=DIRECTION('',(0.0,-1.0,0.0));
#505=DIRECTION('',(1.0,0.0,-0.0));
#506=CARTESIAN_POINT('',(15.0,20.0,0.5));
#507=DIRECTION('',(0.0,0.0,-1.0));
#508=DIRECTION('',(1.0,0.0,0.0));
#509=DIRECTION('',(-1.0,0.0,0.0));
#510=DIRECTION('',(0.0,-1.0,0.0));
#511=DIRECTION('',(1.0,0.0,0.0));
#512=DIRECTION('',(0.0,1.0,0.0));
#513=DIRECTION('',(-1.0,0.0,0.0));
#514=DIRECTION('',(0.0,-1.0,0.0));
#515=DIRECTION('',(0.0,1.0,0.0));
#516=DIRECTION('',(-0.0,0.0,1.0));
#517=DIRECTION('',(0.0,0.0,-1.0));
#518=DIRECTION('',(0.0,0.0,1.0));
#519=DIRECTION('',(1.0,0.0,0.0));
#520=DIRECTION('',(-1.0,0.0,0.0));
#521=CARTESIAN_POINT('',(15.0,20.0,0.0));
#522=DIRECTION('',(0.0,0.0,1.0));
#523=DIRECTION('',(1.0,0.0,0.0));
#524=DIRECTION('',(0.0,1.0,0.0));
#525=DIRECTION('',(0.0,0.0,-1.0));
#526=DIRECTION('',(0.0,1.0,0.0));
#527=DIRECTION('',(1.0,0.0,0.0));
#528=DIRECTION('',(0.0,-1.0,0.0));
#529=DIRECTION('',(-1.0,0.0,0.0));
#530=DIRECTION('',(0.0,0.0,-1.0));
#531=DIRECTION('',(0.0,0.0,-1.0));
#532=DIRECTION('',(0.0,0.0,-1.0));
ENDSEC;
END-ISO-10303-21;
