ISO-10303-21;
HEADER;
FILE_DESCRIPTION((''),'2;1');
FILE_NAME('A10VLEA2','2008-11-05T',('idf'),(''),
'PRO/ENGINEER BY PARAMETRIC TECHNOLOGY CORPORATION, 2005070',
'PRO/ENGINEER BY PARAMETRIC TECHNOLOGY CORPORATION, 2005070','');
FILE_SCHEMA(('CONFIG_CONTROL_DESIGN'));
ENDSEC;
DATA;
#1=CARTESIAN_POINT('',(0.E0,0.E0,0.E0));
#2=DIRECTION('',(0.E0,1.E0,0.E0));
#3=DIRECTION('',(1.E0,0.E0,0.E0));
#4=AXIS2_PLACEMENT_3D('',#1,#2,#3);
#6=CARTESIAN_POINT('',(0.E0,0.E0,0.E0));
#7=DIRECTION('',(0.E0,1.E0,0.E0));
#8=DIRECTION('',(-1.E0,0.E0,0.E0));
#9=AXIS2_PLACEMENT_3D('',#6,#7,#8);
#11=CARTESIAN_POINT('',(0.E0,0.E0,0.E0));
#12=DIRECTION('',(0.E0,-1.E0,0.E0));
#13=DIRECTION('',(1.E0,0.E0,0.E0));
#14=AXIS2_PLACEMENT_3D('',#11,#12,#13);
#16=CARTESIAN_POINT('',(0.E0,0.E0,0.E0));
#17=DIRECTION('',(0.E0,-1.E0,0.E0));
#18=DIRECTION('',(-1.E0,0.E0,0.E0));
#19=AXIS2_PLACEMENT_3D('',#16,#17,#18);
#21=DIRECTION('',(0.E0,1.E0,0.E0));
#22=VECTOR('',#21,8.E0);
#23=CARTESIAN_POINT('',(1.1E1,0.E0,0.E0));
#24=LINE('',#23,#22);
#25=DIRECTION('',(0.E0,1.E0,0.E0));
#26=VECTOR('',#25,8.E0);
#27=CARTESIAN_POINT('',(-1.1E1,0.E0,0.E0));
#28=LINE('',#27,#26);
#29=CARTESIAN_POINT('',(0.E0,8.E0,0.E0));
#30=DIRECTION('',(0.E0,1.E0,0.E0));
#31=DIRECTION('',(1.E0,0.E0,0.E0));
#32=AXIS2_PLACEMENT_3D('',#29,#30,#31);
#34=CARTESIAN_POINT('',(0.E0,8.E0,0.E0));
#35=DIRECTION('',(0.E0,1.E0,0.E0));
#36=DIRECTION('',(-1.E0,0.E0,0.E0));
#37=AXIS2_PLACEMENT_3D('',#34,#35,#36);
#39=CARTESIAN_POINT('',(0.E0,8.E0,0.E0));
#40=DIRECTION('',(0.E0,1.E0,0.E0));
#41=DIRECTION('',(0.E0,0.E0,-1.E0));
#42=AXIS2_PLACEMENT_3D('',#39,#40,#41);
#44=CARTESIAN_POINT('',(0.E0,8.E0,0.E0));
#45=DIRECTION('',(0.E0,1.E0,0.E0));
#46=DIRECTION('',(0.E0,0.E0,1.E0));
#47=AXIS2_PLACEMENT_3D('',#44,#45,#46);
#49=CARTESIAN_POINT('',(0.E0,1.E1,0.E0));
#50=DIRECTION('',(0.E0,1.E0,0.E0));
#51=DIRECTION('',(0.E0,0.E0,-1.E0));
#52=AXIS2_PLACEMENT_3D('',#49,#50,#51);
#54=DIRECTION('',(0.E0,1.E0,0.E0));
#55=VECTOR('',#54,2.E0);
#56=CARTESIAN_POINT('',(0.E0,8.E0,-1.025E1));
#57=LINE('',#56,#55);
#58=CARTESIAN_POINT('',(0.E0,1.E1,0.E0));
#59=DIRECTION('',(0.E0,1.E0,0.E0));
#60=DIRECTION('',(0.E0,0.E0,-1.E0));
#61=AXIS2_PLACEMENT_3D('',#58,#59,#60);
#63=CARTESIAN_POINT('',(0.E0,1.E1,0.E0));
#64=DIRECTION('',(0.E0,1.E0,0.E0));
#65=DIRECTION('',(0.E0,0.E0,1.E0));
#66=AXIS2_PLACEMENT_3D('',#63,#64,#65);
#68=DIRECTION('',(0.E0,1.E0,0.E0));
#69=VECTOR('',#68,2.2E1);
#70=CARTESIAN_POINT('',(0.E0,1.E1,-1.2E1));
#71=LINE('',#70,#69);
#72=DIRECTION('',(0.E0,1.E0,0.E0));
#73=VECTOR('',#72,2.2E1);
#74=CARTESIAN_POINT('',(0.E0,1.E1,1.2E1));
#75=LINE('',#74,#73);
#76=CARTESIAN_POINT('',(0.E0,3.2E1,0.E0));
#77=DIRECTION('',(0.E0,1.E0,0.E0));
#78=DIRECTION('',(0.E0,0.E0,-1.E0));
#79=AXIS2_PLACEMENT_3D('',#76,#77,#78);
#81=CARTESIAN_POINT('',(0.E0,3.2E1,0.E0));
#82=DIRECTION('',(0.E0,1.E0,0.E0));
#83=DIRECTION('',(0.E0,0.E0,1.E0));
#84=AXIS2_PLACEMENT_3D('',#81,#82,#83);
#86=CARTESIAN_POINT('',(0.E0,3.2E1,0.E0));
#87=DIRECTION('',(0.E0,-1.E0,0.E0));
#88=DIRECTION('',(1.E0,0.E0,0.E0));
#89=AXIS2_PLACEMENT_3D('',#86,#87,#88);
#91=CARTESIAN_POINT('',(0.E0,3.2E1,0.E0));
#92=DIRECTION('',(0.E0,-1.E0,0.E0));
#93=DIRECTION('',(-1.E0,0.E0,0.E0));
#94=AXIS2_PLACEMENT_3D('',#91,#92,#93);
#96=DIRECTION('',(0.E0,1.E0,0.E0));
#97=VECTOR('',#96,3.2E1);
#98=CARTESIAN_POINT('',(5.E0,0.E0,0.E0));
#99=LINE('',#98,#97);
#100=DIRECTION('',(0.E0,1.E0,0.E0));
#101=VECTOR('',#100,3.2E1);
#102=CARTESIAN_POINT('',(-5.E0,0.E0,0.E0));
#103=LINE('',#102,#101);
#104=CARTESIAN_POINT('',(0.E0,1.E1,0.E0));
#105=DIRECTION('',(0.E0,1.E0,0.E0));
#106=DIRECTION('',(0.E0,0.E0,1.E0));
#107=AXIS2_PLACEMENT_3D('',#104,#105,#106);
#109=DIRECTION('',(0.E0,1.E0,0.E0));
#110=VECTOR('',#109,2.E0);
#111=CARTESIAN_POINT('',(0.E0,8.E0,1.025E1));
#112=LINE('',#111,#110);
#113=CARTESIAN_POINT('',(1.1E1,0.E0,0.E0));
#114=CARTESIAN_POINT('',(-1.1E1,0.E0,0.E0));
#115=VERTEX_POINT('',#113);
#116=VERTEX_POINT('',#114);
#117=CARTESIAN_POINT('',(1.1E1,8.E0,0.E0));
#118=CARTESIAN_POINT('',(-1.1E1,8.E0,0.E0));
#119=VERTEX_POINT('',#117);
#120=VERTEX_POINT('',#118);
#121=CARTESIAN_POINT('',(0.E0,8.E0,-1.025E1));
#122=CARTESIAN_POINT('',(0.E0,8.E0,1.025E1));
#123=VERTEX_POINT('',#121);
#124=VERTEX_POINT('',#122);
#125=CARTESIAN_POINT('',(0.E0,1.E1,-1.2E1));
#126=CARTESIAN_POINT('',(0.E0,1.E1,1.2E1));
#127=VERTEX_POINT('',#125);
#128=VERTEX_POINT('',#126);
#129=CARTESIAN_POINT('',(0.E0,3.2E1,-1.2E1));
#130=CARTESIAN_POINT('',(0.E0,3.2E1,1.2E1));
#131=VERTEX_POINT('',#129);
#132=VERTEX_POINT('',#130);
#133=CARTESIAN_POINT('',(0.E0,1.E1,-1.025E1));
#134=CARTESIAN_POINT('',(0.E0,1.E1,1.025E1));
#135=VERTEX_POINT('',#133);
#136=VERTEX_POINT('',#134);
#137=CARTESIAN_POINT('',(5.E0,0.E0,0.E0));
#138=CARTESIAN_POINT('',(-5.E0,0.E0,0.E0));
#139=VERTEX_POINT('',#137);
#140=VERTEX_POINT('',#138);
#141=CARTESIAN_POINT('',(5.E0,3.2E1,0.E0));
#142=CARTESIAN_POINT('',(-5.E0,3.2E1,0.E0));
#143=VERTEX_POINT('',#141);
#144=VERTEX_POINT('',#142);
#145=CARTESIAN_POINT('',(0.E0,0.E0,0.E0));
#146=DIRECTION('',(0.E0,1.E0,0.E0));
#147=DIRECTION('',(1.E0,0.E0,0.E0));
#148=AXIS2_PLACEMENT_3D('',#145,#146,#147);
#149=PLANE('',#148);
#151=ORIENTED_EDGE('',*,*,#150,.T.);
#153=ORIENTED_EDGE('',*,*,#152,.T.);
#154=EDGE_LOOP('',(#151,#153));
#155=FACE_OUTER_BOUND('',#154,.F.);
#157=ORIENTED_EDGE('',*,*,#156,.T.);
#159=ORIENTED_EDGE('',*,*,#158,.T.);
#160=EDGE_LOOP('',(#157,#159));
#161=FACE_BOUND('',#160,.F.);
#162=ADVANCED_FACE('',(#155,#161),#149,.F.);
#163=CARTESIAN_POINT('',(0.E0,0.E0,0.E0));
#164=DIRECTION('',(0.E0,1.E0,0.E0));
#165=DIRECTION('',(1.E0,0.E0,0.E0));
#166=AXIS2_PLACEMENT_3D('',#163,#164,#165);
#167=CYLINDRICAL_SURFACE('',#166,1.1E1);
#168=ORIENTED_EDGE('',*,*,#150,.F.);
#170=ORIENTED_EDGE('',*,*,#169,.T.);
#172=ORIENTED_EDGE('',*,*,#171,.T.);
#174=ORIENTED_EDGE('',*,*,#173,.F.);
#175=EDGE_LOOP('',(#168,#170,#172,#174));
#176=FACE_OUTER_BOUND('',#175,.F.);
#177=ADVANCED_FACE('',(#176),#167,.T.);
#178=CARTESIAN_POINT('',(0.E0,0.E0,0.E0));
#179=DIRECTION('',(0.E0,1.E0,0.E0));
#180=DIRECTION('',(1.E0,0.E0,0.E0));
#181=AXIS2_PLACEMENT_3D('',#178,#179,#180);
#182=CYLINDRICAL_SURFACE('',#181,1.1E1);
#183=ORIENTED_EDGE('',*,*,#152,.F.);
#184=ORIENTED_EDGE('',*,*,#173,.T.);
#186=ORIENTED_EDGE('',*,*,#185,.T.);
#187=ORIENTED_EDGE('',*,*,#169,.F.);
#188=EDGE_LOOP('',(#183,#184,#186,#187));
#189=FACE_OUTER_BOUND('',#188,.F.);
#190=ADVANCED_FACE('',(#189),#182,.T.);
#191=CARTESIAN_POINT('',(0.E0,8.E0,0.E0));
#192=DIRECTION('',(0.E0,1.E0,0.E0));
#193=DIRECTION('',(1.E0,0.E0,0.E0));
#194=AXIS2_PLACEMENT_3D('',#191,#192,#193);
#195=PLANE('',#194);
#196=ORIENTED_EDGE('',*,*,#171,.F.);
#197=ORIENTED_EDGE('',*,*,#185,.F.);
#198=EDGE_LOOP('',(#196,#197));
#199=FACE_OUTER_BOUND('',#198,.F.);
#201=ORIENTED_EDGE('',*,*,#200,.T.);
#203=ORIENTED_EDGE('',*,*,#202,.T.);
#204=EDGE_LOOP('',(#201,#203));
#205=FACE_BOUND('',#204,.F.);
#206=ADVANCED_FACE('',(#199,#205),#195,.T.);
#207=CARTESIAN_POINT('',(0.E0,8.E0,0.E0));
#208=DIRECTION('',(0.E0,1.E0,0.E0));
#209=DIRECTION('',(0.E0,0.E0,-1.E0));
#210=AXIS2_PLACEMENT_3D('',#207,#208,#209);
#211=CYLINDRICAL_SURFACE('',#210,1.025E1);
#213=ORIENTED_EDGE('',*,*,#212,.T.);
#215=ORIENTED_EDGE('',*,*,#214,.F.);
#216=ORIENTED_EDGE('',*,*,#200,.F.);
#218=ORIENTED_EDGE('',*,*,#217,.T.);
#219=EDGE_LOOP('',(#213,#215,#216,#218));
#220=FACE_OUTER_BOUND('',#219,.F.);
#221=ADVANCED_FACE('',(#220),#211,.T.);
#222=CARTESIAN_POINT('',(0.E0,1.E1,0.E0));
#223=DIRECTION('',(0.E0,1.E0,0.E0));
#224=DIRECTION('',(0.E0,0.E0,-1.E0));
#225=AXIS2_PLACEMENT_3D('',#222,#223,#224);
#226=PLANE('',#225);
#228=ORIENTED_EDGE('',*,*,#227,.T.);
#230=ORIENTED_EDGE('',*,*,#229,.T.);
#231=EDGE_LOOP('',(#228,#230));
#232=FACE_OUTER_BOUND('',#231,.F.);
#233=ORIENTED_EDGE('',*,*,#212,.F.);
#235=ORIENTED_EDGE('',*,*,#234,.F.);
#236=EDGE_LOOP('',(#233,#235));
#237=FACE_BOUND('',#236,.F.);
#238=ADVANCED_FACE('',(#232,#237),#226,.F.);
#239=CARTESIAN_POINT('',(0.E0,1.E1,0.E0));
#240=DIRECTION('',(0.E0,1.E0,0.E0));
#241=DIRECTION('',(0.E0,0.E0,-1.E0));
#242=AXIS2_PLACEMENT_3D('',#239,#240,#241);
#243=CYLINDRICAL_SURFACE('',#242,1.2E1);
#244=ORIENTED_EDGE('',*,*,#227,.F.);
#246=ORIENTED_EDGE('',*,*,#245,.T.);
#248=ORIENTED_EDGE('',*,*,#247,.T.);
#250=ORIENTED_EDGE('',*,*,#249,.F.);
#251=EDGE_LOOP('',(#244,#246,#248,#250));
#252=FACE_OUTER_BOUND('',#251,.F.);
#253=ADVANCED_FACE('',(#252),#243,.T.);
#254=CARTESIAN_POINT('',(0.E0,1.E1,0.E0));
#255=DIRECTION('',(0.E0,1.E0,0.E0));
#256=DIRECTION('',(0.E0,0.E0,-1.E0));
#257=AXIS2_PLACEMENT_3D('',#254,#255,#256);
#258=CYLINDRICAL_SURFACE('',#257,1.2E1);
#259=ORIENTED_EDGE('',*,*,#229,.F.);
#260=ORIENTED_EDGE('',*,*,#249,.T.);
#262=ORIENTED_EDGE('',*,*,#261,.T.);
#263=ORIENTED_EDGE('',*,*,#245,.F.);
#264=EDGE_LOOP('',(#259,#260,#262,#263));
#265=FACE_OUTER_BOUND('',#264,.F.);
#266=ADVANCED_FACE('',(#265),#258,.T.);
#267=CARTESIAN_POINT('',(0.E0,3.2E1,0.E0));
#268=DIRECTION('',(0.E0,1.E0,0.E0));
#269=DIRECTION('',(0.E0,0.E0,-1.E0));
#270=AXIS2_PLACEMENT_3D('',#267,#268,#269);
#271=PLANE('',#270);
#272=ORIENTED_EDGE('',*,*,#247,.F.);
#273=ORIENTED_EDGE('',*,*,#261,.F.);
#274=EDGE_LOOP('',(#272,#273));
#275=FACE_OUTER_BOUND('',#274,.F.);
#277=ORIENTED_EDGE('',*,*,#276,.F.);
#279=ORIENTED_EDGE('',*,*,#278,.F.);
#280=EDGE_LOOP('',(#277,#279));
#281=FACE_BOUND('',#280,.F.);
#282=ADVANCED_FACE('',(#275,#281),#271,.T.);
#283=CARTESIAN_POINT('',(0.E0,0.E0,0.E0));
#284=DIRECTION('',(0.E0,-1.E0,0.E0));
#285=DIRECTION('',(1.E0,0.E0,0.E0));
#286=AXIS2_PLACEMENT_3D('',#283,#284,#285);
#287=CYLINDRICAL_SURFACE('',#286,5.E0);
#288=ORIENTED_EDGE('',*,*,#156,.F.);
#290=ORIENTED_EDGE('',*,*,#289,.T.);
#291=ORIENTED_EDGE('',*,*,#276,.T.);
#293=ORIENTED_EDGE('',*,*,#292,.F.);
#294=EDGE_LOOP('',(#288,#290,#291,#293));
#295=FACE_OUTER_BOUND('',#294,.F.);
#296=ADVANCED_FACE('',(#295),#287,.F.);
#297=CARTESIAN_POINT('',(0.E0,0.E0,0.E0));
#298=DIRECTION('',(0.E0,-1.E0,0.E0));
#299=DIRECTION('',(1.E0,0.E0,0.E0));
#300=AXIS2_PLACEMENT_3D('',#297,#298,#299);
#301=CYLINDRICAL_SURFACE('',#300,5.E0);
#302=ORIENTED_EDGE('',*,*,#158,.F.);
#303=ORIENTED_EDGE('',*,*,#292,.T.);
#304=ORIENTED_EDGE('',*,*,#278,.T.);
#305=ORIENTED_EDGE('',*,*,#289,.F.);
#306=EDGE_LOOP('',(#302,#303,#304,#305));
#307=FACE_OUTER_BOUND('',#306,.F.);
#308=ADVANCED_FACE('',(#307),#301,.F.);
#309=CARTESIAN_POINT('',(0.E0,8.E0,0.E0));
#310=DIRECTION('',(0.E0,1.E0,0.E0));
#311=DIRECTION('',(0.E0,0.E0,-1.E0));
#312=AXIS2_PLACEMENT_3D('',#309,#310,#311);
#313=CYLINDRICAL_SURFACE('',#312,1.025E1);
#314=ORIENTED_EDGE('',*,*,#234,.T.);
#315=ORIENTED_EDGE('',*,*,#217,.F.);
#316=ORIENTED_EDGE('',*,*,#202,.F.);
#317=ORIENTED_EDGE('',*,*,#214,.T.);
#318=EDGE_LOOP('',(#314,#315,#316,#317));
#319=FACE_OUTER_BOUND('',#318,.F.);
#320=ADVANCED_FACE('',(#319),#313,.T.);
#321=CLOSED_SHELL('',(#162,#177,#190,#206,#221,#238,#253,#266,#282,#296,#308,
#320));
#322=MANIFOLD_SOLID_BREP('',#321);
#323=DIMENSIONAL_EXPONENTS(1.E0,0.E0,0.E0,0.E0,0.E0,0.E0,0.E0);
#324=(LENGTH_UNIT()NAMED_UNIT(*)SI_UNIT(.MILLI.,.METRE.));
#325=LENGTH_MEASURE_WITH_UNIT(LENGTH_MEASURE(2.54E1),#324);
#326=(CONVERSION_BASED_UNIT('INCH',#325)LENGTH_UNIT()NAMED_UNIT(#323));
#327=DIMENSIONAL_EXPONENTS(0.E0,0.E0,0.E0,0.E0,0.E0,0.E0,0.E0);
#328=(NAMED_UNIT(*)PLANE_ANGLE_UNIT()SI_UNIT($,.RADIAN.));
#329=PLANE_ANGLE_MEASURE_WITH_UNIT(PLANE_ANGLE_MEASURE(1.745329251994E-2),#328);
#330=(CONVERSION_BASED_UNIT('DEGREE',#329)NAMED_UNIT(#327)PLANE_ANGLE_UNIT());
#331=(NAMED_UNIT(*)SI_UNIT($,.STERADIAN.)SOLID_ANGLE_UNIT());
#332=UNCERTAINTY_MEASURE_WITH_UNIT(LENGTH_MEASURE(4.664574925416E-3),#326,
'closure',
'Maximum model space distance between geometric entities at asserted connectivities');
#333=(GEOMETRIC_REPRESENTATION_CONTEXT(3)GLOBAL_UNCERTAINTY_ASSIGNED_CONTEXT((
#332))GLOBAL_UNIT_ASSIGNED_CONTEXT((#326,#330,#331))REPRESENTATION_CONTEXT
('ID1','3'));
#335=APPLICATION_CONTEXT(
'CONFIGURATION CONTROLLED 3D DESIGNS OF MECHANICAL PARTS AND ASSEMBLIES');
#336=APPLICATION_PROTOCOL_DEFINITION('international standard',
'config_control_design',1994,#335);
#337=DESIGN_CONTEXT('',#335,'design');
#338=MECHANICAL_CONTEXT('',#335,'mechanical');
#339=PRODUCT('A10VLEA2','A10VLEA2','NOT SPECIFIED',(#338));
#340=PRODUCT_DEFINITION_FORMATION_WITH_SPECIFIED_SOURCE('1','LAST_VERSION',#339,
.MADE.);
#344=PRODUCT_CATEGORY('part','');
#345=PRODUCT_RELATED_PRODUCT_CATEGORY('detail','',(#339));
#346=PRODUCT_CATEGORY_RELATIONSHIP('','',#344,#345);
#347=SECURITY_CLASSIFICATION_LEVEL('unclassified');
#348=SECURITY_CLASSIFICATION('','',#347);
#349=CC_DESIGN_SECURITY_CLASSIFICATION(#348,(#340));
#350=APPROVAL_STATUS('approved');
#351=APPROVAL(#350,'');
#352=CC_DESIGN_APPROVAL(#351,(#348,#340,#341));
#353=CALENDAR_DATE(108,5,11);
#354=COORDINATED_UNIVERSAL_TIME_OFFSET(8,0,.AHEAD.);
#355=LOCAL_TIME(17,33,1.2E1,#354);
#356=DATE_AND_TIME(#353,#355);
#357=APPROVAL_DATE_TIME(#356,#351);
#358=DATE_TIME_ROLE('creation_date');
#359=CC_DESIGN_DATE_AND_TIME_ASSIGNMENT(#356,#358,(#341));
#360=DATE_TIME_ROLE('classification_date');
#361=CC_DESIGN_DATE_AND_TIME_ASSIGNMENT(#356,#360,(#348));
#362=PERSON('UNSPECIFIED','UNSPECIFIED',$,$,$,$);
#363=ORGANIZATION('UNSPECIFIED','UNSPECIFIED','UNSPECIFIED');
#364=PERSON_AND_ORGANIZATION(#362,#363);
#365=APPROVAL_ROLE('approver');
#366=APPROVAL_PERSON_ORGANIZATION(#364,#351,#365);
#367=PERSON_AND_ORGANIZATION_ROLE('creator');
#368=CC_DESIGN_PERSON_AND_ORGANIZATION_ASSIGNMENT(#364,#367,(#340,#341));
#369=PERSON_AND_ORGANIZATION_ROLE('design_supplier');
#370=CC_DESIGN_PERSON_AND_ORGANIZATION_ASSIGNMENT(#364,#369,(#340));
#371=PERSON_AND_ORGANIZATION_ROLE('classification_officer');
#372=CC_DESIGN_PERSON_AND_ORGANIZATION_ASSIGNMENT(#364,#371,(#348));
#373=PERSON_AND_ORGANIZATION_ROLE('design_owner');
#374=CC_DESIGN_PERSON_AND_ORGANIZATION_ASSIGNMENT(#364,#373,(#339));
#5=CIRCLE('',#4,1.1E1);
#10=CIRCLE('',#9,1.1E1);
#15=CIRCLE('',#14,5.E0);
#20=CIRCLE('',#19,5.E0);
#33=CIRCLE('',#32,1.1E1);
#38=CIRCLE('',#37,1.1E1);
#43=CIRCLE('',#42,1.025E1);
#48=CIRCLE('',#47,1.025E1);
#53=CIRCLE('',#52,1.025E1);
#62=CIRCLE('',#61,1.2E1);
#67=CIRCLE('',#66,1.2E1);
#80=CIRCLE('',#79,1.2E1);
#85=CIRCLE('',#84,1.2E1);
#90=CIRCLE('',#89,5.E0);
#95=CIRCLE('',#94,5.E0);
#108=CIRCLE('',#107,1.025E1);
#150=EDGE_CURVE('',#115,#116,#5,.T.);
#152=EDGE_CURVE('',#116,#115,#10,.T.);
#156=EDGE_CURVE('',#139,#140,#15,.T.);
#158=EDGE_CURVE('',#140,#139,#20,.T.);
#169=EDGE_CURVE('',#115,#119,#24,.T.);
#171=EDGE_CURVE('',#119,#120,#33,.T.);
#173=EDGE_CURVE('',#116,#120,#28,.T.);
#185=EDGE_CURVE('',#120,#119,#38,.T.);
#200=EDGE_CURVE('',#123,#124,#43,.T.);
#202=EDGE_CURVE('',#124,#123,#48,.T.);
#212=EDGE_CURVE('',#135,#136,#53,.T.);
#214=EDGE_CURVE('',#124,#136,#112,.T.);
#217=EDGE_CURVE('',#123,#135,#57,.T.);
#227=EDGE_CURVE('',#127,#128,#62,.T.);
#229=EDGE_CURVE('',#128,#127,#67,.T.);
#234=EDGE_CURVE('',#136,#135,#108,.T.);
#245=EDGE_CURVE('',#127,#131,#71,.T.);
#247=EDGE_CURVE('',#131,#132,#80,.T.);
#249=EDGE_CURVE('',#128,#132,#75,.T.);
#261=EDGE_CURVE('',#132,#131,#85,.T.);
#276=EDGE_CURVE('',#143,#144,#90,.T.);
#278=EDGE_CURVE('',#144,#143,#95,.T.);
#289=EDGE_CURVE('',#139,#143,#99,.T.);
#292=EDGE_CURVE('',#140,#144,#103,.T.);
#334=ADVANCED_BREP_SHAPE_REPRESENTATION('',(#322),#333);
#341=PRODUCT_DEFINITION('design','',#340,#337);
#342=PRODUCT_DEFINITION_SHAPE('','SHAPE FOR A10VLEA2.',#341);
#343=SHAPE_DEFINITION_REPRESENTATION(#342,#334);
ENDSEC;
END-ISO-10303-21;
