  0
SECTION
  2
HEADER
  9
$ACADVER
  1
AC1015
  9
$ACADMAINTVER
 70
    20
  9
$DWGCODEPAGE
  3
ANSI_950
  9
$INSBASE
 10
0.0
 20
0.0
 30
0.0
  9
$EXTMIN
 10
2042.947448723767
 20
165.2752130502766
 30
0.0
  9
$EXTMAX
 10
2591.236519921244
 20
478.3964871758289
 30
0.0
  9
$LIMMIN
 10
-10.0
 20
-15.0
  9
$LIMMAX
 10
120.0
 20
90.0
  9
$ORTHOMODE
 70
     1
  9
$REGENMODE
 70
     0
  9
$FILLMODE
 70
     1
  9
$QTEXTMODE
 70
     0
  9
$MIRRTEXT
 70
     0
  9
$LTSCALE
 40
3.0
  9
$ATTMODE
 70
     1
  9
$TEXTSIZE
 40
3.0
  9
$TRACEWID
 40
1.0
  9
$TEXTSTYLE
  7
STANDARD
  9
$CLAYER
  8
0
  9
$CELTYPE
  6
ByLayer
  9
$CECOLOR
 62
   256
  9
$CELTSCALE
 40
1.0
  9
$DISPSILH
 70
     0
  9
$DIMSCALE
 40
1.0
  9
$DIMASZ
 40
3.0
  9
$DIMEXO
 40
1.0
  9
$DIMDLI
 40
6.0
  9
$DIMRND
 40
0.0
  9
$DIMDLE
 40
0.0
  9
$DIMEXE
 40
1.0
  9
$DIMTP
 40
0.0
  9
$DIMTM
 40
0.0
  9
$DIMTXT
 40
3.0
  9
$DIMCEN
 40
1.5
  9
$DIMTSZ
 40
0.0
  9
$DIMTOL
 70
     0
  9
$DIMLIM
 70
     0
  9
$DIMTIH
 70
     1
  9
$DIMTOH
 70
     1
  9
$DIMSE1
 70
     0
  9
$DIMSE2
 70
     0
  9
$DIMTAD
 70
     0
  9
$DIMZIN
 70
     0
  9
$DIMBLK
  1

  9
$DIMASO
 70
     1
  9
$DIMSHO
 70
     0
  9
$DIMPOST
  1

  9
$DIMAPOST
  1

  9
$DIMALT
 70
     0
  9
$DIMALTD
 70
     2
  9
$DIMALTF
 40
25.4
  9
$DIMLFAC
 40
1.0
  9
$DIMTOFL
 70
     1
  9
$DIMTVP
 40
0.0
  9
$DIMTIX
 70
     0
  9
$DIMSOXD
 70
     0
  9
$DIMSAH
 70
     0
  9
$DIMBLK1
  1

  9
$DIMBLK2
  1

  9
$DIMSTYLE
  2
Standard
  9
$DIMCLRD
 70
     0
  9
$DIMCLRE
 70
     0
  9
$DIMCLRT
 70
     0
  9
$DIMTFAC
 40
1.0
  9
$DIMGAP
 40
0.09
  9
$DIMJUST
 70
     0
  9
$DIMSD1
 70
     0
  9
$DIMSD2
 70
     0
  9
$DIMTOLJ
 70
     1
  9
$DIMTZIN
 70
     0
  9
$DIMALTZ
 70
     0
  9
$DIMALTTZ
 70
     0
  9
$DIMUPT
 70
     0
  9
$DIMDEC
 70
     4
  9
$DIMTDEC
 70
     8
  9
$DIMALTU
 70
     2
  9
$DIMALTTD
 70
     2
  9
$DIMTXSTY
  7
STANDARD
  9
$DIMAUNIT
 70
     0
  9
$DIMADEC
 70
     0
  9
$DIMALTRND
 40
0.0
  9
$DIMAZIN
 70
     0
  9
$DIMDSEP
 70
    46
  9
$DIMATFIT
 70
     3
  9
$DIMFRAC
 70
     0
  9
$DIMLDRBLK
  1

  9
$DIMLUNIT
 70
     2
  9
$DIMLWD
 70
    -2
  9
$DIMLWE
 70
    -2
  9
$DIMTMOVE
 70
     2
  9
$LUNITS
 70
     2
  9
$LUPREC
 70
     4
  9
$SKETCHINC
 40
0.5
  9
$FILLETRAD
 40
0.0
  9
$AUNITS
 70
     0
  9
$AUPREC
 70
     0
  9
$MENU
  1
ACAD
  9
$ELEVATION
 40
0.0
  9
$PELEVATION
 40
0.0
  9
$THICKNESS
 40
0.0
  9
$LIMCHECK
 70
     0
  9
$CHAMFERA
 40
0.0
  9
$CHAMFERB
 40
0.0
  9
$CHAMFERC
 40
0.0
  9
$CHAMFERD
 40
0.0
  9
$SKPOLY
 70
     0
  9
$TDCREATE
 40
2444975.333333334
  9
$TDUCREATE
 40
2444975.000000000
  9
$TDUPDATE
 40
2454042.478194699
  9
$TDUUPDATE
 40
2454042.144861366
  9
$TDINDWG
 40
0.3149359375
  9
$TDUSRTIMER
 40
0.0000000000
  9
$USRTIMER
 70
     0
  9
$ANGBASE
 50
0.0
  9
$ANGDIR
 70
     0
  9
$PDMODE
 70
     0
  9
$PDSIZE
 40
0.001
  9
$PLINEWID
 40
0.0
  9
$SPLFRAME
 70
     0
  9
$SPLINETYPE
 70
     6
  9
$SPLINESEGS
 70
  8000
  9
$HANDSEED
  5
EACE
  9
$SURFTAB1
 70
     6
  9
$SURFTAB2
 70
     6
  9
$SURFTYPE
 70
     6
  9
$SURFU
 70
     6
  9
$SURFV
 70
     6
  9
$UCSBASE
  2

  9
$UCSNAME
  2

  9
$UCSORG
 10
0.0
 20
0.0
 30
0.0
  9
$UCSXDIR
 10
1.0
 20
0.0
 30
0.0
  9
$UCSYDIR
 10
0.0
 20
1.0
 30
0.0
  9
$UCSORTHOREF
  2

  9
$UCSORTHOVIEW
 70
     0
  9
$UCSORGTOP
 10
0.0
 20
0.0
 30
0.0
  9
$UCSORGBOTTOM
 10
0.0
 20
0.0
 30
0.0
  9
$UCSORGLEFT
 10
0.0
 20
0.0
 30
0.0
  9
$UCSORGRIGHT
 10
0.0
 20
0.0
 30
0.0
  9
$UCSORGFRONT
 10
0.0
 20
0.0
 30
0.0
  9
$UCSORGBACK
 10
0.0
 20
0.0
 30
0.0
  9
$PUCSBASE
  2

  9
$PUCSNAME
  2

  9
$PUCSORG
 10
0.0
 20
0.0
 30
0.0
  9
$PUCSXDIR
 10
1.0
 20
0.0
 30
0.0
  9
$PUCSYDIR
 10
0.0
 20
1.0
 30
0.0
  9
$PUCSORTHOREF
  2

  9
$PUCSORTHOVIEW
 70
     0
  9
$PUCSORGTOP
 10
0.0
 20
0.0
 30
0.0
  9
$PUCSORGBOTTOM
 10
0.0
 20
0.0
 30
0.0
  9
$PUCSORGLEFT
 10
0.0
 20
0.0
 30
0.0
  9
$PUCSORGRIGHT
 10
0.0
 20
0.0
 30
0.0
  9
$PUCSORGFRONT
 10
0.0
 20
0.0
 30
0.0
  9
$PUCSORGBACK
 10
0.0
 20
0.0
 30
0.0
  9
$USERI1
 70
     0
  9
$USERI2
 70
     0
  9
$USERI3
 70
     0
  9
$USERI4
 70
     0
  9
$USERI5
 70
     0
  9
$USERR1
 40
0.0
  9
$USERR2
 40
0.0
  9
$USERR3
 40
0.0
  9
$USERR4
 40
0.0
  9
$USERR5
 40
0.0
  9
$WORLDVIEW
 70
     1
  9
$SHADEDGE
 70
     3
  9
$SHADEDIF
 70
    70
  9
$TILEMODE
 70
     1
  9
$MAXACTVP
 70
    48
  9
$PINSBASE
 10
0.0
 20
0.0
 30
0.0
  9
$PLIMCHECK
 70
     0
  9
$PEXTMIN
 10
1.000000000000000E+20
 20
1.000000000000000E+20
 30
1.000000000000000E+20
  9
$PEXTMAX
 10
-1.000000000000000E+20
 20
-1.000000000000000E+20
 30
-1.000000000000000E+20
  9
$PLIMMIN
 10
0.0
 20
0.0
  9
$PLIMMAX
 10
12.0
 20
9.0
  9
$UNITMODE
 70
     0
  9
$VISRETAIN
 70
     1
  9
$PLINEGEN
 70
     0
  9
$PSLTSCALE
 70
     0
  9
$TREEDEPTH
 70
  3020
  9
$CMLSTYLE
  2
Standard
  9
$CMLJUST
 70
     0
  9
$CMLSCALE
 40
1.0
  9
$PROXYGRAPHICS
 70
     1
  9
$MEASUREMENT
 70
     0
  9
$CELWEIGHT
370
    -1
  9
$ENDCAPS
280
     0
  9
$JOINSTYLE
280
     0
  9
$LWDISPLAY
290
     0
  9
$INSUNITS
 70
     0
  9
$HYPERLINKBASE
  1

  9
$STYLESHEET
  1

  9
$XEDIT
290
     1
  9
$CEPSNTYPE
380
     0
  9
$PSTYLEMODE
290
     1
  9
$FINGERPRINTGUID
  2
{77095E5F-9CE7-11D7-970D-0040F4541FA8}
  9
$VERSIONGUID
  2
{73F2B0E9-C20A-44E1-BC50-6AE8B0619A34}
  9
$EXTNAMES
290
     1
  9
$PSVPSCALE
 40
0.0
  9
$OLESTARTUP
290
     0
  0
ENDSEC
  0
SECTION
  2
CLASSES
  0
CLASS
  1
ACDBDICTIONARYWDFLT
  2
AcDbDictionaryWithDefault
  3
ObjectDBX Classes
 90
        0
280
     0
281
     0
  0
CLASS
  1
ACDBPLACEHOLDER
  2
AcDbPlaceHolder
  3
ObjectDBX Classes
 90
        0
280
     0
281
     0
  0
CLASS
  1
LAYOUT
  2
AcDbLayout
  3
ObjectDBX Classes
 90
        0
280
     0
281
     0
  0
CLASS
  1
LONG_TRANSACTION
  2
AcDbLongTransaction
  3
ObjectDBX Classes
 90
    32768
280
     0
281
     0
  0
CLASS
  1
LWPOLYLINE
  2
AcDbPolyline
  3
ObjectDBX Classes
 90
        0
280
     0
281
     1
  0
CLASS
  1
HATCH
  2
AcDbHatch
  3
ObjectDBX Classes
 90
    32768
280
     0
281
     1
  0
CLASS
  1
XRECORD
  2
AcDbXrecord
  3
ObjectDBX Classes
 90
        0
280
     0
281
     0
  0
CLASS
  1
LONG_TRANSACTION
  2
AcDbLongTransaction
  3
ObjectDBX Classes
 90
    32768
280
     0
281
     0
  0
CLASS
  1
LWPOLYLINE
  2
AcDbPolyline
  3
ObjectDBX Classes
 90
        0
280
     0
281
     1
  0
CLASS
  1
HATCH
  2
AcDbHatch
  3
ObjectDBX Classes
 90
    32768
280
     0
281
     1
  0
CLASS
  1
XRECORD
  2
AcDbXrecord
  3
ObjectDBX Classes
 90
        0
280
     0
281
     0
  0
CLASS
  1
DICTIONARYVAR
  2
AcDbDictionaryVar
  3
ObjectDBX Classes
 90
        0
280
     0
281
     0
  0
CLASS
  1
PLOTSETTINGS
  2
AcDbPlotSettings
  3
ObjectDBX Classes
 90
        0
280
     0
281
     0
  0
CLASS
  1
SORTENTSTABLE
  2
AcDbSortentsTable
  3
ObjectDBX Classes
 90
        0
280
     0
281
     0
  0
CLASS
  1
TABLESTYLE
  2
AcDbTableStyle
  3
ObjectDBX Classes
 90
     2047
280
     0
281
     0
  0
ENDSEC
  0
SECTION
  2
TABLES
  0
TABLE
  2
VPORT
  5
8
330
0
100
AcDbSymbolTable
 70
     4
  0
VPORT
  5
EAC4
330
8
100
AcDbSymbolTableRecord
100
AcDbViewportTableRecord
  2
*Active
 70
     0
 10
0.0
 20
0.0
 11
1.0
 21
1.0
 12
2320.297924511713
 22
335.838386607243
 13
457.9999999999997
 23
1082.0
 14
10.0
 24
10.0
 15
10.0
 25
10.0
 16
0.0
 26
0.0
 36
1.0
 17
0.0
 27
0.0
 37
0.0
 40
394.9152004289473
 41
1.530456852791878
 42
1.0
 43
0.0
 44
0.0
 50
0.0
 51
0.0
 71
     0
 72
  2000
 73
     1
 74
     1
 75
     0
 76
     0
 77
     0
 78
     0
281
     0
 65
     1
110
0.0
120
0.0
130
0.0
111
1.0
121
0.0
131
0.0
112
0.0
122
1.0
132
0.0
 79
     0
146
0.0
  0
ENDTAB
  0
TABLE
  2
LTYPE
  5
5
330
0
100
AcDbSymbolTable
 70
     6
  0
LTYPE
  5
13
330
5
100
AcDbSymbolTableRecord
100
AcDbLinetypeTableRecord
  2
ByBlock
 70
     0
  3

 72
    65
 73
     0
 40
0.0
  0
LTYPE
  5
14
330
5
100
AcDbSymbolTableRecord
100
AcDbLinetypeTableRecord
  2
ByLayer
 70
     0
  3

 72
    65
 73
     0
 40
0.0
  0
LTYPE
  5
15
330
5
100
AcDbSymbolTableRecord
100
AcDbLinetypeTableRecord
  2
CONTINUOUS
 70
     0
  3
連續線 ________________________
 72
    65
 73
     0
 40
0.0
  0
LTYPE
  5
225
330
5
100
AcDbSymbolTableRecord
100
AcDbLinetypeTableRecord
  2
BYBLOCK
 70
     0
  3
Solid line
 72
    65
 73
     0
 40
0.0
  0
LTYPE
  5
226
330
5
100
AcDbSymbolTableRecord
100
AcDbLinetypeTableRecord
  2
BYLAYER
 70
     0
  3
Solid line
 72
    65
 73
     0
 40
0.0
  0
LTYPE
  5
413C
330
5
100
AcDbSymbolTableRecord
100
AcDbLinetypeTableRecord
  2
CENTER2
 70
     0
  3
Center (.5x) ___ _ ___ _ ___ _ ___ _ ___ _ ___
 72
    65
 73
     4
 40
28.575
 49
19.05
 74
     0
 49
-3.174999999999999
 74
     0
 49
3.174999999999999
 74
     0
 49
-3.174999999999999
 74
     0
  0
LTYPE
  5
413D
330
5
100
AcDbSymbolTableRecord
100
AcDbLinetypeTableRecord
  2
DASHED2
 70
     0
  3
Dashed (.5x) _ _ _ _ _ _ _ _ _ _ _ _ _ _ _ _ _
 72
    65
 73
     2
 40
9.524999999999998
 49
6.349999999999999
 74
     0
 49
-3.174999999999999
 74
     0
  0
LTYPE
  5
69DC
330
5
100
AcDbSymbolTableRecord
100
AcDbLinetypeTableRecord
  2
DASHED
 70
     0
  3
__ __ __ __ __ __ __ __ __ __ __ __ __ __ __
 72
    65
 73
     2
 40
4.0
 49
3.0
 74
     0
 49
-1.0
 74
     0
  0
ENDTAB
  0
TABLE
  2
LAYER
  5
2
102
{ACAD_XDICTIONARY
360
43C2
102
}
330
0
100
AcDbSymbolTable
 70
     7
  0
LAYER
  5
10
330
2
100
AcDbSymbolTableRecord
100
AcDbLayerTableRecord
  2
0
 70
     0
 62
     7
  6
CONTINUOUS
370
    -3
390
F
  0
LAYER
  5
413E
330
2
100
AcDbSymbolTableRecord
100
AcDbLayerTableRecord
  2
指線
 70
     0
 62
     3
  6
CONTINUOUS
370
    15
390
F
  0
LAYER
  5
413F
330
2
100
AcDbSymbolTableRecord
100
AcDbLayerTableRecord
  2
中心線
 70
     0
 62
     4
  6
CENTER2
370
    20
390
F
  0
LAYER
  5
4140
330
2
100
AcDbSymbolTableRecord
100
AcDbLayerTableRecord
  2
虛線
 70
     0
 62
     6
  6
DASHED2
290
     0
370
    -3
390
F
  0
LAYER
  5
43B4
330
2
100
AcDbSymbolTableRecord
100
AcDbLayerTableRecord
  2
建構線
 70
     0
 62
     1
  6
CONTINUOUS
370
    -3
390
F
  0
LAYER
  5
69DF
330
2
100
AcDbSymbolTableRecord
100
AcDbLayerTableRecord
  2
標註線
 70
     0
 62
     3
  6
CONTINUOUS
370
    13
390
F
  0
LAYER
  5
C701
330
2
100
AcDbSymbolTableRecord
100
AcDbLayerTableRecord
  2
Defpoints
 70
     0
 62
     7
  6
CONTINUOUS
290
     0
370
    -3
390
F
  0
ENDTAB
  0
TABLE
  2
STYLE
  5
3
330
0
100
AcDbSymbolTable
 70
     1
  0
STYLE
  5
11
330
3
100
AcDbSymbolTableRecord
100
AcDbTextStyleTableRecord
  2
STANDARD
 70
     0
 40
0.0
 41
1.0
 50
0.0
 71
     0
 42
3.0
  3

  4

  0
ENDTAB
  0
TABLE
  2
VIEW
  5
6
330
0
100
AcDbSymbolTable
 70
     0
  0
ENDTAB
  0
TABLE
  2
UCS
  5
7
330
0
100
AcDbSymbolTable
 70
     0
  0
ENDTAB
  0
TABLE
  2
APPID
  5
9
330
0
100
AcDbSymbolTable
 70
     4
  0
APPID
  5
12
330
9
100
AcDbSymbolTableRecord
100
AcDbRegAppTableRecord
  2
ACAD
 70
     0
  0
APPID
  5
230
330
9
100
AcDbSymbolTableRecord
100
AcDbRegAppTableRecord
  2
TCAD
 70
     0
  0
APPID
  5
4142
330
9
100
AcDbSymbolTableRecord
100
AcDbRegAppTableRecord
  2
CONTENTBLOCKICON
 70
     0
  0
APPID
  5
5D91
330
9
100
AcDbSymbolTableRecord
100
AcDbRegAppTableRecord
  2
pntflag
 70
     0
  0
ENDTAB
  0
TABLE
  2
DIMSTYLE
  5
A
330
0
100
AcDbSymbolTable
 70
     1
100
AcDbDimStyleTable
 71
     1
340
3C9D
  0
DIMSTYLE
105
3C9D
330
A
100
AcDbSymbolTableRecord
100
AcDbDimStyleTableRecord
  2
Standard
 70
     0
340
11
  0
ENDTAB
  0
TABLE
  2
BLOCK_RECORD
  5
1
330
0
100
AcDbSymbolTable
 70
     2
  0
BLOCK_RECORD
  5
1E
102
{ACAD_XDICTIONARY
360
3D1E
102
}
330
1
100
AcDbSymbolTableRecord
100
AcDbBlockTableRecord
  2
*Model_Space
340
21
  0
BLOCK_RECORD
  5
1A
102
{ACAD_XDICTIONARY
360
3D20
102
}
330
1
100
AcDbSymbolTableRecord
100
AcDbBlockTableRecord
  2
*Paper_Space
340
1D
  0
BLOCK_RECORD
  5
69B7
102
{ACAD_XDICTIONARY
360
69B8
102
}
330
1
100
AcDbSymbolTableRecord
100
AcDbBlockTableRecord
  2
A$C51E2538E
340
0
  0
BLOCK_RECORD
  5
69CB
102
{ACAD_XDICTIONARY
360
69CC
102
}
330
1
100
AcDbSymbolTableRecord
100
AcDbBlockTableRecord
  2
A$C3310154B
340
0
  0
ENDTAB
  0
ENDSEC
  0
SECTION
  2
BLOCKS
  0
BLOCK
  5
254
330
1E
100
AcDbEntity
  8
0
100
AcDbBlockBegin
  2
*Model_Space
 70
     0
 10
0.0
 20
0.0
 30
0.0
  3
*Model_Space
  1

  0
ENDBLK
  5
255
330
1E
100
AcDbEntity
  8
0
100
AcDbBlockEnd
  0
BLOCK
  5
252
330
1A
100
AcDbEntity
 67
     1
  8
0
100
AcDbBlockBegin
  2
*Paper_Space
 70
     0
 10
0.0
 20
0.0
 30
0.0
  3
*Paper_Space
  1

  0
ENDBLK
  5
253
330
1A
100
AcDbEntity
 67
     1
  8
0
100
AcDbBlockEnd
  0
BLOCK
  5
69BA
330
69B7
100
AcDbEntity
  8
0
 62
     1
 48
0.27
100
AcDbBlockBegin
  2
A$C51E2538E
 70
     0
 10
0.0
 20
0.0
 30
0.0
  3
A$C51E2538E
  1

  0
LINE
  5
69BB
330
69B7
100
AcDbEntity
  8
虛線
 48
0.25
100
AcDbLine
 10
9.230939415452212
 20
1.99838789798423
 30
0.0
 11
2.230939415459943
 21
1.998387897983548
 31
0.0
  0
LINE
  5
69BC
330
69B7
100
AcDbEntity
  8
虛線
 48
0.25
100
AcDbLine
 10
9.230939415453576
 20
15.79841841556197
 30
0.0
 11
9.230939415452212
 21
1.99838789798423
 31
0.0
  0
LINE
  5
69BD
330
69B7
100
AcDbEntity
  8
虛線
 48
0.25
100
AcDbLine
 10
0.2309394154581241
 20
24.698418415562
 30
0.0
 11
0.2309394154590336
 21
16.09842604495623
 31
0.0
  0
LINE
  5
69BE
330
69B7
100
AcDbEntity
  8
虛線
 48
0.25
100
AcDbLine
 10
2.230939415453576
 20
15.79841841556191
 30
0.0
 11
2.230939415459943
 21
1.998387897983576
 31
0.0
  0
LINE
  5
69BF
330
69B7
100
AcDbEntity
  8
虛線
 48
0.25
100
AcDbLine
 10
0.2309394154590336
 20
16.09835738040544
 30
0.0
 11
11.23093941545221
 21
16.09835738040573
 31
0.0
  0
LINE
  5
69C0
330
69B7
100
AcDbEntity
  8
中心線
 48
0.25
100
AcDbLine
 10
5.730939415455679
 20
27.09841841556201
 30
0.0
 11
5.730939415449938
 21
0.0
 31
0.0
  0
LINE
  5
69C1
330
69B7
100
AcDbEntity
  8
虛線
 48
0.25
100
AcDbLine
 10
2.230939415459943
 20
1.998387897983548
 30
0.0
 11
1.730939415460852
 21
1.498387897984002
 31
0.0
  0
LINE
  5
69C2
330
69B7
100
AcDbEntity
  8
虛線
 48
0.25
100
AcDbLine
 10
9.230939415452212
 20
1.99838789798423
 30
0.0
 11
9.730939415451302
 21
1.498387897984287
 31
0.0
  0
LINE
  5
69C3
330
69B7
100
AcDbEntity
  8
虛線
 48
0.25
100
AcDbLine
 10
11.23093941545358
 20
24.698418415562
 30
0.0
 11
11.23093941545221
 21
16.09835738040573
 31
0.0
  0
LINE
  5
69C4
330
69B7
100
AcDbEntity
  8
虛線
 48
0.25
100
AcDbLine
 10
0.2309394154535767
 20
24.698418415562
 30
0.0
 11
11.23093941545358
 21
24.698418415562
 31
0.0
  0
LINE
  5
69C5
330
69B7
100
AcDbEntity
  8
虛線
 48
0.25
100
AcDbLine
 10
2.230939415453576
 20
15.79841841556197
 30
0.0
 11
9.230939415453576
 21
15.79841841556197
 31
0.0
  0
LINE
  5
69C6
330
69B7
100
AcDbEntity
  8
虛線
 48
0.25
100
AcDbLine
 10
1.930939415453394
 20
16.09841841556192
 30
0.0
 11
2.230939415453576
 21
15.79841841556191
 31
0.0
  0
LINE
  5
69C7
330
69B7
100
AcDbEntity
  8
虛線
 48
0.25
100
AcDbLine
 10
0.2309394154535767
 20
24.698418415562
 30
0.0
 11
-0.0000006922223292
 21
25.09841841556204
 31
0.0
  0
LINE
  5
69C8
330
69B7
100
AcDbEntity
  8
虛線
 48
0.25
100
AcDbLine
 10
9.230939415453576
 20
15.79841841556197
 30
0.0
 11
9.530939415453758
 21
16.09841841556198
 31
0.0
  0
LINE
  5
69C9
330
69B7
100
AcDbEntity
  8
虛線
 48
0.25
100
AcDbLine
 10
11.23093941545358
 20
24.698418415562
 30
0.0
 11
11.46187952312948
 21
25.09841841556204
 31
0.0
  0
ENDBLK
  5
69CA
330
69B7
100
AcDbEntity
  8
0
 62
     1
 48
0.27
100
AcDbBlockEnd
  0
BLOCK
  5
69CE
330
69CB
100
AcDbEntity
  8
0
 62
     1
 48
0.27
100
AcDbBlockBegin
  2
A$C3310154B
 70
     0
 10
0.0
 20
0.0
 30
0.0
  3
A$C3310154B
  1

  0
LINE
  5
69CF
330
69CB
100
AcDbEntity
  8
虛線
 48
0.2
100
AcDbLine
 10
0.4999707651827521
 20
12.80115016654724
 30
0.0
 11
0.4999707651836616
 21
5.30113016654775
 31
0.0
  0
LINE
  5
69D0
330
69CB
100
AcDbEntity
  8
虛線
 48
0.2
100
AcDbLine
 10
6.499970765181842
 20
12.80111016654831
 30
0.0
 11
6.499970765183661
 21
5.301130166548432
 31
0.0
  0
LINE
  5
69D1
330
69CB
100
AcDbEntity
  8
虛線
 48
0.2
100
AcDbLine
 10
6.499970765183661
 20
5.301130166548432
 30
0.0
 11
0.4999707651836616
 21
5.30113016654775
 31
0.0
  0
LINE
  5
69D2
330
69CB
100
AcDbEntity
  8
中心線
 48
0.25
100
AcDbLine
 10
3.49999076518344
 20
15.30112016654811
 30
0.0
 11
3.499990765177699
 21
0.000000166540076
 31
0.0
  0
LINE
  5
69D3
330
69CB
100
AcDbEntity
  8
虛線
 48
0.2
100
AcDbLine
 10
5.999980765182044
 20
12.30112016654846
 30
0.0
 11
5.999980765187501
 21
2.30113016655747
 31
0.0
  0
LINE
  5
69D4
330
69CB
100
AcDbEntity
  8
虛線
 48
0.2
100
AcDbLine
 10
1.000000765181994
 20
12.30112016654812
 30
0.0
 11
1.000000765187905
 21
2.301130166554685
 31
0.0
  0
LINE
  5
69D5
330
69CB
100
AcDbEntity
  8
虛線
 48
0.2
100
AcDbLine
 10
5.999980765187501
 20
2.30113016655747
 30
0.0
 11
1.000000765187905
 21
2.301130166554685
 31
0.0
  0
LINE
  5
69D6
330
69CB
100
AcDbEntity
  8
虛線
 48
0.2
100
AcDbLine
 10
5.999980765182499
 20
12.3011201665484
 30
0.0
 11
1.000000765181994
 21
12.30112016654817
 31
0.0
  0
LINE
  5
69D7
330
69CB
100
AcDbEntity
  8
虛線
 48
0.2
100
AcDbLine
 10
5.999980765182044
 20
12.3011201665484
 30
0.0
 11
6.999980765182499
 21
13.30112016654863
 31
0.0
  0
LINE
  5
69D8
330
69CB
100
AcDbEntity
  8
虛線
 48
0.2
100
AcDbLine
 10
5.999980765187956
 20
2.301130166557413
 30
0.0
 11
3.499990765183611
 21
0.801130166544965
 31
0.0
  0
LINE
  5
69D9
330
69CB
100
AcDbEntity
  8
虛線
 48
0.2
100
AcDbLine
 10
1.000000765187905
 20
2.30113016657259
 30
0.0
 11
3.499990765178154
 21
0.801130166544965
 31
0.0
  0
LINE
  5
69DA
330
69CB
100
AcDbEntity
  8
虛線
 48
0.2
100
AcDbLine
 10
1.00000076518495
 20
12.30112016654834
 30
0.0
 11
0.0000007651844385
 21
13.30112016654854
 31
0.0
  0
ENDBLK
  5
69DB
330
69CB
100
AcDbEntity
  8
0
 62
     1
 48
0.27
100
AcDbBlockEnd
  0
ENDSEC
  0
SECTION
  2
ENTITIES
  0
ARC
  5
A955
330
1E
100
AcDbEntity
  8
0
100
AcDbCircle
 10
2504.115526854377
 20
259.9219766793559
 30
0.0
 40
2.258017748891656
100
AcDbArc
 50
285.9630221688284
 51
359.0723572120041
  0
LINE
  5
A956
330
1E
100
AcDbEntity
  8
0
100
AcDbLine
 10
2506.373248662943
 20
259.8854200186887
 30
0.0
 11
2506.373248662943
 21
262.5870533363906
 31
0.0
  0
ARC
  5
A957
330
1E
100
AcDbEntity
  8
0
100
AcDbCircle
 10
2504.115526854377
 20
262.5504966757225
 30
0.0
 40
2.258017748891656
100
AcDbArc
 50
0.9276427879959022
 51
74.03697783117156
  0
ARC
  5
A958
330
1E
100
AcDbEntity
  8
0
100
AcDbCircle
 10
2318.35751301891
 20
259.9219766793559
 30
0.0
 40
2.258017748891656
100
AcDbArc
 50
180.9276427879959
 51
254.0369778311716
  0
LINE
  5
A959
330
1E
100
AcDbEntity
  8
0
100
AcDbLine
 10
2316.099791210345
 20
259.8854200186887
 30
0.0
 11
2316.099791210345
 21
262.5870533363906
 31
0.0
  0
ARC
  5
A95A
330
1E
100
AcDbEntity
  8
0
100
AcDbCircle
 10
2318.35751301891
 20
262.5504966757225
 30
0.0
 40
2.258017748891656
100
AcDbArc
 50
105.9630221688284
 51
179.0723572120041
  0
POINT
  5
A9F1
330
1E
100
AcDbEntity
  8
0
100
AcDbPoint
 10
2304.164637428943
 20
273.2362593404707
 30
0.0
1001
pntflag
1000
endpoint
  0
LINE
  5
A9F2
330
1E
100
AcDbEntity
  8
0
 48
0.27
100
AcDbLine
 10
2308.505622428944
 20
273.2362593404707
 30
0.0
 11
2308.465864928944
 21
272.7993393404708
 31
0.0
  0
LINE
  5
A9F3
330
1E
100
AcDbEntity
  8
0
 48
0.27
100
AcDbLine
 10
2308.465864928944
 20
272.7993393404708
 30
0.0
 11
2308.348121178944
 21
272.3792093404709
 31
0.0
  0
LINE
  5
A9F4
330
1E
100
AcDbEntity
  8
0
 48
0.27
100
AcDbLine
 10
2308.465864928944
 20
273.6731793404708
 30
0.0
 11
2308.505622428944
 21
273.2362593404707
 31
0.0
  0
LINE
  5
A9F5
330
1E
100
AcDbEntity
  8
0
 48
0.27
100
AcDbLine
 10
2308.348121178944
 20
272.3792093404709
 30
0.0
 11
2308.156916178944
 21
271.9920155904708
 31
0.0
  0
LINE
  5
A9F6
330
1E
100
AcDbEntity
  8
0
 48
0.27
100
AcDbLine
 10
2308.348121178944
 20
274.0933093404708
 30
0.0
 11
2308.465864928944
 21
273.6731793404708
 31
0.0
  0
LINE
  5
A9F7
330
1E
100
AcDbEntity
  8
0
 48
0.27
100
AcDbLine
 10
2308.156916178944
 20
271.9920155904708
 30
0.0
 11
2307.899596178943
 21
271.6526368404709
 31
0.0
  0
LINE
  5
A9F8
330
1E
100
AcDbEntity
  8
0
 48
0.27
100
AcDbLine
 10
2308.156916178944
 20
274.4805030904708
 30
0.0
 11
2308.348121178944
 21
274.0933093404708
 31
0.0
  0
LINE
  5
A9F9
330
1E
100
AcDbEntity
  8
0
 48
0.27
100
AcDbLine
 10
2307.586052428944
 20
271.3741168404709
 30
0.0
 11
2307.899596178943
 21
271.6526368404709
 31
0.0
  0
LINE
  5
A9FA
330
1E
100
AcDbEntity
  8
0
 48
0.27
100
AcDbLine
 10
2307.899596178943
 20
274.8198805904708
 30
0.0
 11
2308.156916178944
 21
274.4805030904708
 31
0.0
  0
LINE
  5
A9FB
330
1E
100
AcDbEntity
  8
0
 48
0.27
100
AcDbLine
 10
2310.062202428944
 20
273.2362593404707
 30
0.0
 11
2310.005542428944
 21
272.6135818404707
 31
0.0
  0
LINE
  5
A9FC
330
1E
100
AcDbEntity
  8
0
 48
0.27
100
AcDbLine
 10
2310.005542428944
 20
272.6135818404707
 30
0.0
 11
2309.837738678943
 21
272.0148330904708
 31
0.0
  0
LINE
  5
A9FD
330
1E
100
AcDbEntity
  8
0
 48
0.27
100
AcDbLine
 10
2310.005542428944
 20
273.8589368404707
 30
0.0
 11
2310.062202428944
 21
273.2362593404707
 31
0.0
  0
LINE
  5
A9FE
330
1E
100
AcDbEntity
  8
0
 48
0.27
100
AcDbLine
 10
2307.228331178944
 20
271.1671568404709
 30
0.0
 11
2307.586052428944
 21
271.3741168404709
 31
0.0
  0
LINE
  5
A9FF
330
1E
100
AcDbEntity
  8
0
 48
0.27
100
AcDbLine
 10
2307.586052428944
 20
275.0984018404708
 30
0.0
 11
2307.899596178943
 21
274.8198805904708
 31
0.0
  0
LINE
  5
AA00
330
1E
100
AcDbEntity
  8
0
 48
0.27
100
AcDbLine
 10
2309.837738678943
 20
272.0148330904708
 30
0.0
 11
2309.565242428944
 21
271.4630243404708
 31
0.0
  0
LINE
  5
AA01
330
1E
100
AcDbEntity
  8
0
 48
0.27
100
AcDbLine
 10
2309.837738678943
 20
274.4576843404709
 30
0.0
 11
2310.005542428944
 21
273.8589368404707
 31
0.0
  0
LINE
  5
AA02
330
1E
100
AcDbEntity
  8
0
 48
0.27
100
AcDbLine
 10
2309.565242428944
 20
271.4630243404708
 30
0.0
 11
2309.198523678944
 21
270.9793593404709
 31
0.0
  0
LINE
  5
AA03
330
1E
100
AcDbEntity
  8
0
 48
0.27
100
AcDbLine
 10
2309.565242428944
 20
275.0094943404708
 30
0.0
 11
2309.837738678943
 21
274.4576843404709
 31
0.0
  0
LINE
  5
AA04
330
1E
100
AcDbEntity
  8
0
 48
0.27
100
AcDbLine
 10
2306.840182428944
 20
271.0397118404708
 30
0.0
 11
2307.228331178944
 21
271.1671568404709
 31
0.0
  0
LINE
  5
AA05
330
1E
100
AcDbEntity
  8
0
 48
0.27
100
AcDbLine
 10
2307.228331178944
 20
275.3053605904709
 30
0.0
 11
2307.586052428944
 21
275.0984018404708
 31
0.0
  0
LINE
  5
AA06
330
1E
100
AcDbEntity
  8
0
 48
0.27
100
AcDbLine
 10
2308.751674928943
 20
270.5824255904708
 30
0.0
 11
2309.198523678944
 21
270.9793593404709
 31
0.0
  0
LINE
  5
AA07
330
1E
100
AcDbEntity
  8
0
 48
0.27
100
AcDbLine
 10
2309.198523678944
 20
275.4931593404708
 30
0.0
 11
2309.565242428944
 21
275.0094943404708
 31
0.0
  0
LINE
  5
AA08
330
1E
100
AcDbEntity
  8
0
 48
0.27
100
AcDbLine
 10
2310.216827428943
 20
273.2362593404707
 30
0.0
 11
2310.160786178943
 21
272.6203818404708
 31
0.0
  0
LINE
  5
AA09
330
1E
100
AcDbEntity
  8
0
 48
0.27
100
AcDbLine
 10
2306.436521178944
 20
270.9966793404708
 30
0.0
 11
2306.840182428944
 21
271.0397118404708
 31
0.0
  0
LINE
  5
AA0A
330
1E
100
AcDbEntity
  8
0
 48
0.27
100
AcDbLine
 10
2306.840182428944
 20
275.4328055904709
 30
0.0
 11
2307.228331178944
 21
275.3053605904709
 31
0.0
  0
LINE
  5
AA0B
330
1E
100
AcDbEntity
  8
0
 48
0.27
100
AcDbLine
 10
2310.160786178943
 20
272.6203818404708
 30
0.0
 11
2309.994816178944
 21
272.0281718404708
 31
0.0
  0
LINE
  5
AA0C
330
1E
100
AcDbEntity
  8
0
 48
0.27
100
AcDbLine
 10
2310.160786178943
 20
273.8521368404708
 30
0.0
 11
2310.216827428943
 21
273.2362593404707
 31
0.0
  0
LINE
  5
AA0D
330
1E
100
AcDbEntity
  8
0
 48
0.27
100
AcDbLine
 10
2308.241869928944
 20
270.2874768404708
 30
0.0
 11
2308.751674928943
 21
270.5824255904708
 31
0.0
  0
LINE
  5
AA0E
330
1E
100
AcDbEntity
  8
0
 48
0.27
100
AcDbLine
 10
2308.751674928943
 20
275.8900930904708
 30
0.0
 11
2309.198523678944
 21
275.4931593404708
 31
0.0
  0
LINE
  5
AA0F
330
1E
100
AcDbEntity
  8
0
 48
0.27
100
AcDbLine
 10
2309.994816178944
 20
272.0281718404708
 30
0.0
 11
2309.725294928944
 21
271.4823880904707
 31
0.0
  0
LINE
  5
AA10
330
1E
100
AcDbEntity
  8
0
 48
0.27
100
AcDbLine
 10
2309.994816178944
 20
274.4443468404709
 30
0.0
 11
2310.160786178943
 21
273.8521368404708
 31
0.0
  0
LINE
  5
AA11
330
1E
100
AcDbEntity
  8
0
 48
0.27
100
AcDbLine
 10
2309.725294928944
 20
271.4823880904707
 30
0.0
 11
2309.362581178943
 21
271.0040043404708
 31
0.0
  0
LINE
  5
AA12
330
1E
100
AcDbEntity
  8
0
 48
0.27
100
AcDbLine
 10
2309.725294928944
 20
274.9901305904707
 30
0.0
 11
2309.994816178944
 21
274.4443468404709
 31
0.0
  0
LINE
  5
AA13
330
1E
100
AcDbEntity
  8
0
 48
0.27
100
AcDbLine
 10
2307.688698678944
 20
270.1058480904708
 30
0.0
 11
2308.241869928944
 21
270.2874768404708
 31
0.0
  0
LINE
  5
AA14
330
1E
100
AcDbEntity
  8
0
 48
0.27
100
AcDbLine
 10
2308.241869928944
 20
276.1850418404709
 30
0.0
 11
2308.751674928943
 21
275.8900930904708
 31
0.0
  0
LINE
  5
AA15
330
1E
100
AcDbEntity
  8
0
 48
0.27
100
AcDbLine
 10
2306.032858678944
 20
271.0397118404708
 30
0.0
 11
2306.436521178944
 21
270.9966793404708
 31
0.0
  0
LINE
  5
AA16
330
1E
100
AcDbEntity
  8
0
 48
0.27
100
AcDbLine
 10
2306.436521178944
 20
275.4758380904709
 30
0.0
 11
2306.840182428944
 21
275.4328055904709
 31
0.0
  0
LINE
  5
AA17
330
1E
100
AcDbEntity
  8
0
 48
0.27
100
AcDbLine
 10
2308.920612428944
 20
270.6114055904709
 30
0.0
 11
2309.362581178943
 21
271.0040043404708
 31
0.0
  0
LINE
  5
AA18
330
1E
100
AcDbEntity
  8
0
 48
0.27
100
AcDbLine
 10
2309.362581178943
 20
275.4685143404708
 30
0.0
 11
2309.725294928944
 21
274.9901305904707
 31
0.0
  0
LINE
  5
AA19
330
1E
100
AcDbEntity
  8
0
 48
0.27
100
AcDbLine
 10
2307.113419928944
 20
270.0445205904709
 30
0.0
 11
2307.688698678944
 21
270.1058480904708
 31
0.0
  0
LINE
  5
AA1A
330
1E
100
AcDbEntity
  8
0
 48
0.27
100
AcDbLine
 10
2307.688698678944
 20
270.1058480904708
 30
0.0
 11
2307.869243678943
 21
270.140033090471
 31
0.0
  0
LINE
  5
AA1B
330
1E
100
AcDbEntity
  8
0
 48
0.27
100
AcDbLine
 10
2307.688698678944
 20
276.3666693404707
 30
0.0
 11
2308.241869928944
 21
276.1850418404709
 31
0.0
  0
LINE
  5
AA1C
330
1E
100
AcDbEntity
  8
0
 48
0.27
100
AcDbLine
 10
2305.644709928944
 20
271.1671568404709
 30
0.0
 11
2306.032858678944
 21
271.0397118404708
 31
0.0
  0
LINE
  5
AA1D
330
1E
100
AcDbEntity
  8
0
 48
0.27
100
AcDbLine
 10
2306.032858678944
 20
275.4328055904709
 30
0.0
 11
2306.436521178944
 21
275.4758380904709
 31
0.0
  0
LINE
  5
AA1E
330
1E
100
AcDbEntity
  8
0
 48
0.27
100
AcDbLine
 10
2308.416373678943
 20
270.3196780904709
 30
0.0
 11
2308.920612428944
 21
270.6114055904709
 31
0.0
  0
LINE
  5
AA1F
330
1E
100
AcDbEntity
  8
0
 48
0.27
100
AcDbLine
 10
2308.920612428944
 20
275.8611130904708
 30
0.0
 11
2309.362581178943
 21
275.4685143404708
 31
0.0
  0
LINE
  5
AA20
330
1E
100
AcDbEntity
  8
0
 48
0.27
100
AcDbLine
 10
2307.869243678943
 20
270.140033090471
 30
0.0
 11
2308.416373678943
 21
270.3196780904709
 31
0.0
  0
LINE
  5
AA21
330
1E
100
AcDbEntity
  8
0
 48
0.27
100
AcDbLine
 10
2308.416373678943
 20
276.1528405904708
 30
0.0
 11
2308.920612428944
 21
275.8611130904708
 31
0.0
  0
LINE
  5
AA22
330
1E
100
AcDbEntity
  8
0
 48
0.27
100
AcDbLine
 10
2306.538141178943
 20
270.1058480904708
 30
0.0
 11
2307.113419928944
 21
270.0445205904709
 31
0.0
  0
LINE
  5
AA23
330
1E
100
AcDbEntity
  8
0
 48
0.27
100
AcDbLine
 10
2307.113419928944
 20
276.4279980904707
 30
0.0
 11
2307.688698678944
 21
276.3666693404707
 31
0.0
  0
LINE
  5
AA24
330
1E
100
AcDbEntity
  8
0
 48
0.27
100
AcDbLine
 10
2307.688698678944
 20
276.3666693404707
 30
0.0
 11
2307.869243678943
 21
276.3324855904709
 31
0.0
  0
LINE
  5
AA25
330
1E
100
AcDbEntity
  8
0
 48
0.27
100
AcDbLine
 10
2305.286988678943
 20
271.3741168404709
 30
0.0
 11
2305.644709928944
 21
271.1671568404709
 31
0.0
  0
LINE
  5
AA26
330
1E
100
AcDbEntity
  8
0
 48
0.27
100
AcDbLine
 10
2305.644709928944
 20
275.3053605904709
 30
0.0
 11
2306.032858678944
 21
275.4328055904709
 31
0.0
  0
LINE
  5
AA27
330
1E
100
AcDbEntity
  8
0
 48
0.27
100
AcDbLine
 10
2307.869243678943
 20
276.3324855904709
 30
0.0
 11
2308.416373678943
 21
276.1528405904708
 31
0.0
  0
LINE
  5
AA28
330
1E
100
AcDbEntity
  8
0
 48
0.27
100
AcDbLine
 10
2304.973444928943
 20
271.6526368404709
 30
0.0
 11
2305.286988678943
 21
271.3741168404709
 31
0.0
  0
LINE
  5
AA29
330
1E
100
AcDbEntity
  8
0
 48
0.27
100
AcDbLine
 10
2305.286988678943
 20
275.0984018404708
 30
0.0
 11
2305.644709928944
 21
275.3053605904709
 31
0.0
  0
LINE
  5
AA2A
330
1E
100
AcDbEntity
  8
0
 48
0.27
100
AcDbLine
 10
2305.984969928943
 20
270.2874768404708
 30
0.0
 11
2306.538141178943
 21
270.1058480904708
 31
0.0
  0
LINE
  5
AA2B
330
1E
100
AcDbEntity
  8
0
 48
0.27
100
AcDbLine
 10
2306.538141178943
 20
276.3666693404707
 30
0.0
 11
2307.113419928944
 21
276.4279980904707
 31
0.0
  0
LINE
  5
AA2C
330
1E
100
AcDbEntity
  8
0
 48
0.27
100
AcDbLine
 10
2304.716124928944
 20
271.9920155904708
 30
0.0
 11
2304.973444928943
 21
271.6526368404709
 31
0.0
  0
LINE
  5
AA2D
330
1E
100
AcDbEntity
  8
0
 48
0.27
100
AcDbLine
 10
2304.973444928943
 20
274.8198805904708
 30
0.0
 11
2305.286988678943
 21
275.0984018404708
 31
0.0
  0
LINE
  5
AA2E
330
1E
100
AcDbEntity
  8
0
 48
0.27
100
AcDbLine
 10
2305.475163678943
 20
270.5824255904708
 30
0.0
 11
2305.984969928943
 21
270.2874768404708
 31
0.0
  0
LINE
  5
AA2F
330
1E
100
AcDbEntity
  8
0
 48
0.27
100
AcDbLine
 10
2305.984969928943
 20
276.1850418404709
 30
0.0
 11
2306.538141178943
 21
276.3666693404707
 31
0.0
  0
LINE
  5
AA30
330
1E
100
AcDbEntity
  8
0
 48
0.27
100
AcDbLine
 10
2304.524919928944
 20
272.3792093404709
 30
0.0
 11
2304.716124928944
 21
271.9920155904708
 31
0.0
  0
LINE
  5
AA31
330
1E
100
AcDbEntity
  8
0
 48
0.27
100
AcDbLine
 10
2304.973444928943
 20
274.8198805904708
 30
0.0
 11
2304.716124928944
 21
274.4805030904708
 31
0.0
  0
LINE
  5
AA32
330
1E
100
AcDbEntity
  8
0
 48
0.27
100
AcDbLine
 10
2305.028316178943
 20
270.9793593404709
 30
0.0
 11
2305.475163678943
 21
270.5824255904708
 31
0.0
  0
LINE
  5
AA33
330
1E
100
AcDbEntity
  8
0
 48
0.27
100
AcDbLine
 10
2305.475163678943
 20
275.8900930904708
 30
0.0
 11
2305.984969928943
 21
276.1850418404709
 31
0.0
  0
LINE
  5
AA34
330
1E
100
AcDbEntity
  8
0
 48
0.27
100
AcDbLine
 10
2304.407176178944
 20
272.7993393404708
 30
0.0
 11
2304.524919928944
 21
272.3792093404709
 31
0.0
  0
LINE
  5
AA35
330
1E
100
AcDbEntity
  8
0
 48
0.27
100
AcDbLine
 10
2304.716124928944
 20
274.4805030904708
 30
0.0
 11
2304.524919928944
 21
274.0933093404708
 31
0.0
  0
LINE
  5
AA36
330
1E
100
AcDbEntity
  8
0
 48
0.27
100
AcDbLine
 10
2304.367418678944
 20
273.2362593404707
 30
0.0
 11
2304.407176178944
 21
272.7993393404708
 31
0.0
  0
LINE
  5
AA37
330
1E
100
AcDbEntity
  8
0
 48
0.27
100
AcDbLine
 10
2304.524919928944
 20
274.0933093404708
 30
0.0
 11
2304.407176178944
 21
273.6731793404708
 31
0.0
  0
LINE
  5
AA38
330
1E
100
AcDbEntity
  8
0
 48
0.27
100
AcDbLine
 10
2304.407176178944
 20
273.6731793404708
 30
0.0
 11
2304.367418678944
 21
273.2362593404707
 31
0.0
  0
LINE
  5
AA39
330
1E
100
AcDbEntity
  8
0
 48
0.27
100
AcDbLine
 10
2304.661596178943
 20
271.4630243404708
 30
0.0
 11
2305.028316178943
 21
270.9793593404709
 31
0.0
  0
LINE
  5
AA3A
330
1E
100
AcDbEntity
  8
0
 48
0.27
100
AcDbLine
 10
2305.028316178943
 20
275.4931593404708
 30
0.0
 11
2305.475163678943
 21
275.8900930904708
 31
0.0
  0
LINE
  5
AA3B
330
1E
100
AcDbEntity
  8
0
 48
0.27
100
AcDbLine
 10
2304.389099928943
 20
272.0148330904708
 30
0.0
 11
2304.661596178943
 21
271.4630243404708
 31
0.0
  0
LINE
  5
AA3C
330
1E
100
AcDbEntity
  8
0
 48
0.27
100
AcDbLine
 10
2305.028316178943
 20
275.4931593404708
 30
0.0
 11
2304.661596178943
 21
275.0094943404708
 31
0.0
  0
LINE
  5
AA3D
330
1E
100
AcDbEntity
  8
0
 48
0.27
100
AcDbLine
 10
2304.221297428944
 20
272.6135818404707
 30
0.0
 11
2304.389099928943
 21
272.0148330904708
 31
0.0
  0
LINE
  5
AA3E
330
1E
100
AcDbEntity
  8
0
 48
0.27
100
AcDbLine
 10
2304.661596178943
 20
275.0094943404708
 30
0.0
 11
2304.389099928943
 21
274.4576843404709
 31
0.0
  0
LINE
  5
AA3F
330
1E
100
AcDbEntity
  8
0
 48
0.27
100
AcDbLine
 10
2304.164637428943
 20
273.2362593404707
 30
0.0
 11
2304.221297428944
 21
272.6135818404707
 31
0.0
  0
LINE
  5
AA40
330
1E
100
AcDbEntity
  8
0
 48
0.27
100
AcDbLine
 10
2304.389099928943
 20
274.4576843404709
 30
0.0
 11
2304.221297428944
 21
273.8589368404707
 31
0.0
  0
LINE
  5
AA41
330
1E
100
AcDbEntity
  8
0
 48
0.27
100
AcDbLine
 10
2304.221297428944
 20
273.8589368404707
 30
0.0
 11
2304.164637428943
 21
273.2362593404707
 31
0.0
  0
LINE
  5
AA42
330
1E
100
AcDbEntity
  8
0
 48
0.27
100
AcDbLine
 10
2305.612184928944
 20
271.1859743404709
 30
0.0
 11
2305.615898678944
 21
271.1879943404708
 31
0.0
  0
LINE
  5
AA43
330
1E
100
AcDbEntity
  8
0
 48
0.27
100
AcDbLine
 10
2305.612184928944
 20
275.2865430904708
 30
0.0
 11
2305.615898678944
 21
275.2845243404709
 31
0.0
  0
LINE
  5
AA44
330
1E
100
AcDbEntity
  8
0
 48
0.27
100
AcDbLine
 10
2312.706603678943
 20
273.2362593404707
 30
0.0
 11
2312.640033678944
 21
272.5046705904708
 31
0.0
  0
LINE
  5
AA45
330
1E
100
AcDbEntity
  8
0
 48
0.27
100
AcDbLine
 10
2312.640033678944
 20
273.9678480904709
 30
0.0
 11
2312.706603678943
 21
273.2362593404707
 31
0.0
  0
LINE
  5
AA46
330
1E
100
AcDbEntity
  8
0
 48
0.27
100
AcDbLine
 10
2312.640033678944
 20
272.5046705904708
 30
0.0
 11
2312.442881178943
 21
271.8011955904708
 31
0.0
  0
LINE
  5
AA47
330
1E
100
AcDbEntity
  8
0
 48
0.27
100
AcDbLine
 10
2312.442881178943
 20
274.6713218404709
 30
0.0
 11
2312.640033678944
 21
273.9678480904709
 31
0.0
  0
LINE
  5
AA48
330
1E
100
AcDbEntity
  8
0
 48
0.27
100
AcDbLine
 10
2312.442881178943
 20
271.8011955904708
 30
0.0
 11
2312.122722428944
 21
271.1528705904709
 31
0.0
  0
LINE
  5
AA49
330
1E
100
AcDbEntity
  8
0
 48
0.27
100
AcDbLine
 10
2312.122722428944
 20
275.3196468404708
 30
0.0
 11
2312.442881178943
 21
274.6713218404709
 31
0.0
  0
LINE
  5
AA4A
330
1E
100
AcDbEntity
  8
0
 48
0.27
100
AcDbLine
 10
2312.122722428944
 20
271.1528705904709
 30
0.0
 11
2311.691861178943
 21
270.5846080904708
 31
0.0
  0
LINE
  5
AA4B
330
1E
100
AcDbEntity
  8
0
 48
0.27
100
AcDbLine
 10
2311.691861178943
 20
275.8879093404707
 30
0.0
 11
2312.122722428944
 21
275.3196468404708
 31
0.0
  0
LINE
  5
AA4C
330
1E
100
AcDbEntity
  8
0
 48
0.27
100
AcDbLine
 10
2313.242571178944
 20
273.2362593404707
 30
0.0
 11
2311.242313678944
 21
269.4862593404709
 31
0.0
  0
LINE
  5
AA4D
330
1E
100
AcDbEntity
  8
0
 48
0.27
100
AcDbLine
 10
2311.242313678944
 20
276.9862593404707
 30
0.0
 11
2313.242571178944
 21
273.2362593404707
 31
0.0
  0
LINE
  5
AA4E
330
1E
100
AcDbEntity
  8
0
 48
0.27
100
AcDbLine
 10
2311.166856178944
 20
270.1182480904709
 30
0.0
 11
2311.691861178943
 21
270.5846080904708
 31
0.0
  0
LINE
  5
AA4F
330
1E
100
AcDbEntity
  8
0
 48
0.27
100
AcDbLine
 10
2311.166856178944
 20
276.3542705904708
 30
0.0
 11
2311.691861178943
 21
275.8879093404707
 31
0.0
  0
LINE
  5
AA50
330
1E
100
AcDbEntity
  8
0
 48
0.27
100
AcDbLine
 10
2310.567881178943
 20
269.7717105904708
 30
0.0
 11
2311.166856178944
 21
270.1182480904709
 31
0.0
  0
LINE
  5
AA51
330
1E
100
AcDbEntity
  8
0
 48
0.27
100
AcDbLine
 10
2310.567881178943
 20
276.7008068404707
 30
0.0
 11
2311.166856178944
 21
276.3542705904708
 31
0.0
  0
LINE
  5
AA52
330
1E
100
AcDbEntity
  8
0
 48
0.27
100
AcDbLine
 10
2309.917956178944
 20
269.5583143404708
 30
0.0
 11
2310.567881178943
 21
269.7717105904708
 31
0.0
  0
LINE
  5
AA53
330
1E
100
AcDbEntity
  8
0
 48
0.27
100
AcDbLine
 10
2309.917956178944
 20
276.9142043404706
 30
0.0
 11
2310.567881178943
 21
276.7008068404707
 31
0.0
  0
LINE
  5
AA54
330
1E
100
AcDbEntity
  8
0
 48
0.27
100
AcDbLine
 10
2309.242056178943
 20
269.4862593404709
 30
0.0
 11
2309.917956178944
 21
269.5583143404708
 31
0.0
  0
LINE
  5
AA55
330
1E
100
AcDbEntity
  8
0
 48
0.27
100
AcDbLine
 10
2309.242056178943
 20
276.9862593404707
 30
0.0
 11
2309.917956178944
 21
276.9142043404706
 31
0.0
  0
LINE
  5
AA56
330
1E
100
AcDbEntity
  8
0
 48
0.27
100
AcDbLine
 10
2308.566156178943
 20
269.5583143404708
 30
0.0
 11
2309.242056178943
 21
269.4862593404709
 31
0.0
  0
LINE
  5
AA57
330
1E
100
AcDbEntity
  8
0
 48
0.27
100
AcDbLine
 10
2308.566156178943
 20
276.9142043404706
 30
0.0
 11
2309.242056178943
 21
276.9862593404707
 31
0.0
  0
LINE
  5
AA58
330
1E
100
AcDbEntity
  8
0
 48
0.27
100
AcDbLine
 10
2307.916231178944
 20
269.7717105904708
 30
0.0
 11
2308.566156178943
 21
269.5583143404708
 31
0.0
  0
LINE
  5
AA59
330
1E
100
AcDbEntity
  8
0
 48
0.27
100
AcDbLine
 10
2307.916231178944
 20
276.7008068404707
 30
0.0
 11
2308.566156178943
 21
276.9142043404706
 31
0.0
  0
LINE
  5
AA5A
330
1E
100
AcDbEntity
  8
0
 48
0.27
100
AcDbLine
 10
2307.393147428943
 20
270.0743405904709
 30
0.0
 11
2307.916231178944
 21
269.7717105904708
 31
0.0
  0
LINE
  5
AA5B
330
1E
100
AcDbEntity
  8
0
 48
0.27
100
AcDbLine
 10
2307.393147428943
 20
276.3981768404708
 30
0.0
 11
2307.916231178944
 21
276.7008068404707
 31
0.0
  0
LINE
  5
AA5C
330
1E
100
AcDbEntity
  8
0
 48
0.27
100
AcDbLine
 10
2314.116776178943
 20
273.2362593404707
 30
0.0
 11
2312.116518678944
 21
269.4862593404709
 31
0.0
  0
LINE
  5
AA5D
330
1E
100
AcDbEntity
  8
0
 48
0.27
100
AcDbLine
 10
2312.116518678944
 20
269.4862593404709
 30
0.0
 11
2307.241798678943
 21
269.4862593404709
 31
0.0
  0
LINE
  5
AA5E
330
1E
100
AcDbEntity
  8
0
 48
0.27
100
AcDbLine
 10
2312.116518678944
 20
276.9862593404707
 30
0.0
 11
2314.116776178943
 21
273.2362593404707
 31
0.0
  0
LINE
  5
AA5F
330
1E
100
AcDbEntity
  8
0
 48
0.27
100
AcDbLine
 10
2313.242571178944
 20
273.2362593404707
 30
0.0
 11
2314.116776178943
 21
273.2362593404707
 31
0.0
  0
LINE
  5
AA60
330
1E
100
AcDbEntity
  8
0
 48
0.27
100
AcDbLine
 10
2307.241798678943
 20
276.9862593404707
 30
0.0
 11
2306.933807428944
 21
276.4088505904708
 31
0.0
  0
LINE
  5
AA61
330
1E
100
AcDbEntity
  8
0
 48
0.27
100
AcDbLine
 10
2306.933807428944
 20
270.0636680904708
 30
0.0
 11
2307.241798678943
 21
269.4862593404709
 31
0.0
  0
LINE
  5
AA62
330
1E
100
AcDbEntity
  8
0
 48
0.27
100
AcDbLine
 10
2307.241798678943
 20
276.9862593404707
 30
0.0
 11
2312.116518678944
 21
276.9862593404707
 31
0.0
  0
ARC
  5
AA63
330
1E
100
AcDbEntity
  8
0
 48
0.27
100
AcDbCircle
 10
2311.651094928944
 20
273.2362593404707
 30
0.0
 40
4.99999999999996
100
AcDbArc
 50
228.5903779972973
 51
270.0
  0
LWPOLYLINE
  5
AA64
330
1E
100
AcDbEntity
  8
0
 48
0.27
100
AcDbPolyline
 90
       31
 70
     0
 43
0.0
 10
2307.175623678944
 20
273.2362593404707
 10
2307.134601178944
 20
273.4990780904707
 10
2307.079417428944
 20
273.6309368404707
 10
2307.000626178944
 20
273.7531605904708
 10
2306.901281178943
 20
273.8583018404709
 10
2306.786917428944
 20
273.9406430904708
 10
2306.664517428943
 20
273.9972443404706
 10
2306.498722428944
 20
274.0334205904708
 10
2306.344961178944
 20
274.0300968404708
 10
2306.211306178944
 20
273.9982143404707
 10
2306.066049928944
 20
273.9285043404707
 10
2305.927837428944
 20
273.8166430904708
 10
2305.817549928944
 20
273.6734555904707
 10
2305.746757428944
 20
273.5236568404709
 10
2305.711943678943
 20
273.3940868404709
 10
2305.697417428944
 20
273.2362593404707
 10
2305.738439928944
 20
272.9734405904708
 10
2305.793624928943
 20
272.8415805904708
 10
2305.872414928944
 20
272.7193580904707
 10
2305.971759928944
 20
272.6142168404708
 10
2306.086123678943
 20
272.5318755904707
 10
2306.208523678944
 20
272.4752743404708
 10
2306.374318678944
 20
272.4390968404707
 10
2306.528079928944
 20
272.4424218404708
 10
2306.661734928944
 20
272.4743030904708
 10
2306.806991178944
 20
272.5440130904708
 10
2306.945203678944
 20
272.6558755904707
 10
2307.055491178944
 20
272.7990618404708
 10
2307.126283678944
 20
272.9488605904708
 10
2307.161098678944
 20
273.078431840471
 10
2307.175623678944
 20
273.2362593404707
  0
ARC
  5
AA65
330
1E
100
AcDbEntity
  8
0
 48
0.27
100
AcDbCircle
 10
2311.651094928944
 20
273.2362593404707
 30
0.0
 40
4.99999999999996
100
AcDbArc
 50
90.0
 51
131.4096219995944
  0
LINE
  5
AA66
330
1E
100
AcDbEntity
  8
0
 48
0.27
100
AcDbLine
 10
2317.736519928943
 20
278.2362593404707
 30
0.0
 11
2311.651094928944
 21
278.2362593404707
 31
0.0
  0
LINE
  5
AA67
330
1E
100
AcDbEntity
  8
0
 48
0.27
100
AcDbLine
 10
2311.651094928944
 20
268.2362593404707
 30
0.0
 11
2317.736519928943
 21
268.2362593404707
 31
0.0
  0
LINE
  5
AA68
330
1E
100
AcDbEntity
  8
中心線
 48
0.27
100
AcDbLine
 10
2302.664637428943
 20
273.2362593404707
 30
0.0
 11
2318.734716039742
 21
273.2362351765957
 31
0.0
  0
LINE
  5
AA69
330
1E
100
AcDbEntity
  8
0
100
AcDbLine
 10
2316.336519928944
 20
268.2362593404707
 30
0.0
 11
2316.336519928944
 21
278.2362593404707
 31
0.0
  0
LINE
  5
AA7A
330
1E
100
AcDbEntity
  8
虛線
 48
0.4
100
AcDbLine
 10
2575.736519921248
 20
223.9362366775417
 30
0.0
 11
2576.43651992125
 21
223.2362366775399
 31
0.0
  0
LINE
  5
AA7B
330
1E
100
AcDbEntity
  8
虛線
 48
0.4
100
AcDbLine
 10
2561.73651992124
 20
223.9362366775417
 30
0.0
 11
2561.036519921238
 21
223.2362366775399
 31
0.0
  0
LINE
  5
AA7C
330
1E
100
AcDbEntity
  8
虛線
 48
0.4
100
AcDbLine
 10
2561.73651992124
 20
223.9362366775417
 30
0.0
 11
2575.73651992124
 21
223.9362366775417
 31
0.0
  0
LINE
  5
AA7D
330
1E
100
AcDbEntity
  8
虛線
 48
0.4
100
AcDbLine
 10
2578.736519921243
 20
260.8362366775416
 30
0.0
 11
2578.967460028918
 21
261.2362366775396
 31
0.0
  0
LINE
  5
AA7E
330
1E
100
AcDbEntity
  8
虛線
 48
0.4
100
AcDbLine
 10
2575.736519921243
 20
243.9362366775415
 30
0.0
 11
2576.036519921243
 21
244.2362366775415
 31
0.0
  0
LINE
  5
AA7F
330
1E
100
AcDbEntity
  8
虛線
 48
0.4
100
AcDbLine
 10
2578.736519921243
 20
260.8362366775416
 30
0.0
 11
2578.736519921243
 21
244.2362366775415
 31
0.0
  0
LINE
  5
AA80
330
1E
100
AcDbEntity
  8
虛線
 48
0.4
100
AcDbLine
 10
2575.736519921243
 20
243.9362366775415
 30
0.0
 11
2575.736519921243
 21
223.9362366775417
 31
0.0
  0
LINE
  5
AA81
330
1E
100
AcDbEntity
  8
虛線
 48
0.4
100
AcDbLine
 10
2558.736519921243
 20
260.8362366775416
 30
0.0
 11
2558.505579813568
 21
261.2362366775394
 31
0.0
  0
LINE
  5
AA82
330
1E
100
AcDbEntity
  8
虛線
 48
0.4
100
AcDbLine
 10
2561.736519921243
 20
243.9362366775415
 30
0.0
 11
2561.436519921242
 21
244.2362366775415
 31
0.0
  0
LINE
  5
AA83
330
1E
100
AcDbEntity
  8
虛線
 48
0.4
100
AcDbLine
 10
2558.736519921243
 20
260.8362366775416
 30
0.0
 11
2558.736519921243
 21
244.2362366775415
 31
0.0
  0
LINE
  5
AA84
330
1E
100
AcDbEntity
  8
虛線
 48
0.4
100
AcDbLine
 10
2561.736519921243
 20
243.9362366775415
 30
0.0
 11
2561.736519921243
 21
223.9362366775417
 31
0.0
  0
LINE
  5
AA85
330
1E
100
AcDbEntity
  8
虛線
 48
0.4
100
AcDbLine
 10
2561.736519921243
 20
243.9362366775415
 30
0.0
 11
2575.736519921243
 21
243.9362366775415
 31
0.0
  0
LINE
  5
AA86
330
1E
100
AcDbEntity
  8
虛線
 48
0.4
100
AcDbLine
 10
2558.736519921243
 20
260.8362366775416
 30
0.0
 11
2578.736519921243
 21
260.8362366775416
 31
0.0
  0
LINE
  5
AA87
330
1E
100
AcDbEntity
  8
虛線
 48
0.4
100
AcDbLine
 10
2558.736519921243
 20
244.2362366775415
 30
0.0
 11
2578.736519921243
 21
244.2362366775415
 31
0.0
  0
LINE
  5
AA88
330
1E
100
AcDbEntity
  8
虛線
 48
0.4
100
AcDbLine
 10
2313.236519921248
 20
223.9362366775417
 30
0.0
 11
2313.93651992125
 21
223.2362366775399
 31
0.0
  0
LINE
  5
AA89
330
1E
100
AcDbEntity
  8
虛線
 48
0.4
100
AcDbLine
 10
2299.23651992124
 20
223.9362366775417
 30
0.0
 11
2298.536519921237
 21
223.2362366775399
 31
0.0
  0
LINE
  5
AA8A
330
1E
100
AcDbEntity
  8
虛線
 48
0.4
100
AcDbLine
 10
2299.23651992124
 20
223.9362366775417
 30
0.0
 11
2313.23651992124
 21
223.9362366775417
 31
0.0
  0
LINE
  5
AA8B
330
1E
100
AcDbEntity
  8
虛線
 48
0.4
100
AcDbLine
 10
2313.236519921243
 20
243.9362366775415
 30
0.0
 11
2313.536519921242
 21
244.2362366775415
 31
0.0
  0
LINE
  5
AA8C
330
1E
100
AcDbEntity
  8
虛線
 48
0.4
100
AcDbLine
 10
2316.236519921243
 20
259.1473590743684
 30
0.0
 11
2316.236519921243
 21
244.2362366775415
 31
0.0
  0
LINE
  5
AA8D
330
1E
100
AcDbEntity
  8
虛線
 48
0.4
100
AcDbLine
 10
2313.236519921243
 20
243.9362366775415
 30
0.0
 11
2313.236519921243
 21
223.9362366775417
 31
0.0
  0
LINE
  5
AA8E
330
1E
100
AcDbEntity
  8
虛線
 48
0.4
100
AcDbLine
 10
2296.236519921242
 20
260.8362366775416
 30
0.0
 11
2296.005579813568
 21
261.2362366775394
 31
0.0
  0
LINE
  5
AA8F
330
1E
100
AcDbEntity
  8
虛線
 48
0.4
100
AcDbLine
 10
2299.236519921242
 20
243.9362366775415
 30
0.0
 11
2298.936519921243
 21
244.2362366775415
 31
0.0
  0
LINE
  5
AA90
330
1E
100
AcDbEntity
  8
虛線
 48
0.4
100
AcDbLine
 10
2296.236519921243
 20
260.8362366775416
 30
0.0
 11
2296.236519921243
 21
244.2362366775415
 31
0.0
  0
LINE
  5
AA91
330
1E
100
AcDbEntity
  8
虛線
 48
0.4
100
AcDbLine
 10
2299.236519921243
 20
243.9362366775415
 30
0.0
 11
2299.236519921243
 21
223.9362366775417
 31
0.0
  0
LINE
  5
AA92
330
1E
100
AcDbEntity
  8
虛線
 48
0.4
100
AcDbLine
 10
2299.236519921243
 20
243.9362366775415
 30
0.0
 11
2313.236519921243
 21
243.9362366775415
 31
0.0
  0
LINE
  5
AA93
330
1E
100
AcDbEntity
  8
虛線
 48
0.4
100
AcDbLine
 10
2296.236519921243
 20
260.8362366775416
 30
0.0
 11
2316.099791210345
 21
260.8362366775416
 31
0.0
  0
LINE
  5
AA94
330
1E
100
AcDbEntity
  8
虛線
 48
0.4
100
AcDbLine
 10
2296.236519921243
 20
244.2362366775415
 30
0.0
 11
2316.236519921243
 21
244.2362366775415
 31
0.0
  0
LINE
  5
AA95
330
1E
100
AcDbEntity
  8
虛線
 48
0.4
100
AcDbLine
 10
2523.236519921248
 20
223.9362366775417
 30
0.0
 11
2523.93651992125
 21
223.2362366775399
 31
0.0
  0
LINE
  5
AA96
330
1E
100
AcDbEntity
  8
虛線
 48
0.4
100
AcDbLine
 10
2509.23651992124
 20
223.9362366775417
 30
0.0
 11
2508.536519921238
 21
223.2362366775399
 31
0.0
  0
LINE
  5
AA97
330
1E
100
AcDbEntity
  8
虛線
 48
0.4
100
AcDbLine
 10
2509.23651992124
 20
223.9362366775417
 30
0.0
 11
2523.23651992124
 21
223.9362366775417
 31
0.0
  0
LINE
  5
AA98
330
1E
100
AcDbEntity
  8
虛線
 48
0.4
100
AcDbLine
 10
2526.236519921243
 20
260.8362366775416
 30
0.0
 11
2526.467460028917
 21
261.2362366775396
 31
0.0
  0
LINE
  5
AA99
330
1E
100
AcDbEntity
  8
虛線
 48
0.4
100
AcDbLine
 10
2523.236519921243
 20
243.9362366775415
 30
0.0
 11
2523.536519921242
 21
244.2362366775415
 31
0.0
  0
LINE
  5
AA9A
330
1E
100
AcDbEntity
  8
虛線
 48
0.4
100
AcDbLine
 10
2526.236519921243
 20
260.8362366775416
 30
0.0
 11
2526.236519921243
 21
244.2362366775415
 31
0.0
  0
LINE
  5
AA9B
330
1E
100
AcDbEntity
  8
虛線
 48
0.4
100
AcDbLine
 10
2523.236519921243
 20
243.9362366775415
 30
0.0
 11
2523.236519921243
 21
223.9362366775417
 31
0.0
  0
LINE
  5
AA9C
330
1E
100
AcDbEntity
  8
虛線
 48
0.4
100
AcDbLine
 10
2509.236519921242
 20
243.9362366775415
 30
0.0
 11
2508.936519921243
 21
244.2362366775415
 31
0.0
  0
LINE
  5
AA9D
330
1E
100
AcDbEntity
  8
虛線
 48
0.4
100
AcDbLine
 10
2506.236519921242
 20
259.1473589900281
 30
0.0
 11
2506.236519921243
 21
244.2362366775415
 31
0.0
  0
LINE
  5
AA9E
330
1E
100
AcDbEntity
  8
虛線
 48
0.4
100
AcDbLine
 10
2509.236519921243
 20
243.9362366775415
 30
0.0
 11
2509.236519921243
 21
223.9362366775417
 31
0.0
  0
LINE
  5
AA9F
330
1E
100
AcDbEntity
  8
虛線
 48
0.4
100
AcDbLine
 10
2509.236519921243
 20
243.9362366775415
 30
0.0
 11
2523.236519921243
 21
243.9362366775415
 31
0.0
  0
LINE
  5
AAA0
330
1E
100
AcDbEntity
  8
虛線
 48
0.4
100
AcDbLine
 10
2506.373248662943
 20
260.8362366775416
 30
0.0
 11
2526.236519921243
 21
260.8362366775416
 31
0.0
  0
LINE
  5
AAA1
330
1E
100
AcDbEntity
  8
虛線
 48
0.4
100
AcDbLine
 10
2506.236519921243
 20
244.2362366775415
 30
0.0
 11
2526.236519921243
 21
244.2362366775415
 31
0.0
  0
LINE
  5
AAA7
330
1E
100
AcDbEntity
  8
0
100
AcDbLine
 10
2231.236519921244
 20
261.2362366775396
 30
0.0
 11
2231.236519921244
 21
223.2362366775396
 31
0.0
  0
LINE
  5
AAA8
330
1E
100
AcDbEntity
  8
0
100
AcDbLine
 10
2591.236519921243
 20
261.2362366775396
 30
0.0
 11
2591.236519921244
 21
223.2362366775396
 31
0.0
  0
CIRCLE
  5
AAA9
330
1E
100
AcDbEntity
  8
0
100
AcDbCircle
 10
2568.736519921243
 20
413.3964871758293
 30
0.0
 40
7.0
  0
CIRCLE
  5
AAAA
330
1E
100
AcDbEntity
  8
0
100
AcDbCircle
 10
2568.736519921243
 20
413.3964871758293
 30
0.0
 40
10.0
  0
LINE
  5
AAAB
330
1E
100
AcDbEntity
  8
中心線
 48
0.4
100
AcDbLine
 10
2581.712098620607
 20
413.3964871758293
 30
0.0
 11
2555.76094122188
 21
413.3964871758293
 31
0.0
  0
LINE
  5
AAAC
330
1E
100
AcDbEntity
  8
中心線
 48
0.4
100
AcDbLine
 10
2568.736519921244
 20
426.3720658751931
 30
0.0
 11
2568.736519921244
 21
400.4209084764656
 31
0.0
  0
CIRCLE
  5
AAAD
330
1E
100
AcDbEntity
  8
0
100
AcDbCircle
 10
2516.236519921243
 20
413.3964871758293
 30
0.0
 40
7.0
  0
CIRCLE
  5
AAAE
330
1E
100
AcDbEntity
  8
0
100
AcDbCircle
 10
2516.236519921243
 20
413.3964871758293
 30
0.0
 40
10.0
  0
LINE
  5
AAAF
330
1E
100
AcDbEntity
  8
中心線
 48
0.4
100
AcDbLine
 10
2529.212098620607
 20
413.3964871758293
 30
0.0
 11
2503.26094122188
 21
413.3964871758293
 31
0.0
  0
LINE
  5
AAB0
330
1E
100
AcDbEntity
  8
中心線
 48
0.4
100
AcDbLine
 10
2516.236519921244
 20
426.3720658751931
 30
0.0
 11
2516.236519921244
 21
400.4209084764656
 31
0.0
  0
CIRCLE
  5
AAB1
330
1E
100
AcDbEntity
  8
0
100
AcDbCircle
 10
2253.736519921244
 20
413.3964871758293
 30
0.0
 40
7.0
  0
CIRCLE
  5
AAB2
330
1E
100
AcDbEntity
  8
0
100
AcDbCircle
 10
2253.736519921244
 20
413.3964871758293
 30
0.0
 40
10.0
  0
LINE
  5
AAB3
330
1E
100
AcDbEntity
  8
中心線
 48
0.4
100
AcDbLine
 10
2240.76094122188
 20
413.3964871758293
 30
0.0
 11
2266.712098620607
 21
413.3964871758293
 31
0.0
  0
LINE
  5
AAB4
330
1E
100
AcDbEntity
  8
中心線
 48
0.4
100
AcDbLine
 10
2253.736519921244
 20
426.3720658751931
 30
0.0
 11
2253.736519921243
 21
400.4209084764656
 31
0.0
  0
ARC
  5
AAB5
330
1E
100
AcDbEntity
  8
0
100
AcDbCircle
 10
2306.236519921244
 20
413.3964871758293
 30
0.0
 40
7.0
100
AcDbArc
 50
49.33231840805111
 51
258.1048923924805
  0
ARC
  5
AAB6
330
1E
100
AcDbEntity
  8
0
100
AcDbCircle
 10
2306.236519921244
 20
413.3964871758293
 30
0.0
 40
10.0
100
AcDbArc
 50
32.23095765249177
 51
250.3691376448802
  0
LINE
  5
AAB7
330
1E
100
AcDbEntity
  8
中心線
 48
0.4
100
AcDbLine
 10
2293.26094122188
 20
413.3964871758293
 30
0.0
 11
2305.968379431631
 21
413.3964871758293
 31
0.0
  0
LINE
  5
AAB8
330
1E
100
AcDbEntity
  8
0
100
AcDbLine
 10
2231.236519921244
 20
435.8964871758294
 30
0.0
 11
2231.236519921244
 21
390.8964871758294
 31
0.0
  0
LINE
  5
AAB9
330
1E
100
AcDbEntity
  8
0
100
AcDbLine
 10
2591.236519921244
 20
435.8964871758294
 30
0.0
 11
2591.236519921244
 21
390.8964871758294
 31
0.0
  0
LINE
  5
AABA
330
1E
100
AcDbEntity
  8
0
100
AcDbLine
 10
2504.736519913544
 20
390.8964871758294
 30
0.0
 11
2591.236519921244
 21
390.8964871758294
 31
0.0
  0
LINE
  5
AABB
330
1E
100
AcDbEntity
  8
0
100
AcDbLine
 10
2231.236519921244
 20
390.8964871758294
 30
0.0
 11
2317.736519928943
 21
390.8964871758294
 31
0.0
  0
LINE
  5
AABC
330
1E
100
AcDbEntity
  8
0
100
AcDbLine
 10
2504.736519913544
 20
435.8964871758294
 30
0.0
 11
2591.236519921244
 21
435.8964871758294
 31
0.0
  0
LINE
  5
AABD
330
1E
100
AcDbEntity
  8
0
100
AcDbLine
 10
2231.236519921244
 20
435.8964871758294
 30
0.0
 11
2317.736519928943
 21
435.8964871758294
 31
0.0
  0
LINE
  5
AABE
330
1E
100
AcDbEntity
  8
0
100
AcDbLine
 10
2504.736519913544
 20
455.3964871758291
 30
0.0
 11
2504.736519913544
 21
371.3964871758292
 31
0.0
  0
ARC
  5
AABF
330
1E
100
AcDbEntity
  8
0
100
AcDbCircle
 10
2504.115526838976
 20
378.582227177646
 30
0.0
 40
2.258017748891656
100
AcDbArc
 50
285.9630221688284
 51
359.0723572120041
  0
LINE
  5
AAC0
330
1E
100
AcDbEntity
  8
0
100
AcDbLine
 10
2506.373248647542
 20
378.5456705169788
 30
0.0
 11
2506.373248647542
 21
381.2473038346807
 31
0.0
  0
ARC
  5
AAC1
330
1E
100
AcDbEntity
  8
0
100
AcDbCircle
 10
2504.115526838976
 20
381.2107471740126
 30
0.0
 40
2.258017748891656
100
AcDbArc
 50
0.9276427879959022
 51
74.03697783117156
  0
ARC
  5
AAC2
330
1E
100
AcDbEntity
  8
0
100
AcDbCircle
 10
2504.115526838976
 20
445.582227177646
 30
0.0
 40
2.258017748891656
100
AcDbArc
 50
285.9630221688284
 51
359.0723572120041
  0
LINE
  5
AAC3
330
1E
100
AcDbEntity
  8
0
100
AcDbLine
 10
2506.373248647542
 20
445.5456705169788
 30
0.0
 11
2506.373248647542
 21
448.2473038346807
 31
0.0
  0
ARC
  5
AAC4
330
1E
100
AcDbEntity
  8
0
100
AcDbCircle
 10
2504.115526838976
 20
448.2107471740126
 30
0.0
 40
2.258017748891656
100
AcDbArc
 50
0.9276427879959022
 51
74.03697783117156
  0
ARC
  5
AAC5
330
1E
100
AcDbEntity
  8
0
100
AcDbCircle
 10
2318.35751300351
 20
378.582227177646
 30
0.0
 40
2.258017748891656
100
AcDbArc
 50
180.9276427879959
 51
254.0369778311716
  0
LINE
  5
AAC6
330
1E
100
AcDbEntity
  8
0
100
AcDbLine
 10
2316.099791194945
 20
378.5456705169788
 30
0.0
 11
2316.099791194945
 21
381.2473038346807
 31
0.0
  0
ARC
  5
AAC7
330
1E
100
AcDbEntity
  8
0
100
AcDbCircle
 10
2318.35751300351
 20
381.2107471740126
 30
0.0
 40
2.258017748891656
100
AcDbArc
 50
105.9630221688284
 51
179.0723572120041
  0
ARC
  5
AAC8
330
1E
100
AcDbEntity
  8
0
100
AcDbCircle
 10
2318.35751300351
 20
445.582227177646
 30
0.0
 40
2.258017748891656
100
AcDbArc
 50
180.9276427879959
 51
254.0369778311716
  0
LINE
  5
AAC9
330
1E
100
AcDbEntity
  8
0
100
AcDbLine
 10
2316.099791194945
 20
445.5456705169788
 30
0.0
 11
2316.099791194945
 21
448.2473038346807
 31
0.0
  0
ARC
  5
AACA
330
1E
100
AcDbEntity
  8
0
100
AcDbCircle
 10
2318.35751300351
 20
448.2107471740126
 30
0.0
 40
2.258017748891656
100
AcDbArc
 50
105.9630221688284
 51
179.0723572120041
  0
LINE
  5
ABD4
330
1E
100
AcDbEntity
  8
0
  6
Continuous
100
AcDbLine
 10
2307.591097832635
 20
397.6151997415659
 30
0.0
 11
2310.449691040012
 21
400.4737929489436
 31
0.0
  0
LINE
  5
ABD5
330
1E
100
AcDbEntity
  8
0
  6
Continuous
100
AcDbLine
 10
2302.766457861611
 20
399.6136310511311
 30
0.0
 11
2307.591097832635
 21
397.6151997415659
 31
0.0
  0
LINE
  5
ABD6
330
1E
100
AcDbEntity
  8
0
  6
Continuous
100
AcDbLine
 10
2316.552127917757
 20
419.5298212498626
 30
0.0
 11
2317.736519928943
 21
419.5298212498626
 31
0.0
  0
LINE
  5
ABD7
330
1E
100
AcDbEntity
  8
0
  6
Continuous
100
AcDbLine
 10
2316.552127917757
 20
416.4631543176144
 30
0.0
 11
2317.736519928943
 21
416.4631543176144
 31
0.0
  0
ARC
  5
ABD8
330
1E
100
AcDbEntity
  8
0
  6
Continuous
100
AcDbCircle
 10
2318.925137831006
 20
417.9964880493196
 30
0.0
 40
2.825346636061326
100
AcDbArc
 50
147.1327799989424
 51
212.8672200010575
  0
LINE
  5
ABD9
330
1E
100
AcDbEntity
  8
0
  6
Continuous
100
AcDbLine
 10
2311.301712764965
 20
418.7298212498624
 30
0.0
 11
2316.196620645631
 21
418.7298212498624
 31
0.0
  0
LINE
  5
ABDA
330
1E
100
AcDbEntity
  8
0
  6
Continuous
100
AcDbLine
 10
2316.552127917757
 20
410.3298215154434
 30
0.0
 11
2317.736519928943
 21
410.3298215154434
 31
0.0
  0
LINE
  5
ABDB
330
1E
100
AcDbEntity
  8
0
  6
Continuous
100
AcDbLine
 10
2316.552127917757
 20
407.2631545831957
 30
0.0
 11
2317.736519928943
 21
407.2631545831957
 31
0.0
  0
ARC
  5
ABDC
330
1E
100
AcDbEntity
  8
0
  6
Continuous
100
AcDbCircle
 10
2318.925137831006
 20
408.7964877837387
 30
0.0
 40
2.825346636061326
100
AcDbArc
 50
147.1327799989424
 51
212.8672200010575
  0
LINE
  5
ABDD
330
1E
100
AcDbEntity
  8
0
  6
Continuous
100
AcDbLine
 10
2313.708420334418
 20
405.18309711662
 30
0.0
 11
2314.471246858905
 21
407.0247232577762
 31
0.0
  0
LINE
  5
ABDE
330
1E
100
AcDbEntity
  8
0
  6
Continuous
100
AcDbLine
 10
2311.229399710214
 20
406.2100214547562
 30
0.0
 11
2311.992169401568
 21
408.0515103885907
 31
0.0
  0
ARC
  5
ABDF
330
1E
100
AcDbEntity
  8
0
  6
Continuous
100
AcDbCircle
 10
2312.15603161042
 20
415.4589960598197
 30
0.0
 40
9.295339642905961
100
AcDbArc
 50
230.7213499979104
 51
264.2786500020895
  0
LINE
  5
ABE0
330
1E
100
AcDbEntity
  8
0
  6
Continuous
100
AcDbLine
 10
2306.271246648458
 20
408.263755697257
 30
0.0
 11
2307.034016339812
 21
410.1052446310916
 31
0.0
  0
ARC
  5
ABE1
330
1E
100
AcDbEntity
  8
0
  6
Continuous
100
AcDbCircle
 10
2306.107384439605
 20
400.8562700260279
 30
0.0
 40
9.295339642905961
100
AcDbArc
 50
50.72134999790536
 51
84.27865000208958
  0
LINE
  5
ABE2
330
1E
100
AcDbEntity
  8
0
  6
Continuous
100
AcDbLine
 10
2303.792169688192
 20
409.2906229963659
 30
0.0
 11
2304.554939379546
 21
411.1321119302004
 31
0.0
  0
ARC
  5
ABE3
330
1E
100
AcDbEntity
  8
0
  6
Continuous
100
AcDbCircle
 10
2305.82630558494
 20
410.6955178138758
 30
0.0
 40
2.472178306553661
100
AcDbArc
 50
214.6327799989322
 51
280.3672200010634
  0
ARC
  5
ABE4
330
1E
100
AcDbEntity
  8
0
  6
Continuous
100
AcDbCircle
 10
2302.094156360086
 20
407.0511657472093
 30
0.0
 40
2.746231479756805
100
AcDbArc
 50
335.8479011650582
 51
45.84790116506007
  0
ARC
  5
ABE5
330
1E
100
AcDbEntity
  8
0
  6
Continuous
100
AcDbCircle
 10
2307.100810201484
 20
402.2986374924789
 30
0.0
 40
3.813798694049014
100
AcDbArc
 50
331.4135141737369
 51
16.41351417374012
  0
LINE
  5
ABE6
330
1E
100
AcDbEntity
  8
0
  6
Continuous
100
AcDbLine
 10
2302.766457861611
 20
399.6136310511311
 30
0.0
 11
2302.766457861611
 21
403.6562923343124
 31
0.0
  0
LINE
  5
ABE7
330
1E
100
AcDbEntity
  8
0
  6
Continuous
100
AcDbLine
 10
2302.766457861611
 20
403.6562923343124
 30
0.0
 11
2310.449691040012
 21
400.4737929489436
 31
0.0
  0
ARC
  5
ABE8
330
1E
100
AcDbEntity
  8
0
  6
Continuous
100
AcDbCircle
 10
2306.424834163265
 20
402.5786359353487
 30
0.0
 40
3.813798694049016
100
AcDbArc
 50
118.5864858262631
 51
163.586485826268
  0
LINE
  5
ABE9
330
1E
100
AcDbEntity
  8
0
  6
Continuous
100
AcDbLine
 10
2304.846357495066
 20
405.8254678585792
 30
0.0
 11
2310.512818627802
 21
403.4783428067401
 31
0.0
  0
LINE
  5
ABEA
330
1E
100
AcDbEntity
  8
0
  6
Continuous
100
AcDbLine
 10
2304.880243905169
 20
408.4115228757323
 30
0.0
 11
2312.317474356579
 21
405.3309211562639
 31
0.0
  0
LINE
  5
ABEB
330
1E
100
AcDbEntity
  8
0
  6
Continuous
100
AcDbLine
 10
2305.945941693447
 20
410.9843449295838
 30
0.0
 11
2313.383172144857
 21
407.9037432101154
 31
0.0
  0
ARC
  5
ABEC
330
1E
100
AcDbEntity
  8
0
  6
Continuous
100
AcDbCircle
 10
2313.26353603635
 20
407.6149160944074
 30
0.0
 40
2.472178306553661
100
AcDbArc
 50
214.6327799989322
 51
280.3672200010634
  0
ARC
  5
ABED
330
1E
100
AcDbEntity
  8
0
  6
Continuous
100
AcDbCircle
 10
2313.325618002272
 20
402.3989420097427
 30
0.0
 40
2.746231479756805
100
AcDbArc
 50
89.1520988349392
 51
159.1520988349398
  0
ARC
  5
ABEE
330
1E
100
AcDbEntity
  8
0
  6
Continuous
100
AcDbCircle
 10
2312.437110465086
 20
405.6197482719719
 30
0.0
 40
2.472178306553661
100
AcDbArc
 50
34.63277999893215
 51
100.3672200010633
  0
LINE
  5
ABEF
330
1E
100
AcDbEntity
  8
0
  6
Continuous
100
AcDbLine
 10
2312.813183832485
 20
408.0631545831959
 30
0.0
 11
2316.196620645631
 21
408.0631545831959
 31
0.0
  0
ARC
  5
ABF0
330
1E
100
AcDbEntity
  8
0
  6
Continuous
100
AcDbCircle
 10
2311.301712764965
 20
413.3964879165289
 30
0.0
 40
5.333333333333332
100
AcDbArc
 50
90.0
 51
210.8352048940846
  0
ARC
  5
ABF1
330
1E
100
AcDbEntity
  8
0
  6
Continuous
100
AcDbCircle
 10
2304.999880013676
 20
408.7003499914403
 30
0.0
 40
2.472178306553661
100
AcDbArc
 50
34.63277999893215
 51
100.3672200010633
  0
ARC
  5
ABF2
330
1E
100
AcDbEntity
  8
0
  6
Continuous
100
AcDbCircle
 10
2326.723036501123
 20
413.3964879165289
 30
0.0
 40
10.62324530617823
100
AcDbArc
 50
163.2213499979164
 51
196.7786500020835
  0
LINE
  5
ABF3
330
1E
100
AcDbEntity
  8
0
  6
Continuous
100
AcDbLine
 10
2316.099791194945
 20
408.7964877837387
 30
0.0
 11
2316.099791194945
 21
417.9964880493196
 31
0.0
  0
LINE
  5
ABF4
330
1E
100
AcDbEntity
  8
0
  6
Continuous
100
AcDbLine
 10
2307.591097832635
 20
397.6151997415659
 30
0.0
 11
2310.449691040012
 21
400.4737929489436
 31
0.0
  0
LINE
  5
ABF5
330
1E
100
AcDbEntity
  8
0
  6
Continuous
100
AcDbLine
 10
2302.766457861611
 20
399.6136310511311
 30
0.0
 11
2307.591097832635
 21
397.6151997415659
 31
0.0
  0
LINE
  5
ABF6
330
1E
100
AcDbEntity
  8
0
  6
Continuous
100
AcDbLine
 10
2316.552127917757
 20
419.5298212498626
 30
0.0
 11
2317.736519928943
 21
419.5298212498626
 31
0.0
  0
LINE
  5
ABF7
330
1E
100
AcDbEntity
  8
0
  6
Continuous
100
AcDbLine
 10
2316.552127917757
 20
416.4631543176144
 30
0.0
 11
2317.736519928943
 21
416.4631543176144
 31
0.0
  0
ARC
  5
ABF8
330
1E
100
AcDbEntity
  8
0
  6
Continuous
100
AcDbCircle
 10
2318.925137831006
 20
417.9964880493196
 30
0.0
 40
2.825346636061326
100
AcDbArc
 50
147.1327799989424
 51
212.8672200010575
  0
LINE
  5
ABF9
330
1E
100
AcDbEntity
  8
0
  6
Continuous
100
AcDbLine
 10
2311.301712764965
 20
418.7298212498624
 30
0.0
 11
2316.196620645631
 21
418.7298212498624
 31
0.0
  0
LINE
  5
ABFA
330
1E
100
AcDbEntity
  8
0
  6
Continuous
100
AcDbLine
 10
2316.552127917757
 20
410.3298215154434
 30
0.0
 11
2317.736519928943
 21
410.3298215154434
 31
0.0
  0
LINE
  5
ABFB
330
1E
100
AcDbEntity
  8
0
  6
Continuous
100
AcDbLine
 10
2316.552127917757
 20
407.2631545831957
 30
0.0
 11
2317.736519928943
 21
407.2631545831957
 31
0.0
  0
ARC
  5
ABFC
330
1E
100
AcDbEntity
  8
0
  6
Continuous
100
AcDbCircle
 10
2318.925137831006
 20
408.7964877837387
 30
0.0
 40
2.825346636061326
100
AcDbArc
 50
147.1327799989424
 51
212.8672200010575
  0
LINE
  5
ABFD
330
1E
100
AcDbEntity
  8
0
  6
Continuous
100
AcDbLine
 10
2313.708420334418
 20
405.18309711662
 30
0.0
 11
2314.471246858905
 21
407.0247232577762
 31
0.0
  0
LINE
  5
ABFE
330
1E
100
AcDbEntity
  8
0
  6
Continuous
100
AcDbLine
 10
2311.229399710214
 20
406.2100214547562
 30
0.0
 11
2311.992169401568
 21
408.0515103885907
 31
0.0
  0
ARC
  5
ABFF
330
1E
100
AcDbEntity
  8
0
  6
Continuous
100
AcDbCircle
 10
2312.15603161042
 20
415.4589960598197
 30
0.0
 40
9.295339642905961
100
AcDbArc
 50
230.7213499979104
 51
264.2786500020895
  0
LINE
  5
AC00
330
1E
100
AcDbEntity
  8
0
  6
Continuous
100
AcDbLine
 10
2306.271246648458
 20
408.263755697257
 30
0.0
 11
2307.034016339812
 21
410.1052446310916
 31
0.0
  0
ARC
  5
AC01
330
1E
100
AcDbEntity
  8
0
  6
Continuous
100
AcDbCircle
 10
2306.107384439605
 20
400.8562700260279
 30
0.0
 40
9.295339642905961
100
AcDbArc
 50
50.72134999790536
 51
84.27865000208958
  0
LINE
  5
AC02
330
1E
100
AcDbEntity
  8
0
  6
Continuous
100
AcDbLine
 10
2303.792169688192
 20
409.2906229963659
 30
0.0
 11
2304.554939379546
 21
411.1321119302004
 31
0.0
  0
ARC
  5
AC03
330
1E
100
AcDbEntity
  8
0
  6
Continuous
100
AcDbCircle
 10
2305.82630558494
 20
410.6955178138758
 30
0.0
 40
2.472178306553661
100
AcDbArc
 50
214.6327799989322
 51
280.3672200010634
  0
ARC
  5
AC04
330
1E
100
AcDbEntity
  8
0
  6
Continuous
100
AcDbCircle
 10
2302.094156360086
 20
407.0511657472093
 30
0.0
 40
2.746231479756805
100
AcDbArc
 50
335.8479011650582
 51
45.84790116506007
  0
ARC
  5
AC05
330
1E
100
AcDbEntity
  8
0
  6
Continuous
100
AcDbCircle
 10
2307.100810201484
 20
402.2986374924789
 30
0.0
 40
3.813798694049014
100
AcDbArc
 50
331.4135141737369
 51
16.41351417374012
  0
LINE
  5
AC06
330
1E
100
AcDbEntity
  8
0
  6
Continuous
100
AcDbLine
 10
2302.766457861611
 20
399.6136310511311
 30
0.0
 11
2302.766457861611
 21
403.6562923343124
 31
0.0
  0
LINE
  5
AC07
330
1E
100
AcDbEntity
  8
0
  6
Continuous
100
AcDbLine
 10
2302.766457861611
 20
403.6562923343124
 30
0.0
 11
2310.449691040012
 21
400.4737929489436
 31
0.0
  0
ARC
  5
AC08
330
1E
100
AcDbEntity
  8
0
  6
Continuous
100
AcDbCircle
 10
2306.424834163265
 20
402.5786359353487
 30
0.0
 40
3.813798694049016
100
AcDbArc
 50
118.5864858262631
 51
163.586485826268
  0
LINE
  5
AC09
330
1E
100
AcDbEntity
  8
0
  6
Continuous
100
AcDbLine
 10
2304.846357495066
 20
405.8254678585792
 30
0.0
 11
2310.512818627802
 21
403.4783428067401
 31
0.0
  0
LINE
  5
AC0A
330
1E
100
AcDbEntity
  8
0
  6
Continuous
100
AcDbLine
 10
2304.880243905169
 20
408.4115228757323
 30
0.0
 11
2312.317474356579
 21
405.3309211562639
 31
0.0
  0
LINE
  5
AC0B
330
1E
100
AcDbEntity
  8
0
  6
Continuous
100
AcDbLine
 10
2305.945941693447
 20
410.9843449295838
 30
0.0
 11
2313.383172144857
 21
407.9037432101154
 31
0.0
  0
ARC
  5
AC0C
330
1E
100
AcDbEntity
  8
0
  6
Continuous
100
AcDbCircle
 10
2313.26353603635
 20
407.6149160944074
 30
0.0
 40
2.472178306553661
100
AcDbArc
 50
214.6327799989322
 51
280.3672200010634
  0
ARC
  5
AC0D
330
1E
100
AcDbEntity
  8
0
  6
Continuous
100
AcDbCircle
 10
2313.325618002272
 20
402.3989420097427
 30
0.0
 40
2.746231479756805
100
AcDbArc
 50
89.1520988349392
 51
159.1520988349398
  0
ARC
  5
AC0E
330
1E
100
AcDbEntity
  8
0
  6
Continuous
100
AcDbCircle
 10
2312.437110465086
 20
405.6197482719719
 30
0.0
 40
2.472178306553661
100
AcDbArc
 50
34.63277999893215
 51
100.3672200010633
  0
LINE
  5
AC0F
330
1E
100
AcDbEntity
  8
0
  6
Continuous
100
AcDbLine
 10
2312.813183832485
 20
408.0631545831959
 30
0.0
 11
2316.196620645631
 21
408.0631545831959
 31
0.0
  0
ARC
  5
AC10
330
1E
100
AcDbEntity
  8
0
  6
Continuous
100
AcDbCircle
 10
2311.301712764965
 20
413.3964879165289
 30
0.0
 40
5.333333333333332
100
AcDbArc
 50
90.0
 51
210.8352048940846
  0
ARC
  5
AC11
330
1E
100
AcDbEntity
  8
0
  6
Continuous
100
AcDbCircle
 10
2304.999880013676
 20
408.7003499914403
 30
0.0
 40
2.472178306553661
100
AcDbArc
 50
34.63277999893215
 51
100.3672200010633
  0
ARC
  5
AC12
330
1E
100
AcDbEntity
  8
0
  6
Continuous
100
AcDbCircle
 10
2326.723036501123
 20
413.3964879165289
 30
0.0
 40
10.62324530617823
100
AcDbArc
 50
163.2213499979164
 51
196.7786500020835
  0
LINE
  5
AC13
330
1E
100
AcDbEntity
  8
0
  6
Continuous
100
AcDbLine
 10
2316.099791194945
 20
408.7964877837387
 30
0.0
 11
2316.099791194945
 21
417.9964880493196
 31
0.0
  0
LINE
  5
AC14
330
1E
100
AcDbEntity
  8
0
100
AcDbLine
 10
2317.736519928943
 20
455.3964871758291
 30
0.0
 11
2317.736519928943
 21
371.3964871758292
 31
0.0
  0
LINE
  5
AC15
330
1E
100
AcDbEntity
  8
0
100
AcDbLine
 10
2231.236519921244
 20
223.2362366775396
 30
0.0
 11
2591.236519921244
 21
223.2362366775396
 31
0.0
  0
CIRCLE
  5
AC18
330
1E
100
AcDbEntity
  8
0
  6
Continuous
 62
     7
100
AcDbCircle
 10
2489.136519921244
 20
413.3964871758291
 30
0.0
 40
5.15
  0
CIRCLE
  5
AC19
330
1E
100
AcDbEntity
  8
0
  6
Continuous
 62
     7
100
AcDbCircle
 10
2489.136519921244
 20
413.3964871758291
 30
0.0
 40
0.75
  0
LINE
  5
AC1A
330
1E
100
AcDbEntity
  8
0
  6
Continuous
 62
     7
100
AcDbLine
 10
2481.136519921243
 20
371.3964871758292
 30
0.0
 11
2504.736519913544
 21
371.3964871758292
 31
0.0
  0
LINE
  5
AC1B
330
1E
100
AcDbEntity
  8
0
  6
Continuous
 62
     7
100
AcDbLine
 10
2481.136519921243
 20
373.3964871758292
 30
0.0
 11
2504.736519913544
 21
373.3964871758292
 31
0.0
  0
LINE
  5
AC1C
330
1E
100
AcDbEntity
  8
0
  6
Continuous
 62
     7
100
AcDbLine
 10
2501.136519921244
 20
455.3964871758291
 30
0.0
 11
2501.136519921244
 21
371.3964871758292
 31
0.0
  0
LINE
  5
AC1D
330
1E
100
AcDbEntity
  8
0
  6
Continuous
 62
     7
100
AcDbLine
 10
2481.136519921243
 20
402.3964871758291
 30
0.0
 11
2501.136519921244
 21
402.3964871758291
 31
0.0
  0
LINE
  5
AC1E
330
1E
100
AcDbEntity
  8
0
  6
Continuous
 62
     7
100
AcDbLine
 10
2501.136519921244
 20
403.3964871758291
 30
0.0
 11
2481.136519921243
 21
403.3964871758291
 31
0.0
  0
LINE
  5
AC1F
330
1E
100
AcDbEntity
  8
0
  6
Continuous
 62
     7
100
AcDbLine
 10
2481.136519921243
 20
473.3964871758289
 30
0.0
 11
2481.136519921243
 21
353.3964871758294
 31
0.0
  0
LINE
  5
AC20
330
1E
100
AcDbEntity
  8
0
  6
Continuous
 62
     7
100
AcDbLine
 10
2501.136519921244
 20
423.3964871758291
 30
0.0
 11
2481.136519921243
 21
423.3964871758291
 31
0.0
  0
LINE
  5
AC21
330
1E
100
AcDbEntity
  8
0
  6
Continuous
 62
     7
100
AcDbLine
 10
2481.136519921243
 20
424.3964871758292
 30
0.0
 11
2501.136519921244
 21
424.3964871758292
 31
0.0
  0
LINE
  5
AC22
330
1E
100
AcDbEntity
  8
0
  6
Continuous
 62
     7
100
AcDbLine
 10
2481.136519921243
 20
453.3964871758292
 30
0.0
 11
2504.736519913544
 21
453.3964871758292
 31
0.0
  0
LINE
  5
AC23
330
1E
100
AcDbEntity
  8
0
  6
Continuous
 62
     7
100
AcDbLine
 10
2481.136519921243
 20
455.3964871758291
 30
0.0
 11
2504.736519913544
 21
455.3964871758291
 31
0.0
  0
CIRCLE
  5
AC26
330
1E
100
AcDbEntity
  8
0
  6
Continuous
 62
     7
100
AcDbCircle
 10
2333.336519921243
 20
413.3964871758291
 30
0.0
 40
5.15
  0
CIRCLE
  5
AC27
330
1E
100
AcDbEntity
  8
0
  6
Continuous
 62
     7
100
AcDbCircle
 10
2333.336519921243
 20
413.3964871758291
 30
0.0
 40
0.75
  0
LINE
  5
AC28
330
1E
100
AcDbEntity
  8
0
  6
Continuous
 62
     7
100
AcDbLine
 10
2341.336519921243
 20
455.3964871758291
 30
0.0
 11
2317.736519928943
 21
455.3964871758291
 31
0.0
  0
LINE
  5
AC29
330
1E
100
AcDbEntity
  8
0
  6
Continuous
 62
     7
100
AcDbLine
 10
2341.336519921243
 20
453.3964871758292
 30
0.0
 11
2317.736519928943
 21
453.3964871758292
 31
0.0
  0
LINE
  5
AC2A
330
1E
100
AcDbEntity
  8
0
  6
Continuous
 62
     7
100
AcDbLine
 10
2321.336519921243
 20
371.3964871758292
 30
0.0
 11
2321.336519921243
 21
455.3964871758291
 31
0.0
  0
LINE
  5
AC2B
330
1E
100
AcDbEntity
  8
0
  6
Continuous
 62
     7
100
AcDbLine
 10
2341.336519921243
 20
424.3964871758292
 30
0.0
 11
2321.336519921243
 21
424.3964871758292
 31
0.0
  0
LINE
  5
AC2C
330
1E
100
AcDbEntity
  8
0
  6
Continuous
 62
     7
100
AcDbLine
 10
2321.336519921243
 20
423.3964871758291
 30
0.0
 11
2341.336519921243
 21
423.3964871758291
 31
0.0
  0
LINE
  5
AC2D
330
1E
100
AcDbEntity
  8
0
  6
Continuous
 62
     7
100
AcDbLine
 10
2341.336519921243
 20
353.3964871758294
 30
0.0
 11
2341.336519921243
 21
473.3964871758289
 31
0.0
  0
LINE
  5
AC2E
330
1E
100
AcDbEntity
  8
0
  6
Continuous
 62
     7
100
AcDbLine
 10
2321.336519921243
 20
403.3964871758291
 30
0.0
 11
2341.336519921243
 21
403.3964871758291
 31
0.0
  0
LINE
  5
AC2F
330
1E
100
AcDbEntity
  8
0
  6
Continuous
 62
     7
100
AcDbLine
 10
2341.336519921243
 20
402.3964871758291
 30
0.0
 11
2321.336519921243
 21
402.3964871758291
 31
0.0
  0
LINE
  5
AC30
330
1E
100
AcDbEntity
  8
0
  6
Continuous
 62
     7
100
AcDbLine
 10
2341.336519921243
 20
373.3964871758292
 30
0.0
 11
2317.736519928943
 21
373.3964871758292
 31
0.0
  0
LINE
  5
AC31
330
1E
100
AcDbEntity
  8
0
  6
Continuous
 62
     7
100
AcDbLine
 10
2341.336519921243
 20
371.3964871758292
 30
0.0
 11
2317.736519928943
 21
371.3964871758292
 31
0.0
  0
LINE
  5
AC32
330
1E
100
AcDbEntity
  8
中心線
 48
0.4
100
AcDbLine
 10
2306.236519921244
 20
426.3720658751931
 30
0.0
 11
2306.236519921244
 21
415.0662980555444
 31
0.0
  0
LINE
  5
AC33
330
1E
100
AcDbEntity
  8
0
100
AcDbLine
 10
2481.136519921243
 20
473.3964871758289
 30
0.0
 11
2341.336519921243
 21
473.3964871758289
 31
0.0
  0
LINE
  5
AC42
330
1E
100
AcDbEntity
  8
0
100
AcDbLine
 10
2341.336519921243
 20
450.39648717583
 30
0.0
 11
2481.136519921243
 21
450.39648717583
 31
0.0
  0
LINE
  5
AC43
330
1E
100
AcDbEntity
  8
0
100
AcDbLine
 10
2341.336519921243
 20
451.5964871758289
 30
0.0
 11
2481.136519921243
 21
451.5964871758289
 31
0.0
  0
LINE
  5
AC54
330
1E
100
AcDbEntity
  8
0
100
AcDbLine
 10
2341.336519921243
 20
471.1964871758275
 30
0.0
 11
2481.136519921243
 21
471.1964871758276
 31
0.0
  0
LINE
  5
AC55
330
1E
100
AcDbEntity
  8
0
100
AcDbLine
 10
2341.336519921243
 20
425.3964871758276
 30
0.0
 11
2481.136519921243
 21
425.3964871758276
 31
0.0
  0
LINE
  5
AC56
330
1E
100
AcDbEntity
  8
0
100
AcDbLine
 10
2341.336519921243
 20
424.1964871758275
 30
0.0
 11
2481.136519921243
 21
424.1964871758275
 31
0.0
  0
LINE
  5
AC57
330
1E
100
AcDbEntity
  8
0
100
AcDbLine
 10
2341.336519921243
 20
402.5964871758276
 30
0.0
 11
2481.136519921243
 21
402.5964871758276
 31
0.0
  0
LINE
  5
AC58
330
1E
100
AcDbEntity
  8
0
100
AcDbLine
 10
2341.336519921243
 20
401.3964871758275
 30
0.0
 11
2481.136519921243
 21
401.3964871758275
 31
0.0
  0
LINE
  5
AC59
330
1E
100
AcDbEntity
  8
0
100
AcDbLine
 10
2341.336519921243
 20
376.3964871758267
 30
0.0
 11
2481.136519921243
 21
376.3964871758268
 31
0.0
  0
LINE
  5
AC5A
330
1E
100
AcDbEntity
  8
0
100
AcDbLine
 10
2341.336519921243
 20
375.1964871758278
 30
0.0
 11
2481.136519921243
 21
375.1964871758278
 31
0.0
  0
LINE
  5
AC5B
330
1E
100
AcDbEntity
  8
0
100
AcDbLine
 10
2341.336519921243
 20
355.5964871758277
 30
0.0
 11
2481.136519921243
 21
355.5964871758277
 31
0.0
  0
LINE
  5
AC5C
330
1E
100
AcDbEntity
  8
0
100
AcDbLine
 10
2481.136519921243
 20
353.3964871758294
 30
0.0
 11
2341.336519921243
 21
353.3964871758294
 31
0.0
  0
LINE
  5
AC5D
330
1E
100
AcDbEntity
  8
中心線
 48
0.3
100
AcDbLine
 10
2441.236519921245
 20
285.3603103936777
 30
0.0
 11
2441.236519921245
 21
259.2136653716417
 31
0.0
  0
LINE
  5
AC5E
330
1E
100
AcDbEntity
  8
中心線
 48
0.3
100
AcDbLine
 10
2381.236519921245
 20
285.3603103936777
 30
0.0
 11
2381.236519921245
 21
259.2136653716417
 31
0.0
  0
LINE
  5
AC7E
330
1E
100
AcDbEntity
  8
0
  6
Continuous
 62
     7
100
AcDbLine
 10
2500.636519921243
 20
242.9862383199397
 30
0.0
 11
2500.636519921243
 21
247.48623503404
 31
0.0
  0
LINE
  5
AC7F
330
1E
100
AcDbEntity
  8
0
  6
Continuous
 62
     7
100
AcDbLine
 10
2497.636519921244
 20
248.2362366774396
 30
0.0
 11
2497.636519921244
 21
242.2362366774396
 31
0.0
  0
LINE
  5
AC80
330
1E
100
AcDbEntity
  8
0
  6
Continuous
 62
     7
100
AcDbLine
 10
2500.136519921243
 20
242.4862366769398
 30
0.0
 11
2497.636519921244
 21
242.4862366769398
 31
0.0
  0
LINE
  5
AC81
330
1E
100
AcDbEntity
  8
0
  6
Continuous
 62
     7
100
AcDbLine
 10
2500.136519921243
 20
247.9862366769398
 30
0.0
 11
2497.636519921244
 21
247.9862366769398
 31
0.0
  0
ARC
  5
AC82
330
1E
100
AcDbEntity
  8
0
  6
Continuous
 62
     7
100
AcDbCircle
 10
2500.136519921243
 20
247.4862366769398
 30
0.0
 40
0.5
100
AcDbArc
 50
0.0
 51
90.0
  0
ARC
  5
AC83
330
1E
100
AcDbEntity
  8
0
  6
Continuous
 62
     7
100
AcDbCircle
 10
2500.136519921243
 20
242.9862366769398
 30
0.0
 40
0.5
100
AcDbArc
 50
270.0
 51
0.0
  0
LINE
  5
AC84
330
1E
100
AcDbEntity
  8
0
  6
Continuous
 62
     7
100
AcDbLine
 10
2321.836519921243
 20
242.9862383199397
 30
0.0
 11
2321.836519921243
 21
247.48623503404
 31
0.0
  0
LINE
  5
AC85
330
1E
100
AcDbEntity
  8
0
  6
Continuous
 62
     7
100
AcDbLine
 10
2324.836519921243
 20
248.2362366774396
 30
0.0
 11
2324.836519921243
 21
242.2362366774396
 31
0.0
  0
LINE
  5
AC86
330
1E
100
AcDbEntity
  8
0
  6
Continuous
 62
     7
100
AcDbLine
 10
2322.336519921243
 20
242.4862366769398
 30
0.0
 11
2324.836519921243
 21
242.4862366769398
 31
0.0
  0
LINE
  5
AC87
330
1E
100
AcDbEntity
  8
0
  6
Continuous
 62
     7
100
AcDbLine
 10
2322.336519921243
 20
247.9862366769398
 30
0.0
 11
2324.836519921243
 21
247.9862366769398
 31
0.0
  0
ARC
  5
AC88
330
1E
100
AcDbEntity
  8
0
  6
Continuous
 62
     7
100
AcDbCircle
 10
2322.336519921243
 20
247.4862366769398
 30
0.0
 40
0.5
100
AcDbArc
 50
90.0
 51
180.0
  0
ARC
  5
AC89
330
1E
100
AcDbEntity
  8
0
  6
Continuous
 62
     7
100
AcDbCircle
 10
2322.336519921243
 20
242.9862366769398
 30
0.0
 40
0.5
100
AcDbArc
 50
180.0
 51
270.0
  0
LINE
  5
AC8A
330
1E
100
AcDbEntity
  8
中心線
 48
0.4
100
AcDbLine
 10
2451.236519921244
 20
285.3362366775859
 30
0.0
 11
2451.236519921244
 21
231.1535663097479
 31
0.0
  0
LINE
  5
AC95
330
1E
100
AcDbEntity
  8
中心線
 48
0.4
100
AcDbLine
 10
2371.236519921243
 20
285.3362366775859
 30
0.0
 11
2371.236519921243
 21
231.1535663097479
 31
0.0
  0
SPLINE
  5
ACA0
330
1E
100
AcDbEntity
  8
0
  6
Continuous
 62
     7
100
AcDbSpline
210
0.0
220
0.0
230
1.0
 70
     8
 71
     3
 72
    11
 73
     7
 74
     5
 42
0.0000000001
 43
0.0000000001
 44
0.0000000001
 12
0.6857142857008335
 22
0.7278708116045017
 32
0.0
 13
0.0
 23
1.0
 33
0.0
 40
0.0
 40
0.0
 40
0.0
 40
0.0
 40
1.52825934413453
 40
3.148546468214887
 40
4.853490539843232
 40
6.601463522771632
 40
6.601463522771632
 40
6.601463522771632
 40
6.601463522771632
 10
2377.605389522743
 20
231.2362366775396
 30
0.0
 10
2377.954705944253
 20
231.6070284672588
 30
0.0
 10
2378.608873537837
 20
232.4356988673435
 30
0.0
 10
2379.371518117193
 20
233.8727476032296
 30
0.0
 10
2379.870795403915
 20
235.4992811239465
 30
0.0
 10
2379.986519921244
 20
236.6535790163635
 30
0.0
 10
2379.986519921244
 20
237.2362366773397
 30
0.0
 11
2377.605389522743
 21
231.2362366775396
 31
0.0
 11
2378.552192367644
 21
232.4358787057396
 31
0.0
 11
2379.311856274243
 21
233.8670464504396
 31
0.0
 11
2379.811925089843
 21
235.4970051821396
 31
0.0
 11
2379.986519921244
 21
237.2362366773397
 31
0.0
  0
SPLINE
  5
ACA1
330
1E
100
AcDbEntity
  8
0
  6
Continuous
 62
     7
100
AcDbSpline
210
0.0
220
0.0
230
1.0
 70
     8
 71
     3
 72
    11
 73
     7
 74
     5
 42
0.0000000001
 43
0.0000000001
 44
0.0000000001
 12
0.6857142857008335
 22
0.7278708116045017
 32
0.0
 13
0.0
 23
1.0
 33
0.0
 40
0.0
 40
0.0
 40
0.0
 40
0.0
 40
1.52825934413453
 40
3.148546468214887
 40
4.853490539843232
 40
6.601463522771632
 40
6.601463522771632
 40
6.601463522771632
 40
6.601463522771632
 10
2457.605389522743
 20
231.2362366775396
 30
0.0
 10
2457.954705944253
 20
231.6070284672588
 30
0.0
 10
2458.608873537837
 20
232.4356988673435
 30
0.0
 10
2459.371518117193
 20
233.8727476032296
 30
0.0
 10
2459.870795403916
 20
235.4992811239465
 30
0.0
 10
2459.986519921244
 20
236.6535790163635
 30
0.0
 10
2459.986519921244
 20
237.2362366773397
 30
0.0
 11
2457.605389522743
 21
231.2362366775396
 31
0.0
 11
2458.552192367644
 21
232.4358787057396
 31
0.0
 11
2459.311856274243
 21
233.8670464504396
 31
0.0
 11
2459.811925089844
 21
235.4970051821396
 31
0.0
 11
2459.986519921244
 21
237.2362366773397
 31
0.0
  0
SPLINE
  5
ACA2
330
1E
100
AcDbEntity
  8
0
  6
Continuous
 62
     7
100
AcDbSpline
210
0.0
220
0.0
230
1.0
 70
     8
 71
     3
 72
    11
 73
     7
 74
     5
 42
0.0000000001
 43
0.0000000001
 44
0.0000000001
 12
0.0
 22
-1.0
 32
0.0
 13
0.6857142857017957
 23
-0.7278708116035951
 33
0.0
 40
0.0
 40
0.0
 40
0.0
 40
0.0
 40
1.754491931212428
 40
3.449058656976905
 40
5.073051010203281
 40
6.601463326177142
 40
6.601463326177142
 40
6.601463326177142
 40
6.601463326177142
 10
2362.486519921244
 20
237.2362366773397
 30
0.0
 10
2362.486519921244
 20
236.6514060336022
 30
0.0
 10
2362.602561758712
 20
235.4983513708813
 30
0.0
 10
2363.102023194205
 20
233.8721064066635
 30
0.0
 10
2363.863337964409
 20
232.4367507107646
 30
0.0
 10
2364.518298933142
 20
231.6070655818372
 30
0.0
 10
2364.867650319643
 20
231.2362366775396
 30
0.0
 11
2362.486519921244
 21
237.2362366773397
 31
0.0
 11
2362.662419460444
 21
235.4905845674395
 31
0.0
 11
2363.159692363643
 21
233.8706228247396
 31
0.0
 11
2363.920763231743
 21
232.4360070932396
 31
0.0
 11
2364.867650319643
 21
231.2362366775396
 31
0.0
  0
SPLINE
  5
ACA3
330
1E
100
AcDbEntity
  8
0
  6
Continuous
 62
     7
100
AcDbSpline
210
0.0
220
0.0
230
1.0
 70
     8
 71
     3
 72
    11
 73
     7
 74
     5
 42
0.0000000001
 43
0.0000000001
 44
0.0000000001
 12
0.0
 22
-1.0
 32
0.0
 13
0.6857142857017957
 23
-0.7278708116035951
 33
0.0
 40
0.0
 40
0.0
 40
0.0
 40
0.0
 40
1.754491931212428
 40
3.449058656976905
 40
5.073051010203281
 40
6.601463326177142
 40
6.601463326177142
 40
6.601463326177142
 40
6.601463326177142
 10
2442.486519921244
 20
237.2362366773397
 30
0.0
 10
2442.486519921244
 20
236.6514060336022
 30
0.0
 10
2442.602561758711
 20
235.4983513708813
 30
0.0
 10
2443.102023194205
 20
233.8721064066635
 30
0.0
 10
2443.863337964409
 20
232.4367507107646
 30
0.0
 10
2444.518298933142
 20
231.6070655818372
 30
0.0
 10
2444.867650319644
 20
231.2362366775396
 30
0.0
 11
2442.486519921244
 21
237.2362366773397
 31
0.0
 11
2442.662419460444
 21
235.4905845674395
 31
0.0
 11
2443.159692363643
 21
233.8706228247396
 31
0.0
 11
2443.920763231743
 21
232.4360070932396
 31
0.0
 11
2444.867650319644
 21
231.2362366775396
 31
0.0
  0
CIRCLE
  5
ACA4
330
1E
100
AcDbEntity
  8
0
  6
Continuous
 62
     7
100
AcDbCircle
 10
2491.136519921243
 20
269.2362366775396
 30
0.0
 40
3.9881407843
  0
CIRCLE
  5
ACA5
330
1E
100
AcDbEntity
  8
0
  6
Continuous
 62
     7
100
AcDbCircle
 10
2491.136519921243
 20
269.2362366775396
 30
0.0
 40
4.236559657199999
  0
CIRCLE
  5
ACA6
330
1E
100
AcDbEntity
  8
0
  6
Continuous
 62
     7
100
AcDbCircle
 10
2491.136519921243
 20
269.2362366775396
 30
0.0
 40
4.749883031499999
  0
CIRCLE
  5
ACA7
330
1E
100
AcDbEntity
  8
0
  6
Continuous
 62
     7
100
AcDbCircle
 10
2491.136519921243
 20
269.2362366775396
 30
0.0
 40
0.75
  0
CIRCLE
  5
ACA8
330
1E
100
AcDbEntity
  8
0
  6
Continuous
 62
     7
100
AcDbCircle
 10
2331.336519921243
 20
269.2362366775396
 30
0.0
 40
4.075449350699999
  0
CIRCLE
  5
ACA9
330
1E
100
AcDbEntity
  8
0
  6
Continuous
 62
     7
100
AcDbCircle
 10
2331.336519921243
 20
269.2362366775396
 30
0.0
 40
4.2411205224
  0
CIRCLE
  5
ACAA
330
1E
100
AcDbEntity
  8
0
  6
Continuous
 62
     7
100
AcDbCircle
 10
2331.336519921243
 20
269.2362366775396
 30
0.0
 40
4.749883031499999
  0
CIRCLE
  5
ACAB
330
1E
100
AcDbEntity
  8
0
  6
Continuous
 62
     7
100
AcDbCircle
 10
2331.336519921243
 20
269.2362366775396
 30
0.0
 40
0.75
  0
LINE
  5
ACAC
330
1E
100
AcDbEntity
  8
0
  6
Continuous
 62
     7
100
AcDbLine
 10
2504.736519928944
 20
231.2362366774396
 30
0.0
 11
2504.736519928944
 21
281.7362366775396
 31
0.0
  0
LINE
  5
ACAD
330
1E
100
AcDbEntity
  8
0
  6
Continuous
 62
     7
100
AcDbLine
 10
2501.136519921244
 20
231.2362366774396
 30
0.0
 11
2501.136519921244
 21
282.7362366775396
 31
0.0
  0
LINE
  5
ACAE
330
1E
100
AcDbEntity
  8
0
  6
Continuous
 62
     7
100
AcDbLine
 10
2497.636519921244
 20
241.4862366774396
 30
0.0
 11
2497.636519921244
 21
248.9862366774396
 31
0.0
  0
LINE
  5
ACAF
330
1E
100
AcDbEntity
  8
0
  6
Continuous
 62
     7
100
AcDbLine
 10
2481.136519921243
 20
231.2362366775396
 30
0.0
 11
2481.136519921243
 21
283.2362366775397
 31
0.0
  0
LINE
  5
ACB0
330
1E
100
AcDbEntity
  8
0
  6
Continuous
 62
     7
100
AcDbLine
 10
2459.986519921244
 20
237.2362366773397
 30
0.0
 11
2459.986519921244
 21
268.2362366776396
 31
0.0
  0
LINE
  5
ACB1
330
1E
100
AcDbEntity
  8
0
  6
Continuous
 62
     7
100
AcDbLine
 10
2341.336519921243
 20
283.2362366775397
 30
0.0
 11
2481.136519921243
 21
283.2362366775397
 31
0.0
  0
LINE
  5
ACB2
330
1E
100
AcDbEntity
  8
0
  6
Continuous
 62
     7
100
AcDbLine
 10
2501.136519921244
 20
282.7362366775396
 30
0.0
 11
2481.136519921243
 21
282.7362366775396
 31
0.0
  0
LINE
  5
ACB3
330
1E
100
AcDbEntity
  8
0
  6
Continuous
 62
     7
100
AcDbLine
 10
2321.336519921243
 20
282.7362366775396
 30
0.0
 11
2341.336519921243
 21
282.7362366775396
 31
0.0
  0
LINE
  5
ACB4
330
1E
100
AcDbEntity
  8
0
  6
Continuous
 62
     7
100
AcDbLine
 10
2341.336519921243
 20
281.7362366775396
 30
0.0
 11
2317.736519928943
 21
281.7362366775396
 31
0.0
  0
LINE
  5
ACB5
330
1E
100
AcDbEntity
  8
0
  6
Continuous
 62
     7
100
AcDbLine
 10
2481.136519921243
 20
281.7362366775396
 30
0.0
 11
2504.736519928944
 21
281.7362366775396
 31
0.0
  0
LINE
  5
ACB6
330
1E
100
AcDbEntity
  8
0
  6
Continuous
 62
     7
100
AcDbLine
 10
2341.336519921243
 20
281.2362366775396
 30
0.0
 11
2481.136519921243
 21
281.2362366775396
 31
0.0
  0
LINE
  5
ACB7
330
1E
100
AcDbEntity
  8
0
  6
Continuous
 62
     7
100
AcDbLine
 10
2341.336519921243
 20
279.7362366775396
 30
0.0
 11
2317.736519928943
 21
279.7362366775398
 31
0.0
  0
LINE
  5
ACB8
330
1E
100
AcDbEntity
  8
0
  6
Continuous
 62
     7
100
AcDbLine
 10
2481.136519921243
 20
279.7362366775396
 30
0.0
 11
2504.736519928944
 21
279.7362366775396
 31
0.0
  0
LINE
  5
ACB9
330
1E
100
AcDbEntity
  8
0
  6
Continuous
 62
     7
100
AcDbLine
 10
2442.486519921244
 20
237.2362366773397
 30
0.0
 11
2442.486519921244
 21
268.2362366776396
 31
0.0
  0
LINE
  5
ACBA
330
1E
100
AcDbEntity
  8
0
  6
Continuous
 62
     7
100
AcDbLine
 10
2379.986519921244
 20
268.2362366776396
 30
0.0
 11
2362.486519921244
 21
268.2362366776396
 31
0.0
  0
LINE
  5
ACBB
330
1E
100
AcDbEntity
  8
0
  6
Continuous
 62
     7
100
AcDbLine
 10
2459.986519921244
 20
268.2362366776396
 30
0.0
 11
2442.486519921244
 21
268.2362366776396
 31
0.0
  0
LINE
  5
ACBC
330
1E
100
AcDbEntity
  8
0
  6
Continuous
 62
     7
100
AcDbLine
 10
2506.373248662943
 20
261.2362366775396
 30
0.0
 11
2591.236519921244
 21
261.2362366775396
 31
0.0
  0
LINE
  5
ACBD
330
1E
100
AcDbEntity
  8
0
  6
Continuous
 62
     7
100
AcDbLine
 10
2231.236519921244
 20
261.2362366775396
 30
0.0
 11
2316.099791210345
 21
261.2362366775396
 31
0.0
  0
LINE
  5
ACD2
330
1E
100
AcDbEntity
  8
0
  6
Continuous
 62
     7
100
AcDbLine
 10
2497.636519921244
 20
248.9862366774396
 30
0.0
 11
2501.136519921244
 21
248.9862366774396
 31
0.0
  0
LINE
  5
ACD3
330
1E
100
AcDbEntity
  8
0
  6
Continuous
 62
     7
100
AcDbLine
 10
2321.336519921243
 20
248.9862366774396
 30
0.0
 11
2324.836519921243
 21
248.9862366774396
 31
0.0
  0
LINE
  5
ACD4
330
1E
100
AcDbEntity
  8
0
  6
Continuous
 62
     7
100
AcDbLine
 10
2459.986519921244
 20
247.2362366774396
 30
0.0
 11
2481.136519921244
 21
247.2362366774396
 31
0.0
  0
LINE
  5
ACD5
330
1E
100
AcDbEntity
  8
0
  6
Continuous
 62
     7
100
AcDbLine
 10
2379.986519921244
 20
247.2362366774396
 30
0.0
 11
2442.486519921244
 21
247.2362366774396
 31
0.0
  0
LINE
  5
ACD6
330
1E
100
AcDbEntity
  8
0
  6
Continuous
 62
     7
100
AcDbLine
 10
2341.336519921243
 20
247.2362366774396
 30
0.0
 11
2362.486519921244
 21
247.2362366774396
 31
0.0
  0
LINE
  5
ACD7
330
1E
100
AcDbEntity
  8
0
  6
Continuous
 62
     7
100
AcDbLine
 10
2324.836519921243
 20
241.4862366774396
 30
0.0
 11
2321.336519921243
 21
241.4862366774396
 31
0.0
  0
LINE
  5
ACD8
330
1E
100
AcDbEntity
  8
0
  6
Continuous
 62
     7
100
AcDbLine
 10
2501.136519921244
 20
241.4862366774396
 30
0.0
 11
2497.636519921244
 21
241.4862366774396
 31
0.0
  0
LINE
  5
ACE5
330
1E
100
AcDbEntity
  8
0
  6
Continuous
 62
     7
100
AcDbLine
 10
2341.336519921243
 20
233.2362366775396
 30
0.0
 11
2317.736519928943
 21
233.2362366775396
 31
0.0
  0
LINE
  5
ACE6
330
1E
100
AcDbEntity
  8
0
  6
Continuous
 62
     7
100
AcDbLine
 10
2481.136519921243
 20
233.2362366775396
 30
0.0
 11
2504.736519928944
 21
233.2362366775396
 31
0.0
  0
LINE
  5
ACEB
330
1E
100
AcDbEntity
  8
0
  6
Continuous
 62
     7
100
AcDbLine
 10
2504.736519928944
 20
231.2362366774396
 30
0.0
 11
2317.736519928943
 21
231.2362366774396
 31
0.0
  0
LINE
  5
ACED
330
1E
100
AcDbEntity
  8
0
  6
Continuous
 62
     7
100
AcDbLine
 10
2308.236519921244
 20
223.2362366775396
 30
0.0
 11
2514.236519921244
 21
223.2362366775396
 31
0.0
  0
LINE
  5
ACEE
330
1E
100
AcDbEntity
  8
0
  6
Continuous
 62
     7
100
AcDbLine
 10
2379.986519921244
 20
237.2362366773397
 30
0.0
 11
2379.986519921244
 21
268.2362366776396
 31
0.0
  0
LINE
  5
ACEF
330
1E
100
AcDbEntity
  8
0
  6
Continuous
 62
     7
100
AcDbLine
 10
2362.486519921244
 20
237.2362366773397
 30
0.0
 11
2362.486519921244
 21
268.2362366776396
 31
0.0
  0
LINE
  5
ACF0
330
1E
100
AcDbEntity
  8
0
  6
Continuous
 62
     7
100
AcDbLine
 10
2341.336519921243
 20
231.2362366775396
 30
0.0
 11
2341.336519921243
 21
283.2362366775397
 31
0.0
  0
LINE
  5
ACF1
330
1E
100
AcDbEntity
  8
0
  6
Continuous
 62
     7
100
AcDbLine
 10
2324.836519921243
 20
248.9862366774396
 30
0.0
 11
2324.836519921243
 21
241.4862366774396
 31
0.0
  0
LINE
  5
ACF2
330
1E
100
AcDbEntity
  8
0
  6
Continuous
 62
     7
100
AcDbLine
 10
2321.336519921243
 20
231.2362366774396
 30
0.0
 11
2321.336519921243
 21
282.7362366775396
 31
0.0
  0
LINE
  5
ACF3
330
1E
100
AcDbEntity
  8
0
  6
Continuous
 62
     7
100
AcDbLine
 10
2317.736519928943
 20
231.2362366774396
 30
0.0
 11
2317.736519928943
 21
281.7362366775396
 31
0.0
  0
MTEXT
  5
DF8A
330
1E
100
AcDbEntity
  8
0
100
AcDbMText
 10
2075.118075366598
 20
203.6690532612183
 30
0.0
 40
7.800000159341863
 41
100.6095
 71
     1
 72
     5
  1
\A1;{\fTimes New Roman|b0|i0|c0|p18;RGW45HC\PC : 11820 kgf\PC\fProxy 1|b0|i0|c0|p0;\H0.7x;\S^ 0;\fTimes New Roman|b0|i0|c0|p18;\H1.429x;: 23530 kgf}
 73
     1
 44
1.0
1001
ACAD
1000
MTEXTBEGIN
1070
    73
1070
     1
1070
    44
1040
1.0
1070
    74
1070
     0
1000
MTEXTEND
  0
LINE
  5
E495
330
1E
100
AcDbEntity
  8
虛線
  6
DASHED
100
AcDbLine
 10
2094.197448723766
 20
272.5362366775838
 30
0.0
 11
2094.197448723767
 21
262.5362366775395
 31
0.0
  0
LINE
  5
E496
330
1E
100
AcDbEntity
  8
虛線
  6
DASHED
100
AcDbLine
 10
2111.697448723766
 20
272.5362366775838
 30
0.0
 11
2111.697448723766
 21
262.5362366775395
 31
0.0
  0
LINE
  5
E497
330
1E
100
AcDbEntity
  8
虛線
  6
DASHED
100
AcDbLine
 10
2058.947448723767
 20
282.6112366775855
 30
0.0
 11
2058.947448723767
 21
268.236236677586
 31
0.0
  0
LINE
  5
E498
330
1E
100
AcDbEntity
  8
虛線
  6
DASHED
100
AcDbLine
 10
2046.947448723766
 20
282.6112366775856
 30
0.0
 11
2046.947448723766
 21
268.236236677586
 31
0.0
  0
LINE
  5
E499
330
1E
100
AcDbEntity
  8
虛線
  6
DASHED
100
AcDbLine
 10
2047.822448723767
 20
281.7362366775859
 30
0.0
 11
2058.072448723767
 21
281.736236677586
 31
0.0
  0
LINE
  5
E49A
330
1E
100
AcDbEntity
  8
虛線
  6
DASHED
100
AcDbLine
 10
2058.072448723767
 20
281.736236677586
 30
0.0
 11
2059.57244872372
 21
283.2362366775391
 31
0.0
  0
LINE
  5
E49B
330
1E
100
AcDbEntity
  8
虛線
  6
DASHED
100
AcDbLine
 10
2047.822448723767
 20
281.7362366775859
 30
0.0
 11
2046.322448723812
 21
283.2362366775395
 31
0.0
  0
LINE
  5
E49C
330
1E
100
AcDbEntity
  8
虛線
  6
DASHED
100
AcDbLine
 10
2058.072448723767
 20
281.736236677586
 30
0.0
 11
2058.072448723767
 21
268.236236677586
 31
0.0
  0
LINE
  5
E49D
330
1E
100
AcDbEntity
  8
虛線
  6
DASHED
100
AcDbLine
 10
2047.822448723767
 20
281.7362366775859
 30
0.0
 11
2047.822448723767
 21
268.236236677586
 31
0.0
  0
LINE
  5
E49E
330
1E
100
AcDbEntity
  8
虛線
  6
DASHED
100
AcDbLine
 10
2097.822448723766
 20
281.7362366775833
 30
0.0
 11
2097.822448723766
 21
272.5362366775838
 31
0.0
  0
LINE
  5
E49F
330
1E
100
AcDbEntity
  8
虛線
  6
DASHED
100
AcDbLine
 10
2108.072448723767
 20
281.7362366775842
 30
0.0
 11
2108.072448723766
 21
272.5362366775838
 31
0.0
  0
LINE
  5
E4A0
330
1E
100
AcDbEntity
  8
虛線
  6
DASHED
100
AcDbLine
 10
2147.822448723767
 20
281.7362366775859
 30
0.0
 11
2147.822448723767
 21
268.2362366775859
 31
0.0
  0
LINE
  5
E4A1
330
1E
100
AcDbEntity
  8
虛線
  6
DASHED
100
AcDbLine
 10
2158.072448723767
 20
281.7362366775859
 30
0.0
 11
2158.072448723767
 21
268.2362366775859
 31
0.0
  0
LINE
  5
E4A2
330
1E
100
AcDbEntity
  8
虛線
  6
DASHED
100
AcDbLine
 10
2112.697448723767
 20
262.5362366775395
 30
0.0
 11
2093.197448723767
 21
262.5362366775395
 31
0.0
  0
LINE
  5
E4A3
330
1E
100
AcDbEntity
  8
中心線
 48
0.4
100
AcDbLine
 10
2116.645249768658
 20
273.2362366775395
 30
0.0
 11
2094.886601096714
 21
273.2362366775395
 31
0.0
  0
POINT
  5
E4A4
330
1E
100
AcDbEntity
  8
0
100
AcDbPoint
 10
2115.145249768659
 20
273.2362366775395
 30
0.0
1001
pntflag
1000
endpoint
  0
LINE
  5
E4A5
330
1E
100
AcDbEntity
  8
中心線
 48
0.27
100
AcDbLine
 10
2116.645249768658
 20
273.2362366775395
 30
0.0
 11
2094.886601096714
 21
273.2362366775395
 31
0.0
  0
LINE
  5
E4A6
330
1E
100
AcDbEntity
  8
0
 48
0.27
100
AcDbLine
 10
2110.803877943274
 20
275.6284890774206
 30
0.0
 11
2110.867321263994
 21
275.6703175810309
 31
0.0
  0
LINE
  5
E4A7
330
1E
100
AcDbEntity
  8
0
 48
0.27
100
AcDbLine
 10
2110.538224276785
 20
270.8161303386317
 30
0.0
 11
2110.598666606379
 21
270.813563547703
 31
0.0
  0
LINE
  5
E4A8
330
1E
100
AcDbEntity
  8
0
 48
0.27
100
AcDbLine
 10
2110.803877943274
 20
270.8439826076582
 30
0.0
 11
2110.867321263994
 21
270.8021541040476
 31
0.0
  0
LINE
  5
E4A9
330
1E
100
AcDbEntity
  8
0
 48
0.27
100
AcDbLine
 10
2111.43259473827
 20
273.2362366775395
 30
0.0
 11
2111.456064925939
 21
273.8589130805264
 31
0.0
  0
LINE
  5
E4AA
330
1E
100
AcDbEntity
  8
0
 48
0.27
100
AcDbLine
 10
2113.431149519779
 20
273.2362366775395
 30
0.0
 11
2113.447617395153
 21
273.6731572500052
 31
0.0
  0
LINE
  5
E4AB
330
1E
100
AcDbEntity
  8
0
 48
0.27
100
AcDbLine
 10
2113.447617395153
 20
272.7993161050737
 30
0.0
 11
2113.431149519779
 21
273.2362366775395
 31
0.0
  0
LINE
  5
E4AC
330
1E
100
AcDbEntity
  8
0
 48
0.27
100
AcDbLine
 10
2111.456064925939
 20
272.6135586045522
 30
0.0
 11
2111.43259473827
 21
273.2362366775395
 31
0.0
  0
LINE
  5
E4AD
330
1E
100
AcDbEntity
  8
0
 48
0.27
100
AcDbLine
 10
2113.447617395153
 20
273.6731572500052
 30
0.0
 11
2113.496389761049
 21
274.0932859669166
 31
0.0
  0
LINE
  5
E4AE
330
1E
100
AcDbEntity
  8
0
 48
0.27
100
AcDbLine
 10
2111.456064925939
 20
273.8589130805264
 30
0.0
 11
2111.525570348547
 21
274.4576617157674
 31
0.0
  0
LINE
  5
E4AF
330
1E
100
AcDbEntity
  8
0
 48
0.27
100
AcDbLine
 10
2113.496389761049
 20
272.3791857181619
 30
0.0
 11
2113.447617395153
 21
272.7993161050737
 31
0.0
  0
LINE
  5
E4B0
330
1E
100
AcDbEntity
  8
0
 48
0.27
100
AcDbLine
 10
2111.525570348547
 20
272.0148099693111
 30
0.0
 11
2111.456064925939
 21
272.6135586045522
 31
0.0
  0
LINE
  5
E4B1
330
1E
100
AcDbEntity
  8
0
 48
0.27
100
AcDbLine
 10
2113.496389761049
 20
274.0932859669166
 30
0.0
 11
2113.5755895369
 21
274.4804806032033
 31
0.0
  0
LINE
  5
E4B2
330
1E
100
AcDbEntity
  8
0
 48
0.27
100
AcDbLine
 10
2111.525570348547
 20
274.4576617157674
 30
0.0
 11
2111.638442345396
 21
275.0094716455448
 31
0.0
  0
LINE
  5
E4B3
330
1E
100
AcDbEntity
  8
0
 48
0.27
100
AcDbLine
 10
2113.5755895369
 20
271.9919927518757
 30
0.0
 11
2113.496389761049
 21
272.3791857181619
 31
0.0
  0
LINE
  5
E4B4
330
1E
100
AcDbEntity
  8
0
 48
0.27
100
AcDbLine
 10
2111.638442345396
 20
271.4630000394089
 30
0.0
 11
2111.525570348547
 21
272.0148099693111
 31
0.0
  0
LINE
  5
E4B5
330
1E
100
AcDbEntity
  8
0
 48
0.27
100
AcDbLine
 10
2113.5755895369
 20
274.4804806032033
 30
0.0
 11
2113.6821739817
 21
274.8198581137543
 31
0.0
  0
LINE
  5
E4B6
330
1E
100
AcDbEntity
  8
0
 48
0.27
100
AcDbLine
 10
2111.638442345396
 20
275.0094716455448
 30
0.0
 11
2111.790342254889
 21
275.4931372033169
 31
0.0
  0
LINE
  5
E4B7
330
1E
100
AcDbEntity
  8
0
 48
0.27
100
AcDbLine
 10
2113.6821739817
 20
271.6526135713244
 30
0.0
 11
2113.5755895369
 21
271.9919927518757
 31
0.0
  0
LINE
  5
E4B8
330
1E
100
AcDbEntity
  8
0
 48
0.27
100
AcDbLine
 10
2111.790342254889
 20
270.9793361517621
 30
0.0
 11
2111.638442345396
 21
271.4630000394089
 31
0.0
  0
LINE
  5
E4B9
330
1E
100
AcDbEntity
  8
0
 48
0.27
100
AcDbLine
 10
2113.6821739817
 20
274.8198581137543
 30
0.0
 11
2113.812048254013
 21
275.0983791346422
 31
0.0
  0
LINE
  5
E4BA
330
1E
100
AcDbEntity
  8
0
 48
0.27
100
AcDbLine
 10
2111.790342254889
 20
275.4931372033169
 30
0.0
 11
2111.975433425299
 21
275.8900696127295
 31
0.0
  0
LINE
  5
E4BB
330
1E
100
AcDbEntity
  8
0
 48
0.27
100
AcDbLine
 10
2113.812048254013
 20
271.3740925504363
 30
0.0
 11
2113.6821739817
 21
271.6526135713244
 31
0.0
  0
LINE
  5
E4BC
330
1E
100
AcDbEntity
  8
0
 48
0.27
100
AcDbLine
 10
2113.812048254013
 20
275.0983791346422
 30
0.0
 11
2113.960220722258
 21
275.3053372920793
 31
0.0
  0
LINE
  5
E4BD
330
1E
100
AcDbEntity
  8
0
 48
0.27
100
AcDbLine
 10
2111.975433425299
 20
270.5824020723491
 30
0.0
 11
2111.790342254889
 21
270.9793361517621
 31
0.0
  0
LINE
  5
E4BE
330
1E
100
AcDbEntity
  8
0
 48
0.27
100
AcDbLine
 10
2110.05256640843
 20
273.2362366775395
 30
0.0
 11
2110.0705005443
 21
273.7120849626311
 31
0.0
  0
LINE
  5
E4BF
330
1E
100
AcDbEntity
  8
0
 48
0.27
100
AcDbLine
 10
2110.0705005443
 20
272.7603867224474
 30
0.0
 11
2110.05256640843
 21
273.2362366775395
 31
0.0
  0
LINE
  5
E4C0
330
1E
100
AcDbEntity
  8
0
 48
0.27
100
AcDbLine
 10
2110.0705005443
 20
273.7120849626311
 30
0.0
 11
2110.123618251546
 21
274.169646741794
 31
0.0
  0
LINE
  5
E4C1
330
1E
100
AcDbEntity
  8
0
 48
0.27
100
AcDbLine
 10
2106.079974123382
 20
273.2362366775395
 30
0.0
 11
2106.107549172362
 21
273.9678255059647
 31
0.0
  0
LINE
  5
E4C2
330
1E
100
AcDbEntity
  8
0
 48
0.27
100
AcDbLine
 10
2106.107549172362
 20
272.5046478489891
 30
0.0
 11
2106.079974123382
 21
273.2362366775395
 31
0.0
  0
LINE
  5
E4C3
330
1E
100
AcDbEntity
  8
0
 48
0.27
100
AcDbLine
 10
2110.123618251546
 20
272.3028249432847
 30
0.0
 11
2110.0705005443
 21
272.7603867224474
 31
0.0
  0
LINE
  5
E4C4
330
1E
100
AcDbEntity
  8
0
 48
0.27
100
AcDbLine
 10
2110.123618251546
 20
274.169646741794
 30
0.0
 11
2110.2098737797
 21
274.5913385793414
 31
0.0
  0
LINE
  5
E4C5
330
1E
100
AcDbEntity
  8
0
 48
0.27
100
AcDbLine
 10
2111.975433425299
 20
275.8900696127295
 30
0.0
 11
2112.186601654064
 21
276.1850184288609
 31
0.0
  0
LINE
  5
E4C6
330
1E
100
AcDbEntity
  8
0
 48
0.27
100
AcDbLine
 10
2113.960220722258
 20
271.1671343929994
 30
0.0
 11
2113.812048254013
 21
271.3740925504363
 31
0.0
  0
LINE
  5
E4C7
330
1E
100
AcDbEntity
  8
0
 48
0.27
100
AcDbLine
 10
2113.960220722258
 20
275.3053372920793
 30
0.0
 11
2114.120998354733
 21
275.4327833836127
 31
0.0
  0
LINE
  5
E4C8
330
1E
100
AcDbEntity
  8
0
 48
0.27
100
AcDbLine
 10
2106.107549172362
 20
273.9678255059647
 30
0.0
 11
2106.189212199
 21
274.67129987532
 31
0.0
  0
LINE
  5
E4C9
330
1E
100
AcDbEntity
  8
0
 48
0.27
100
AcDbLine
 10
2106.189212199
 20
271.8011734797589
 30
0.0
 11
2106.107549172362
 21
272.5046478489891
 31
0.0
  0
LINE
  5
E4CA
330
1E
100
AcDbEntity
  8
0
 48
0.27
100
AcDbLine
 10
2110.2098737797
 20
271.8811331057371
 30
0.0
 11
2110.123618251546
 21
272.3028249432847
 31
0.0
  0
LINE
  5
E4CB
330
1E
100
AcDbEntity
  8
0
 48
0.27
100
AcDbLine
 10
2112.186601654064
 20
270.2874532562177
 30
0.0
 11
2111.975433425299
 21
270.5824020723491
 31
0.0
  0
LINE
  5
E4CC
330
1E
100
AcDbEntity
  8
0
 48
0.27
100
AcDbLine
 10
2110.2098737797
 20
274.5913385793414
 30
0.0
 11
2110.325955517586
 21
274.9609547898175
 31
0.0
  0
LINE
  5
E4CD
330
1E
100
AcDbEntity
  8
0
 48
0.27
100
AcDbLine
 10
2106.189212199
 20
274.67129987532
 30
0.0
 11
2106.321825272146
 21
275.3196241467152
 31
0.0
  0
LINE
  5
E4CE
330
1E
100
AcDbEntity
  8
0
 48
0.27
100
AcDbLine
 10
2106.321825272146
 20
271.1528475383635
 30
0.0
 11
2106.189212199
 21
271.8011734797589
 31
0.0
  0
LINE
  5
E4CF
330
1E
100
AcDbEntity
  8
0
 48
0.27
100
AcDbLine
 10
2110.325955517586
 20
271.5115168952613
 30
0.0
 11
2110.2098737797
 21
271.8811331057371
 31
0.0
  0
LINE
  5
E4D0
330
1E
100
AcDbEntity
  8
0
 48
0.27
100
AcDbLine
 10
2114.120998354733
 20
275.4327833836127
 30
0.0
 11
2114.288200479156
 21
275.4758159576742
 31
0.0
  0
LINE
  5
E4D1
330
1E
100
AcDbEntity
  8
0
 48
0.27
100
AcDbLine
 10
2112.186601654064
 20
276.1850184288609
 30
0.0
 11
2112.415732408829
 21
276.3666476880682
 31
0.0
  0
LINE
  5
E4D2
330
1E
100
AcDbEntity
  8
0
 48
0.27
100
AcDbLine
 10
2113.960220722258
 20
271.1671343929994
 30
0.0
 11
2114.120998354733
 21
271.0396883014658
 31
0.0
  0
LINE
  5
E4D3
330
1E
100
AcDbEntity
  8
0
 48
0.27
100
AcDbLine
 10
2110.325955517586
 20
274.9609547898175
 30
0.0
 11
2110.467401223583
 21
275.2642903487243
 31
0.0
  0
LINE
  5
E4D4
330
1E
100
AcDbEntity
  8
0
 48
0.27
100
AcDbLine
 10
2112.186601654064
 20
270.2874532562177
 30
0.0
 11
2112.415732408829
 21
270.1058256670109
 31
0.0
  0
LINE
  5
E4D5
330
1E
100
AcDbEntity
  8
0
 48
0.27
100
AcDbLine
 10
2110.467401223583
 20
271.2081813363542
 30
0.0
 11
2110.325955517586
 21
271.5115168952613
 31
0.0
  0
LINE
  5
E4D6
330
1E
100
AcDbEntity
  8
0
 48
0.27
100
AcDbLine
 10
2106.321825272146
 20
275.3196241467152
 30
0.0
 11
2106.500294890325
 21
275.8878869219901
 31
0.0
  0
LINE
  5
E4D7
330
1E
100
AcDbEntity
  8
0
 48
0.27
100
AcDbLine
 10
2106.500294890325
 20
270.5845847630886
 30
0.0
 11
2106.321825272146
 21
271.1528475383635
 31
0.0
  0
LINE
  5
E4D8
330
1E
100
AcDbEntity
  8
0
 48
0.27
100
AcDbLine
 10
2110.467401223583
 20
275.2642903487243
 30
0.0
 11
2110.628776716282
 21
275.4896886521159
 31
0.0
  0
LINE
  5
E4D9
330
1E
100
AcDbEntity
  8
0
 48
0.27
100
AcDbLine
 10
2111.348176210797
 20
275.9591241351367
 30
0.0
 11
2111.559755259756
 21
276.1268389498949
 31
0.0
  0
LINE
  5
E4DA
330
1E
100
AcDbEntity
  8
0
 48
0.27
100
AcDbLine
 10
2112.415732408829
 20
276.3666476880682
 30
0.0
 11
2112.654021446498
 21
276.4279751180596
 31
0.0
  0
LINE
  5
E4DB
330
1E
100
AcDbEntity
  8
0
 48
0.27
100
AcDbLine
 10
2114.288200479156
 20
275.4758159576742
 30
0.0
 11
2114.455402603704
 21
275.4327833836127
 31
0.0
  0
LINE
  5
E4DC
330
1E
100
AcDbEntity
  8
0
 48
0.27
100
AcDbLine
 10
2114.120998354733
 20
271.0396883014658
 30
0.0
 11
2114.288200479156
 21
270.9966557274043
 31
0.0
  0
LINE
  5
E4DD
330
1E
100
AcDbEntity
  8
0
 48
0.27
100
AcDbLine
 10
2110.628776716282
 20
270.9827830329626
 30
0.0
 11
2110.467401223583
 21
271.2081813363542
 31
0.0
  0
LINE
  5
E4DE
330
1E
100
AcDbEntity
  8
0
 48
0.27
100
AcDbLine
 10
2105.857969260933
 20
273.2362366775395
 30
0.0
 11
2106.686503291048
 21
276.9862362600394
 31
0.0
  0
LINE
  5
E4DF
330
1E
100
AcDbEntity
  8
0
 48
0.27
100
AcDbLine
 10
2106.686503291048
 20
269.4862354250393
 30
0.0
 11
2105.857969260933
 21
273.2362366775395
 31
0.0
  0
LINE
  5
E4E0
330
1E
100
AcDbEntity
  8
0
 48
0.27
100
AcDbLine
 10
2111.559755259756
 20
276.1268389498949
 30
0.0
 11
2111.967295512565
 21
276.3324627768592
 31
0.0
  0
LINE
  5
E4E1
330
1E
100
AcDbEntity
  8
0
 48
0.27
100
AcDbLine
 10
2111.967295512565
 20
276.3324627768592
 30
0.0
 11
2112.202981019425
 21
276.3931222066143
 31
0.0
  0
LINE
  5
E4E2
330
1E
100
AcDbEntity
  8
0
 48
0.27
100
AcDbLine
 10
2112.415732408829
 20
270.1058256670109
 30
0.0
 11
2112.654021446498
 21
270.0444965670189
 31
0.0
  0
LINE
  5
E4E3
330
1E
100
AcDbEntity
  8
0
 48
0.27
100
AcDbLine
 10
2106.500294890325
 20
275.8878869219901
 30
0.0
 11
2106.717759021267
 21
276.3542479339973
 31
0.0
  0
LINE
  5
E4E4
330
1E
100
AcDbEntity
  8
0
 48
0.27
100
AcDbLine
 10
2106.717759021267
 20
270.1182237510812
 30
0.0
 11
2106.500294890325
 21
270.5845847630886
 31
0.0
  0
LINE
  5
E4E5
330
1E
100
AcDbEntity
  8
0
 48
0.27
100
AcDbLine
 10
2110.628776716282
 20
275.4896886521159
 30
0.0
 11
2110.803877943274
 21
275.6284890774206
 31
0.0
  0
LINE
  5
E4E6
330
1E
100
AcDbEntity
  8
0
 48
0.27
100
AcDbLine
 10
2110.867321263994
 20
275.6703175810309
 30
0.0
 11
2111.559755259756
 21
276.1268389498949
 31
0.0
  0
LINE
  5
E4E7
330
1E
100
AcDbEntity
  8
0
 48
0.27
100
AcDbLine
 10
2111.967295512565
 20
270.1400089082193
 30
0.0
 11
2112.202981019425
 21
270.0793511483397
 31
0.0
  0
LINE
  5
E4E8
330
1E
100
AcDbEntity
  8
0
 48
0.27
100
AcDbLine
 10
2111.559755259756
 20
270.3456327351836
 30
0.0
 11
2111.967295512565
 21
270.1400089082193
 31
0.0
  0
LINE
  5
E4E9
330
1E
100
AcDbEntity
  8
0
 48
0.27
100
AcDbLine
 10
2110.628776716282
 20
270.9827830329626
 30
0.0
 11
2110.803877943274
 21
270.8439826076582
 31
0.0
  0
LINE
  5
E4EA
330
1E
100
AcDbEntity
  8
0
 48
0.27
100
AcDbLine
 10
2112.202981019425
 20
276.3931222066143
 30
0.0
 11
2112.654021446498
 21
276.4279751180596
 31
0.0
  0
LINE
  5
E4EB
330
1E
100
AcDbEntity
  8
0
 48
0.27
100
AcDbLine
 10
2112.654021446498
 20
276.4279751180596
 30
0.0
 11
2112.892308814167
 21
276.3666476880682
 31
0.0
  0
LINE
  5
E4EC
330
1E
100
AcDbEntity
  8
0
 48
0.27
100
AcDbLine
 10
2114.455402603704
 20
275.4327833836127
 30
0.0
 11
2114.616178566179
 21
275.3053372920793
 31
0.0
  0
LINE
  5
E4ED
330
1E
100
AcDbEntity
  8
0
 48
0.27
100
AcDbLine
 10
2112.892308814167
 20
276.3666476880682
 30
0.0
 11
2114.455402603704
 21
275.4327833836127
 31
0.0
  0
LINE
  5
E4EE
330
1E
100
AcDbEntity
  8
0
 48
0.27
100
AcDbLine
 10
2114.288200479156
 20
270.9966557274043
 30
0.0
 11
2114.455402603704
 21
271.0396883014658
 31
0.0
  0
LINE
  5
E4EF
330
1E
100
AcDbEntity
  8
0
 48
0.27
100
AcDbLine
 10
2110.867321263994
 20
270.8021541040476
 30
0.0
 11
2111.559755259756
 21
270.3456327351836
 31
0.0
  0
LINE
  5
E4F0
330
1E
100
AcDbEntity
  8
0
 48
0.27
100
AcDbLine
 10
2112.202981019425
 20
270.0793511483397
 30
0.0
 11
2112.654021446498
 21
270.0444965670189
 31
0.0
  0
LINE
  5
E4F1
330
1E
100
AcDbEntity
  8
0
 48
0.27
100
AcDbLine
 10
2112.654021446498
 20
270.0444965670189
 30
0.0
 11
2112.892308814167
 21
270.1058256670109
 31
0.0
  0
LINE
  5
E4F2
330
1E
100
AcDbEntity
  8
0
 48
0.27
100
AcDbLine
 10
2106.717759021267
 20
276.3542479339973
 30
0.0
 11
2106.965862652076
 21
276.700784736994
 31
0.0
  0
LINE
  5
E4F3
330
1E
100
AcDbEntity
  8
0
 48
0.27
100
AcDbLine
 10
2106.965862652076
 20
269.7716869480847
 30
0.0
 11
2106.717759021267
 21
270.1182237510812
 31
0.0
  0
LINE
  5
E4F4
330
1E
100
AcDbEntity
  8
0
 48
0.27
100
AcDbLine
 10
2104.575984993091
 20
269.4862354250393
 30
0.0
 11
2103.747450962976
 21
273.2362366775395
 31
0.0
  0
LINE
  5
E4F5
330
1E
100
AcDbEntity
  8
0
 48
0.27
100
AcDbLine
 10
2103.747450962976
 20
273.2362366775395
 30
0.0
 11
2105.857969260933
 21
273.2362366775395
 31
0.0
  0
LINE
  5
E4F6
330
1E
100
AcDbEntity
  8
0
 48
0.27
100
AcDbLine
 10
2103.747450962976
 20
273.2362366775395
 30
0.0
 11
2104.575984993091
 21
276.9862362600394
 31
0.0
  0
LINE
  5
E4F7
330
1E
100
AcDbEntity
  8
0
 48
0.27
100
AcDbLine
 10
2114.764351034423
 20
275.0983791346422
 30
0.0
 11
2114.616178566179
 21
275.3053372920793
 31
0.0
  0
LINE
  5
E4F8
330
1E
100
AcDbEntity
  8
0
 48
0.27
100
AcDbLine
 10
2114.455402603704
 20
271.0396883014658
 30
0.0
 11
2114.616178566179
 21
271.1671343929994
 31
0.0
  0
LINE
  5
E4F9
330
1E
100
AcDbEntity
  8
0
 48
0.27
100
AcDbLine
 10
2112.892308814167
 20
270.1058256670109
 30
0.0
 11
2114.455402603704
 21
271.0396883014658
 31
0.0
  0
LINE
  5
E4FA
330
1E
100
AcDbEntity
  8
0
 48
0.27
100
AcDbLine
 10
2110.598666606379
 20
275.6589098073758
 30
0.0
 11
2110.867321263994
 21
275.6703175810309
 31
0.0
  0
LINE
  5
E4FB
330
1E
100
AcDbEntity
  8
0
 48
0.27
100
AcDbLine
 10
2110.598666606379
 20
270.813563547703
 30
0.0
 11
2110.867321263994
 21
270.8021541040476
 31
0.0
  0
LINE
  5
E4FC
330
1E
100
AcDbEntity
  8
0
 48
0.27
100
AcDbLine
 10
2106.965862652076
 20
276.700784736994
 30
0.0
 11
2107.235070079909
 21
276.9141807465061
 31
0.0
  0
LINE
  5
E4FD
330
1E
100
AcDbEntity
  8
0
 48
0.27
100
AcDbLine
 10
2106.965862652076
 20
269.7716869480847
 30
0.0
 11
2107.235070079909
 21
269.5582909385724
 31
0.0
  0
LINE
  5
E4FE
330
1E
100
AcDbEntity
  8
0
 48
0.27
100
AcDbLine
 10
2114.894225306737
 20
274.8198581137543
 30
0.0
 11
2114.764351034423
 21
275.0983791346422
 31
0.0
  0
LINE
  5
E4FF
330
1E
100
AcDbEntity
  8
0
 48
0.27
100
AcDbLine
 10
2114.616178566179
 20
271.1671343929994
 30
0.0
 11
2114.764351034423
 21
271.3740925504363
 31
0.0
  0
LINE
  5
E500
330
1E
100
AcDbEntity
  8
0
 48
0.27
100
AcDbLine
 10
2110.29726323817
 20
275.7819120274172
 30
0.0
 11
2110.598666606379
 21
275.6589098073758
 31
0.0
  0
LINE
  5
E501
330
1E
100
AcDbEntity
  8
0
 48
0.27
100
AcDbLine
 10
2110.29726323817
 20
270.6905596576613
 30
0.0
 11
2110.598666606379
 21
270.813563547703
 31
0.0
  0
LINE
  5
E502
330
1E
100
AcDbEntity
  8
0
 48
0.27
100
AcDbLine
 10
2115.000811421537
 20
274.4804806032033
 30
0.0
 11
2114.894225306737
 21
274.8198581137543
 31
0.0
  0
LINE
  5
E503
330
1E
100
AcDbEntity
  8
0
 48
0.27
100
AcDbLine
 10
2114.764351034423
 20
271.3740925504363
 30
0.0
 11
2114.894225306737
 21
271.6526135713244
 31
0.0
  0
LINE
  5
E504
330
1E
100
AcDbEntity
  8
0
 48
0.27
100
AcDbLine
 10
2107.235070079909
 20
276.9141807465061
 30
0.0
 11
2107.515037321163
 21
276.9862362600394
 31
0.0
  0
LINE
  5
E505
330
1E
100
AcDbEntity
  8
0
 48
0.27
100
AcDbLine
 10
2107.235070079909
 20
269.5582909385724
 30
0.0
 11
2107.515037321163
 21
269.4862354250393
 31
0.0
  0
LINE
  5
E506
330
1E
100
AcDbEntity
  8
0
 48
0.27
100
AcDbLine
 10
2115.080011197389
 20
274.0932859669166
 30
0.0
 11
2115.000811421537
 21
274.4804806032033
 31
0.0
  0
LINE
  5
E507
330
1E
100
AcDbEntity
  8
0
 48
0.27
100
AcDbLine
 10
2113.945032067347
 20
271.1883500799173
 30
0.0
 11
2113.947405138119
 21
271.1895107302363
 31
0.0
  0
LINE
  5
E508
330
1E
100
AcDbEntity
  8
0
 48
0.27
100
AcDbLine
 10
2114.894225306737
 20
271.6526135713244
 30
0.0
 11
2115.000811421537
 21
271.9919927518757
 31
0.0
  0
LINE
  5
E509
330
1E
100
AcDbEntity
  8
0
 48
0.27
100
AcDbLine
 10
2115.128781893283
 20
273.6731572500052
 30
0.0
 11
2115.080011197389
 21
274.0932859669166
 31
0.0
  0
LINE
  5
E50A
330
1E
100
AcDbEntity
  8
0
 48
0.27
100
AcDbLine
 10
2115.000811421537
 20
271.9919927518757
 30
0.0
 11
2115.080011197389
 21
272.3791857181619
 31
0.0
  0
LINE
  5
E50B
330
1E
100
AcDbEntity
  8
0
 48
0.27
100
AcDbLine
 10
2107.795004562417
 20
276.9141807465061
 30
0.0
 11
2110.29726323817
 21
275.7819120274172
 31
0.0
  0
LINE
  5
E50C
330
1E
100
AcDbEntity
  8
0
 48
0.27
100
AcDbLine
 10
2107.515037321163
 20
276.9862362600394
 30
0.0
 11
2107.795004562417
 21
276.9141807465061
 31
0.0
  0
LINE
  5
E50D
330
1E
100
AcDbEntity
  8
0
 48
0.27
100
AcDbLine
 10
2107.515037321163
 20
269.4862354250393
 30
0.0
 11
2107.795004562417
 21
269.5582909385724
 31
0.0
  0
LINE
  5
E50E
330
1E
100
AcDbEntity
  8
0
 48
0.27
100
AcDbLine
 10
2115.145249768659
 20
273.2362366775395
 30
0.0
 11
2115.128781893283
 21
273.6731572500052
 31
0.0
  0
LINE
  5
E50F
330
1E
100
AcDbEntity
  8
0
 48
0.27
100
AcDbLine
 10
2115.080011197389
 20
272.3791857181619
 30
0.0
 11
2115.128781893283
 21
272.7993161050737
 31
0.0
  0
LINE
  5
E510
330
1E
100
AcDbEntity
  8
0
 48
0.27
100
AcDbLine
 10
2115.128781893283
 20
272.7993161050737
 30
0.0
 11
2115.145249768659
 21
273.2362366775395
 31
0.0
  0
LINE
  5
E511
330
1E
100
AcDbEntity
  8
0
 48
0.27
100
AcDbLine
 10
2107.795004562417
 20
269.5582909385724
 30
0.0
 11
2110.29726323817
 21
270.6905596576613
 31
0.0
  0
LINE
  5
E512
330
1E
100
AcDbEntity
  8
0
 48
0.27
100
AcDbLine
 10
2104.575984993091
 20
276.9862362600394
 30
0.0
 11
2108.343571351278
 21
276.9862362600394
 31
0.0
  0
LINE
  5
E513
330
1E
100
AcDbEntity
  8
0
 48
0.27
100
AcDbLine
 10
2108.343571351278
 20
269.4862354250393
 30
0.0
 11
2108.422194976908
 21
269.8420941710927
 31
0.0
  0
LINE
  5
E514
330
1E
100
AcDbEntity
  8
0
 48
0.27
100
AcDbLine
 10
2108.422194976908
 20
276.630377513986
 30
0.0
 11
2108.343571351278
 21
276.9862362600394
 31
0.0
  0
LINE
  5
E515
330
1E
100
AcDbEntity
  8
0
 48
0.27
100
AcDbLine
 10
2104.575984993091
 20
269.4862354250393
 30
0.0
 11
2108.343571351278
 21
269.4862354250393
 31
0.0
  0
LINE
  5
E516
330
1E
100
AcDbEntity
  8
0
 48
0.27
100
AcDbLine
 10
2106.557542509011
 20
269.4862354250393
 30
0.0
 11
2105.83585511374
 21
268.2362350075392
 31
0.0
  0
LINE
  5
E517
330
1E
100
AcDbEntity
  8
0
 48
0.27
100
AcDbLine
 10
2105.83585511374
 20
268.2362350075392
 30
0.0
 11
2100.062350941565
 21
268.2362350075392
 31
0.0
  0
LINE
  5
E518
330
1E
100
AcDbEntity
  8
0
 48
0.27
100
AcDbLine
 10
2097.175599690477
 20
273.2362366775395
 30
0.0
 11
2100.062350941565
 21
268.2362350075392
 31
0.0
  0
LINE
  5
E519
330
1E
100
AcDbEntity
  8
0
 48
0.27
100
AcDbLine
 10
2100.062350941565
 20
278.2362366775395
 30
0.0
 11
2097.175599690477
 21
273.2362366775395
 31
0.0
  0
LINE
  5
E51A
330
1E
100
AcDbEntity
  8
0
 48
0.27
100
AcDbLine
 10
2100.062350941565
 20
278.2362366775395
 30
0.0
 11
2105.835853443739
 21
278.2362366775395
 31
0.0
  0
LINE
  5
E51B
330
1E
100
AcDbEntity
  8
0
 48
0.27
100
AcDbLine
 10
2106.557542509011
 20
276.9862362600394
 30
0.0
 11
2105.835853443739
 21
278.2362366775395
 31
0.0
  0
ARC
  5
E51C
330
1E
100
AcDbEntity
  8
0
 48
0.27
100
AcDbCircle
 10
2102.949102192651
 20
273.2362366775395
 30
0.0
 40
5.0
100
AcDbArc
 50
48.59037799889628
 51
311.4096220031988
  0
LWPOLYLINE
  5
E51D
330
1E
100
AcDbEntity
  8
0
 48
0.27
100
AcDbPolyline
 90
       17
 70
     0
 43
0.0
 10
2114.138713720442
 20
273.2362366775395
 10
2114.180649104195
 20
272.964940079108
 10
2114.221762847561
 20
272.8863097734767
 10
2114.267475772445
 20
272.8493827214348
 10
2114.309947226288
 20
272.849766821499
 10
2114.355563291156
 20
272.8875221938041
 10
2114.394743173949
 20
272.962234678156
 10
2114.431476505958
 20
273.1248259311839
 10
2114.437685567995
 20
273.2362366775395
 10
2114.395751854242
 20
273.5075316059707
 10
2114.354636440876
 20
273.586161911602
 10
2114.308923515992
 20
273.6230889636439
 10
2114.266453732149
 20
273.6227048634547
 10
2114.220835997281
 20
273.5849494911493
 10
2114.181657784488
 20
273.5102370067974
 10
2114.144922782479
 20
273.3476457538949
 10
2114.138713720442
 20
273.2362366775395
  0
CIRCLE
  5
E51F
330
1E
100
AcDbEntity
  8
指線
 48
0.27
100
AcDbCircle
 10
2069.447448723767
 20
261.2362366775394
 30
0.0
 40
4.0
  0
LINE
  5
E520
330
1E
100
AcDbEntity
  8
指線
 48
0.27
100
AcDbLine
 10
2068.648065593647
 20
263.4961256934726
 30
0.0
 11
2068.648291581519
 21
262.0351481536463
 31
0.0
  0
ARC
  5
E521
330
1E
100
AcDbEntity
  8
指線
 48
0.27
100
AcDbCircle
 10
2069.447448723767
 20
261.2362366775394
 30
0.0
 40
2.397105012956624
100
AcDbArc
 50
109.4623212432042
 51
160.5189998916719
  0
LINE
  5
E522
330
1E
100
AcDbEntity
  8
指線
 48
0.27
100
AcDbLine
 10
2068.648291581519
 20
262.0351481536463
 30
0.0
 11
2065.529673859713
 21
262.0347417081947
 31
0.0
  0
LINE
  5
E523
330
1E
100
AcDbEntity
  8
指線
 48
0.27
100
AcDbLine
 10
2070.246605866015
 20
260.4373252014324
 30
0.0
 11
2070.246831853886
 21
258.9763476616065
 31
0.0
  0
LINE
  5
E524
330
1E
100
AcDbEntity
  8
指線
 48
0.27
100
AcDbLine
 10
2068.648538774955
 20
260.4370778557268
 30
0.0
 11
2068.648764762507
 21
258.9761003159077
 31
0.0
  0
ARC
  5
E525
330
1E
100
AcDbEntity
  8
指線
 48
0.27
100
AcDbCircle
 10
2069.447448723767
 20
261.2362366775394
 30
0.0
 40
2.397105012956624
100
AcDbArc
 50
199.4791870960422
 51
250.5376787567886
  0
ARC
  5
E526
330
1E
100
AcDbEntity
  8
指線
 48
0.27
100
AcDbCircle
 10
2069.447448723767
 20
261.2362366775394
 30
0.0
 40
2.397105012956624
100
AcDbArc
 50
289.4623212432114
 51
340.5208129039578
  0
LINE
  5
E527
330
1E
100
AcDbEntity
  8
指線
 48
0.27
100
AcDbLine
 10
2070.246132685026
 20
263.496373039171
 30
0.0
 11
2070.246358672578
 21
262.0353954993523
 31
0.0
  0
ARC
  5
E528
330
1E
100
AcDbEntity
  8
指線
 48
0.27
100
AcDbCircle
 10
2069.447448723767
 20
261.2362366775394
 30
0.0
 40
2.397105012956624
100
AcDbArc
 50
19.48100010832805
 51
70.53767875679579
  0
LINE
  5
E529
330
1E
100
AcDbEntity
  8
指線
 48
0.27
100
AcDbLine
 10
2070.246358672578
 20
262.0353954993523
 30
0.0
 11
2073.358571755838
 21
262.0359534502488
 31
0.0
  0
LINE
  5
E52A
330
1E
100
AcDbEntity
  8
指線
 48
0.27
100
AcDbLine
 10
2070.246605866015
 20
260.4373252014324
 30
0.0
 11
2073.358818949275
 21
260.4378831523288
 31
0.0
  0
LINE
  5
E52B
330
1E
100
AcDbEntity
  8
指線
 48
0.27
100
AcDbLine
 10
2068.648538774955
 20
260.4370778557268
 30
0.0
 11
2065.529921053149
 21
260.4366714102747
 31
0.0
  0
CIRCLE
  5
E52C
330
1E
100
AcDbEntity
  8
指線
 48
0.27
100
AcDbCircle
 10
2136.447448723767
 20
261.2362366775394
 30
0.0
 40
4.0
  0
LINE
  5
E52D
330
1E
100
AcDbEntity
  8
指線
 48
0.27
100
AcDbLine
 10
2135.648065593647
 20
263.4961256934726
 30
0.0
 11
2135.648291581519
 21
262.0351481536463
 31
0.0
  0
ARC
  5
E52E
330
1E
100
AcDbEntity
  8
指線
 48
0.27
100
AcDbCircle
 10
2136.447448723767
 20
261.2362366775394
 30
0.0
 40
2.397105012956624
100
AcDbArc
 50
109.4623212432042
 51
160.5189998916719
  0
LINE
  5
E52F
330
1E
100
AcDbEntity
  8
指線
 48
0.27
100
AcDbLine
 10
2135.648291581519
 20
262.0351481536463
 30
0.0
 11
2132.529673859713
 21
262.0347417081947
 31
0.0
  0
LINE
  5
E530
330
1E
100
AcDbEntity
  8
指線
 48
0.27
100
AcDbLine
 10
2137.246605866015
 20
260.4373252014324
 30
0.0
 11
2137.246831853886
 21
258.9763476616065
 31
0.0
  0
LINE
  5
E531
330
1E
100
AcDbEntity
  8
指線
 48
0.27
100
AcDbLine
 10
2135.648538774955
 20
260.4370778557268
 30
0.0
 11
2135.648764762507
 21
258.9761003159077
 31
0.0
  0
ARC
  5
E532
330
1E
100
AcDbEntity
  8
指線
 48
0.27
100
AcDbCircle
 10
2136.447448723767
 20
261.2362366775394
 30
0.0
 40
2.397105012956624
100
AcDbArc
 50
199.4791870960422
 51
250.5376787567886
  0
ARC
  5
E533
330
1E
100
AcDbEntity
  8
指線
 48
0.27
100
AcDbCircle
 10
2136.447448723767
 20
261.2362366775394
 30
0.0
 40
2.397105012956624
100
AcDbArc
 50
289.4623212432114
 51
340.5208129039578
  0
LINE
  5
E534
330
1E
100
AcDbEntity
  8
指線
 48
0.27
100
AcDbLine
 10
2137.246132685026
 20
263.496373039171
 30
0.0
 11
2137.246358672578
 21
262.0353954993523
 31
0.0
  0
ARC
  5
E535
330
1E
100
AcDbEntity
  8
指線
 48
0.27
100
AcDbCircle
 10
2136.447448723767
 20
261.2362366775394
 30
0.0
 40
2.397105012956624
100
AcDbArc
 50
19.48100010832805
 51
70.53767875679579
  0
LINE
  5
E536
330
1E
100
AcDbEntity
  8
指線
 48
0.27
100
AcDbLine
 10
2137.246358672578
 20
262.0353954993523
 30
0.0
 11
2140.358571755839
 21
262.0359534502488
 31
0.0
  0
LINE
  5
E537
330
1E
100
AcDbEntity
  8
指線
 48
0.27
100
AcDbLine
 10
2137.246605866015
 20
260.4373252014324
 30
0.0
 11
2140.358818949275
 21
260.4378831523288
 31
0.0
  0
LINE
  5
E538
330
1E
100
AcDbEntity
  8
指線
 48
0.27
100
AcDbLine
 10
2135.648538774955
 20
260.4370778557268
 30
0.0
 11
2132.52992105315
 21
260.4366714102747
 31
0.0
  0
LINE
  5
E539
330
1E
100
AcDbEntity
  8
虛線
 48
0.4
100
AcDbLine
 10
2109.947448723771
 20
223.9362366775416
 30
0.0
 11
2110.647448723773
 21
223.2362366775395
 31
0.0
  0
LINE
  5
E53A
330
1E
100
AcDbEntity
  8
虛線
 48
0.4
100
AcDbLine
 10
2095.947448723762
 20
223.9362366775416
 30
0.0
 11
2095.24744872376
 21
223.2362366775395
 31
0.0
  0
LINE
  5
E53B
330
1E
100
AcDbEntity
  8
虛線
 48
0.4
100
AcDbLine
 10
2095.947448723762
 20
223.9362366775416
 30
0.0
 11
2109.947448723763
 21
223.9362366775416
 31
0.0
  0
LINE
  5
E53C
330
1E
100
AcDbEntity
  8
虛線
 48
0.4
100
AcDbLine
 10
2112.947448723766
 20
260.8362366775413
 30
0.0
 11
2113.17838883144
 21
261.2362366775395
 31
0.0
  0
LINE
  5
E53D
330
1E
100
AcDbEntity
  8
虛線
 48
0.4
100
AcDbLine
 10
2109.947448723766
 20
243.9362366775412
 30
0.0
 11
2110.247448723765
 21
244.2362366775413
 31
0.0
  0
LINE
  5
E53E
330
1E
100
AcDbEntity
  8
虛線
 48
0.4
100
AcDbLine
 10
2112.947448723766
 20
260.8362366775413
 30
0.0
 11
2112.947448723766
 21
244.2362366775413
 31
0.0
  0
LINE
  5
E53F
330
1E
100
AcDbEntity
  8
虛線
 48
0.4
100
AcDbLine
 10
2109.947448723766
 20
243.9362366775412
 30
0.0
 11
2109.947448723766
 21
223.9362366775416
 31
0.0
  0
LINE
  5
E540
330
1E
100
AcDbEntity
  8
虛線
 48
0.4
100
AcDbLine
 10
2092.947448723765
 20
260.8362366775413
 30
0.0
 11
2092.716508616091
 21
261.2362366775391
 31
0.0
  0
LINE
  5
E541
330
1E
100
AcDbEntity
  8
虛線
 48
0.4
100
AcDbLine
 10
2095.947448723765
 20
243.9362366775412
 30
0.0
 11
2095.647448723766
 21
244.2362366775413
 31
0.0
  0
LINE
  5
E542
330
1E
100
AcDbEntity
  8
虛線
 48
0.4
100
AcDbLine
 10
2092.947448723766
 20
260.8362366775413
 30
0.0
 11
2092.947448723766
 21
244.2362366775413
 31
0.0
  0
LINE
  5
E543
330
1E
100
AcDbEntity
  8
虛線
 48
0.4
100
AcDbLine
 10
2095.947448723766
 20
243.9362366775412
 30
0.0
 11
2095.947448723766
 21
223.9362366775416
 31
0.0
  0
LINE
  5
E544
330
1E
100
AcDbEntity
  8
虛線
 48
0.4
100
AcDbLine
 10
2095.947448723766
 20
243.9362366775412
 30
0.0
 11
2109.947448723766
 21
243.9362366775412
 31
0.0
  0
LINE
  5
E545
330
1E
100
AcDbEntity
  8
虛線
 48
0.4
100
AcDbLine
 10
2092.947448723766
 20
260.8362366775413
 30
0.0
 11
2112.947448723766
 21
260.8362366775413
 31
0.0
  0
LINE
  5
E546
330
1E
100
AcDbEntity
  8
虛線
 48
0.4
100
AcDbLine
 10
2092.947448723766
 20
244.2362366775413
 30
0.0
 11
2112.947448723766
 21
244.2362366775413
 31
0.0
  0
LINE
  5
E547
330
1E
100
AcDbEntity
  8
中心線
 48
0.4
100
AcDbLine
 10
2102.947448723767
 20
285.2362366775395
 30
0.0
 11
2102.947448723767
 21
221.2362366775395
 31
0.0
  0
LINE
  5
E548
330
1E
100
AcDbEntity
  8
中心線
 48
0.4
100
AcDbLine
 10
2102.947448723767
 20
270.7362366775395
 30
0.0
 11
2102.947448723767
 21
275.7362366775395
 31
0.0
  0
LINE
  5
E549
330
1E
100
AcDbEntity
  8
中心線
 48
0.4
100
AcDbLine
 10
2100.447448723767
 20
273.2362366775395
 30
0.0
 11
2105.447448723767
 21
273.2362366775395
 31
0.0
  0
LINE
  5
E54A
330
1E
100
AcDbEntity
  8
虛線
  6
DASHED
100
AcDbLine
 10
2094.197448723766
 20
272.5362366775838
 30
0.0
 11
2111.697448723766
 21
272.5362366775838
 31
0.0
  0
LINE
  5
E54B
330
1E
100
AcDbEntity
  8
虛線
  6
DASHED
100
AcDbLine
 10
2097.822448723766
 20
281.7362366775395
 30
0.0
 11
2096.322448723766
 21
283.2362366775395
 31
0.0
  0
LINE
  5
E54C
330
1E
100
AcDbEntity
  8
虛線
  6
DASHED
100
AcDbLine
 10
2096.947448723766
 20
282.6112366775399
 30
0.0
 11
2096.947448723766
 21
272.5362366775838
 31
0.0
  0
LINE
  5
E54D
330
1E
100
AcDbEntity
  8
虛線
  6
DASHED
100
AcDbLine
 10
2108.072448723767
 20
281.7362366775842
 30
0.0
 11
2109.572448723723
 21
283.2362366775395
 31
0.0
  0
LINE
  5
E54E
330
1E
100
AcDbEntity
  8
虛線
  6
DASHED
100
AcDbLine
 10
2108.947448723768
 20
282.6112366775851
 30
0.0
 11
2108.947448723768
 21
272.5362366775838
 31
0.0
  0
LINE
  5
E54F
330
1E
100
AcDbEntity
  8
虛線
  6
DASHED
100
AcDbLine
 10
2097.822448723766
 20
281.7362366775833
 30
0.0
 11
2108.072448723767
 21
281.7362366775842
 31
0.0
  0
LINE
  5
E550
330
1E
100
AcDbEntity
  8
中心線
 48
0.4
100
AcDbLine
 10
2152.947448723767
 20
285.2362366775395
 30
0.0
 11
2152.947448723767
 21
231.1535663097478
 31
0.0
  0
LINE
  5
E551
330
1E
100
AcDbEntity
  8
虛線
  6
DASHED
100
AcDbLine
 10
2147.822448723767
 20
281.7362366775859
 30
0.0
 11
2146.322448723812
 21
283.2362366775395
 31
0.0
  0
LINE
  5
E552
330
1E
100
AcDbEntity
  8
虛線
  6
DASHED
100
AcDbLine
 10
2158.072448723767
 20
281.7362366775859
 30
0.0
 11
2159.57244872372
 21
283.2362366775391
 31
0.0
  0
LINE
  5
E553
330
1E
100
AcDbEntity
  8
虛線
  6
DASHED
100
AcDbLine
 10
2147.822448723767
 20
281.7362366775859
 30
0.0
 11
2158.072448723767
 21
281.7362366775859
 31
0.0
  0
LINE
  5
E554
330
1E
100
AcDbEntity
  8
虛線
  6
DASHED
100
AcDbLine
 10
2162.947448723767
 20
268.2362366775859
 30
0.0
 11
2144.197448723767
 21
268.2362366775859
 31
0.0
  0
LINE
  5
E555
330
1E
100
AcDbEntity
  8
虛線
  6
DASHED
100
AcDbLine
 10
2144.197448723767
 20
268.2362366775859
 30
0.0
 11
2144.197448723767
 21
231.3362366775858
 31
0.0
  0
LINE
  5
E556
330
1E
100
AcDbEntity
  8
虛線
  6
DASHED
100
AcDbLine
 10
2146.947448723767
 20
282.6112366775855
 30
0.0
 11
2146.947448723767
 21
268.2362366775859
 31
0.0
  0
LINE
  5
E557
330
1E
100
AcDbEntity
  8
虛線
  6
DASHED
100
AcDbLine
 10
2158.947448723766
 20
282.6112366775855
 30
0.0
 11
2158.947448723766
 21
268.2362366775859
 31
0.0
  0
LINE
  5
E558
330
1E
100
AcDbEntity
  8
中心線
 48
0.4
100
AcDbLine
 10
2052.947448723767
 20
285.2362366775395
 30
0.0
 11
2052.947448723767
 21
231.1535663097478
 31
0.0
  0
LINE
  5
E559
330
1E
100
AcDbEntity
  8
虛線
  6
DASHED
100
AcDbLine
 10
2043.947448723766
 20
268.2362366775859
 30
0.0
 11
2061.697448723767
 21
268.2362366775859
 31
0.0
  0
LINE
  5
E55A
330
1E
100
AcDbEntity
  8
虛線
  6
DASHED
100
AcDbLine
 10
2061.697448723767
 20
268.2362366775859
 30
0.0
 11
2061.697448723767
 21
231.3362366775858
 31
0.0
  0
SPLINE
  5
E55B
330
1E
100
AcDbEntity
  8
0
  6
Continuous
 62
     7
100
AcDbSpline
210
0.0
220
0.0
230
1.0
 70
     8
 71
     3
 72
    10
 73
     6
 74
     4
 42
0.0000000001
 43
0.0000000001
 44
0.0000000001
 12
0.0000000000000002
 22
1.0
 32
0.0
 13
0.7071067811865478
 23
0.7071067811865475
 33
0.0
 40
0.0
 40
0.0
 40
0.0
 40
0.0
 40
0.0647590235176827
 40
0.1278007257896925
 40
0.1925678503467885
 40
0.1925678503467885
 40
0.1925678503467885
 40
0.1925678503467885
 10
2079.597448723767
 20
260.4865270396393
 30
0.0
 10
2079.597448723767
 20
260.5081133808119
 30
0.0
 10
2079.602853442906
 20
260.5509588997234
 30
0.0
 10
2079.627684314146
 20
260.6109088842809
 30
0.0
 10
2079.654160189809
 20
260.6450296715818
 30
0.0
 10
2079.669425947467
 20
260.6602954292392
 30
0.0
 11
2079.597448723767
 21
260.4865270396393
 31
0.0
 11
2079.605769647867
 21
260.5507492581395
 31
0.0
 11
2079.629893670666
 21
260.6089926075394
 31
0.0
 11
2079.669425947467
 21
260.6602954292392
 31
0.0
  0
SPLINE
  5
E55C
330
1E
100
AcDbEntity
  8
0
  6
Continuous
 62
     7
100
AcDbSpline
210
0.0
220
0.0
230
1.0
 70
     8
 71
     3
 72
    10
 73
     6
 74
     4
 42
0.0000000001
 43
0.0000000001
 44
0.0000000001
 12
0.7071067811865478
 22
0.7071067811865475
 32
0.0
 13
1.0
 23
-0.0000000000000002
 33
0.0
 40
0.0
 40
0.0
 40
0.0
 40
0.0
 40
0.0647590235805955
 40
0.1278007258205153
 40
0.1925678503564988
 40
0.1925678503564988
 40
0.1925678503564988
 40
0.1925678503564988
 10
2081.023389972067
 20
262.0142594538394
 30
0.0
 10
2081.038653820306
 20
262.0295233020783
 30
0.0
 10
2081.072771890817
 20
262.055997945516
 30
0.0
 10
2081.132721008871
 20
262.0808309087016
 30
0.0
 10
2081.175569320155
 20
262.0862366775394
 30
0.0
 10
2081.197158361666
 20
262.0862366775394
 30
0.0
 11
2081.023389972067
 21
262.0142594538394
 31
0.0
 11
2081.074685720167
 21
262.0537876382394
 31
0.0
 11
2081.132928247567
 21
262.0779136454392
 31
0.0
 11
2081.197158361666
 21
262.0862366775394
 31
0.0
  0
SPLINE
  5
E55D
330
1E
100
AcDbEntity
  8
0
  6
Continuous
 62
     7
100
AcDbSpline
210
0.0
220
0.0
230
1.0
 70
     8
 71
     3
 72
    10
 73
     6
 74
     4
 42
0.0000000001
 43
0.0000000001
 44
0.0000000001
 12
1.0
 22
-0.0000000000000002
 32
0.0
 13
0.7071067811865475
 23
-0.7071067811865478
 33
0.0
 40
0.0
 40
0.0
 40
0.0
 40
0.0
 40
0.0647590235172317
 40
0.1278007257894516
 40
0.192567850346589
 40
0.192567850346589
 40
0.192567850346589
 40
0.192567850346589
 10
2124.697739085867
 20
262.0862366775394
 30
0.0
 10
2124.719325427039
 20
262.0862366775394
 30
0.0
 10
2124.762170945951
 20
262.0808319583998
 30
0.0
 10
2124.822120930508
 20
262.0560010871598
 30
0.0
 10
2124.856241717809
 20
262.0295252114968
 30
0.0
 10
2124.871507475466
 20
262.0142594538394
 30
0.0
 11
2124.697739085867
 21
262.0862366775394
 31
0.0
 11
2124.761961304367
 21
262.0779157534392
 31
0.0
 11
2124.820204653766
 21
262.0537917306395
 31
0.0
 11
2124.871507475466
 21
262.0142594538394
 31
0.0
  0
SPLINE
  5
E55E
330
1E
100
AcDbEntity
  8
0
  6
Continuous
 62
     7
100
AcDbSpline
210
0.0
220
0.0
230
1.0
 70
     8
 71
     3
 72
    10
 73
     6
 74
     4
 42
0.0000000001
 43
0.0000000001
 44
0.0000000001
 12
0.7071067811865475
 22
-0.7071067811865478
 32
0.0
 13
-0.0000000000000002
 23
-1.0
 33
0.0
 40
0.0
 40
0.0
 40
0.0
 40
0.0
 40
0.0647590235805542
 40
0.1278007258206841
 40
0.1925678503566675
 40
0.1925678503566675
 40
0.1925678503566675
 40
0.1925678503566675
 10
2126.225471500066
 20
260.6602954292392
 30
0.0
 10
2126.240735348305
 20
260.6450315810003
 30
0.0
 10
2126.267209991743
 20
260.6109135104889
 30
0.0
 10
2126.292042954929
 20
260.5509643924349
 30
0.0
 10
2126.297448723767
 20
260.5081160811514
 30
0.0
 10
2126.297448723767
 20
260.4865270396393
 30
0.0
 11
2126.225471500066
 21
260.6602954292392
 31
0.0
 11
2126.264999684467
 21
260.6089996811394
 31
0.0
 11
2126.289125691666
 21
260.5507571537395
 31
0.0
 11
2126.297448723767
 21
260.4865270396393
 31
0.0
  0
SPLINE
  5
E55F
330
1E
100
AcDbEntity
  8
0
  6
Continuous
 62
     7
100
AcDbSpline
210
0.0
220
0.0
230
1.0
 70
     8
 71
     3
 72
    10
 73
     6
 74
     4
 42
0.0000000001
 43
0.0000000001
 44
0.0000000001
 12
-0.7071067804076014
 22
-0.7071067819654937
 32
0.0
 13
-0.0000000000000002
 23
-1.0
 33
0.0
 40
0.0
 40
0.0
 40
0.0
 40
0.0
 40
0.0647590234404229
 40
0.1278007256805528
 40
0.1925678501044649
 40
0.1925678501044649
 40
0.1925678501044649
 40
0.1925678501044649
 10
2118.869425947267
 20
249.1596857558394
 30
0.0
 10
2118.854162099077
 20
249.1444219076167
 30
0.0
 10
2118.827687455681
 20
249.1103038371476
 30
0.0
 10
2118.802854492479
 20
249.0503547191742
 30
0.0
 10
2118.797448723767
 20
249.007506407914
 30
0.0
 10
2118.797448723767
 20
248.9859173664394
 30
0.0
 11
2118.869425947267
 21
249.1596857558394
 31
0.0
 11
2118.829897762967
 21
249.1083900078394
 31
0.0
 11
2118.805771755767
 21
249.0501474804395
 31
0.0
 11
2118.797448723767
 21
248.9859173664394
 31
0.0
  0
SPLINE
  5
E560
330
1E
100
AcDbEntity
  8
0
  6
Continuous
 62
     7
100
AcDbSpline
210
0.0
220
0.0
230
1.0
 70
     8
 71
     3
 72
    10
 73
     6
 74
     4
 42
0.0000000001
 43
0.0000000001
 44
0.0000000001
 12
-0.0000000000000002
 22
-1.0
 32
0.0
 13
0.70710678066725
 23
-0.7071067817058453
 33
0.0
 40
0.0
 40
0.0
 40
0.0
 40
0.0
 40
0.0647590235176242
 40
0.1278007256593047
 40
0.1925678501553361
 40
0.1925678501553361
 40
0.1925678501553361
 40
0.1925678501553361
 10
2118.797448723767
 20
241.4865559892395
 30
0.0
 10
2118.797448723767
 20
241.4649696480669
 30
0.0
 10
2118.802853442911
 20
241.4221241292016
 30
0.0
 10
2118.827684314064
 20
241.3621741446879
 30
0.0
 10
2118.854160189635
 20
241.3280533573936
 30
0.0
 10
2118.869425947267
 20
241.3127875997394
 30
0.0
 11
2118.797448723767
 21
241.4865559892395
 31
0.0
 11
2118.805769647866
 21
241.4223337707393
 31
0.0
 11
2118.829893670566
 21
241.3640904214393
 31
0.0
 11
2118.869425947267
 21
241.3127875997394
 31
0.0
  0
SPLINE
  5
E561
330
1E
100
AcDbEntity
  8
0
  6
Continuous
 62
     7
100
AcDbSpline
210
0.0
220
0.0
230
1.0
 70
     8
 71
     3
 72
    10
 73
     6
 74
     4
 42
0.0000000001
 43
0.0000000001
 44
0.0000000001
 12
0.7071067806672503
 22
0.707106781705845
 32
0.0
 13
0.0000000000000002
 23
1.0
 33
0.0
 40
0.0
 40
0.0
 40
0.0
 40
0.0
 40
0.0647590235192106
 40
0.1278007256290093
 40
0.1925678501649343
 40
0.1925678501649343
 40
0.1925678501649343
 40
0.1925678501649343
 10
2087.025471500266
 20
241.3127875997394
 30
0.0
 10
2087.04073534848
 20
241.3280514479751
 30
0.0
 10
2087.067209991825
 20
241.3621695184802
 30
0.0
 10
2087.092042954925
 20
241.4221186364901
 30
0.0
 10
2087.097448723767
 20
241.4649669477275
 30
0.0
 10
2087.097448723767
 20
241.4865559892395
 30
0.0
 11
2087.025471500266
 21
241.3127875997394
 31
0.0
 11
2087.064999684566
 21
241.3640833478392
 31
0.0
 11
2087.089125691667
 21
241.4223258751393
 31
0.0
 11
2087.097448723767
 21
241.4865559892395
 31
0.0
  0
SPLINE
  5
E562
330
1E
100
AcDbEntity
  8
0
  6
Continuous
 62
     7
100
AcDbSpline
210
0.0
220
0.0
230
1.0
 70
     8
 71
     3
 72
    10
 73
     6
 74
     4
 42
0.0000000001
 43
0.0000000001
 44
0.0000000001
 12
0.0000000000000002
 22
1.0
 32
0.0
 13
-0.7071067804076013
 23
0.7071067819654938
 33
0.0
 40
0.0
 40
0.0
 40
0.0
 40
0.0
 40
0.0647590235176242
 40
0.1278007256590947
 40
0.1925678500757822
 40
0.1925678500757822
 40
0.1925678500757822
 40
0.1925678500757822
 10
2087.097448723767
 20
248.9859173664394
 30
0.0
 10
2087.097448723767
 20
249.0075037076119
 30
0.0
 10
2087.092044004615
 20
249.0503492264713
 30
0.0
 10
2087.067213133505
 20
249.1102992109861
 30
0.0
 10
2087.040737257874
 20
249.1444199981982
 30
0.0
 10
2087.025471500266
 20
249.1596857558394
 30
0.0
 11
2087.097448723767
 21
248.9859173664394
 31
0.0
 11
2087.089127799667
 21
249.0501395849396
 31
0.0
 11
2087.065003776967
 21
249.1083829342393
 31
0.0
 11
2087.025471500266
 21
249.1596857558394
 31
0.0
  0
LINE
  5
E569
330
1E
100
AcDbEntity
  8
0
  6
Continuous
 62
     7
100
AcDbLine
 10
2044.947448723767
 20
283.2362366775395
 30
0.0
 11
2042.947448723767
 21
281.2362366775395
 31
0.0
  0
LINE
  5
E56A
330
1E
100
AcDbEntity
  8
0
  6
Continuous
 62
     7
100
AcDbLine
 10
2042.947448723767
 20
281.2362366775395
 30
0.0
 11
2042.947448723767
 21
269.2362366775396
 31
0.0
  0
LINE
  5
E56B
330
1E
100
AcDbEntity
  8
0
  6
Continuous
 62
     7
100
AcDbLine
 10
2043.947448723766
 20
268.2362366775859
 30
0.0
 11
2043.947448723766
 21
246.2362366774395
 31
0.0
  0
LINE
  5
E56C
330
1E
100
AcDbEntity
  8
0
  6
Continuous
 62
     7
100
AcDbLine
 10
2144.947448723767
 20
279.7362366775395
 30
0.0
 11
2142.947448723766
 21
281.7362366775395
 31
0.0
  0
LINE
  5
E56D
330
1E
100
AcDbEntity
  8
0
  6
Continuous
 62
     7
100
AcDbLine
 10
2144.947448723767
 20
233.2362366775395
 30
0.0
 11
2144.947448723767
 21
279.7362366775395
 31
0.0
  0
LINE
  5
E56E
330
1E
100
AcDbEntity
  8
0
  6
Continuous
 62
     7
100
AcDbLine
 10
2140.947448723767
 20
283.2362366775395
 30
0.0
 11
2160.947448723767
 21
283.2362366775395
 31
0.0
  0
LINE
  5
E56F
330
1E
100
AcDbEntity
  8
0
  6
Continuous
 62
     7
100
AcDbLine
 10
2044.947448723767
 20
283.2362366775395
 30
0.0
 11
2064.947448723767
 21
283.2362366775395
 31
0.0
  0
LINE
  5
E570
330
1E
100
AcDbEntity
  8
0
  6
Continuous
 62
     7
100
AcDbLine
 10
2113.947448723767
 20
283.2362366775395
 30
0.0
 11
2091.947448723767
 21
283.2362366775395
 31
0.0
  0
LINE
  5
E571
330
1E
100
AcDbEntity
  8
0
  6
Continuous
 62
     7
100
AcDbLine
 10
2112.947448723767
 20
282.7362366775395
 30
0.0
 11
2092.947448723767
 21
282.7362366775395
 31
0.0
  0
LINE
  5
E572
330
1E
100
AcDbEntity
  8
0
  6
Continuous
 62
     7
100
AcDbLine
 10
2114.947448723767
 20
282.2362366775395
 30
0.0
 11
2139.947448723767
 21
282.2362366775395
 31
0.0
  0
LINE
  5
E573
330
1E
100
AcDbEntity
  8
0
  6
Continuous
 62
     7
100
AcDbLine
 10
2065.947448723767
 20
282.2362366775395
 30
0.0
 11
2090.947448723767
 21
282.2362366775395
 31
0.0
  0
LINE
  5
E574
330
1E
100
AcDbEntity
  8
0
  6
Continuous
 62
     7
100
AcDbLine
 10
2043.947448723766
 20
246.2362366774395
 30
0.0
 11
2058.947448723767
 21
231.2362366775395
 31
0.0
  0
LINE
  5
E575
330
1E
100
AcDbEntity
  8
0
  6
Continuous
 62
     7
100
AcDbLine
 10
2142.947448723667
 20
231.2362366774395
 30
0.0
 11
2144.947448723767
 21
233.2362366775395
 31
0.0
  0
LINE
  5
E576
330
1E
100
AcDbEntity
  8
0
  6
Continuous
 62
     7
100
AcDbLine
 10
2113.947448723767
 20
283.2362366775395
 30
0.0
 11
2114.947448723767
 21
282.2362366775395
 31
0.0
  0
LINE
  5
E577
330
1E
100
AcDbEntity
  8
0
  6
Continuous
 62
     7
100
AcDbLine
 10
2113.947448723767
 20
281.7362366775395
 30
0.0
 11
2112.947448723767
 21
282.7362366775395
 31
0.0
  0
LINE
  5
E578
330
1E
100
AcDbEntity
  8
0
  6
Continuous
 62
     7
100
AcDbLine
 10
2062.947448723767
 20
281.7362366775395
 30
0.0
 11
2142.947448723766
 21
281.7362366775395
 31
0.0
  0
LINE
  5
E579
330
1E
100
AcDbEntity
  8
0
  6
Continuous
 62
     7
100
AcDbLine
 10
2125.677800548267
 20
264.2065687386392
 30
0.0
 11
2128.417780784866
 21
261.4665885020394
 31
0.0
  0
LINE
  5
E57A
330
1E
100
AcDbEntity
  8
0
  6
Continuous
 62
     7
100
AcDbLine
 10
2124.871507475466
 20
262.0142594538394
 30
0.0
 11
2126.225471500066
 21
260.6602954292392
 31
0.0
  0
LINE
  5
E57B
330
1E
100
AcDbEntity
  8
0
  6
Continuous
 62
     7
100
AcDbLine
 10
2124.447448723767
 20
261.2362366775395
 30
0.0
 11
2125.447448723767
 21
260.2362366775391
 31
0.0
  0
LINE
  5
E57C
330
1E
100
AcDbEntity
  8
0
  6
Continuous
 62
     7
100
AcDbLine
 10
2125.447448723767
 20
225.2362366775395
 30
0.0
 11
2123.447448723767
 21
223.2362366775395
 31
0.0
  0
LINE
  5
E57D
330
1E
100
AcDbEntity
  8
0
  6
Continuous
 62
     7
100
AcDbLine
 10
2042.947448723767
 20
269.2362366775396
 30
0.0
 11
2043.947448723766
 21
268.2362366813394
 31
0.0
  0
LINE
  5
E57E
330
1E
100
AcDbEntity
  8
0
  6
Continuous
 62
     7
100
AcDbLine
 10
2112.197457023766
 20
224.2362366775395
 30
0.0
 11
2111.197456239366
 21
223.2362366775395
 31
0.0
  0
LINE
  5
E57F
330
1E
100
AcDbEntity
  8
0
  6
Continuous
 62
     7
100
AcDbLine
 10
2128.417780784866
 20
255.7094382528393
 30
0.0
 11
2128.417780784866
 21
261.4665885020394
 31
0.0
  0
LINE
  5
E580
330
1E
100
AcDbEntity
  8
0
  6
Continuous
 62
     7
100
AcDbLine
 10
2128.417780784866
 20
231.7362366774395
 30
0.0
 11
2128.417780784866
 21
234.7630351055394
 31
0.0
  0
LINE
  5
E581
330
1E
100
AcDbEntity
  8
0
  6
Continuous
 62
     7
100
AcDbLine
 10
2126.297448723767
 20
231.7362366774395
 30
0.0
 11
2126.297448723767
 21
233.8847648101582
 31
0.0
  0
LINE
  5
E582
330
1E
100
AcDbEntity
  8
0
  6
Continuous
 62
     7
100
AcDbLine
 10
2126.297448723767
 20
260.4865270396393
 30
0.0
 11
2126.297448723767
 21
256.5877085480365
 31
0.0
  0
LINE
  5
E583
330
1E
100
AcDbEntity
  8
0
  6
Continuous
 62
     7
100
AcDbLine
 10
2125.447448723767
 20
233.5326832825658
 30
0.0
 11
2125.447448723767
 21
225.2362366775395
 31
0.0
  0
LINE
  5
E584
330
1E
100
AcDbEntity
  8
0
  6
Continuous
 62
     7
100
AcDbLine
 10
2125.447448723767
 20
260.2362366775391
 30
0.0
 11
2125.447448723767
 21
256.939790075557
 31
0.0
  0
LINE
  5
E585
330
1E
100
AcDbEntity
  8
0
  6
Continuous
 62
     7
100
AcDbLine
 10
2080.217096899267
 20
264.2065687386392
 30
0.0
 11
2125.677800548267
 21
264.2065687386392
 31
0.0
  0
LINE
  5
E586
330
1E
100
AcDbEntity
  8
0
  6
Continuous
 62
     7
100
AcDbLine
 10
2081.197158361666
 20
262.0862366775394
 30
0.0
 11
2124.697739085867
 21
262.0862366775394
 31
0.0
  0
LINE
  5
E587
330
1E
100
AcDbEntity
  8
0
  6
Continuous
 62
     7
100
AcDbLine
 10
2120.917780784866
 20
248.2094382370395
 30
0.0
 11
2120.917780784866
 21
242.2630351187394
 31
0.0
  0
LINE
  5
E588
330
1E
100
AcDbEntity
  8
0
  6
Continuous
 62
     7
100
AcDbLine
 10
2124.447448723767
 20
261.2362366775395
 30
0.0
 11
2081.447448723767
 21
261.2362366775395
 31
0.0
  0
LINE
  5
E589
330
1E
100
AcDbEntity
  8
0
  6
Continuous
 62
     7
100
AcDbLine
 10
2118.797448723767
 20
248.9859173664394
 30
0.0
 11
2118.797448723767
 21
241.4865559892395
 31
0.0
  0
LINE
  5
E58A
330
1E
100
AcDbEntity
  8
0
  6
Continuous
 62
     7
100
AcDbLine
 10
2117.947448723767
 20
249.4397900597308
 30
0.0
 11
2117.947448723767
 21
241.0326832957978
 31
0.0
  0
LINE
  5
E58B
330
1E
100
AcDbEntity
  8
0
  6
Continuous
 62
     7
100
AcDbLine
 10
2128.417780784866
 20
234.7630351055394
 30
0.0
 11
2120.917780784866
 21
242.2630351187394
 31
0.0
  0
LINE
  5
E58C
330
1E
100
AcDbEntity
  8
0
  6
Continuous
 62
     7
100
AcDbLine
 10
2118.869425947267
 20
241.3127875997394
 30
0.0
 11
2126.297448723767
 21
233.8847648101582
 31
0.0
  0
LINE
  5
E58D
330
1E
100
AcDbEntity
  8
0
  6
Continuous
 62
     7
100
AcDbLine
 10
2117.947448723767
 20
241.0326832957978
 30
0.0
 11
2125.447448723767
 21
233.5326832825658
 31
0.0
  0
LINE
  5
E58E
330
1E
100
AcDbEntity
  8
0
  6
Continuous
 62
     7
100
AcDbLine
 10
2120.917780784866
 20
248.2094382370395
 30
0.0
 11
2128.417780784866
 21
255.7094382528393
 31
0.0
  0
LINE
  5
E58F
330
1E
100
AcDbEntity
  8
0
  6
Continuous
 62
     7
100
AcDbLine
 10
2126.297448723767
 20
256.5877085480365
 30
0.0
 11
2118.869425947267
 21
249.1596857558394
 31
0.0
  0
LINE
  5
E590
330
1E
100
AcDbEntity
  8
0
  6
Continuous
 62
     7
100
AcDbLine
 10
2125.447448723767
 20
256.939790075557
 30
0.0
 11
2117.947448723767
 21
249.4397900597308
 31
0.0
  0
LINE
  5
E591
330
1E
100
AcDbEntity
  8
0
  6
Continuous
 62
     7
100
AcDbLine
 10
2088.697439903766
 20
224.2362366775395
 30
0.0
 11
2087.697440407866
 21
223.2362366775395
 31
0.0
  0
LINE
  5
E592
330
1E
100
AcDbEntity
  8
0
  6
Continuous
 62
     7
100
AcDbLine
 10
2064.947448723767
 20
283.2362366775395
 30
0.0
 11
2065.947448723767
 21
282.2362366775395
 31
0.0
  0
LINE
  5
E593
330
1E
100
AcDbEntity
  8
0
  6
Continuous
 62
     7
100
AcDbLine
 10
2139.947448723767
 20
282.2362366775395
 30
0.0
 11
2140.947448723767
 21
283.2362366775395
 31
0.0
  0
LINE
  5
E594
330
1E
100
AcDbEntity
  8
0
  6
Continuous
 62
     7
100
AcDbLine
 10
2118.197457039666
 20
223.2362366775395
 30
0.0
 11
2117.197457543767
 21
224.2362366775395
 31
0.0
  0
LINE
  5
E595
330
1E
100
AcDbEntity
  8
0
  6
Continuous
 62
     7
100
AcDbLine
 10
2087.947448723767
 20
249.4397900597303
 30
0.0
 11
2080.447448723766
 21
256.9397900755569
 31
0.0
  0
LINE
  5
E596
330
1E
100
AcDbEntity
  8
0
  6
Continuous
 62
     7
100
AcDbLine
 10
2087.025471500266
 20
249.1596857558394
 30
0.0
 11
2079.597448723767
 21
256.5877085480364
 31
0.0
  0
LINE
  5
E597
330
1E
100
AcDbEntity
  8
0
  6
Continuous
 62
     7
100
AcDbLine
 10
2080.447448723766
 20
233.5326832825657
 30
0.0
 11
2087.947448723767
 21
241.032683295798
 31
0.0
  0
LINE
  5
E598
330
1E
100
AcDbEntity
  8
0
  6
Continuous
 62
     7
100
AcDbLine
 10
2079.597448723767
 20
233.8847648101586
 30
0.0
 11
2087.025471500266
 21
241.3127875997394
 31
0.0
  0
LINE
  5
E599
330
1E
100
AcDbEntity
  8
0
  6
Continuous
 62
     7
100
AcDbLine
 10
2077.477116662667
 20
255.7094382528393
 30
0.0
 11
2084.977116662667
 21
248.2094382370395
 31
0.0
  0
LINE
  5
E59A
330
1E
100
AcDbEntity
  8
0
  6
Continuous
 62
     7
100
AcDbLine
 10
2126.297448723767
 20
231.7362366774395
 30
0.0
 11
2128.417780784866
 21
231.7362366774395
 31
0.0
  0
LINE
  5
E59B
330
1E
100
AcDbEntity
  8
0
  6
Continuous
 62
     7
100
AcDbLine
 10
2077.477116662667
 20
231.7362366774395
 30
0.0
 11
2079.597448723767
 21
231.7362366774395
 31
0.0
  0
LINE
  5
E59C
330
1E
100
AcDbEntity
  8
0
  6
Continuous
 62
     7
100
AcDbLine
 10
2125.447448723767
 20
231.2362366774395
 30
0.0
 11
2146.947448723767
 21
231.2362366774395
 31
0.0
  0
LINE
  5
E59D
330
1E
100
AcDbEntity
  8
0
  6
Continuous
 62
     7
100
AcDbLine
 10
2058.947448723667
 20
231.2362366775395
 30
0.0
 11
2080.447448723766
 21
231.2362366774394
 31
0.0
  0
LINE
  5
E59E
330
1E
100
AcDbEntity
  8
0
  6
Continuous
 62
     7
100
AcDbLine
 10
2084.977116662667
 20
242.2630351187394
 30
0.0
 11
2077.477116662667
 21
234.7630351055394
 31
0.0
  0
LINE
  5
E59F
330
1E
100
AcDbEntity
  8
0
  6
Continuous
 62
     7
100
AcDbLine
 10
2087.947448723767
 20
241.032683295798
 30
0.0
 11
2087.947448723767
 21
249.4397900597303
 31
0.0
  0
LINE
  5
E5A0
330
1E
100
AcDbEntity
  8
0
  6
Continuous
 62
     7
100
AcDbLine
 10
2087.097448723767
 20
241.4865559892395
 30
0.0
 11
2087.097448723767
 21
248.9859173664394
 31
0.0
  0
LINE
  5
E5A1
330
1E
100
AcDbEntity
  8
0
  6
Continuous
 62
     7
100
AcDbLine
 10
2084.977116662667
 20
242.2630351187394
 30
0.0
 11
2084.977116662667
 21
248.2094382370395
 31
0.0
  0
LINE
  5
E5A2
330
1E
100
AcDbEntity
  8
0
  6
Continuous
 62
     7
100
AcDbLine
 10
2094.697441208166
 20
223.2362366775395
 30
0.0
 11
2093.697440423766
 21
224.2362366775395
 31
0.0
  0
LINE
  5
E5A3
330
1E
100
AcDbEntity
  8
0
  6
Continuous
 62
     7
100
AcDbLine
 10
2093.697440423766
 20
224.2362366775395
 30
0.0
 11
2088.697439903766
 21
224.2362366775395
 31
0.0
  0
LINE
  5
E5A4
330
1E
100
AcDbEntity
  8
0
  6
Continuous
 62
     7
100
AcDbLine
 10
2117.197457543767
 20
224.2362366775395
 30
0.0
 11
2112.197457023766
 21
224.2362366775395
 31
0.0
  0
LINE
  5
E5A5
330
1E
100
AcDbEntity
  8
0
  6
Continuous
 62
     7
100
AcDbLine
 10
2094.697440923766
 20
223.2362366775395
 30
0.0
 11
2111.197456523767
 21
223.2362366775395
 31
0.0
  0
LINE
  5
E5A6
330
1E
100
AcDbEntity
  8
0
  6
Continuous
 62
     7
100
AcDbLine
 10
2087.697440407866
 20
223.2362366775395
 30
0.0
 11
2082.447448723767
 21
223.2362366775395
 31
0.0
  0
LINE
  5
E5A7
330
1E
100
AcDbEntity
  8
0
  6
Continuous
 62
     7
100
AcDbLine
 10
2123.447448723767
 20
223.2362366775395
 30
0.0
 11
2118.197457039666
 21
223.2362366775395
 31
0.0
  0
LINE
  5
E5A8
330
1E
100
AcDbEntity
  8
0
  6
Continuous
 62
     7
100
AcDbLine
 10
2080.447448723766
 20
256.9397900755569
 30
0.0
 11
2080.447448723766
 21
260.2362366775392
 31
0.0
  0
LINE
  5
E5A9
330
1E
100
AcDbEntity
  8
0
  6
Continuous
 62
     7
100
AcDbLine
 10
2080.447448723766
 20
225.2362366775395
 30
0.0
 11
2080.447448723766
 21
233.5326832825657
 31
0.0
  0
LINE
  5
E5AA
330
1E
100
AcDbEntity
  8
0
  6
Continuous
 62
     7
100
AcDbLine
 10
2079.597448723767
 20
256.5877085480364
 30
0.0
 11
2079.597448723767
 21
260.4865270396393
 31
0.0
  0
LINE
  5
E5AB
330
1E
100
AcDbEntity
  8
0
  6
Continuous
 62
     7
100
AcDbLine
 10
2079.597448723767
 20
231.7362366774395
 30
0.0
 11
2079.597448723767
 21
233.8847648101586
 31
0.0
  0
LINE
  5
E5AC
330
1E
100
AcDbEntity
  8
0
  6
Continuous
 62
     7
100
AcDbLine
 10
2080.447448723766
 20
260.2362366775392
 30
0.0
 11
2081.447448723767
 21
261.2362366775395
 31
0.0
  0
LINE
  5
E5AD
330
1E
100
AcDbEntity
  8
0
  6
Continuous
 62
     7
100
AcDbLine
 10
2079.669425947467
 20
260.6602954292392
 30
0.0
 11
2081.023389972067
 21
262.0142594538394
 31
0.0
  0
LINE
  5
E5AE
330
1E
100
AcDbEntity
  8
0
  6
Continuous
 62
     7
100
AcDbLine
 10
2077.477116662667
 20
261.4665885020394
 30
0.0
 11
2080.217096899267
 21
264.2065687386392
 31
0.0
  0
LINE
  5
E5AF
330
1E
100
AcDbEntity
  8
0
  6
Continuous
 62
     7
100
AcDbLine
 10
2077.477116662667
 20
234.7630351055394
 30
0.0
 11
2077.477116662667
 21
231.7362366774395
 31
0.0
  0
LINE
  5
E5B0
330
1E
100
AcDbEntity
  8
0
  6
Continuous
 62
     7
100
AcDbLine
 10
2077.477116662667
 20
261.4665885020394
 30
0.0
 11
2077.477116662667
 21
255.7094382528393
 31
0.0
  0
LINE
  5
E5B1
330
1E
100
AcDbEntity
  8
0
  6
Continuous
 62
     7
100
AcDbLine
 10
2082.447448723767
 20
223.2362366775395
 30
0.0
 11
2080.447448723766
 21
225.2362366775395
 31
0.0
  0
LINE
  5
E5B2
330
1E
100
AcDbEntity
  8
0
  6
Continuous
 62
     7
100
AcDbLine
 10
2092.947448723767
 20
282.7362366775395
 30
0.0
 11
2091.947448723767
 21
281.7362366775395
 31
0.0
  0
LINE
  5
E5B3
330
1E
100
AcDbEntity
  8
0
  6
Continuous
 62
     7
100
AcDbLine
 10
2090.947448723767
 20
282.2362366775395
 30
0.0
 11
2091.947448723767
 21
283.2362366775395
 31
0.0
  0
LINE
  5
E5B4
330
1E
100
AcDbEntity
  8
0
  6
Continuous
 62
     7
100
AcDbLine
 10
2062.947448723867
 20
231.2362366774395
 30
0.0
 11
2060.947448723767
 21
233.2362366775395
 31
0.0
  0
LINE
  5
E5B5
330
1E
100
AcDbEntity
  8
0
  6
Continuous
 62
     7
100
AcDbLine
 10
2146.947448723866
 20
231.2362366775395
 30
0.0
 11
2162.947448723767
 21
247.2362366774395
 31
0.0
  0
LINE
  5
E5B6
330
1E
100
AcDbEntity
  8
0
  6
Continuous
 62
     7
100
AcDbLine
 10
2060.947448723767
 20
233.2362366775395
 30
0.0
 11
2060.947448723767
 21
279.7362366775395
 31
0.0
  0
LINE
  5
E5B7
330
1E
100
AcDbEntity
  8
0
  6
Continuous
 62
     7
100
AcDbLine
 10
2060.947448723767
 20
279.7362366775395
 30
0.0
 11
2062.947448723767
 21
281.7362366775395
 31
0.0
  0
LINE
  5
E5B8
330
1E
100
AcDbEntity
  8
0
  6
Continuous
 62
     7
100
AcDbLine
 10
2162.947448723767
 20
247.2362366774395
 30
0.0
 11
2162.947448723767
 21
281.2362366775395
 31
0.0
  0
LINE
  5
E5B9
330
1E
100
AcDbEntity
  8
0
  6
Continuous
 62
     7
100
AcDbLine
 10
2162.947448723767
 20
281.2362366775395
 30
0.0
 11
2160.947448723767
 21
283.2362366775395
 31
0.0
  0
LINE
  5
E5C0
330
1E
100
AcDbEntity
  8
虛線
  6
DASHED
100
AcDbLine
 10
2376.111519921245
 20
281.7362366775862
 30
0.0
 11
2386.361519921245
 21
281.7362366775859
 31
0.0
  0
LINE
  5
E5C1
330
1E
100
AcDbEntity
  8
虛線
  6
DASHED
100
AcDbLine
 10
2386.361519921245
 20
281.7362366775859
 30
0.0
 11
2386.361519921245
 21
272.536236677584
 31
0.0
  0
LINE
  5
E5C2
330
1E
100
AcDbEntity
  8
虛線
  6
DASHED
100
AcDbLine
 10
2376.111519921245
 20
281.736236677586
 30
0.0
 11
2376.111519921245
 21
272.5362366775839
 31
0.0
  0
LINE
  5
E5C3
330
1E
100
AcDbEntity
  8
虛線
  6
DASHED
100
AcDbLine
 10
2366.111519921243
 20
281.7362366775861
 30
0.0
 11
2366.111519921243
 21
268.2362366776396
 31
0.0
  0
LINE
  5
E5C4
330
1E
100
AcDbEntity
  8
虛線
  6
DASHED
100
AcDbLine
 10
2376.361519921244
 20
281.736236677586
 30
0.0
 11
2376.361519921244
 21
268.2362366776396
 31
0.0
  0
LINE
  5
E5C5
330
1E
100
AcDbEntity
  8
虛線
  6
DASHED
100
AcDbLine
 10
2372.486519921245
 20
272.5362366775839
 30
0.0
 11
2389.986519921245
 21
272.5362366775842
 31
0.0
  0
LINE
  5
E5C6
330
1E
100
AcDbEntity
  8
虛線
  6
DASHED
100
AcDbLine
 10
2376.111519921245
 20
281.736236677586
 30
0.0
 11
2374.61151992129
 21
283.2362366775396
 31
0.0
  0
LINE
  5
E5C7
330
1E
100
AcDbEntity
  8
虛線
  6
DASHED
100
AcDbLine
 10
2375.236519921243
 20
282.6112366775873
 30
0.0
 11
2375.236519921243
 21
272.5362366775839
 31
0.0
  0
LINE
  5
E5C8
330
1E
100
AcDbEntity
  8
虛線
  6
DASHED
100
AcDbLine
 10
2386.361519921245
 20
281.7362366775859
 30
0.0
 11
2387.861519921199
 21
283.2362366775397
 31
0.0
  0
LINE
  5
E5C9
330
1E
100
AcDbEntity
  8
虛線
  6
DASHED
100
AcDbLine
 10
2387.236519921245
 20
282.6112366775854
 30
0.0
 11
2387.236519921245
 21
272.5362366775841
 31
0.0
  0
LINE
  5
E5CA
330
1E
100
AcDbEntity
  8
虛線
  6
DASHED
100
AcDbLine
 10
2376.361519921244
 20
281.7362366775862
 30
0.0
 11
2377.861519921198
 21
283.2362366775398
 31
0.0
  0
LINE
  5
E5CB
330
1E
100
AcDbEntity
  8
虛線
  6
DASHED
100
AcDbLine
 10
2366.111519921243
 20
281.736236677586
 30
0.0
 11
2364.61151992129
 21
283.2362366775392
 31
0.0
  0
LINE
  5
E5CC
330
1E
100
AcDbEntity
  8
虛線
  6
DASHED
100
AcDbLine
 10
2376.361519921244
 20
281.7362366775862
 30
0.0
 11
2366.111519921243
 21
281.7362366775861
 31
0.0
  0
LINE
  5
E5CD
330
1E
100
AcDbEntity
  8
虛線
  6
DASHED
100
AcDbLine
 10
2377.236519921244
 20
282.6112366775857
 30
0.0
 11
2377.236519921244
 21
268.2362366776396
 31
0.0
  0
LINE
  5
E5CE
330
1E
100
AcDbEntity
  8
虛線
  6
DASHED
100
AcDbLine
 10
2365.236519921244
 20
282.6112366775857
 30
0.0
 11
2365.236519921244
 21
268.2362366776396
 31
0.0
  0
LINE
  5
E5CF
330
1E
100
AcDbEntity
  8
虛線
  6
DASHED
100
AcDbLine
 10
2445.236519921244
 20
282.6112366775857
 30
0.0
 11
2445.236519921244
 21
268.2362366776396
 31
0.0
  0
LINE
  5
E5D0
330
1E
100
AcDbEntity
  8
虛線
  6
DASHED
100
AcDbLine
 10
2446.111519921244
 20
281.736236677586
 30
0.0
 11
2446.111519921244
 21
268.2362366776396
 31
0.0
  0
LINE
  5
E5D1
330
1E
100
AcDbEntity
  8
虛線
  6
DASHED
100
AcDbLine
 10
2457.236519921244
 20
282.6112366775857
 30
0.0
 11
2457.236519921244
 21
268.2362366776396
 31
0.0
  0
LINE
  5
E5D2
330
1E
100
AcDbEntity
  8
虛線
  6
DASHED
100
AcDbLine
 10
2456.361519921244
 20
281.7362366775861
 30
0.0
 11
2456.361519921244
 21
268.2362366776396
 31
0.0
  0
LINE
  5
E5D3
330
1E
100
AcDbEntity
  8
虛線
  6
DASHED
100
AcDbLine
 10
2446.111519921244
 20
281.7362366775862
 30
0.0
 11
2456.361519921244
 21
281.7362366775861
 31
0.0
  0
LINE
  5
E5D4
330
1E
100
AcDbEntity
  8
虛線
  6
DASHED
100
AcDbLine
 10
2456.361519921244
 20
281.736236677586
 30
0.0
 11
2457.861519921198
 21
283.2362366775392
 31
0.0
  0
LINE
  5
E5D5
330
1E
100
AcDbEntity
  8
虛線
  6
DASHED
100
AcDbLine
 10
2446.111519921244
 20
281.7362366775862
 30
0.0
 11
2444.611519921289
 21
283.2362366775398
 31
0.0
  0
LINE
  5
E5D6
330
1E
100
AcDbEntity
  8
虛線
  6
DASHED
100
AcDbLine
 10
2435.236519921243
 20
282.6112366775854
 30
0.0
 11
2435.236519921243
 21
272.5362366775841
 31
0.0
  0
LINE
  5
E5D7
330
1E
100
AcDbEntity
  8
虛線
  6
DASHED
100
AcDbLine
 10
2436.111519921243
 20
281.7362366775859
 30
0.0
 11
2434.611519921288
 21
283.2362366775397
 31
0.0
  0
LINE
  5
E5D8
330
1E
100
AcDbEntity
  8
虛線
  6
DASHED
100
AcDbLine
 10
2447.236519921244
 20
282.6112366775873
 30
0.0
 11
2447.236519921244
 21
272.5362366775839
 31
0.0
  0
LINE
  5
E5D9
330
1E
100
AcDbEntity
  8
虛線
  6
DASHED
100
AcDbLine
 10
2446.361519921243
 20
281.736236677586
 30
0.0
 11
2447.861519921197
 21
283.2362366775396
 31
0.0
  0
LINE
  5
E5DA
330
1E
100
AcDbEntity
  8
虛線
  6
DASHED
100
AcDbLine
 10
2449.986519921245
 20
272.5362366775839
 30
0.0
 11
2432.486519921245
 21
272.5362366775841
 31
0.0
  0
LINE
  5
E5DB
330
1E
100
AcDbEntity
  8
虛線
  6
DASHED
100
AcDbLine
 10
2446.361519921243
 20
281.736236677586
 30
0.0
 11
2446.361519921243
 21
272.5362366775839
 31
0.0
  0
LINE
  5
E5DC
330
1E
100
AcDbEntity
  8
虛線
  6
DASHED
100
AcDbLine
 10
2436.111519921243
 20
281.7362366775859
 30
0.0
 11
2436.111519921243
 21
272.536236677584
 31
0.0
  0
LINE
  5
E5DD
330
1E
100
AcDbEntity
  8
虛線
  6
DASHED
100
AcDbLine
 10
2446.361519921243
 20
281.7362366775862
 30
0.0
 11
2436.111519921243
 21
281.7362366775859
 31
0.0
  0
LINE
  5
E5DE
330
1E
100
AcDbEntity
  8
虛線
  6
DASHED
100
AcDbLine
 10
2432.486519921245
 20
272.5362366775841
 30
0.0
 11
2432.486519921245
 21
262.5362366775395
 31
0.0
  0
LINE
  5
E5DF
330
1E
100
AcDbEntity
  8
虛線
  6
DASHED
100
AcDbLine
 10
2449.986519921245
 20
272.5362366775839
 30
0.0
 11
2449.986519921245
 21
262.5362366775395
 31
0.0
  0
LINE
  5
E5E0
330
1E
100
AcDbEntity
  8
虛線
  6
DASHED
100
AcDbLine
 10
2389.986519921245
 20
272.5362366775842
 30
0.0
 11
2389.986519921245
 21
262.5362366775395
 31
0.0
  0
LINE
  5
E5E1
330
1E
100
AcDbEntity
  8
虛線
  6
DASHED
100
AcDbLine
 10
2372.486519921245
 20
272.5362366775839
 30
0.0
 11
2372.486519921245
 21
262.5362366775395
 31
0.0
  0
LINE
  5
E5E2
330
1E
100
AcDbEntity
  8
虛線
  6
DASHED
100
AcDbLine
 10
2341.336519921243
 20
262.5362366775395
 30
0.0
 11
2481.136519921243
 21
262.5362366775395
 31
0.0
  0
ARC
  5
E5E3
330
1E
100
AcDbEntity
  8
標註線
  6
Continuous
 62
     1
100
AcDbCircle
 10
2371.236504662455
 20
463.3964871758283
 30
0.0
 40
6.0
100
AcDbArc
 50
180.0
 51
90.0
  0
CIRCLE
  5
E5E4
330
1E
100
AcDbEntity
  8
0
  6
Continuous
100
AcDbCircle
 10
2371.236504662455
 20
463.3964871758283
 30
0.0
 40
5.125
  0
LINE
  5
E5E5
330
1E
100
AcDbEntity
  8
中心線
 48
0.3
100
AcDbLine
 10
2371.236504662455
 20
456.3964871758282
 30
0.0
 11
2371.236504662455
 21
470.3964871758282
 31
0.0
  0
LINE
  5
E5E6
330
1E
100
AcDbEntity
  8
中心線
 48
0.3
100
AcDbLine
 10
2364.236504662454
 20
463.3964871758283
 30
0.0
 11
2378.236504662455
 21
463.3964871758283
 31
0.0
  0
ARC
  5
E5E7
330
1E
100
AcDbEntity
  8
標註線
  6
Continuous
 62
     1
100
AcDbCircle
 10
2451.236535180033
 20
463.3964871758283
 30
0.0
 40
6.0
100
AcDbArc
 50
180.0
 51
90.0
  0
CIRCLE
  5
E5E8
330
1E
100
AcDbEntity
  8
0
  6
Continuous
100
AcDbCircle
 10
2451.236535180033
 20
463.3964871758283
 30
0.0
 40
5.125
  0
ARC
  5
E5E9
330
1E
100
AcDbEntity
  8
標註線
  6
Continuous
 62
     1
100
AcDbCircle
 10
2441.236535180033
 20
413.3964871758291
 30
0.0
 40
6.0
100
AcDbArc
 50
180.0
 51
90.0
  0
CIRCLE
  5
E5EA
330
1E
100
AcDbEntity
  8
0
  6
Continuous
100
AcDbCircle
 10
2441.236535180033
 20
413.3964871758291
 30
0.0
 40
5.125
  0
ARC
  5
E5EB
330
1E
100
AcDbEntity
  8
標註線
  6
Continuous
 62
     1
100
AcDbCircle
 10
2451.236535180033
 20
363.3964871758283
 30
0.0
 40
6.0
100
AcDbArc
 50
180.0
 51
90.0
  0
CIRCLE
  5
E5EC
330
1E
100
AcDbEntity
  8
0
  6
Continuous
100
AcDbCircle
 10
2451.236535180033
 20
363.3964871758283
 30
0.0
 40
5.125
  0
CIRCLE
  5
E5ED
330
1E
100
AcDbEntity
  8
0
  6
Continuous
100
AcDbCircle
 10
2371.236504662455
 20
363.3964871758283
 30
0.0
 40
5.125
  0
ARC
  5
E5EE
330
1E
100
AcDbEntity
  8
標註線
  6
Continuous
 62
     1
100
AcDbCircle
 10
2381.236504662455
 20
413.3964871758283
 30
0.0
 40
6.0
100
AcDbArc
 50
180.0
 51
90.0
  0
CIRCLE
  5
E5EF
330
1E
100
AcDbEntity
  8
0
  6
Continuous
100
AcDbCircle
 10
2381.236504662455
 20
413.3964871758283
 30
0.0
 40
5.125
  0
LINE
  5
E5F0
330
1E
100
AcDbEntity
  8
中心線
100
AcDbLine
 10
2411.236519921244
 20
478.3964871758289
 30
0.0
 11
2411.236519921244
 21
348.3964871758294
 31
0.0
  0
LINE
  5
E5F1
330
1E
100
AcDbEntity
  8
中心線
 48
0.3
100
AcDbLine
 10
2451.236535180033
 20
456.3964871758282
 30
0.0
 11
2451.236535180033
 21
470.3964871758282
 31
0.0
  0
LINE
  5
E5F2
330
1E
100
AcDbEntity
  8
中心線
 48
0.3
100
AcDbLine
 10
2458.236535180033
 20
463.3964871758283
 30
0.0
 11
2444.236535180033
 21
463.3964871758283
 31
0.0
  0
LINE
  5
E5F3
330
1E
100
AcDbEntity
  8
中心線
 48
0.3
100
AcDbLine
 10
2381.236504662455
 20
406.3964871758282
 30
0.0
 11
2381.236504662455
 21
420.3964871758282
 31
0.0
  0
LINE
  5
E5F4
330
1E
100
AcDbEntity
  8
中心線
 48
0.3
100
AcDbLine
 10
2451.236535180033
 20
370.3964871758283
 30
0.0
 11
2451.236535180033
 21
356.3964871758283
 31
0.0
  0
LINE
  5
E5F5
330
1E
100
AcDbEntity
  8
中心線
 48
0.3
100
AcDbLine
 10
2458.236535180033
 20
363.3964871758283
 30
0.0
 11
2444.236535180033
 21
363.3964871758283
 31
0.0
  0
LINE
  5
E5F6
330
1E
100
AcDbEntity
  8
中心線
 48
0.3
100
AcDbLine
 10
2371.236504662455
 20
370.3964871758283
 30
0.0
 11
2371.236504662455
 21
356.3964871758283
 31
0.0
  0
LINE
  5
E5F7
330
1E
100
AcDbEntity
  8
中心線
 48
0.3
100
AcDbLine
 10
2441.236535180033
 20
406.3964871758282
 30
0.0
 11
2441.236535180033
 21
420.3964871758282
 31
0.0
  0
ARC
  5
E5F8
330
1E
100
AcDbEntity
  8
標註線
  6
Continuous
 62
     1
100
AcDbCircle
 10
2371.236504662455
 20
363.3964871758283
 30
0.0
 40
6.0
100
AcDbArc
 50
180.0
 51
90.0
  0
LINE
  5
E5FB
330
1E
100
AcDbEntity
  8
中心線
100
AcDbLine
 10
2336.336519921243
 20
413.3964871758291
 30
0.0
 11
2486.136519921243
 21
413.3964871758292
 31
0.0
  0
LINE
  5
E5FC
330
1E
100
AcDbEntity
  8
中心線
100
AcDbLine
 10
2508.03809883358
 20
446.9408778346147
 30
0.0
 11
2497.392873305652
 21
446.9408778346147
 31
0.0
  0
LINE
  5
E5FD
330
1E
100
AcDbEntity
  8
中心線
100
AcDbLine
 10
2508.03809883358
 20
379.9408778346147
 30
0.0
 11
2497.392873305652
 21
379.9408778346147
 31
0.0
  0
LINE
  5
E5FE
330
1E
100
AcDbEntity
  8
中心線
100
AcDbLine
 10
2508.03809883358
 20
261.2362366775396
 30
0.0
 11
2497.392873305652
 21
261.2362366775396
 31
0.0
  0
LINE
  5
E5FF
330
1E
100
AcDbEntity
  8
中心線
100
AcDbLine
 10
2314.434941008907
 20
261.2362366775396
 30
0.0
 11
2325.080166536836
 21
261.2362366775396
 31
0.0
  0
LINE
  5
E600
330
1E
100
AcDbEntity
  8
中心線
100
AcDbLine
 10
2314.434941008907
 20
379.9408778346147
 30
0.0
 11
2325.080166536836
 21
379.9408778346147
 31
0.0
  0
LINE
  5
E601
330
1E
100
AcDbEntity
  8
中心線
100
AcDbLine
 10
2314.434941008907
 20
446.9408778346147
 30
0.0
 11
2325.080166536836
 21
446.9408778346147
 31
0.0
  0
LINE
  5
E60A
330
1E
100
AcDbEntity
  8
中心線
 48
0.27
100
AcDbLine
 10
2325.498928607425
 20
269.2362366775396
 30
0.0
 11
2337.174111235061
 21
269.2362366775396
 31
0.0
  0
LINE
  5
E60B
330
1E
100
AcDbEntity
  8
中心線
 48
0.27
100
AcDbLine
 10
2331.336519921243
 20
263.3986453637218
 30
0.0
 11
2331.336519921243
 21
275.0738279913572
 31
0.0
  0
LINE
  5
E613
330
1E
100
AcDbEntity
  8
中心線
 48
0.27
100
AcDbLine
 10
2485.298928607426
 20
269.2362366775396
 30
0.0
 11
2496.974111235061
 21
269.2362366775396
 31
0.0
  0
LINE
  5
E614
330
1E
100
AcDbEntity
  8
中心線
 48
0.27
100
AcDbLine
 10
2491.136519921243
 20
263.3986453637218
 30
0.0
 11
2491.136519921243
 21
275.0738279913572
 31
0.0
  0
LINE
  5
E615
330
1E
100
AcDbEntity
  8
中心線
 48
0.4
100
AcDbLine
 10
2306.236519921244
 20
411.7266777775135
 30
0.0
 11
2306.236519921244
 21
410.8639834867002
 31
0.0
  0
LINE
  5
E616
330
1E
100
AcDbEntity
  8
0
100
AcDbLine
 10
2278.069336376
 20
228.8482373044599
 30
0.0
 11
2275.746109076248
 21
223.2362366775396
 31
0.0
  0
LINE
  5
E617
330
1E
100
AcDbEntity
  8
0
100
AcDbLine
 10
2273.428399360819
 20
237.027334590899
 30
0.0
 11
2278.069336376
 21
228.8482373044599
 31
0.0
  0
LINE
  5
E618
330
1E
100
AcDbEntity
  8
0
100
AcDbLine
 10
2277.947203676474
 20
245.9388894144758
 30
0.0
 11
2273.428399360819
 21
237.027334590899
 31
0.0
  0
LINE
  5
E619
330
1E
100
AcDbEntity
  8
0
100
AcDbLine
 10
2273.06201750329
 20
254.3621409101888
 30
0.0
 11
2277.947203676474
 21
245.9388894144758
 31
0.0
  0
LINE
  5
E61A
330
1E
100
AcDbEntity
  8
0
100
AcDbLine
 10
2275.98479065102
 20
261.2362366775396
 30
0.0
 11
2273.06201750329
 21
254.3621409101888
 31
0.0
  0
LINE
  5
E61B
330
1E
100
AcDbEntity
  8
中心線
 48
0.4
100
AcDbLine
 10
2253.736519921244
 20
263.2362366775396
 30
0.0
 11
2253.736519921244
 21
221.2362366775396
 31
0.0
  0
LINE
  5
E61C
330
1E
100
AcDbEntity
  8
0
100
AcDbLine
 10
2260.736519921248
 20
223.9362366775417
 30
0.0
 11
2261.43651992125
 21
223.2362366775399
 31
0.0
  0
LINE
  5
E61D
330
1E
100
AcDbEntity
  8
0
100
AcDbLine
 10
2246.73651992124
 20
223.9362366775417
 30
0.0
 11
2246.036519921238
 21
223.2362366775399
 31
0.0
  0
LINE
  5
E61E
330
1E
100
AcDbEntity
  8
0
100
AcDbLine
 10
2246.73651992124
 20
223.9362366775417
 30
0.0
 11
2260.736519921239
 21
223.9362366775417
 31
0.0
  0
LINE
  5
E61F
330
1E
100
AcDbEntity
  8
0
100
AcDbLine
 10
2263.736519921243
 20
260.8362366775416
 30
0.0
 11
2263.967460028917
 21
261.2362366775396
 31
0.0
  0
LINE
  5
E620
330
1E
100
AcDbEntity
  8
0
100
AcDbLine
 10
2260.736519921243
 20
243.9362366775415
 30
0.0
 11
2261.036519921242
 21
244.2362366775415
 31
0.0
  0
LINE
  5
E621
330
1E
100
AcDbEntity
  8
0
100
AcDbLine
 10
2263.736519921243
 20
260.8362366775416
 30
0.0
 11
2263.736519921243
 21
244.2362366775415
 31
0.0
  0
LINE
  5
E622
330
1E
100
AcDbEntity
  8
0
100
AcDbLine
 10
2260.736519921243
 20
243.9362366775415
 30
0.0
 11
2260.736519921243
 21
223.9362366775417
 31
0.0
  0
LINE
  5
E623
330
1E
100
AcDbEntity
  8
0
100
AcDbLine
 10
2243.736519921242
 20
260.8362366775416
 30
0.0
 11
2243.505579813568
 21
261.2362366775394
 31
0.0
  0
LINE
  5
E624
330
1E
100
AcDbEntity
  8
0
100
AcDbLine
 10
2246.736519921242
 20
243.9362366775415
 30
0.0
 11
2246.436519921243
 21
244.2362366775415
 31
0.0
  0
LINE
  5
E625
330
1E
100
AcDbEntity
  8
0
100
AcDbLine
 10
2243.736519921243
 20
260.8362366775416
 30
0.0
 11
2243.736519921243
 21
244.2362366775415
 31
0.0
  0
LINE
  5
E626
330
1E
100
AcDbEntity
  8
0
100
AcDbLine
 10
2246.736519921243
 20
243.9362366775415
 30
0.0
 11
2246.736519921243
 21
223.9362366775417
 31
0.0
  0
LINE
  5
E627
330
1E
100
AcDbEntity
  8
0
100
AcDbLine
 10
2246.736519921243
 20
243.9362366775415
 30
0.0
 11
2260.736519921243
 21
243.9362366775415
 31
0.0
  0
LINE
  5
E628
330
1E
100
AcDbEntity
  8
0
100
AcDbLine
 10
2243.736519921243
 20
260.8362366775416
 30
0.0
 11
2263.736519921243
 21
260.8362366775416
 31
0.0
  0
LINE
  5
E629
330
1E
100
AcDbEntity
  8
0
100
AcDbLine
 10
2243.736519921243
 20
244.2362366775415
 30
0.0
 11
2263.736519921243
 21
244.2362366775415
 31
0.0
  0
LINE
  5
E62A
330
1E
100
AcDbEntity
  8
中心線
 48
0.4
100
AcDbLine
 10
2306.236519921244
 20
263.2362366775396
 30
0.0
 11
2306.236519921244
 21
221.2362366775396
 31
0.0
  0
LINE
  5
E62B
330
1E
100
AcDbEntity
  8
虛線
 48
0.4
100
AcDbLine
 10
2365.736519921248
 20
223.9362366775417
 30
0.0
 11
2366.43651992125
 21
223.2362366775399
 31
0.0
  0
LINE
  5
E62C
330
1E
100
AcDbEntity
  8
虛線
 48
0.4
100
AcDbLine
 10
2351.73651992124
 20
223.9362366775417
 30
0.0
 11
2351.036519921238
 21
223.2362366775399
 31
0.0
  0
LINE
  5
E62D
330
1E
100
AcDbEntity
  8
虛線
 48
0.4
100
AcDbLine
 10
2351.73651992124
 20
223.9362366775417
 30
0.0
 11
2365.73651992124
 21
223.9362366775417
 31
0.0
  0
LINE
  5
E62E
330
1E
100
AcDbEntity
  8
虛線
 48
0.4
100
AcDbLine
 10
2365.736519921243
 20
231.2362366774397
 30
0.0
 11
2365.736519921243
 21
223.9362366775417
 31
0.0
  0
LINE
  5
E62F
330
1E
100
AcDbEntity
  8
虛線
 48
0.4
100
AcDbLine
 10
2351.736519921243
 20
231.2362366774397
 30
0.0
 11
2351.736519921243
 21
223.9362366775417
 31
0.0
  0
LINE
  5
E630
330
1E
100
AcDbEntity
  8
中心線
 48
0.4
100
AcDbLine
 10
2358.736519921244
 20
231.2362366774396
 30
0.0
 11
2358.736519921244
 21
221.2362366775396
 31
0.0
  0
LINE
  5
E631
330
1E
100
AcDbEntity
  8
虛線
 48
0.4
100
AcDbLine
 10
2418.236519921248
 20
223.9362366775417
 30
0.0
 11
2418.93651992125
 21
223.2362366775399
 31
0.0
  0
LINE
  5
E632
330
1E
100
AcDbEntity
  8
虛線
 48
0.4
100
AcDbLine
 10
2404.23651992124
 20
223.9362366775417
 30
0.0
 11
2403.536519921238
 21
223.2362366775399
 31
0.0
  0
LINE
  5
E633
330
1E
100
AcDbEntity
  8
虛線
 48
0.4
100
AcDbLine
 10
2404.23651992124
 20
223.9362366775417
 30
0.0
 11
2418.23651992124
 21
223.9362366775417
 31
0.0
  0
LINE
  5
E634
330
1E
100
AcDbEntity
  8
虛線
 48
0.4
100
AcDbLine
 10
2418.236519921243
 20
231.2362366774396
 30
0.0
 11
2418.236519921243
 21
223.9362366775417
 31
0.0
  0
LINE
  5
E635
330
1E
100
AcDbEntity
  8
虛線
 48
0.4
100
AcDbLine
 10
2404.236519921243
 20
231.2362366774396
 30
0.0
 11
2404.236519921243
 21
223.9362366775417
 31
0.0
  0
LINE
  5
E636
330
1E
100
AcDbEntity
  8
中心線
 48
0.4
100
AcDbLine
 10
2411.236519921244
 20
231.2362366774396
 30
0.0
 11
2411.236519921244
 21
221.2362366775396
 31
0.0
  0
LINE
  5
E637
330
1E
100
AcDbEntity
  8
虛線
 48
0.4
100
AcDbLine
 10
2456.736519921243
 20
231.2362366774396
 30
0.0
 11
2456.736519921243
 21
223.9362366775417
 31
0.0
  0
LINE
  5
E638
330
1E
100
AcDbEntity
  8
虛線
 48
0.4
100
AcDbLine
 10
2470.736519921243
 20
231.2362366774396
 30
0.0
 11
2470.736519921243
 21
223.9362366775417
 31
0.0
  0
LINE
  5
E639
330
1E
100
AcDbEntity
  8
虛線
 48
0.4
100
AcDbLine
 10
2456.73651992124
 20
223.9362366775417
 30
0.0
 11
2470.73651992124
 21
223.9362366775417
 31
0.0
  0
LINE
  5
E63A
330
1E
100
AcDbEntity
  8
虛線
 48
0.4
100
AcDbLine
 10
2456.73651992124
 20
223.9362366775417
 30
0.0
 11
2456.036519921238
 21
223.2362366775399
 31
0.0
  0
LINE
  5
E63B
330
1E
100
AcDbEntity
  8
虛線
 48
0.4
100
AcDbLine
 10
2470.736519921248
 20
223.9362366775417
 30
0.0
 11
2471.43651992125
 21
223.2362366775399
 31
0.0
  0
LINE
  5
E63C
330
1E
100
AcDbEntity
  8
中心線
 48
0.4
100
AcDbLine
 10
2463.736519921244
 20
231.2362366774396
 30
0.0
 11
2463.736519921244
 21
221.2362366775396
 31
0.0
  0
LINE
  5
E63D
330
1E
100
AcDbEntity
  8
中心線
 48
0.4
100
AcDbLine
 10
2516.236519921244
 20
263.2362366775396
 30
0.0
 11
2516.236519921244
 21
221.2362366775396
 31
0.0
  0
LINE
  5
E63E
330
1E
100
AcDbEntity
  8
中心線
 48
0.4
100
AcDbLine
 10
2568.736519921244
 20
263.2362366775396
 30
0.0
 11
2568.736519921244
 21
221.2362366775396
 31
0.0
  0
LINE
  5
E63F
330
1E
100
AcDbEntity
  8
中心線
 48
0.3
100
AcDbLine
 10
2378.236504662455
 20
363.3964871758283
 30
0.0
 11
2364.236504662454
 21
363.3964871758283
 31
0.0
  0
LINE
  5
EAA1
330
1E
100
AcDbEntity
  8
0
  6
Continuous
 62
     7
100
AcDbLine
 10
2275.559604088794
 20
260.2362366775391
 30
0.0
 11
2316.099791210345
 21
260.2362366775391
 31
0.0
  0
LINE
  5
EAA2
330
1E
100
AcDbEntity
  8
0
  6
Continuous
 62
     7
100
AcDbLine
 10
2274.157999290537
 20
256.939790075557
 30
0.0
 11
2317.736519928943
 21
256.939790075557
 31
0.0
  0
LINE
  5
EAA3
330
1E
100
AcDbEntity
  8
0
  6
Continuous
 62
     7
100
AcDbLine
 10
2275.916805862209
 20
249.4397900597308
 30
0.0
 11
2317.736519928943
 21
249.4397900597308
 31
0.0
  0
LINE
  5
EAA4
330
1E
100
AcDbEntity
  8
0
  6
Continuous
 62
     7
100
AcDbLine
 10
2275.45940151159
 20
241.0326832957978
 30
0.0
 11
2317.736519928943
 21
241.0326832957978
 31
0.0
  0
LINE
  5
EAA5
330
1E
100
AcDbEntity
  8
0
  6
Continuous
 62
     7
100
AcDbLine
 10
2275.411314595106
 20
233.5326832825658
 30
0.0
 11
2317.736519928943
 21
233.5326832825658
 31
0.0
  0
LINE
  5
EAA6
330
1E
100
AcDbEntity
  8
0
  6
Continuous
 62
     7
100
AcDbLine
 10
2276.574058841117
 20
225.2362366775395
 30
0.0
 11
2591.236519921244
 21
225.2362366775395
 31
0.0
  0
LINE
  5
EAA7
330
1E
100
AcDbEntity
  8
0
  6
Continuous
 62
     7
100
AcDbLine
 10
2506.373248662942
 20
260.2362366775391
 30
0.0
 11
2591.236519921243
 21
260.2362366775391
 31
0.0
  0
LINE
  5
EAA9
330
1E
100
AcDbEntity
  8
0
  6
Continuous
 62
     7
100
AcDbLine
 10
2504.736519928944
 20
256.939790075557
 30
0.0
 11
2591.236519921243
 21
256.939790075557
 31
0.0
  0
LINE
  5
EAAA
330
1E
100
AcDbEntity
  8
0
  6
Continuous
 62
     7
100
AcDbLine
 10
2504.736519928944
 20
249.4397900597308
 30
0.0
 11
2591.236519921243
 21
249.4397900597308
 31
0.0
  0
LINE
  5
EAAB
330
1E
100
AcDbEntity
  8
0
  6
Continuous
 62
     7
100
AcDbLine
 10
2504.736519928944
 20
241.0326832957978
 30
0.0
 11
2591.236519921244
 21
241.0326832957978
 31
0.0
  0
LINE
  5
EAAC
330
1E
100
AcDbEntity
  8
0
  6
Continuous
 62
     7
100
AcDbLine
 10
2504.736519928944
 20
233.5326832825658
 30
0.0
 11
2591.236519921244
 21
233.5326832825658
 31
0.0
  0
ENDSEC
  0
SECTION
  2
OBJECTS
  0
DICTIONARY
  5
C
330
0
100
AcDbDictionary
281
     1
  3
ACAD_COLOR
350
3D97
  3
ACAD_GROUP
350
D
  3
ACAD_LAYOUT
350
19
  3
ACAD_MATERIAL
350
3D96
  3
ACAD_MLINESTYLE
350
16
  3
ACAD_PLOTSETTINGS
350
18
  3
ACAD_PLOTSTYLENAME
350
E
  3
ACAD_TABLESTYLE
350
E7A3
  3
ACDBHEADERROUNDTRIPXREC
350
EAC5
  3
AcDbVariableDictionary
350
3E63
  0
DICTIONARY
  5
43C2
330
2
100
AcDbDictionary
280
     1
281
     1
  3
ACAD_LAYERSTATES
360
43C3
  0
DICTIONARY
  5
3D1E
330
1E
100
AcDbDictionary
280
     1
281
     1
  3
ACAD_LAYOUTSELFREF
360
3D92
  3
ACAD_SORTENTS
360
EAA8
  0
DICTIONARY
  5
3D20
330
1A
100
AcDbDictionary
280
     1
281
     1
  3
ACAD_LAYOUTSELFREF
360
3D91
  0
DICTIONARY
  5
69B8
330
69B7
100
AcDbDictionary
280
     1
281
     1
  3
ACAD_SORTENTS
360
69B9
  0
DICTIONARY
  5
69CC
330
69CB
100
AcDbDictionary
280
     1
281
     1
  3
ACAD_SORTENTS
360
69CD
  0
DICTIONARY
  5
3D97
102
{ACAD_REACTORS
330
C
102
}
330
C
100
AcDbDictionary
281
     1
  0
DICTIONARY
  5
D
102
{ACAD_REACTORS
330
C
102
}
330
C
100
AcDbDictionary
281
     1
  3
*A1
350
4143
  3
*A10
350
4378
  3
*A11
350
43BF
  3
*A12
350
423A
  3
*A13
350
414C
  3
*A14
350
579E
  3
*A15
350
4235
  3
*A16
350
437C
  3
*A17
350
414F
  3
*A18
350
437E
  3
*A19
350
4149
  3
*A2
350
4241
  3
*A20
350
4239
  3
*A21
350
4237
  3
*A22
350
423C
  3
*A23
350
43B6
  3
*A24
350
423B
  3
*A25
350
43B8
  3
*A26
350
576A
  3
*A27
350
4240
  3
*A28
350
423E
  3
*A29
350
4374
  3
*A3
350
43BB
  3
*A30
350
4373
  3
*A31
350
43BD
  3
*A32
350
4236
  3
*A33
350
4377
  3
*A34
350
4145
  3
*A35
350
437A
  3
*A36
350
4379
  3
*A37
350
43C1
  3
*A38
350
423D
  3
*A39
350
437D
  3
*A4
350
414D
  3
*A40
350
4146
  3
*A41
350
437F
  3
*A42
350
414B
  3
*A43
350
4375
  3
*A44
350
43B7
  3
*A45
350
414E
  3
*A46
350
43B9
  3
*A47
350
57D9
  3
*A48
350
437B
  3
*A49
350
43BC
  3
*A5
350
4144
  3
*A50
350
43BE
  3
*A51
350
4238
  3
*A52
350
43B5
  3
*A53
350
43C0
  3
*A54
350
4148
  3
*A55
350
423F
  3
*A56
350
43BA
  3
*A6
350
414A
  3
*A7
350
5691
  3
*A8
350
4376
  3
*A9
350
4147
  0
DICTIONARY
  5
19
102
{ACAD_REACTORS
330
C
102
}
330
C
100
AcDbDictionary
281
     1
  3
Model
350
21
  3
配置1
350
1D
  0
DICTIONARY
  5
3D96
102
{ACAD_REACTORS
330
C
102
}
330
C
100
AcDbDictionary
281
     1
  0
DICTIONARY
  5
16
102
{ACAD_REACTORS
330
C
102
}
330
C
100
AcDbDictionary
281
     1
  3
Standard
350
17
  0
DICTIONARY
  5
18
102
{ACAD_REACTORS
330
C
102
}
330
C
100
AcDbDictionary
281
     1
  3
LANSRO
350
4150
  0
ACDBDICTIONARYWDFLT
  5
E
102
{ACAD_REACTORS
330
C
102
}
330
C
100
AcDbDictionary
281
     1
  3
Normal
350
F
100
AcDbDictionaryWithDefault
340
F
  0
DICTIONARY
  5
E7A3
102
{ACAD_REACTORS
330
C
102
}
330
C
100
AcDbDictionary
281
     1
  3
Standard
350
E7A4
  0
DICTIONARY
  5
EAC5
102
{ACAD_REACTORS
330
C
102
}
330
C
100
AcDbDictionary
281
     1
  3
COLORDICT
350
EAC7
  3
MATERIALDICT
350
EAC6
  0
DICTIONARY
  5
3E63
102
{ACAD_REACTORS
330
C
102
}
330
C
100
AcDbDictionary
281
     1
  3
CTABLESTYLE
350
E8F8
  3
DIMASSOC
350
3E64
  3
PROJECTNAME
350
3E65
  0
DICTIONARY
  5
43C3
102
{ACAD_REACTORS
330
43C2
102
}
330
43C2
100
AcDbDictionary
281
     1
  0
XRECORD
  5
3D92
102
{ACAD_REACTORS
330
3D1E
102
}
330
3D1E
100
AcDbXrecord
280
     1
340
1E
  0
SORTENTSTABLE
  5
EAA8
102
{ACAD_REACTORS
330
3D1E
102
}
330
3D1E
100
AcDbSortentsTable
330
1E
331
AA11
  5
AA11
331
ACB1
  5
ACB1
331
AA48
  5
AA48
331
E5B3
  5
E5B3
331
E53D
  5
E53D
331
E574
  5
E574
331
E4FE
  5
E4FE
331
AA97
  5
AA97
331
E4C7
  5
E4C7
331
AC5A
  5
AC5A
331
AA19
  5
AA19
331
ACB9
  5
ACB9
331
AA50
  5
AA50
331
AC0D
  5
AC0D
331
AC15
  5
AC15
331
E506
  5
E506
331
E4CF
  5
E4CF
331
AA9F
  5
AA9F
331
ABD6
  5
ABD6
331
E545
  5
E545
331
E57C
  5
E57C
331
AA21
  5
AA21
331
AA58
  5
AA58
331
E54D
  5
E54D
331
E584
  5
E584
331
AC1D
  5
AC1D
331
E50E
  5
E50E
331
E5C3
  5
E5C3
331
E4D7
  5
E4D7
331
AAA7
  5
AAA7
331
AA60
  5
AA60
331
A95A
  5
A95A
331
AC82
  5
AC82
331
E498
  5
E498
331
ABDE
  5
ABDE
331
E58C
  5
E58C
331
ABE6
  5
ABE6
331
E516
  5
E516
331
E5E8
  5
E5E8
331
E5F0
  5
E5F0
331
E62F
  5
E62F
331
E637
  5
E637
331
E5F8
  5
E5F8
331
E63F
  5
E63F
331
E600
  5
E600
331
E4A0
  5
E4A0
331
AA29
  5
AA29
331
AA68
  5
AA68
331
AC23
  5
AC23
331
A9F2
  5
A9F2
331
AC8A
  5
AC8A
331
E555
  5
E555
331
ABEE
  5
ABEE
331
AAAF
  5
AAAF
331
E4A8
  5
E4A8
331
AA31
  5
AA31
331
E4DF
  5
E4DF
331
E594
  5
E594
331
AC2B
  5
AC2B
331
A9FA
  5
A9FA
331
E526
  5
E526
331
E55D
  5
E55D
331
ABF6
  5
ABF6
331
AAB7
  5
AAB7
331
E4B0
  5
E4B0
331
E4E7
  5
E4E7
331
E59C
  5
E59C
331
AA02
  5
AA02
331
ACA2
  5
ACA2
331
AA39
  5
AA39
331
AA80
  5
AA80
331
AC33
  5
AC33
331
E5A4
  5
E5A4
331
E52E
  5
E52E
331
E4EF
  5
E4EF
331
AABF
  5
AABF
331
AA88
  5
AA88
331
ACF1
  5
ACF1
331
E4B8
  5
E4B8
331
AC43
  5
AC43
331
AA0A
  5
AA0A
331
ACAA
  5
ACAA
331
AA41
  5
AA41
331
ABFE
  5
ABFE
331
E56D
  5
E56D
331
E5AC
  5
E5AC
331
AC06
  5
AC06
331
E4F7
  5
E4F7
331
E536
  5
E536
331
AAC7
  5
AAC7
331
E5C9
  5
E5C9
331
E5D1
  5
E5D1
331
E5D9
  5
E5D9
331
E618
  5
E618
331
E5E1
  5
E5E1
331
E620
  5
E620
331
EAA7
  5
EAA2
331
AA49
  5
AA49
331
AA90
  5
AA90
331
AA12
  5
AA12
331
ACB2
  5
ACB2
331
E4C0
  5
E4C0
331
E575
  5
E575
331
E5B4
  5
E5B4
331
AC0E
  5
AC0E
331
E4C8
  5
E4C8
331
E4FF
  5
E4FF
331
ACBA
  5
ACBA
331
AA51
  5
AA51
331
AA98
  5
AA98
331
AC5B
  5
AC5B
331
AA1A
  5
AA1A
331
E53E
  5
E53E
331
E546
  5
E546
331
E57D
  5
E57D
331
ABD7
  5
ABD7
331
E4D0
  5
E4D0
331
E507
  5
E507
331
AA59
  5
AA59
331
AAA0
  5
AAA0
331
AA22
  5
AA22
331
ACD2
  5
ACD2
331
E5C4
  5
E5C4
331
E54E
  5
E54E
331
E585
  5
E585
331
E50F
  5
E50F
331
E499
  5
E499
331
ABDF
  5
ABDF
331
AC83
  5
AC83
331
AA61
  5
AA61
331
AC1E
  5
AC1E
331
E517
  5
E517
331
ABE7
  5
ABE7
331
E58D
  5
E58D
331
E628
  5
E628
331
E5E9
  5
E5E9
331
E5F1
  5
E5F1
331
E630
  5
E630
331
E638
  5
E638
331
E601
  5
E601
331
AAA8
  5
AAA8
331
E4A1
  5
E4A1
331
E4D8
  5
E4D8
331
A9F3
  5
A9F3
331
AA2A
  5
AA2A
331
AA69
  5
AA69
331
E595
  5
E595
331
E51F
  5
E51F
331
E556
  5
E556
331
E4E0
  5
E4E0
331
AAB0
  5
AAB0
331
E4A9
  5
E4A9
331
AC2C
  5
AC2C
331
A9FB
  5
A9FB
331
AA32
  5
AA32
331
ABEF
  5
ABEF
331
E55E
  5
E55E
331
E59D
  5
E59D
331
ABF7
  5
ABF7
331
E4E8
  5
E4E8
331
E527
  5
E527
331
E4B1
  5
E4B1
331
AA3A
  5
AA3A
331
AA81
  5
AA81
331
AAB8
  5
AAB8
331
AA03
  5
AA03
331
ACA3
  5
ACA3
331
E5A5
  5
E5A5
331
ABFF
  5
ABFF
331
AAC0
  5
AAC0
331
E4B9
  5
E4B9
331
E4F0
  5
E4F0
331
AA89
  5
AA89
331
ACAB
  5
ACAB
331
AA42
  5
AA42
331
ACF2
  5
ACF2
331
AA0B
  5
AA0B
331
E52F
  5
E52F
331
E537
  5
E537
331
E56E
  5
E56E
331
AC07
  5
AC07
331
E5AD
  5
E5AD
331
E5CA
  5
E5CA
331
E5D2
  5
E5D2
331
E619
  5
E619
331
E5DA
  5
E5DA
331
E5E2
  5
E5E2
331
E621
  5
E621
331
AAC8
  5
AAC8
331
E4C1
  5
E4C1
331
E4F8
  5
E4F8
331
AA13
  5
AA13
331
ACB3
  5
ACB3
331
AA4A
  5
AA4A
331
AA91
  5
AA91
331
AC54
  5
AC54
331
E5B5
  5
E5B5
331
E53F
  5
E53F
331
E576
  5
E576
331
E500
  5
E500
331
AC0F
  5
AC0F
331
AA99
  5
AA99
331
DF8A
  5
DF8A
331
AC5C
  5
AC5C
331
AA1B
  5
AA1B
331
ACBB
  5
ACBB
331
AA52
  5
AA52
331
E4C9
  5
E4C9
331
E57E
  5
E57E
331
E508
  5
E508
331
E4D1
  5
E4D1
331
AA5A
  5
AA5A
331
AAA1
  5
AAA1
331
ACD3
  5
ACD3
331
AA23
  5
AA23
331
ABD8
  5
ABD8
331
E547
  5
E547
331
E54F
  5
E54F
331
E586
  5
E586
331
AC1F
  5
AC1F
331
E510
  5
E510
331
E5C5
  5
E5C5
331
AA62
  5
AA62
331
AC84
  5
AC84
331
E49A
  5
E49A
331
ABE0
  5
ABE0
331
E58E
  5
E58E
331
E5EA
  5
E5EA
331
E629
  5
E629
331
E631
  5
E631
331
E5F2
  5
E5F2
331
E639
  5
E639
331
ABE8
  5
ABE8
331
E4D9
  5
E4D9
331
E518
  5
E518
331
E4A2
  5
E4A2
331
AA2B
  5
AA2B
331
A9F4
  5
A9F4
331
AAA9
  5
AAA9
331
E520
  5
E520
331
E557
  5
E557
331
ABF0
  5
ABF0
331
AAB1
  5
AAB1
331
E4AA
  5
E4AA
331
E4E1
  5
E4E1
331
E596
  5
E596
331
A9FC
  5
A9FC
331
AA33
  5
AA33
331
AA7A
  5
AA7A
331
AC2D
  5
AC2D
331
E528
  5
E528
331
E55F
  5
E55F
331
ABF8
  5
ABF8
331
AAB9
  5
AAB9
331
E4B2
  5
E4B2
331
E4E9
  5
E4E9
331
E59E
  5
E59E
331
ACEB
  5
ACEB
331
AA04
  5
AA04
331
ACA4
  5
ACA4
331
AA3B
  5
AA3B
331
AA82
  5
AA82
331
E5A6
  5
E5A6
331
E530
  5
E530
331
E4F1
  5
E4F1
331
AAC1
  5
AAC1
331
AA8A
  5
AA8A
331
ACF3
  5
ACF3
331
E4BA
  5
E4BA
331
AA0C
  5
AA0C
331
ACAC
  5
ACAC
331
AA43
  5
AA43
331
AC00
  5
AC00
331
E56F
  5
E56F
331
E5AE
  5
E5AE
331
E60A
  5
E60A
331
E5CB
  5
E5CB
331
E5D3
  5
E5D3
331
E5DB
  5
E5DB
331
E61A
  5
E61A
331
EAA1
  5
EAA1
331
E5E3
  5
E5E3
331
E622
  5
E622
331
AC08
  5
AC08
331
E4F9
  5
E4F9
331
E538
  5
E538
331
E4C2
  5
E4C2
331
AA4B
  5
AA4B
331
AA92
  5
AA92
331
AAC9
  5
AAC9
331
AC55
  5
AC55
331
AA14
  5
AA14
331
ACB4
  5
ACB4
331
E540
  5
E540
331
E577
  5
E577
331
AC10
  5
AC10
331
E4CA
  5
E4CA
331
E501
  5
E501
331
E5B6
  5
E5B6
331
ACBC
  5
ACBC
331
AA53
  5
AA53
331
AA9A
  5
AA9A
331
AC5D
  5
AC5D
331
AA1C
  5
AA1C
331
E548
  5
E548
331
E57F
  5
E57F
331
AC18
  5
AC18
331
ABD9
  5
ABD9
331
ACD4
  5
ACD4
331
AA24
  5
AA24
331
AA5B
  5
AA5B
331
E4D2
  5
E4D2
331
A955
  5
A955
331
E509
  5
E509
331
E5C6
  5
E5C6
331
E511
  5
E511
331
E49B
  5
E49B
331
ABE1
  5
ABE1
331
AC85
  5
AC85
331
AA63
  5
AA63
331
E587
  5
E587
331
E58F
  5
E58F
331
E62A
  5
E62A
331
EAA9
  5
EAA4
331
E5EB
  5
E5EB
331
E5F3
  5
E5F3
331
E632
  5
E632
331
E5FB
  5
E5FB
331
E63A
  5
E63A
331
E519
  5
E519
331
E550
  5
E550
331
ABE9
  5
ABE9
331
AAAA
  5
AAAA
331
E4A3
  5
E4A3
331
AC26
  5
AC26
331
A9F5
  5
A9F5
331
AA2C
  5
AA2C
331
E4DA
  5
E4DA
331
E597
  5
E597
331
E521
  5
E521
331
E558
  5
E558
331
E4E2
  5
E4E2
331
AAB2
  5
AAB2
331
AA7B
  5
AA7B
331
E4AB
  5
E4AB
331
AC2E
  5
AC2E
331
A9FD
  5
A9FD
331
AC95
  5
AC95
331
AA34
  5
AA34
331
ABF1
  5
ABF1
331
E560
  5
E560
331
E59F
  5
E59F
331
ABF9
  5
ABF9
331
E4EA
  5
E4EA
331
E529
  5
E529
331
E4B3
  5
E4B3
331
AA3C
  5
AA3C
331
AA83
  5
AA83
331
AABA
  5
AABA
331
AA05
  5
AA05
331
ACA5
  5
ACA5
331
E531
  5
E531
331
AC01
  5
AC01
331
AAC2
  5
AAC2
331
E4BB
  5
E4BB
331
E4F2
  5
E4F2
331
AA0D
  5
AA0D
331
ACAD
  5
ACAD
331
AA44
  5
AA44
331
AA8B
  5
AA8B
331
E5A7
  5
E5A7
331
E5AF
  5
E5AF
331
E5CC
  5
E5CC
331
E60B
  5
E60B
331
E613
  5
E613
331
E5D4
  5
E5D4
331
E61B
  5
E61B
331
E5DC
  5
E5DC
331
EAA2
  5
EAA3
331
E5E4
  5
E5E4
331
E623
  5
E623
331
E539
  5
E539
331
E570
  5
E570
331
AC09
  5
AC09
331
AACA
  5
AACA
331
E4C3
  5
E4C3
331
E4FA
  5
E4FA
331
AC56
  5
AC56
331
AA15
  5
AA15
331
ACB5
  5
ACB5
331
AA4C
  5
AA4C
331
AA93
  5
AA93
331
E5B7
  5
E5B7
331
E541
  5
E541
331
E578
  5
E578
331
E4CB
  5
E4CB
331
E502
  5
E502
331
AA9B
  5
AA9B
331
AC5E
  5
AC5E
331
AA1D
  5
AA1D
331
ACBD
  5
ACBD
331
AA54
  5
AA54
331
AC11
  5
AC11
331
E580
  5
E580
331
AC19
  5
AC19
331
E50A
  5
E50A
331
AA5C
  5
AA5C
331
E4D3
  5
E4D3
331
ACD5
  5
ACD5
331
A956
  5
A956
331
AC7E
  5
AC7E
331
AA25
  5
AA25
331
ABDA
  5
ABDA
331
E549
  5
E549
331
E588
  5
E588
331
ABE2
  5
ABE2
331
E512
  5
E512
331
E5C7
  5
E5C7
331
AA64
  5
AA64
331
AC86
  5
AC86
331
E49C
  5
E49C
331
EAAA
  5
EAA6
331
E5EC
  5
E5EC
331
E62B
  5
E62B
331
E633
  5
E633
331
E5F4
  5
E5F4
331
E63B
  5
E63B
331
E5FC
  5
E5FC
331
E551
  5
E551
331
E590
  5
E590
331
ABEA
  5
ABEA
331
E4DB
  5
E4DB
331
E51A
  5
E51A
331
E4A4
  5
E4A4
331
AA2D
  5
AA2D
331
AC27
  5
AC27
331
A9F6
  5
A9F6
331
AAAB
  5
AAAB
331
E522
  5
E522
331
E559
  5
E559
331
ABF2
  5
ABF2
331
AAB3
  5
AAB3
331
E4AC
  5
E4AC
331
E4E3
  5
E4E3
331
E598
  5
E598
331
ACE5
  5
ACE5
331
A9FE
  5
A9FE
331
AA35
  5
AA35
331
AA7C
  5
AA7C
331
AC2F
  5
AC2F
331
E5A0
  5
E5A0
331
E52A
  5
E52A
331
E561
  5
E561
331
ABFA
  5
ABFA
331
AABB
  5
AABB
331
AA84
  5
AA84
331
ACED
  5
ACED
331
E4B4
  5
E4B4
331
AA06
  5
AA06
331
ACA6
  5
ACA6
331
AA3D
  5
AA3D
331
E4EB
  5
E4EB
331
E5A8
  5
E5A8
331
E532
  5
E532
331
E569
  5
E569
331
E4F3
  5
E4F3
331
AAC3
  5
AAC3
331
AA8C
  5
AA8C
331
E4BC
  5
E4BC
331
AA0E
  5
AA0E
331
ACAE
  5
ACAE
331
AA45
  5
AA45
331
AC02
  5
AC02
331
E5CD
  5
E5CD
331
E5D5
  5
E5D5
331
E614
  5
E614
331
E5DD
  5
E5DD
331
E61C
  5
E61C
331
E624
  5
E624
331
EAA3
  5
EAA5
331
E5E5
  5
E5E5
331
E571
  5
E571
331
E5B0
  5
E5B0
331
AC0A
  5
AC0A
331
E4C4
  5
E4C4
331
E4FB
  5
E4FB
331
AA4D
  5
AA4D
331
AA94
  5
AA94
331
E53A
  5
E53A
331
AC57
  5
AC57
331
AA16
  5
AA16
331
ACB6
  5
ACB6
331
E542
  5
E542
331
E579
  5
E579
331
AC12
  5
AC12
331
E4CC
  5
E4CC
331
E503
  5
E503
331
AA1E
  5
AA1E
331
AA55
  5
AA55
331
AA9C
  5
AA9C
331
E5B8
  5
E5B8
331
E5C0
  5
E5C0
331
E54A
  5
E54A
331
E581
  5
E581
331
AC1A
  5
AC1A
331
ABDB
  5
ABDB
331
E495
  5
E495
331
ACD6
  5
ACD6
331
AC7F
  5
AC7F
331
AA26
  5
AA26
331
AA5D
  5
AA5D
331
E4D4
  5
E4D4
331
A957
  5
A957
331
E50B
  5
E50B
331
E513
  5
E513
331
E49D
  5
E49D
331
ABE3
  5
ABE3
331
AC87
  5
AC87
331
AA65
  5
AA65
331
E589
  5
E589
331
E62C
  5
E62C
331
EAAB
  5
EAA9
331
E5ED
  5
E5ED
331
E5F5
  5
E5F5
331
E634
  5
E634
331
E5FD
  5
E5FD
331
E63C
  5
E63C
331
AC20
  5
AC20
331
E591
  5
E591
331
E51B
  5
E51B
331
E552
  5
E552
331
E4DC
  5
E4DC
331
AAAC
  5
AAAC
331
E4A5
  5
E4A5
331
AC28
  5
AC28
331
A9F7
  5
A9F7
331
AA2E
  5
AA2E
331
ABEB
  5
ABEB
331
E599
  5
E599
331
ABF3
  5
ABF3
331
E4E4
  5
E4E4
331
E523
  5
E523
331
AAB4
  5
AAB4
331
AA7D
  5
AA7D
331
ACE6
  5
ACE6
331
E4AD
  5
E4AD
331
E55A
  5
E55A
331
AC30
  5
AC30
331
A9FF
  5
A9FF
331
AA36
  5
AA36
331
E562
  5
E562
331
E5A1
  5
E5A1
331
ABFB
  5
ABFB
331
E4EC
  5
E4EC
331
E52B
  5
E52B
331
E4B5
  5
E4B5
331
AA85
  5
AA85
331
AA3E
  5
AA3E
331
ACEE
  5
ACEE
331
AABC
  5
AABC
331
AA07
  5
AA07
331
ACA7
  5
ACA7
331
E533
  5
E533
331
E56A
  5
E56A
331
AC03
  5
AC03
331
AAC4
  5
AAC4
331
E4BD
  5
E4BD
331
E4F4
  5
E4F4
331
AA0F
  5
AA0F
331
ACAF
  5
ACAF
331
AA46
  5
AA46
331
AA8D
  5
AA8D
331
E5A9
  5
E5A9
331
E5CE
  5
E5CE
331
E615
  5
E615
331
E5D6
  5
E5D6
331
E61D
  5
E61D
331
E5DE
  5
E5DE
331
EAA4
  5
EAA7
331
E5E6
  5
E5E6
331
E625
  5
E625
331
E5B1
  5
E5B1
331
E53B
  5
E53B
331
E572
  5
E572
331
AC0B
  5
AC0B
331
AA95
  5
AA95
331
E4C5
  5
E4C5
331
AC58
  5
AC58
331
AA17
  5
AA17
331
ACB7
  5
ACB7
331
AA4E
  5
AA4E
331
E4FC
  5
E4FC
331
E5B9
  5
E5B9
331
E543
  5
E543
331
E57A
  5
E57A
331
E504
  5
E504
331
E4CD
  5
E4CD
331
AA9D
  5
AA9D
331
ABD4
  5
ABD4
331
AA1F
  5
AA1F
331
AA56
  5
AA56
331
AC13
  5
AC13
331
E54B
  5
E54B
331
E582
  5
E582
331
AC1B
  5
AC1B
331
E50C
  5
E50C
331
E5C1
  5
E5C1
331
E4D5
  5
E4D5
331
AA5E
  5
AA5E
331
ACD7
  5
ACD7
331
E496
  5
E496
331
A958
  5
A958
331
AC80
  5
AC80
331
AA27
  5
AA27
331
ABDC
  5
ABDC
331
E58A
  5
E58A
331
ABE4
  5
ABE4
331
E514
  5
E514
331
AA66
  5
AA66
331
E49E
  5
E49E
331
EAAC
  5
EAAB
331
E5EE
  5
E5EE
331
E62D
  5
E62D
331
E635
  5
E635
331
E5F6
  5
E5F6
331
E63D
  5
E63D
331
E5FE
  5
E5FE
331
AC21
  5
AC21
331
AC88
  5
AC88
331
E553
  5
E553
331
E592
  5
E592
331
ABEC
  5
ABEC
331
E4DD
  5
E4DD
331
E51C
  5
E51C
331
E4A6
  5
E4A6
331
AA2F
  5
AA2F
331
AC29
  5
AC29
331
A9F8
  5
A9F8
331
AAAD
  5
AAAD
331
E524
  5
E524
331
E55B
  5
E55B
331
ABF4
  5
ABF4
331
AAB5
  5
AAB5
331
E4AE
  5
E4AE
331
E4E5
  5
E4E5
331
E59A
  5
E59A
331
AA00
  5
AA00
331
ACA0
  5
ACA0
331
AA37
  5
AA37
331
AA7E
  5
AA7E
331
AC31
  5
AC31
331
E5A2
  5
E5A2
331
E52C
  5
E52C
331
E4ED
  5
E4ED
331
AABD
  5
AABD
331
AA86
  5
AA86
331
ACEF
  5
ACEF
331
E4B6
  5
E4B6
331
AA08
  5
AA08
331
ACA8
  5
ACA8
331
AA3F
  5
AA3F
331
ABFC
  5
ABFC
331
E5AA
  5
E5AA
331
AC04
  5
AC04
331
E4F5
  5
E4F5
331
E534
  5
E534
331
AAC5
  5
AAC5
331
AA8E
  5
AA8E
331
E4BE
  5
E4BE
331
AA47
  5
AA47
331
E56B
  5
E56B
331
E5CF
  5
E5CF
331
E5D7
  5
E5D7
331
E616
  5
E616
331
E5DF
  5
E5DF
331
E61E
  5
E61E
331
E626
  5
E626
331
EAA5
  5
EAAA
331
E5E7
  5
E5E7
331
AA10
  5
AA10
331
ACB0
  5
ACB0
331
E573
  5
E573
331
E5B2
  5
E5B2
331
AC0C
  5
AC0C
331
E4C6
  5
E4C6
331
E4FD
  5
E4FD
331
AA4F
  5
AA4F
331
AA96
  5
AA96
331
E53C
  5
E53C
331
AC59
  5
AC59
331
AA18
  5
AA18
331
ACB8
  5
ACB8
331
E544
  5
E544
331
E57B
  5
E57B
331
AC14
  5
AC14
331
ABD5
  5
ABD5
331
E4CE
  5
E4CE
331
E505
  5
E505
331
AA20
  5
AA20
331
AA57
  5
AA57
331
AA9E
  5
AA9E
331
E5C2
  5
E5C2
331
E54C
  5
E54C
331
E583
  5
E583
331
AC1C
  5
AC1C
331
ABDD
  5
ABDD
331
E497
  5
E497
331
AC81
  5
AC81
331
AA5F
  5
AA5F
331
E4D6
  5
E4D6
331
A959
  5
A959
331
E50D
  5
E50D
331
E515
  5
E515
331
E49F
  5
E49F
331
ABE5
  5
ABE5
331
AA67
  5
AA67
331
E58B
  5
E58B
331
E62E
  5
E62E
331
E5EF
  5
E5EF
331
E5F7
  5
E5F7
331
E636
  5
E636
331
E63E
  5
E63E
331
E5FF
  5
E5FF
331
ACD8
  5
ACD8
331
A9F1
  5
A9F1
331
AC89
  5
AC89
331
AA28
  5
AA28
331
AC22
  5
AC22
331
E593
  5
E593
331
E51D
  5
E51D
331
E554
  5
E554
331
E4DE
  5
E4DE
331
AAAE
  5
AAAE
331
E4A7
  5
E4A7
331
AC2A
  5
AC2A
331
A9F9
  5
A9F9
331
AA30
  5
AA30
331
ABED
  5
ABED
331
E55C
  5
E55C
331
E59B
  5
E59B
331
ABF5
  5
ABF5
331
E4E6
  5
E4E6
331
E525
  5
E525
331
AAB6
  5
AAB6
331
AA38
  5
AA38
331
AA7F
  5
AA7F
331
AC32
  5
AC32
331
AA01
  5
AA01
331
ACA1
  5
ACA1
331
E4AF
  5
E4AF
331
E5A3
  5
E5A3
331
ABFD
  5
ABFD
331
E4EE
  5
E4EE
331
E52D
  5
E52D
331
E4B7
  5
E4B7
331
AA87
  5
AA87
331
ACA9
  5
ACA9
331
AA40
  5
AA40
331
ACF0
  5
ACF0
331
AC42
  5
AC42
331
AA09
  5
AA09
331
AABE
  5
AABE
331
E535
  5
E535
331
E56C
  5
E56C
331
AC05
  5
AC05
331
AAC6
  5
AAC6
331
E4BF
  5
E4BF
331
E4F6
  5
E4F6
331
AA8F
  5
AA8F
331
E5AB
  5
E5AB
331
E5C8
  5
E5C8
331
E5D0
  5
E5D0
331
E617
  5
E617
331
E5D8
  5
E5D8
331
E5E0
  5
E5E0
331
E61F
  5
E61F
331
EAA6
  5
EAAC
331
E627
  5
E627
  0
XRECORD
  5
3D91
102
{ACAD_REACTORS
330
3D20
102
}
330
3D20
100
AcDbXrecord
280
     1
340
1A
  0
SORTENTSTABLE
  5
69B9
102
{ACAD_REACTORS
330
69B8
102
}
330
69B8
100
AcDbSortentsTable
330
69B7
  0
SORTENTSTABLE
  5
69CD
102
{ACAD_REACTORS
330
69CC
102
}
330
69CC
100
AcDbSortentsTable
330
69CB
  0
GROUP
  5
4143
102
{ACAD_REACTORS
330
D
102
}
330
D
100
AcDbGroup
300

 70
     1
 71
     1
  0
GROUP
  5
4378
102
{ACAD_REACTORS
330
D
102
}
330
D
100
AcDbGroup
300

 70
     1
 71
     1
  0
GROUP
  5
43BF
102
{ACAD_REACTORS
330
D
102
}
330
D
100
AcDbGroup
300

 70
     1
 71
     1
  0
GROUP
  5
423A
102
{ACAD_REACTORS
330
D
102
}
330
D
100
AcDbGroup
300

 70
     1
 71
     1
  0
GROUP
  5
414C
102
{ACAD_REACTORS
330
D
102
}
330
D
100
AcDbGroup
300

 70
     1
 71
     1
  0
GROUP
  5
579E
102
{ACAD_REACTORS
330
D
102
}
330
D
100
AcDbGroup
300

 70
     1
 71
     1
  0
GROUP
  5
4235
102
{ACAD_REACTORS
330
D
102
}
330
D
100
AcDbGroup
300

 70
     1
 71
     1
  0
GROUP
  5
437C
102
{ACAD_REACTORS
330
D
102
}
330
D
100
AcDbGroup
300

 70
     1
 71
     1
  0
GROUP
  5
414F
102
{ACAD_REACTORS
330
D
102
}
330
D
100
AcDbGroup
300

 70
     1
 71
     1
  0
GROUP
  5
437E
102
{ACAD_REACTORS
330
D
102
}
330
D
100
AcDbGroup
300

 70
     1
 71
     1
  0
GROUP
  5
4149
102
{ACAD_REACTORS
330
D
102
}
330
D
100
AcDbGroup
300

 70
     1
 71
     1
  0
GROUP
  5
4241
102
{ACAD_REACTORS
330
D
102
}
330
D
100
AcDbGroup
300

 70
     1
 71
     1
  0
GROUP
  5
4239
102
{ACAD_REACTORS
330
D
102
}
330
D
100
AcDbGroup
300

 70
     1
 71
     1
  0
GROUP
  5
4237
102
{ACAD_REACTORS
330
D
102
}
330
D
100
AcDbGroup
300

 70
     1
 71
     1
  0
GROUP
  5
423C
102
{ACAD_REACTORS
330
D
102
}
330
D
100
AcDbGroup
300

 70
     1
 71
     1
  0
GROUP
  5
43B6
102
{ACAD_REACTORS
330
D
102
}
330
D
100
AcDbGroup
300

 70
     1
 71
     1
  0
GROUP
  5
423B
102
{ACAD_REACTORS
330
D
102
}
330
D
100
AcDbGroup
300

 70
     1
 71
     1
  0
GROUP
  5
43B8
102
{ACAD_REACTORS
330
D
102
}
330
D
100
AcDbGroup
300

 70
     1
 71
     1
  0
GROUP
  5
576A
102
{ACAD_REACTORS
330
D
102
}
330
D
100
AcDbGroup
300

 70
     1
 71
     1
  0
GROUP
  5
4240
102
{ACAD_REACTORS
330
D
102
}
330
D
100
AcDbGroup
300

 70
     1
 71
     1
  0
GROUP
  5
423E
102
{ACAD_REACTORS
330
D
102
}
330
D
100
AcDbGroup
300

 70
     1
 71
     1
  0
GROUP
  5
4374
102
{ACAD_REACTORS
330
D
102
}
330
D
100
AcDbGroup
300

 70
     1
 71
     1
  0
GROUP
  5
43BB
102
{ACAD_REACTORS
330
D
102
}
330
D
100
AcDbGroup
300

 70
     1
 71
     1
  0
GROUP
  5
4373
102
{ACAD_REACTORS
330
D
102
}
330
D
100
AcDbGroup
300

 70
     1
 71
     1
  0
GROUP
  5
43BD
102
{ACAD_REACTORS
330
D
102
}
330
D
100
AcDbGroup
300

 70
     1
 71
     1
  0
GROUP
  5
4236
102
{ACAD_REACTORS
330
D
102
}
330
D
100
AcDbGroup
300

 70
     1
 71
     1
  0
GROUP
  5
4377
102
{ACAD_REACTORS
330
D
102
}
330
D
100
AcDbGroup
300

 70
     1
 71
     1
  0
GROUP
  5
4145
102
{ACAD_REACTORS
330
D
102
}
330
D
100
AcDbGroup
300

 70
     1
 71
     1
  0
GROUP
  5
437A
102
{ACAD_REACTORS
330
D
102
}
330
D
100
AcDbGroup
300

 70
     1
 71
     1
  0
GROUP
  5
4379
102
{ACAD_REACTORS
330
D
102
}
330
D
100
AcDbGroup
300

 70
     1
 71
     1
  0
GROUP
  5
43C1
102
{ACAD_REACTORS
330
D
102
}
330
D
100
AcDbGroup
300

 70
     1
 71
     1
  0
GROUP
  5
423D
102
{ACAD_REACTORS
330
D
102
}
330
D
100
AcDbGroup
300

 70
     1
 71
     1
  0
GROUP
  5
437D
102
{ACAD_REACTORS
330
D
102
}
330
D
100
AcDbGroup
300

 70
     1
 71
     1
  0
GROUP
  5
414D
102
{ACAD_REACTORS
330
D
102
}
330
D
100
AcDbGroup
300

 70
     1
 71
     1
  0
GROUP
  5
4146
102
{ACAD_REACTORS
330
D
102
}
330
D
100
AcDbGroup
300

 70
     1
 71
     1
  0
GROUP
  5
437F
102
{ACAD_REACTORS
330
D
102
}
330
D
100
AcDbGroup
300

 70
     1
 71
     1
  0
GROUP
  5
414B
102
{ACAD_REACTORS
330
D
102
}
330
D
100
AcDbGroup
300

 70
     1
 71
     1
  0
GROUP
  5
4375
102
{ACAD_REACTORS
330
D
102
}
330
D
100
AcDbGroup
300

 70
     1
 71
     1
  0
GROUP
  5
43B7
102
{ACAD_REACTORS
330
D
102
}
330
D
100
AcDbGroup
300

 70
     1
 71
     1
  0
GROUP
  5
414E
102
{ACAD_REACTORS
330
D
102
}
330
D
100
AcDbGroup
300

 70
     1
 71
     1
  0
GROUP
  5
43B9
102
{ACAD_REACTORS
330
D
102
}
330
D
100
AcDbGroup
300

 70
     1
 71
     1
  0
GROUP
  5
57D9
102
{ACAD_REACTORS
330
D
102
}
330
D
100
AcDbGroup
300

 70
     1
 71
     1
  0
GROUP
  5
437B
102
{ACAD_REACTORS
330
D
102
}
330
D
100
AcDbGroup
300

 70
     1
 71
     1
  0
GROUP
  5
43BC
102
{ACAD_REACTORS
330
D
102
}
330
D
100
AcDbGroup
300

 70
     1
 71
     1
  0
GROUP
  5
4144
102
{ACAD_REACTORS
330
D
102
}
330
D
100
AcDbGroup
300

 70
     1
 71
     1
  0
GROUP
  5
43BE
102
{ACAD_REACTORS
330
D
102
}
330
D
100
AcDbGroup
300

 70
     1
 71
     1
  0
GROUP
  5
4238
102
{ACAD_REACTORS
330
D
102
}
330
D
100
AcDbGroup
300

 70
     1
 71
     1
  0
GROUP
  5
43B5
102
{ACAD_REACTORS
330
D
102
}
330
D
100
AcDbGroup
300

 70
     1
 71
     1
  0
GROUP
  5
43C0
102
{ACAD_REACTORS
330
D
102
}
330
D
100
AcDbGroup
300

 70
     1
 71
     1
  0
GROUP
  5
4148
102
{ACAD_REACTORS
330
D
102
}
330
D
100
AcDbGroup
300

 70
     1
 71
     1
  0
GROUP
  5
423F
102
{ACAD_REACTORS
330
D
102
}
330
D
100
AcDbGroup
300

 70
     1
 71
     1
  0
GROUP
  5
43BA
102
{ACAD_REACTORS
330
D
102
}
330
D
100
AcDbGroup
300

 70
     1
 71
     1
  0
GROUP
  5
414A
102
{ACAD_REACTORS
330
D
102
}
330
D
100
AcDbGroup
300

 70
     1
 71
     1
  0
GROUP
  5
5691
102
{ACAD_REACTORS
330
D
102
}
330
D
100
AcDbGroup
300

 70
     1
 71
     1
  0
GROUP
  5
4376
102
{ACAD_REACTORS
330
D
102
}
330
D
100
AcDbGroup
300

 70
     1
 71
     1
  0
GROUP
  5
4147
102
{ACAD_REACTORS
330
D
102
}
330
D
100
AcDbGroup
300

 70
     1
 71
     1
  0
LAYOUT
  5
21
102
{ACAD_XDICTIONARY
360
EACA
102
}
102
{ACAD_REACTORS
330
19
102
}
330
19
100
AcDbPlotSettings
  1

  2
HP 2200
  4

  6

 40
0.0
 41
0.0
 42
0.0
 43
0.0
 44
0.0
 45
0.0
 46
0.0
 47
0.0
 48
0.0
 49
0.0
140
0.0
141
0.0
142
1.0
143
1.0
 70
  1712
 72
     0
 73
     0
 74
     0
  7
AAA.ctb
 75
     0
147
1.0
148
0.0
149
0.0
100
AcDbLayout
  1
Model
 70
     1
 71
     0
 10
0.0
 20
0.0
 11
12.0
 21
9.0
 12
0.0
 22
0.0
 32
0.0
 14
0.0
 24
0.0
 34
0.0
 15
0.0
 25
0.0
 35
0.0
146
0.0
 13
0.0
 23
0.0
 33
0.0
 16
1.0
 26
0.0
 36
0.0
 17
0.0
 27
1.0
 37
0.0
 76
     0
330
1E
  0
LAYOUT
  5
1D
102
{ACAD_XDICTIONARY
360
EAC8
102
}
102
{ACAD_REACTORS
330
19
102
}
330
19
100
AcDbPlotSettings
  1

  2
HP 2200
  4

  6

 40
0.0
 41
0.0
 42
0.0
 43
0.0
 44
0.0
 45
0.0
 46
0.0
 47
0.0
 48
0.0
 49
0.0
140
0.0
141
0.0
142
1.0
143
1.0
 70
   688
 72
     0
 73
     0
 74
     5
  7
AAA.ctb
 75
    16
147
1.0
148
0.0
149
0.0
100
AcDbLayout
  1
配置1
 70
     0
 71
     1
 10
0.0
 20
0.0
 11
12.0
 21
9.0
 12
0.0
 22
0.0
 32
0.0
 14
1.000000000000000E+20
 24
1.000000000000000E+20
 34
1.000000000000000E+20
 15
-1.000000000000000E+20
 25
-1.000000000000000E+20
 35
-1.000000000000000E+20
146
0.0
 13
0.0
 23
0.0
 33
0.0
 16
1.0
 26
0.0
 36
0.0
 17
0.0
 27
1.0
 37
0.0
 76
     0
330
1A
  0
MLINESTYLE
  5
17
102
{ACAD_REACTORS
330
16
102
}
330
16
100
AcDbMlineStyle
  2
STANDARD
 70
     0
  3

 62
   256
 51
90.0
 52
90.0
 71
     2
 49
0.5
 62
   256
  6
BYLAYER
 49
-0.5
 62
   256
  6
BYLAYER
  0
PLOTSETTINGS
  5
4150
102
{ACAD_XDICTIONARY
360
EACC
102
}
102
{ACAD_REACTORS
330
18
102
}
330
18
100
AcDbPlotSettings
  1
LANSRO
  2
\\1260\HP2200
  4
A4
  6

 40
6.043083190917968
 41
6.762742042541503
 42
7.736419677734375
 43
5.027069091796875
 44
209.9733276367187
 45
296.9683227539062
 46
5.15
 47
0.0
 48
0.0
 49
0.0
140
0.0
141
0.0
142
1.0
143
0.8829829263240881
 70
  1716
 72
     1
 73
     1
 74
     0
  7
AAA.ctb
 75
     0
147
1.132524729739748
148
-132.297014905803
149
-71.78507365635891
  0
ACDBPLACEHOLDER
  5
F
102
{ACAD_REACTORS
330
E
102
}
330
E
  0
ACAD_PROXY_OBJECT
  5
E7A4
102
{ACAD_REACTORS
330
E7A3
102
}
330
E7A3
100
AcDbProxyObject
 90
      499
 91
      514
 95
   983063
 70
     0
 93
     1841
310
4214DD185B99185C9928B81E85EB51B8AE3F2E07A17AD46E2B8FC02B5E8DC0F42B1CFD028000000C1008070000C3001FDFF8000000C1003FBFF000000182007F7FE00000030400FEFFC00000060801FDFF8000000C1003FBFF00000018200000000000000681FA0B0000001820100E000186003FBFF000000182007F7FE000
310
00030400FEFFC00000060801FDFF8000000C1003FBFF000000182007F7FE000000304000AD7A3703D0AC73F4160000003040201C00030C007F7FE00000030400FEFFC00000060801FDFF8000000C1003FBFF000000182007F7FE00000030400FEFFC00000060802A
340
11
340
11
340
11
 94
        0
1001
ACAD
1000
AcRTDxfName
1000
TABLESTYLE
  0
XRECORD
  5
EAC7
102
{ACAD_REACTORS
330
EAC5
102
}
330
EAC5
100
AcDbXrecord
280
     1
340
3D97
  0
XRECORD
  5
EAC6
102
{ACAD_REACTORS
330
EAC5
102
}
330
EAC5
100
AcDbXrecord
280
     1
340
3D96
  0
DICTIONARYVAR
  5
E8F8
102
{ACAD_REACTORS
330
3E63
102
}
330
3E63
100
DictionaryVariables
280
     0
  1
STANDARD
  0
DICTIONARYVAR
  5
3E64
102
{ACAD_REACTORS
330
3E63
102
}
330
3E63
100
DictionaryVariables
280
     0
  1
1
  0
DICTIONARYVAR
  5
3E65
102
{ACAD_REACTORS
330
3E63
102
}
330
3E63
100
DictionaryVariables
280
     0
  1

  0
DICTIONARY
  5
EACA
330
21
100
AcDbDictionary
280
     1
281
     1
  3
ACAD_XREC_ROUNDTRIP
360
EACB
  0
DICTIONARY
  5
EAC8
330
1D
100
AcDbDictionary
280
     1
281
     1
  3
ACAD_XREC_ROUNDTRIP
360
EAC9
  0
DICTIONARY
  5
EACC
330
4150
100
AcDbDictionary
280
     1
281
     1
  3
ACAD_XREC_ROUNDTRIP
360
EACD
  0
XRECORD
  5
EACB
102
{ACAD_REACTORS
330
EACA
102
}
330
EACA
100
AcDbXrecord
280
     1
102
SHADEPLOT
 70
     0
102
SHADEPLOTRESLEVEL
 70
     2
102
SHADEPLOTCUSTOMDPI
 70
   300
  0
XRECORD
  5
EAC9
102
{ACAD_REACTORS
330
EAC8
102
}
330
EAC8
100
AcDbXrecord
280
     1
102
SHADEPLOT
 70
     0
102
SHADEPLOTRESLEVEL
 70
     2
102
SHADEPLOTCUSTOMDPI
 70
   300
  0
XRECORD
  5
EACD
102
{ACAD_REACTORS
330
EACC
102
}
330
EACC
100
AcDbXrecord
280
     1
102
SHADEPLOT
 70
     0
102
SHADEPLOTRESLEVEL
 70
     2
102
SHADEPLOTCUSTOMDPI
 70
   300
  0
ENDSEC
  0
EOF
