  0
SECTION
  2
HEADER
  9
$ACADVER
  1
AC1015
  9
$ACADMAINTVER
 70
    20
  9
$DWGCODEPAGE
  3
ANSI_950
  9
$INSBASE
 10
0.0
 20
0.0
 30
0.0
  9
$EXTMIN
 10
875.5451470132038
 20
636.7873125502565
 30
0.0
  9
$EXTMAX
 10
1305.844771654748
 20
909.0287483749479
 30
0.0
  9
$LIMMIN
 10
-10.0
 20
-15.0
  9
$LIMMAX
 10
120.0
 20
90.0
  9
$ORTHOMODE
 70
     1
  9
$REGENMODE
 70
     0
  9
$FILLMODE
 70
     1
  9
$QTEXTMODE
 70
     0
  9
$MIRRTEXT
 70
     0
  9
$LTSCALE
 40
3.0
  9
$ATTMODE
 70
     1
  9
$TEXTSIZE
 40
3.0
  9
$TRACEWID
 40
1.0
  9
$TEXTSTYLE
  7
STANDARD
  9
$CLAYER
  8
0
  9
$CELTYPE
  6
ByLayer
  9
$CECOLOR
 62
   256
  9
$CELTSCALE
 40
1.0
  9
$DISPSILH
 70
     0
  9
$DIMSCALE
 40
1.0
  9
$DIMASZ
 40
3.0
  9
$DIMEXO
 40
1.0
  9
$DIMDLI
 40
6.0
  9
$DIMRND
 40
0.0
  9
$DIMDLE
 40
0.0
  9
$DIMEXE
 40
1.0
  9
$DIMTP
 40
0.0
  9
$DIMTM
 40
0.0
  9
$DIMTXT
 40
3.0
  9
$DIMCEN
 40
1.5
  9
$DIMTSZ
 40
0.0
  9
$DIMTOL
 70
     0
  9
$DIMLIM
 70
     0
  9
$DIMTIH
 70
     1
  9
$DIMTOH
 70
     1
  9
$DIMSE1
 70
     0
  9
$DIMSE2
 70
     0
  9
$DIMTAD
 70
     0
  9
$DIMZIN
 70
     0
  9
$DIMBLK
  1

  9
$DIMASO
 70
     1
  9
$DIMSHO
 70
     0
  9
$DIMPOST
  1

  9
$DIMAPOST
  1

  9
$DIMALT
 70
     0
  9
$DIMALTD
 70
     2
  9
$DIMALTF
 40
25.4
  9
$DIMLFAC
 40
1.0
  9
$DIMTOFL
 70
     1
  9
$DIMTVP
 40
0.0
  9
$DIMTIX
 70
     0
  9
$DIMSOXD
 70
     0
  9
$DIMSAH
 70
     0
  9
$DIMBLK1
  1

  9
$DIMBLK2
  1

  9
$DIMSTYLE
  2
Standard
  9
$DIMCLRD
 70
     0
  9
$DIMCLRE
 70
     0
  9
$DIMCLRT
 70
     0
  9
$DIMTFAC
 40
1.0
  9
$DIMGAP
 40
0.09
  9
$DIMJUST
 70
     0
  9
$DIMSD1
 70
     0
  9
$DIMSD2
 70
     0
  9
$DIMTOLJ
 70
     1
  9
$DIMTZIN
 70
     0
  9
$DIMALTZ
 70
     0
  9
$DIMALTTZ
 70
     0
  9
$DIMUPT
 70
     0
  9
$DIMDEC
 70
     4
  9
$DIMTDEC
 70
     8
  9
$DIMALTU
 70
     2
  9
$DIMALTTD
 70
     2
  9
$DIMTXSTY
  7
STANDARD
  9
$DIMAUNIT
 70
     0
  9
$DIMADEC
 70
     0
  9
$DIMALTRND
 40
0.0
  9
$DIMAZIN
 70
     0
  9
$DIMDSEP
 70
    46
  9
$DIMATFIT
 70
     3
  9
$DIMFRAC
 70
     0
  9
$DIMLDRBLK
  1

  9
$DIMLUNIT
 70
     2
  9
$DIMLWD
 70
    -2
  9
$DIMLWE
 70
    -2
  9
$DIMTMOVE
 70
     2
  9
$LUNITS
 70
     2
  9
$LUPREC
 70
     4
  9
$SKETCHINC
 40
0.5
  9
$FILLETRAD
 40
0.0
  9
$AUNITS
 70
     0
  9
$AUPREC
 70
     0
  9
$MENU
  1
ACAD
  9
$ELEVATION
 40
0.0
  9
$PELEVATION
 40
0.0
  9
$THICKNESS
 40
0.0
  9
$LIMCHECK
 70
     0
  9
$CHAMFERA
 40
0.0
  9
$CHAMFERB
 40
0.0
  9
$CHAMFERC
 40
0.0
  9
$CHAMFERD
 40
0.0
  9
$SKPOLY
 70
     0
  9
$TDCREATE
 40
2444975.333333334
  9
$TDUCREATE
 40
2444975.000000000
  9
$TDUPDATE
 40
2454042.476984641
  9
$TDUUPDATE
 40
2454042.143651308
  9
$TDINDWG
 40
0.3138987616
  9
$TDUSRTIMER
 40
0.0000000000
  9
$USRTIMER
 70
     0
  9
$ANGBASE
 50
0.0
  9
$ANGDIR
 70
     0
  9
$PDMODE
 70
     0
  9
$PDSIZE
 40
0.001
  9
$PLINEWID
 40
0.0
  9
$SPLFRAME
 70
     0
  9
$SPLINETYPE
 70
     6
  9
$SPLINESEGS
 70
  8000
  9
$HANDSEED
  5
EAD3
  9
$SURFTAB1
 70
     6
  9
$SURFTAB2
 70
     6
  9
$SURFTYPE
 70
     6
  9
$SURFU
 70
     6
  9
$SURFV
 70
     6
  9
$UCSBASE
  2

  9
$UCSNAME
  2

  9
$UCSORG
 10
0.0
 20
0.0
 30
0.0
  9
$UCSXDIR
 10
1.0
 20
0.0
 30
0.0
  9
$UCSYDIR
 10
0.0
 20
1.0
 30
0.0
  9
$UCSORTHOREF
  2

  9
$UCSORTHOVIEW
 70
     0
  9
$UCSORGTOP
 10
0.0
 20
0.0
 30
0.0
  9
$UCSORGBOTTOM
 10
0.0
 20
0.0
 30
0.0
  9
$UCSORGLEFT
 10
0.0
 20
0.0
 30
0.0
  9
$UCSORGRIGHT
 10
0.0
 20
0.0
 30
0.0
  9
$UCSORGFRONT
 10
0.0
 20
0.0
 30
0.0
  9
$UCSORGBACK
 10
0.0
 20
0.0
 30
0.0
  9
$PUCSBASE
  2

  9
$PUCSNAME
  2

  9
$PUCSORG
 10
0.0
 20
0.0
 30
0.0
  9
$PUCSXDIR
 10
1.0
 20
0.0
 30
0.0
  9
$PUCSYDIR
 10
0.0
 20
1.0
 30
0.0
  9
$PUCSORTHOREF
  2

  9
$PUCSORTHOVIEW
 70
     0
  9
$PUCSORGTOP
 10
0.0
 20
0.0
 30
0.0
  9
$PUCSORGBOTTOM
 10
0.0
 20
0.0
 30
0.0
  9
$PUCSORGLEFT
 10
0.0
 20
0.0
 30
0.0
  9
$PUCSORGRIGHT
 10
0.0
 20
0.0
 30
0.0
  9
$PUCSORGFRONT
 10
0.0
 20
0.0
 30
0.0
  9
$PUCSORGBACK
 10
0.0
 20
0.0
 30
0.0
  9
$USERI1
 70
     0
  9
$USERI2
 70
     0
  9
$USERI3
 70
     0
  9
$USERI4
 70
     0
  9
$USERI5
 70
     0
  9
$USERR1
 40
0.0
  9
$USERR2
 40
0.0
  9
$USERR3
 40
0.0
  9
$USERR4
 40
0.0
  9
$USERR5
 40
0.0
  9
$WORLDVIEW
 70
     1
  9
$SHADEDGE
 70
     3
  9
$SHADEDIF
 70
    70
  9
$TILEMODE
 70
     1
  9
$MAXACTVP
 70
    48
  9
$PINSBASE
 10
0.0
 20
0.0
 30
0.0
  9
$PLIMCHECK
 70
     0
  9
$PEXTMIN
 10
1.000000000000000E+20
 20
1.000000000000000E+20
 30
1.000000000000000E+20
  9
$PEXTMAX
 10
-1.000000000000000E+20
 20
-1.000000000000000E+20
 30
-1.000000000000000E+20
  9
$PLIMMIN
 10
0.0
 20
0.0
  9
$PLIMMAX
 10
12.0
 20
9.0
  9
$UNITMODE
 70
     0
  9
$VISRETAIN
 70
     1
  9
$PLINEGEN
 70
     0
  9
$PSLTSCALE
 70
     0
  9
$TREEDEPTH
 70
  3020
  9
$CMLSTYLE
  2
Standard
  9
$CMLJUST
 70
     0
  9
$CMLSCALE
 40
1.0
  9
$PROXYGRAPHICS
 70
     1
  9
$MEASUREMENT
 70
     0
  9
$CELWEIGHT
370
    -1
  9
$ENDCAPS
280
     0
  9
$JOINSTYLE
280
     0
  9
$LWDISPLAY
290
     0
  9
$INSUNITS
 70
     0
  9
$HYPERLINKBASE
  1

  9
$STYLESHEET
  1

  9
$XEDIT
290
     1
  9
$CEPSNTYPE
380
     0
  9
$PSTYLEMODE
290
     1
  9
$FINGERPRINTGUID
  2
{77095E5F-9CE7-11D7-970D-0040F4541FA8}
  9
$VERSIONGUID
  2
{CA4E2D74-082F-4903-BACF-BCC73135D8BD}
  9
$EXTNAMES
290
     1
  9
$PSVPSCALE
 40
0.0
  9
$OLESTARTUP
290
     0
  0
ENDSEC
  0
SECTION
  2
CLASSES
  0
CLASS
  1
ACDBDICTIONARYWDFLT
  2
AcDbDictionaryWithDefault
  3
ObjectDBX Classes
 90
        0
280
     0
281
     0
  0
CLASS
  1
ACDBPLACEHOLDER
  2
AcDbPlaceHolder
  3
ObjectDBX Classes
 90
        0
280
     0
281
     0
  0
CLASS
  1
LAYOUT
  2
AcDbLayout
  3
ObjectDBX Classes
 90
        0
280
     0
281
     0
  0
CLASS
  1
LONG_TRANSACTION
  2
AcDbLongTransaction
  3
ObjectDBX Classes
 90
    32768
280
     0
281
     0
  0
CLASS
  1
LWPOLYLINE
  2
AcDbPolyline
  3
ObjectDBX Classes
 90
        0
280
     0
281
     1
  0
CLASS
  1
HATCH
  2
AcDbHatch
  3
ObjectDBX Classes
 90
    32768
280
     0
281
     1
  0
CLASS
  1
XRECORD
  2
AcDbXrecord
  3
ObjectDBX Classes
 90
        0
280
     0
281
     0
  0
CLASS
  1
LONG_TRANSACTION
  2
AcDbLongTransaction
  3
ObjectDBX Classes
 90
    32768
280
     0
281
     0
  0
CLASS
  1
LWPOLYLINE
  2
AcDbPolyline
  3
ObjectDBX Classes
 90
        0
280
     0
281
     1
  0
CLASS
  1
HATCH
  2
AcDbHatch
  3
ObjectDBX Classes
 90
    32768
280
     0
281
     1
  0
CLASS
  1
XRECORD
  2
AcDbXrecord
  3
ObjectDBX Classes
 90
        0
280
     0
281
     0
  0
CLASS
  1
DICTIONARYVAR
  2
AcDbDictionaryVar
  3
ObjectDBX Classes
 90
        0
280
     0
281
     0
  0
CLASS
  1
PLOTSETTINGS
  2
AcDbPlotSettings
  3
ObjectDBX Classes
 90
        0
280
     0
281
     0
  0
CLASS
  1
SORTENTSTABLE
  2
AcDbSortentsTable
  3
ObjectDBX Classes
 90
        0
280
     0
281
     0
  0
CLASS
  1
TABLESTYLE
  2
AcDbTableStyle
  3
ObjectDBX Classes
 90
     2047
280
     0
281
     0
  0
ENDSEC
  0
SECTION
  2
TABLES
  0
TABLE
  2
VPORT
  5
8
330
0
100
AcDbSymbolTable
 70
     3
  0
VPORT
  5
EAC9
330
8
100
AcDbSymbolTableRecord
100
AcDbViewportTableRecord
  2
*Active
 70
     0
 10
0.0
 20
0.0
 11
1.0
 21
1.0
 12
1093.370094638102
 22
777.0461342141182
 13
457.9999999999997
 23
1082.0
 14
10.0
 24
10.0
 15
10.0
 25
10.0
 16
0.0
 26
0.0
 36
1.0
 17
0.0
 27
0.0
 37
0.0
 40
295.3124749177241
 41
1.530456852791878
 42
1.0
 43
0.0
 44
0.0
 50
0.0
 51
0.0
 71
     0
 72
  2000
 73
     1
 74
     1
 75
     0
 76
     0
 77
     0
 78
     0
281
     0
 65
     1
110
0.0
120
0.0
130
0.0
111
1.0
121
0.0
131
0.0
112
0.0
122
1.0
132
0.0
 79
     0
146
0.0
  0
ENDTAB
  0
TABLE
  2
LTYPE
  5
5
330
0
100
AcDbSymbolTable
 70
     6
  0
LTYPE
  5
13
330
5
100
AcDbSymbolTableRecord
100
AcDbLinetypeTableRecord
  2
ByBlock
 70
     0
  3

 72
    65
 73
     0
 40
0.0
  0
LTYPE
  5
14
330
5
100
AcDbSymbolTableRecord
100
AcDbLinetypeTableRecord
  2
ByLayer
 70
     0
  3

 72
    65
 73
     0
 40
0.0
  0
LTYPE
  5
15
330
5
100
AcDbSymbolTableRecord
100
AcDbLinetypeTableRecord
  2
CONTINUOUS
 70
     0
  3
連續線 ________________________
 72
    65
 73
     0
 40
0.0
  0
LTYPE
  5
225
330
5
100
AcDbSymbolTableRecord
100
AcDbLinetypeTableRecord
  2
BYBLOCK
 70
     0
  3
Solid line
 72
    65
 73
     0
 40
0.0
  0
LTYPE
  5
226
330
5
100
AcDbSymbolTableRecord
100
AcDbLinetypeTableRecord
  2
BYLAYER
 70
     0
  3
Solid line
 72
    65
 73
     0
 40
0.0
  0
LTYPE
  5
413C
330
5
100
AcDbSymbolTableRecord
100
AcDbLinetypeTableRecord
  2
CENTER2
 70
     0
  3
Center (.5x) ___ _ ___ _ ___ _ ___ _ ___ _ ___
 72
    65
 73
     4
 40
28.575
 49
19.05
 74
     0
 49
-3.174999999999999
 74
     0
 49
3.174999999999999
 74
     0
 49
-3.174999999999999
 74
     0
  0
LTYPE
  5
413D
330
5
100
AcDbSymbolTableRecord
100
AcDbLinetypeTableRecord
  2
DASHED2
 70
     0
  3
Dashed (.5x) _ _ _ _ _ _ _ _ _ _ _ _ _ _ _ _ _
 72
    65
 73
     2
 40
9.524999999999998
 49
6.349999999999999
 74
     0
 49
-3.174999999999999
 74
     0
  0
LTYPE
  5
69DC
330
5
100
AcDbSymbolTableRecord
100
AcDbLinetypeTableRecord
  2
DASHED
 70
     0
  3
__ __ __ __ __ __ __ __ __ __ __ __ __ __ __
 72
    65
 73
     2
 40
4.0
 49
3.0
 74
     0
 49
-1.0
 74
     0
  0
ENDTAB
  0
TABLE
  2
LAYER
  5
2
102
{ACAD_XDICTIONARY
360
43C2
102
}
330
0
100
AcDbSymbolTable
 70
     7
  0
LAYER
  5
10
330
2
100
AcDbSymbolTableRecord
100
AcDbLayerTableRecord
  2
0
 70
     0
 62
     7
  6
CONTINUOUS
370
    -3
390
F
  0
LAYER
  5
413E
330
2
100
AcDbSymbolTableRecord
100
AcDbLayerTableRecord
  2
指線
 70
     0
 62
     3
  6
CONTINUOUS
370
    15
390
F
  0
LAYER
  5
413F
330
2
100
AcDbSymbolTableRecord
100
AcDbLayerTableRecord
  2
中心線
 70
     0
 62
     4
  6
CENTER2
370
    20
390
F
  0
LAYER
  5
4140
330
2
100
AcDbSymbolTableRecord
100
AcDbLayerTableRecord
  2
虛線
 70
     0
 62
     6
  6
DASHED2
290
     0
370
    -3
390
F
  0
LAYER
  5
43B4
330
2
100
AcDbSymbolTableRecord
100
AcDbLayerTableRecord
  2
建構線
 70
     0
 62
     1
  6
CONTINUOUS
370
    -3
390
F
  0
LAYER
  5
69DF
330
2
100
AcDbSymbolTableRecord
100
AcDbLayerTableRecord
  2
標註線
 70
     0
 62
     3
  6
CONTINUOUS
370
    13
390
F
  0
LAYER
  5
C701
330
2
100
AcDbSymbolTableRecord
100
AcDbLayerTableRecord
  2
Defpoints
 70
     0
 62
     7
  6
CONTINUOUS
290
     0
370
    -3
390
F
  0
ENDTAB
  0
TABLE
  2
STYLE
  5
3
330
0
100
AcDbSymbolTable
 70
     1
  0
STYLE
  5
11
330
3
100
AcDbSymbolTableRecord
100
AcDbTextStyleTableRecord
  2
STANDARD
 70
     0
 40
0.0
 41
1.0
 50
0.0
 71
     0
 42
3.0
  3

  4

  0
ENDTAB
  0
TABLE
  2
VIEW
  5
6
330
0
100
AcDbSymbolTable
 70
     0
  0
ENDTAB
  0
TABLE
  2
UCS
  5
7
330
0
100
AcDbSymbolTable
 70
     0
  0
ENDTAB
  0
TABLE
  2
APPID
  5
9
330
0
100
AcDbSymbolTable
 70
     4
  0
APPID
  5
12
330
9
100
AcDbSymbolTableRecord
100
AcDbRegAppTableRecord
  2
ACAD
 70
     0
  0
APPID
  5
230
330
9
100
AcDbSymbolTableRecord
100
AcDbRegAppTableRecord
  2
TCAD
 70
     0
  0
APPID
  5
4142
330
9
100
AcDbSymbolTableRecord
100
AcDbRegAppTableRecord
  2
CONTENTBLOCKICON
 70
     0
  0
APPID
  5
5D91
330
9
100
AcDbSymbolTableRecord
100
AcDbRegAppTableRecord
  2
pntflag
 70
     0
  0
ENDTAB
  0
TABLE
  2
DIMSTYLE
  5
A
330
0
100
AcDbSymbolTable
 70
     1
100
AcDbDimStyleTable
 71
     1
340
3C9D
  0
DIMSTYLE
105
3C9D
330
A
100
AcDbSymbolTableRecord
100
AcDbDimStyleTableRecord
  2
Standard
 70
     0
340
11
  0
ENDTAB
  0
TABLE
  2
BLOCK_RECORD
  5
1
330
0
100
AcDbSymbolTable
 70
     2
  0
BLOCK_RECORD
  5
1E
102
{ACAD_XDICTIONARY
360
3D1E
102
}
330
1
100
AcDbSymbolTableRecord
100
AcDbBlockTableRecord
  2
*Model_Space
340
21
  0
BLOCK_RECORD
  5
1A
102
{ACAD_XDICTIONARY
360
3D20
102
}
330
1
100
AcDbSymbolTableRecord
100
AcDbBlockTableRecord
  2
*Paper_Space
340
1D
  0
BLOCK_RECORD
  5
69B7
102
{ACAD_XDICTIONARY
360
69B8
102
}
330
1
100
AcDbSymbolTableRecord
100
AcDbBlockTableRecord
  2
A$C51E2538E
340
0
  0
BLOCK_RECORD
  5
69CB
102
{ACAD_XDICTIONARY
360
69CC
102
}
330
1
100
AcDbSymbolTableRecord
100
AcDbBlockTableRecord
  2
A$C3310154B
340
0
  0
ENDTAB
  0
ENDSEC
  0
SECTION
  2
BLOCKS
  0
BLOCK
  5
254
330
1E
100
AcDbEntity
  8
0
100
AcDbBlockBegin
  2
*Model_Space
 70
     0
 10
0.0
 20
0.0
 30
0.0
  3
*Model_Space
  1

  0
ENDBLK
  5
255
330
1E
100
AcDbEntity
  8
0
100
AcDbBlockEnd
  0
BLOCK
  5
252
330
1A
100
AcDbEntity
 67
     1
  8
0
100
AcDbBlockBegin
  2
*Paper_Space
 70
     0
 10
0.0
 20
0.0
 30
0.0
  3
*Paper_Space
  1

  0
ENDBLK
  5
253
330
1A
100
AcDbEntity
 67
     1
  8
0
100
AcDbBlockEnd
  0
BLOCK
  5
69BA
330
69B7
100
AcDbEntity
  8
0
 62
     1
 48
0.27
100
AcDbBlockBegin
  2
A$C51E2538E
 70
     0
 10
0.0
 20
0.0
 30
0.0
  3
A$C51E2538E
  1

  0
LINE
  5
69BB
330
69B7
100
AcDbEntity
  8
虛線
 48
0.25
100
AcDbLine
 10
9.230939415452212
 20
1.99838789798423
 30
0.0
 11
2.230939415459943
 21
1.998387897983548
 31
0.0
  0
LINE
  5
69BC
330
69B7
100
AcDbEntity
  8
虛線
 48
0.25
100
AcDbLine
 10
9.230939415453576
 20
15.79841841556197
 30
0.0
 11
9.230939415452212
 21
1.99838789798423
 31
0.0
  0
LINE
  5
69BD
330
69B7
100
AcDbEntity
  8
虛線
 48
0.25
100
AcDbLine
 10
0.2309394154581241
 20
24.698418415562
 30
0.0
 11
0.2309394154590336
 21
16.09842604495623
 31
0.0
  0
LINE
  5
69BE
330
69B7
100
AcDbEntity
  8
虛線
 48
0.25
100
AcDbLine
 10
2.230939415453576
 20
15.79841841556191
 30
0.0
 11
2.230939415459943
 21
1.998387897983576
 31
0.0
  0
LINE
  5
69BF
330
69B7
100
AcDbEntity
  8
虛線
 48
0.25
100
AcDbLine
 10
0.2309394154590336
 20
16.09835738040544
 30
0.0
 11
11.23093941545221
 21
16.09835738040573
 31
0.0
  0
LINE
  5
69C0
330
69B7
100
AcDbEntity
  8
中心線
 48
0.25
100
AcDbLine
 10
5.730939415455679
 20
27.09841841556201
 30
0.0
 11
5.730939415449938
 21
0.0
 31
0.0
  0
LINE
  5
69C1
330
69B7
100
AcDbEntity
  8
虛線
 48
0.25
100
AcDbLine
 10
2.230939415459943
 20
1.998387897983548
 30
0.0
 11
1.730939415460852
 21
1.498387897984002
 31
0.0
  0
LINE
  5
69C2
330
69B7
100
AcDbEntity
  8
虛線
 48
0.25
100
AcDbLine
 10
9.230939415452212
 20
1.99838789798423
 30
0.0
 11
9.730939415451302
 21
1.498387897984287
 31
0.0
  0
LINE
  5
69C3
330
69B7
100
AcDbEntity
  8
虛線
 48
0.25
100
AcDbLine
 10
11.23093941545358
 20
24.698418415562
 30
0.0
 11
11.23093941545221
 21
16.09835738040573
 31
0.0
  0
LINE
  5
69C4
330
69B7
100
AcDbEntity
  8
虛線
 48
0.25
100
AcDbLine
 10
0.2309394154535767
 20
24.698418415562
 30
0.0
 11
11.23093941545358
 21
24.698418415562
 31
0.0
  0
LINE
  5
69C5
330
69B7
100
AcDbEntity
  8
虛線
 48
0.25
100
AcDbLine
 10
2.230939415453576
 20
15.79841841556197
 30
0.0
 11
9.230939415453576
 21
15.79841841556197
 31
0.0
  0
LINE
  5
69C6
330
69B7
100
AcDbEntity
  8
虛線
 48
0.25
100
AcDbLine
 10
1.930939415453394
 20
16.09841841556192
 30
0.0
 11
2.230939415453576
 21
15.79841841556191
 31
0.0
  0
LINE
  5
69C7
330
69B7
100
AcDbEntity
  8
虛線
 48
0.25
100
AcDbLine
 10
0.2309394154535767
 20
24.698418415562
 30
0.0
 11
-0.0000006922223292
 21
25.09841841556204
 31
0.0
  0
LINE
  5
69C8
330
69B7
100
AcDbEntity
  8
虛線
 48
0.25
100
AcDbLine
 10
9.230939415453576
 20
15.79841841556197
 30
0.0
 11
9.530939415453758
 21
16.09841841556198
 31
0.0
  0
LINE
  5
69C9
330
69B7
100
AcDbEntity
  8
虛線
 48
0.25
100
AcDbLine
 10
11.23093941545358
 20
24.698418415562
 30
0.0
 11
11.46187952312948
 21
25.09841841556204
 31
0.0
  0
ENDBLK
  5
69CA
330
69B7
100
AcDbEntity
  8
0
 62
     1
 48
0.27
100
AcDbBlockEnd
  0
BLOCK
  5
69CE
330
69CB
100
AcDbEntity
  8
0
 62
     1
 48
0.27
100
AcDbBlockBegin
  2
A$C3310154B
 70
     0
 10
0.0
 20
0.0
 30
0.0
  3
A$C3310154B
  1

  0
LINE
  5
69CF
330
69CB
100
AcDbEntity
  8
虛線
 48
0.2
100
AcDbLine
 10
0.4999707651827521
 20
12.80115016654724
 30
0.0
 11
0.4999707651836616
 21
5.30113016654775
 31
0.0
  0
LINE
  5
69D0
330
69CB
100
AcDbEntity
  8
虛線
 48
0.2
100
AcDbLine
 10
6.499970765181842
 20
12.80111016654831
 30
0.0
 11
6.499970765183661
 21
5.301130166548432
 31
0.0
  0
LINE
  5
69D1
330
69CB
100
AcDbEntity
  8
虛線
 48
0.2
100
AcDbLine
 10
6.499970765183661
 20
5.301130166548432
 30
0.0
 11
0.4999707651836616
 21
5.30113016654775
 31
0.0
  0
LINE
  5
69D2
330
69CB
100
AcDbEntity
  8
中心線
 48
0.25
100
AcDbLine
 10
3.49999076518344
 20
15.30112016654811
 30
0.0
 11
3.499990765177699
 21
0.000000166540076
 31
0.0
  0
LINE
  5
69D3
330
69CB
100
AcDbEntity
  8
虛線
 48
0.2
100
AcDbLine
 10
5.999980765182044
 20
12.30112016654846
 30
0.0
 11
5.999980765187501
 21
2.30113016655747
 31
0.0
  0
LINE
  5
69D4
330
69CB
100
AcDbEntity
  8
虛線
 48
0.2
100
AcDbLine
 10
1.000000765181994
 20
12.30112016654812
 30
0.0
 11
1.000000765187905
 21
2.301130166554685
 31
0.0
  0
LINE
  5
69D5
330
69CB
100
AcDbEntity
  8
虛線
 48
0.2
100
AcDbLine
 10
5.999980765187501
 20
2.30113016655747
 30
0.0
 11
1.000000765187905
 21
2.301130166554685
 31
0.0
  0
LINE
  5
69D6
330
69CB
100
AcDbEntity
  8
虛線
 48
0.2
100
AcDbLine
 10
5.999980765182499
 20
12.3011201665484
 30
0.0
 11
1.000000765181994
 21
12.30112016654817
 31
0.0
  0
LINE
  5
69D7
330
69CB
100
AcDbEntity
  8
虛線
 48
0.2
100
AcDbLine
 10
5.999980765182044
 20
12.3011201665484
 30
0.0
 11
6.999980765182499
 21
13.30112016654863
 31
0.0
  0
LINE
  5
69D8
330
69CB
100
AcDbEntity
  8
虛線
 48
0.2
100
AcDbLine
 10
5.999980765187956
 20
2.301130166557413
 30
0.0
 11
3.499990765183611
 21
0.801130166544965
 31
0.0
  0
LINE
  5
69D9
330
69CB
100
AcDbEntity
  8
虛線
 48
0.2
100
AcDbLine
 10
1.000000765187905
 20
2.30113016657259
 30
0.0
 11
3.499990765178154
 21
0.801130166544965
 31
0.0
  0
LINE
  5
69DA
330
69CB
100
AcDbEntity
  8
虛線
 48
0.2
100
AcDbLine
 10
1.00000076518495
 20
12.30112016654834
 30
0.0
 11
0.0000007651844385
 21
13.30112016654854
 31
0.0
  0
ENDBLK
  5
69DB
330
69CB
100
AcDbEntity
  8
0
 62
     1
 48
0.27
100
AcDbBlockEnd
  0
ENDSEC
  0
SECTION
  2
ENTITIES
  0
LINE
  5
A286
330
1E
100
AcDbEntity
  8
0
  6
Continuous
 62
     7
100
AcDbLine
 10
918.0451470167033
 20
740.2647267067682
 30
0.0
 11
917.5951470167033
 21
739.8147267067684
 31
0.0
  0
LINE
  5
A287
330
1E
100
AcDbEntity
  8
0
  6
Continuous
 62
     7
100
AcDbLine
 10
918.0451470167033
 20
740.2647267067682
 30
0.0
 11
933.0451470167034
 21
740.2647267067682
 31
0.0
  0
LINE
  5
A288
330
1E
100
AcDbEntity
  8
0
  6
Continuous
 62
     7
100
AcDbLine
 10
933.4951470167032
 20
739.8147267067684
 30
0.0
 11
933.0451470167034
 21
740.2647267067682
 31
0.0
  0
LINE
  5
A289
330
1E
100
AcDbEntity
  8
0
  6
Continuous
 62
     7
100
AcDbLine
 10
1106.344771654748
 20
740.2723532890113
 30
0.0
 11
1126.344771654748
 21
740.2723532890115
 31
0.0
  0
LINE
  5
A28B
330
1E
100
AcDbEntity
  8
0
  6
Continuous
 62
     7
100
AcDbLine
 10
1205.344771654748
 20
740.2723532885118
 30
0.0
 11
1225.344771654748
 21
740.2723532885118
 31
0.0
  0
LINE
  5
AFFA
330
1E
100
AcDbEntity
  8
中心線
 48
0.3
100
AcDbLine
 10
925.5451470132037
 20
742.6223532885683
 30
0.0
 11
925.5451470132037
 21
690.814415064487
 31
0.0
  0
LINE
  5
AFFB
330
1E
100
AcDbEntity
  8
0
  6
ByBlock
100
AcDbLine
 10
960.0451470167033
 20
738.3223532890683
 30
0.0
 11
958.5451470167033
 21
739.8223532890683
 31
0.0
  0
LINE
  5
AFFC
330
1E
100
AcDbEntity
  8
0
  6
ByBlock
100
AcDbLine
 10
959.0451470167034
 20
699.122353289068
 30
0.0
 11
960.0451470167033
 21
700.1223532890681
 31
0.0
  0
LINE
  5
AFFD
330
1E
100
AcDbEntity
  8
0
  6
ByBlock
100
AcDbLine
 10
943.0451470167033
 20
720.0152465078681
 30
0.0
 11
943.0451470167033
 21
722.0294600702682
 31
0.0
  0
LINE
  5
AFFE
330
1E
100
AcDbEntity
  8
0
  6
ByBlock
100
AcDbLine
 10
942.5451470132037
 20
720.2223532890862
 30
0.0
 11
942.5451470132037
 21
721.8223532885685
 31
0.0
  0
LINE
  5
AFFF
330
1E
100
AcDbEntity
  8
0
  6
ByBlock
100
AcDbLine
 10
943.0451470167033
 20
722.0294600702682
 30
0.0
 11
941.3522537979032
 21
723.7223532890684
 31
0.0
  0
LINE
  5
B000
330
1E
100
AcDbEntity
  8
0
  6
ByBlock
100
AcDbLine
 10
942.5451470132037
 20
721.8223532885685
 30
0.0
 11
941.5451470132037
 21
722.8223532885685
 31
0.0
  0
LINE
  5
B003
330
1E
100
AcDbEntity
  8
0
  6
ByBlock
100
AcDbLine
 10
937.0451470167033
 20
707.1394600702683
 30
0.0
 11
937.0451470167033
 21
714.0152465078681
 31
0.0
  0
LINE
  5
B004
330
1E
100
AcDbEntity
  8
0
  6
ByBlock
100
AcDbLine
 10
936.5451470132038
 20
706.932353282357
 30
0.0
 11
936.5451470132034
 21
714.2223532880532
 31
0.0
  0
LINE
  5
B005
330
1E
100
AcDbEntity
  8
0
  6
ByBlock
100
AcDbLine
 10
937.0451470167033
 20
714.0152465078681
 30
0.0
 11
943.0451470167033
 21
720.0152465078681
 31
0.0
  0
LINE
  5
B006
330
1E
100
AcDbEntity
  8
0
  6
ByBlock
100
AcDbLine
 10
936.5451470132034
 20
714.2223532880532
 30
0.0
 11
942.5451470132037
 21
720.2223532890862
 31
0.0
  0
LINE
  5
B007
330
1E
100
AcDbEntity
  8
0
  6
ByBlock
100
AcDbLine
 10
943.0451470167035
 20
699.7223532890679
 30
0.0
 11
943.0451470167033
 21
701.1394600702683
 31
0.0
  0
LINE
  5
B008
330
1E
100
AcDbEntity
  8
0
  6
ByBlock
100
AcDbLine
 10
942.5451470132037
 20
694.1223532885683
 30
0.0
 11
942.5451470132037
 21
700.9323532899655
 31
0.0
  0
LINE
  5
B009
330
1E
100
AcDbEntity
  8
0
  6
ByBlock
100
AcDbLine
 10
943.0451470167033
 20
701.1394600702683
 30
0.0
 11
937.0451470167033
 21
707.1394600702683
 31
0.0
  0
LINE
  5
B00A
330
1E
100
AcDbEntity
  8
0
  6
ByBlock
100
AcDbLine
 10
942.5451470132037
 20
700.9323532899655
 30
0.0
 11
936.5451470132038
 21
706.932353282357
 31
0.0
  0
LINE
  5
B00B
330
1E
100
AcDbEntity
  8
0
  6
ByBlock
100
AcDbLine
 10
942.5451470132037
 20
699.1223532885688
 30
0.0
 11
959.5451470132037
 21
699.1223532885683
 31
0.0
  0
LINE
  5
B00C
330
1E
100
AcDbEntity
  8
0
  6
ByBlock
100
AcDbLine
 10
960.0451470167033
 20
700.1223532890681
 30
0.0
 11
960.0451470167033
 21
738.3223532890683
 31
0.0
  0
LINE
  5
B010
330
1E
100
AcDbEntity
  8
0
  6
ByBlock
100
AcDbLine
 10
914.5451470132035
 20
714.2223532879524
 30
0.0
 11
914.5451470132035
 21
706.9323532824569
 31
0.0
  0
LINE
  5
B011
330
1E
100
AcDbEntity
  8
0
  6
ByBlock
100
AcDbLine
 10
914.0451470167034
 20
707.1394600702683
 30
0.0
 11
914.0451470167034
 21
714.0152465078681
 31
0.0
  0
LINE
  5
B012
330
1E
100
AcDbEntity
  8
0
  6
ByBlock
100
AcDbLine
 10
908.5451470132037
 20
720.222353288985
 30
0.0
 11
914.5451470132035
 21
714.2223532879524
 31
0.0
  0
LINE
  5
B013
330
1E
100
AcDbEntity
  8
0
  6
ByBlock
100
AcDbLine
 10
908.5451470132037
 20
721.8223532885685
 30
0.0
 11
908.5451470132037
 21
720.222353288985
 31
0.0
  0
LINE
  5
B016
330
1E
100
AcDbEntity
  8
0
  6
ByBlock
100
AcDbLine
 10
908.0451470167034
 20
720.0152465078681
 30
0.0
 11
908.0451470167034
 21
722.0294600702682
 31
0.0
  0
LINE
  5
B018
330
1E
100
AcDbEntity
  8
0
  6
ByBlock
100
AcDbLine
 10
914.0451470167034
 20
714.0152465078681
 30
0.0
 11
908.0451470167034
 21
720.0152465078681
 31
0.0
  0
LINE
  5
B019
330
1E
100
AcDbEntity
  8
0
  6
ByBlock
100
AcDbLine
 10
909.5451470132037
 20
722.8223532885685
 30
0.0
 11
908.5451470132037
 21
721.8223532885685
 31
0.0
  0
LINE
  5
B01A
330
1E
100
AcDbEntity
  8
0
  6
ByBlock
100
AcDbLine
 10
908.0451470167034
 20
722.0294600702682
 30
0.0
 11
909.7380402355035
 21
723.7223532890684
 31
0.0
  0
LINE
  5
B01B
330
1E
100
AcDbEntity
  8
0
  6
ByBlock
100
AcDbLine
 10
908.0451470167034
 20
699.7223532890679
 30
0.0
 11
908.0451470167034
 21
701.1394600702683
 31
0.0
  0
LINE
  5
B01C
330
1E
100
AcDbEntity
  8
0
  6
ByBlock
100
AcDbLine
 10
908.5451470132035
 20
700.932353290067
 30
0.0
 11
908.5451470132037
 21
694.1223532885683
 31
0.0
  0
LINE
  5
B01D
330
1E
100
AcDbEntity
  8
0
  6
ByBlock
100
AcDbLine
 10
914.5451470132035
 20
706.9323532824569
 30
0.0
 11
908.5451470132035
 21
700.932353290067
 31
0.0
  0
LINE
  5
B01E
330
1E
100
AcDbEntity
  8
0
  6
ByBlock
100
AcDbLine
 10
908.0451470167034
 20
701.1394600702683
 30
0.0
 11
914.0451470167034
 21
707.1394600702683
 31
0.0
  0
LINE
  5
B01F
330
1E
100
AcDbEntity
  8
0
  6
ByBlock
100
AcDbLine
 10
892.5451470167033
 20
739.8223532890683
 30
0.0
 11
891.0451470167034
 21
738.3223532890683
 31
0.0
  0
LINE
  5
B021
330
1E
100
AcDbEntity
  8
0
  6
ByBlock
100
AcDbLine
 10
891.0451470167034
 20
700.1223532885529
 30
0.0
 11
891.0451470167034
 21
738.3223532890683
 31
0.0
  0
LINE
  5
B022
330
1E
100
AcDbEntity
  8
0
  6
ByBlock
100
AcDbLine
 10
888.0065493330903
 20
699.1223532884589
 30
0.0
 11
908.5451470132037
 21
699.1223532890935
 31
0.0
  0
LINE
  5
B023
330
1E
100
AcDbEntity
  8
0
  6
ByBlock
100
AcDbLine
 10
958.5451470167033
 20
739.8223532890683
 30
0.0
 11
892.5451470167033
 21
739.8223532890683
 31
0.0
  0
LINE
  5
B024
330
1E
100
AcDbEntity
  8
0
  6
ByBlock
100
AcDbLine
 10
941.3522537979032
 20
723.7223532890684
 30
0.0
 11
909.7380402355035
 21
723.7223532890684
 31
0.0
  0
LINE
  5
B025
330
1E
100
AcDbEntity
  8
0
  6
ByBlock
100
AcDbLine
 10
941.5451470132037
 20
722.8223532885685
 30
0.0
 11
909.5451470132037
 21
722.8223532885685
 31
0.0
  0
CIRCLE
  5
B026
330
1E
100
AcDbEntity
  8
指線
 48
0.27
100
AcDbCircle
 10
899.3451470161978
 20
723.8223532883885
 30
0.0
 40
3.5
  0
LINE
  5
B027
330
1E
100
AcDbEntity
  8
指線
 48
0.27
100
AcDbLine
 10
901.1129139691645
 20
724.8830134601685
 30
0.0
 11
900.4058071879779
 21
725.5901202413552
 31
0.0
  0
LINE
  5
B028
330
1E
100
AcDbEntity
  8
指線
 48
0.27
100
AcDbLine
 10
898.2844868444187
 20
725.5901202413552
 30
0.0
 11
897.5773800632321
 21
724.8830134601685
 31
0.0
  0
LINE
  5
B029
330
1E
100
AcDbEntity
  8
指線
 48
0.27
100
AcDbLine
 10
900.4058071879779
 20
722.0545863354223
 30
0.0
 11
899.3451470161978
 21
723.1152465072018
 31
0.0
  0
LINE
  5
B02A
330
1E
100
AcDbEntity
  8
指線
 48
0.27
100
AcDbLine
 10
898.2844868444178
 20
722.0545863354223
 30
0.0
 11
899.3451470161978
 21
723.1152465072018
 31
0.0
  0
LINE
  5
B02B
330
1E
100
AcDbEntity
  8
指線
 48
0.27
100
AcDbLine
 10
897.5773800632321
 20
722.7616931166084
 30
0.0
 11
898.6380402350112
 21
723.8223532883885
 31
0.0
  0
LINE
  5
B02C
330
1E
100
AcDbEntity
  8
指線
 48
0.27
100
AcDbLine
 10
901.1129139691645
 20
722.7616931166084
 30
0.0
 11
900.0522537973845
 21
723.8223532883885
 31
0.0
  0
LINE
  5
B02D
330
1E
100
AcDbEntity
  8
指線
 48
0.27
100
AcDbLine
 10
900.4058071879779
 20
722.0545863354223
 30
0.0
 11
901.1129139691645
 21
722.7616931166084
 31
0.0
  0
LINE
  5
B02E
330
1E
100
AcDbEntity
  8
指線
 48
0.27
100
AcDbLine
 10
897.5773800632321
 20
722.7616931166084
 30
0.0
 11
898.2844868444178
 21
722.0545863354223
 31
0.0
  0
LINE
  5
B02F
330
1E
100
AcDbEntity
  8
指線
 48
0.27
100
AcDbLine
 10
899.3451470161978
 20
724.5294600695752
 30
0.0
 11
898.2844868444187
 21
725.5901202413552
 31
0.0
  0
LINE
  5
B030
330
1E
100
AcDbEntity
  8
指線
 48
0.27
100
AcDbLine
 10
897.5773800632321
 20
724.8830134601685
 30
0.0
 11
898.6380402350112
 21
723.8223532883885
 31
0.0
  0
LINE
  5
B031
330
1E
100
AcDbEntity
  8
指線
 48
0.27
100
AcDbLine
 10
900.0522537973845
 20
723.8223532883885
 30
0.0
 11
901.1129139691645
 21
724.8830134601685
 31
0.0
  0
LINE
  5
B032
330
1E
100
AcDbEntity
  8
指線
 48
0.27
100
AcDbLine
 10
899.3451470161978
 20
724.5294600695752
 30
0.0
 11
900.4058071879779
 21
725.5901202413552
 31
0.0
  0
LINE
  5
B033
330
1E
100
AcDbEntity
  8
指線
 48
0.27
100
AcDbLine
 10
952.8058071883814
 20
722.0545863354227
 30
0.0
 11
951.7451470166022
 21
723.1152465072023
 31
0.0
  0
LINE
  5
B034
330
1E
100
AcDbEntity
  8
指線
 48
0.27
100
AcDbLine
 10
953.512913969568
 20
722.7616931166094
 30
0.0
 11
952.4522537977889
 21
723.8223532883885
 31
0.0
  0
CIRCLE
  5
B035
330
1E
100
AcDbEntity
  8
指線
 48
0.27
100
AcDbCircle
 10
951.7451470166022
 20
723.8223532883885
 30
0.0
 40
3.5
  0
LINE
  5
B036
330
1E
100
AcDbEntity
  8
指線
 48
0.27
100
AcDbLine
 10
953.512913969568
 20
722.7616931166094
 30
0.0
 11
952.8058071883814
 21
722.0545863354227
 31
0.0
  0
LINE
  5
B037
330
1E
100
AcDbEntity
  8
指線
 48
0.27
100
AcDbLine
 10
951.0380402354156
 20
723.8223532883885
 30
0.0
 11
949.9773800636356
 21
722.7616931166089
 31
0.0
  0
LINE
  5
B038
330
1E
100
AcDbEntity
  8
指線
 48
0.27
100
AcDbLine
 10
951.7451470166022
 20
723.1152465072023
 30
0.0
 11
950.6844868448222
 21
722.0545863354227
 31
0.0
  0
LINE
  5
B039
330
1E
100
AcDbEntity
  8
指線
 48
0.27
100
AcDbLine
 10
950.6844868448222
 20
725.5901202413552
 30
0.0
 11
951.7451470166022
 21
724.5294600695752
 31
0.0
  0
LINE
  5
B03A
330
1E
100
AcDbEntity
  8
指線
 48
0.27
100
AcDbLine
 10
951.0380402354156
 20
723.8223532883885
 30
0.0
 11
949.9773800636356
 21
724.8830134601685
 31
0.0
  0
LINE
  5
B03B
330
1E
100
AcDbEntity
  8
指線
 48
0.27
100
AcDbLine
 10
952.8058071883814
 20
725.5901202413552
 30
0.0
 11
953.512913969568
 21
724.8830134601685
 31
0.0
  0
LINE
  5
B03C
330
1E
100
AcDbEntity
  8
指線
 48
0.27
100
AcDbLine
 10
952.8058071883814
 20
725.5901202413552
 30
0.0
 11
951.7451470166022
 21
724.5294600695752
 31
0.0
  0
LINE
  5
B03D
330
1E
100
AcDbEntity
  8
指線
 48
0.27
100
AcDbLine
 10
953.512913969568
 20
724.8830134601685
 30
0.0
 11
952.4522537977889
 21
723.8223532883885
 31
0.0
  0
LINE
  5
B03E
330
1E
100
AcDbEntity
  8
指線
 48
0.27
100
AcDbLine
 10
949.9773800636356
 20
724.8830134601685
 30
0.0
 11
950.6844868448222
 21
725.5901202413552
 31
0.0
  0
LINE
  5
B03F
330
1E
100
AcDbEntity
  8
指線
 48
0.27
100
AcDbLine
 10
950.6844868448222
 20
722.0545863354227
 30
0.0
 11
949.9773800636356
 21
722.7616931166089
 31
0.0
  0
LINE
  5
B042
330
1E
100
AcDbEntity
  8
0
  6
ByBlock
100
AcDbLine
 10
909.1039944983029
 20
725.253075107068
 30
0.0
 11
941.986299535103
 21
725.253075107068
 31
0.0
  0
LINE
  5
B043
330
1E
100
AcDbEntity
  8
0
  6
ByBlock
100
AcDbLine
 10
912.5144251987029
 20
713.3812007706683
 30
0.0
 11
906.5144251987028
 21
719.3812007706683
 31
0.0
  0
LINE
  5
B044
330
1E
100
AcDbEntity
  8
0
  6
ByBlock
100
AcDbLine
 10
906.5144251987028
 20
701.7735058074682
 30
0.0
 11
912.5144251987029
 21
707.7735058074681
 31
0.0
  0
LINE
  5
B045
330
1E
100
AcDbEntity
  8
0
  6
ByBlock
100
AcDbLine
 10
906.5144251987028
 20
722.663505807468
 30
0.0
 11
909.1039944983029
 21
725.253075107068
 31
0.0
  0
LINE
  5
B046
330
1E
100
AcDbEntity
  8
0
  6
ByBlock
100
AcDbLine
 10
906.5144251987028
 20
719.3812007706683
 30
0.0
 11
906.5144251987028
 21
722.663505807468
 31
0.0
  0
LINE
  5
B047
330
1E
100
AcDbEntity
  8
0
  6
ByBlock
100
AcDbLine
 10
906.5144251987028
 20
699.7223532890679
 30
0.0
 11
906.5144251987028
 21
701.7735058074682
 31
0.0
  0
LINE
  5
B048
330
1E
100
AcDbEntity
  8
0
  6
ByBlock
100
AcDbLine
 10
906.5144251987028
 20
699.7223532890679
 30
0.0
 11
908.0451470167034
 21
699.7223532890679
 31
0.0
  0
LINE
  5
B049
330
1E
100
AcDbEntity
  8
0
  6
ByBlock
100
AcDbLine
 10
912.5144251987029
 20
707.7735058074681
 30
0.0
 11
912.5144251987029
 21
713.3812007706683
 31
0.0
  0
LINE
  5
B04A
330
1E
100
AcDbEntity
  8
0
  6
ByBlock
100
AcDbLine
 10
938.575868834703
 20
713.3812007706683
 30
0.0
 11
944.575868834703
 21
719.3812007706683
 31
0.0
  0
LINE
  5
B04B
330
1E
100
AcDbEntity
  8
0
  6
ByBlock
100
AcDbLine
 10
944.575868834703
 20
701.7735058074682
 30
0.0
 11
938.575868834703
 21
707.7735058074681
 31
0.0
  0
LINE
  5
B04C
330
1E
100
AcDbEntity
  8
0
  6
ByBlock
100
AcDbLine
 10
938.575868834703
 20
707.7735058074681
 30
0.0
 11
938.575868834703
 21
713.3812007706683
 31
0.0
  0
LINE
  5
B04D
330
1E
100
AcDbEntity
  8
0
  6
ByBlock
100
AcDbLine
 10
944.575868834703
 20
719.3812007706683
 30
0.0
 11
944.575868834703
 21
722.663505807468
 31
0.0
  0
LINE
  5
B04E
330
1E
100
AcDbEntity
  8
0
  6
ByBlock
100
AcDbLine
 10
944.575868834703
 20
722.663505807468
 30
0.0
 11
941.986299535103
 21
725.253075107068
 31
0.0
  0
LINE
  5
B04F
330
1E
100
AcDbEntity
  8
0
  6
ByBlock
100
AcDbLine
 10
944.575868834703
 20
699.7223532890679
 30
0.0
 11
944.575868834703
 21
701.7735058074682
 31
0.0
  0
LINE
  5
B050
330
1E
100
AcDbEntity
  8
0
  6
ByBlock
100
AcDbLine
 10
943.0451470167035
 20
699.7223532890679
 30
0.0
 11
944.575868834703
 21
699.7223532890679
 31
0.0
  0
LINE
  5
B065
330
1E
100
AcDbEntity
  8
虛線
 48
0.3
100
AcDbLine
 10
932.5451470132035
 20
722.4223532885671
 30
0.0
 11
932.5451470132035
 21
710.8223532885681
 31
0.0
  0
LINE
  5
B066
330
1E
100
AcDbEntity
  8
虛線
 48
0.3
100
AcDbLine
 10
918.5451470132036
 20
722.422353288568
 30
0.0
 11
918.5451470132036
 21
710.8223532885681
 31
0.0
  0
LINE
  5
B067
330
1E
100
AcDbEntity
  8
虛線
 48
0.3
100
AcDbLine
 10
930.0451470132037
 20
710.5223532885684
 30
0.0
 11
930.0451470132037
 21
693.1223532885678
 31
0.0
  0
LINE
  5
B068
330
1E
100
AcDbEntity
  8
虛線
 48
0.3
100
AcDbLine
 10
921.0451470132037
 20
710.5223532885674
 30
0.0
 11
921.0451470132037
 21
693.1223532885678
 31
0.0
  0
LINE
  5
B069
330
1E
100
AcDbEntity
  8
虛線
 48
0.3
100
AcDbLine
 10
918.5451470132036
 20
710.8223532885681
 30
0.0
 11
932.5451470132035
 21
710.8223532885681
 31
0.0
  0
LINE
  5
B06A
330
1E
100
AcDbEntity
  8
0
  6
ByBlock
100
AcDbLine
 10
941.0451470132036
 20
692.6223532885683
 30
0.0
 11
942.5451470132037
 21
694.1223532885683
 31
0.0
  0
LINE
  5
B06B
330
1E
100
AcDbEntity
  8
0
  6
ByBlock
100
AcDbLine
 10
919.0451470132035
 20
693.1223532885683
 30
0.0
 11
919.5451470132027
 21
692.6223532885683
 31
0.0
  0
LINE
  5
B06C
330
1E
100
AcDbEntity
  8
0
  6
ByBlock
100
AcDbLine
 10
919.5451470132027
 20
692.6223532885683
 30
0.0
 11
931.5451470132035
 21
692.6223532885687
 31
0.0
  0
LINE
  5
B06D
330
1E
100
AcDbEntity
  8
0
  6
ByBlock
100
AcDbLine
 10
914.5451470132027
 20
692.6223532885683
 30
0.0
 11
915.0451470132027
 21
693.1223532885683
 31
0.0
  0
LINE
  5
B06E
330
1E
100
AcDbEntity
  8
0
  6
ByBlock
100
AcDbLine
 10
910.0451470132036
 20
692.6223532885683
 30
0.0
 11
914.5451470132027
 21
692.6223532885683
 31
0.0
  0
LINE
  5
B06F
330
1E
100
AcDbEntity
  8
0
  6
ByBlock
100
AcDbLine
 10
908.5451470132037
 20
694.1223532885683
 30
0.0
 11
910.0451470132036
 21
692.6223532885683
 31
0.0
  0
LINE
  5
B070
330
1E
100
AcDbEntity
  8
0
  6
ByBlock
100
AcDbLine
 10
915.0451470132027
 20
693.1223532885683
 30
0.0
 11
919.0451470132035
 21
693.1223532885683
 31
0.0
  0
LINE
  5
B071
330
1E
100
AcDbEntity
  8
0
  6
ByBlock
100
AcDbLine
 10
936.5451470132027
 20
692.6223532885678
 30
0.0
 11
941.0451470132036
 21
692.6223532885683
 31
0.0
  0
LINE
  5
B072
330
1E
100
AcDbEntity
  8
0
  6
ByBlock
100
AcDbLine
 10
932.0451470132036
 20
693.1223532885678
 30
0.0
 11
931.5451470132035
 21
692.6223532885687
 31
0.0
  0
LINE
  5
B073
330
1E
100
AcDbEntity
  8
0
  6
ByBlock
100
AcDbLine
 10
936.5451470132027
 20
692.6223532885678
 30
0.0
 11
936.0451470132035
 21
693.1223532885674
 31
0.0
  0
LINE
  5
B074
330
1E
100
AcDbEntity
  8
0
  6
ByBlock
100
AcDbLine
 10
936.0451470132035
 20
693.1223532885674
 30
0.0
 11
932.0451470132036
 21
693.1223532885678
 31
0.0
  0
LINE
  5
B075
330
1E
100
AcDbEntity
  8
虛線
 48
0.3
100
AcDbLine
 10
932.5451470132035
 20
722.422353288568
 30
0.0
 11
918.5451470132036
 21
722.422353288568
 31
0.0
  0
LINE
  5
B076
330
1E
100
AcDbEntity
  8
虛線
 48
0.3
100
AcDbLine
 10
930.0451470132037
 20
693.1223532885678
 30
0.0
 11
921.0451470132037
 21
693.1223532885678
 31
0.0
  0
LINE
  5
B077
330
1E
100
AcDbEntity
  8
虛線
 48
0.7
100
AcDbLine
 10
920.5451462989165
 20
692.6223532885687
 30
0.0
 11
921.0451470132037
 21
693.1223532885678
 31
0.0
  0
LINE
  5
B078
330
1E
100
AcDbEntity
  8
虛線
 48
0.7
100
AcDbLine
 10
930.0451470132037
 20
693.1223532885678
 30
0.0
 11
930.5451477274889
 21
692.6223532885687
 31
0.0
  0
LINE
  5
B079
330
1E
100
AcDbEntity
  8
虛線
 48
0.3
100
AcDbLine
 10
930.345147013203
 20
710.8223532885676
 30
0.0
 11
930.0451470132037
 21
710.522353288568
 31
0.0
  0
LINE
  5
B07A
330
1E
100
AcDbEntity
  8
虛線
 48
0.3
100
AcDbLine
 10
920.7451470132035
 20
710.8223532885676
 30
0.0
 11
921.0451470132037
 21
710.522353288568
 31
0.0
  0
LINE
  5
B07B
330
1E
100
AcDbEntity
  8
虛線
 48
0.3
100
AcDbLine
 10
921.0451470132037
 20
710.522353288568
 30
0.0
 11
930.0451470132037
 21
710.522353288568
 31
0.0
  0
LINE
  5
B07C
330
1E
100
AcDbEntity
  8
虛線
 48
0.7
100
AcDbLine
 10
918.5451470132036
 20
722.422353288568
 30
0.0
 11
918.3142069055273
 21
722.8223532885676
 31
0.0
  0
LINE
  5
B07D
330
1E
100
AcDbEntity
  8
虛線
 48
0.7
100
AcDbLine
 10
932.5451470132035
 20
722.422353288568
 30
0.0
 11
932.7760871208791
 21
722.8223532885676
 31
0.0
  0
LINE
  5
B07E
330
1E
100
AcDbEntity
  8
0
 48
0.27
100
AcDbLine
 10
923.2357126978129
 20
735.6224109915138
 30
0.0
 11
927.8545813285953
 21
735.6224109915138
 31
0.0
  0
LINE
  5
B07F
330
1E
100
AcDbEntity
  8
0
 48
0.27
100
AcDbLine
 10
927.8545826646148
 20
727.6222942506028
 30
0.0
 11
923.2357126978129
 21
727.6222942506028
 31
0.0
  0
ARC
  5
B080
330
1E
100
AcDbEntity
  8
0
 48
0.27
100
AcDbCircle
 10
925.5451470132037
 20
731.622353289068
 30
0.0
 40
4.000057702445608
100
AcDbArc
 50
48.59037799889628
 51
311.4096220031896
  0
LINE
  5
B081
330
1E
100
AcDbEntity
  8
0
 48
0.27
100
AcDbLine
 10
923.2357126978129
 20
735.6224109915138
 30
0.0
 11
920.9262783824213
 21
731.622353289068
 31
0.0
  0
LINE
  5
B082
330
1E
100
AcDbEntity
  8
0
 48
0.27
100
AcDbLine
 10
920.9262783824213
 20
731.622353289068
 30
0.0
 11
923.2357126978129
 21
727.6222942506028
 31
0.0
  0
LWPOLYLINE
  5
B083
330
1E
100
AcDbEntity
  8
0
 48
0.27
100
AcDbPolyline
 90
       17
 70
     0
 43
0.0
 10
934.4969653690267
 20
731.622353289068
 10
934.5305141599835
 20
731.4053128794276
 10
934.5634056291489
 20
731.3424077274903
 10
934.5999764966061
 20
731.3128656597009
 10
934.6339541498217
 20
731.3131729441847
 10
934.6704475281473
 20
731.3433776777446
 10
934.7017918865374
 20
731.4031485274445
 10
934.7311789760649
 20
731.5332234062493
 10
934.7361462973502
 20
731.622353289068
 10
934.7025988424126
 20
731.8393923626895
 10
934.6697060372278
 20
731.9022975146268
 10
934.6331351697706
 20
731.9318395824166
 10
934.5991588525746
 20
731.9315322978322
 10
934.5626641382294
 20
731.9013275642728
 10
934.5313211158588
 20
731.8415567145725
 10
934.5019326903118
 20
731.7114818358677
 10
934.4969653690267
 20
731.622353289068
  0
LINE
  5
B084
330
1E
100
AcDbEntity
  8
0
 48
0.27
100
AcDbLine
 10
935.2890313331707
 20
731.2728117888187
 30
0.0
 11
935.3022058235181
 21
731.622353289068
 31
0.0
  0
LINE
  5
B085
330
1E
100
AcDbEntity
  8
0
 48
0.27
100
AcDbLine
 10
935.2500142136166
 20
730.9367026307791
 30
0.0
 11
935.2890313331707
 21
731.2728117888187
 31
0.0
  0
LINE
  5
B086
330
1E
100
AcDbEntity
  8
0
 48
0.27
100
AcDbLine
 10
935.3022058235181
 20
731.622353289068
 30
0.0
 11
935.2890313331707
 21
731.9718947893179
 31
0.0
  0
LINE
  5
B087
330
1E
100
AcDbEntity
  8
0
 48
0.27
100
AcDbLine
 10
935.1866534789321
 20
730.6269437893538
 30
0.0
 11
935.2500142136166
 21
730.9367026307791
 31
0.0
  0
LINE
  5
B088
330
1E
100
AcDbEntity
  8
0
 48
0.27
100
AcDbLine
 10
935.2890313331707
 20
731.9718947893179
 30
0.0
 11
935.2500142136166
 21
732.3080026113379
 31
0.0
  0
LINE
  5
B089
330
1E
100
AcDbEntity
  8
0
 48
0.27
100
AcDbLine
 10
935.1013833570357
 20
730.3554365283107
 30
0.0
 11
935.1866534789321
 21
730.6269437893538
 31
0.0
  0
LINE
  5
B08A
330
1E
100
AcDbEntity
  8
0
 48
0.27
100
AcDbLine
 10
934.342017811369
 20
729.9840203773574
 30
0.0
 11
934.3439162953725
 21
729.9849489110074
 31
0.0
  0
LINE
  5
B08B
330
1E
100
AcDbEntity
  8
0
 48
0.27
100
AcDbLine
 10
935.2500142136166
 20
732.3080026113379
 30
0.0
 11
935.1866534789321
 21
732.6177627887828
 31
0.0
  0
LINE
  5
B08C
330
1E
100
AcDbEntity
  8
0
 48
0.27
100
AcDbLine
 10
934.9974824403723
 20
730.1326164973316
 30
0.0
 11
935.1013833570357
 21
730.3554365283107
 31
0.0
  0
LINE
  5
B08D
330
1E
100
AcDbEntity
  8
0
 48
0.27
100
AcDbLine
 10
935.1866534789321
 20
732.6177627887828
 30
0.0
 11
935.1013833570357
 21
732.8892687138059
 31
0.0
  0
LINE
  5
B08E
330
1E
100
AcDbEntity
  8
0
 48
0.27
100
AcDbLine
 10
931.4237606509912
 20
729.5857822948078
 30
0.0
 11
931.6648868239006
 21
729.6841868263664
 31
0.0
  0
LINE
  5
B08F
330
1E
100
AcDbEntity
  8
0
 48
0.27
100
AcDbLine
 10
931.4237606509912
 20
733.6589229473092
 30
0.0
 11
931.6648868239006
 21
733.5605197517707
 31
0.0
  0
LINE
  5
B090
330
1E
100
AcDbEntity
  8
0
 48
0.27
100
AcDbLine
 10
934.8789427557937
 20
729.9670475829834
 30
0.0
 11
934.9974824403723
 21
730.1326164973316
 31
0.0
  0
LINE
  5
B091
330
1E
100
AcDbEntity
  8
0
 48
0.27
100
AcDbLine
 10
935.1013833570357
 20
732.8892687138059
 30
0.0
 11
934.9974824403723
 21
733.112088744785
 31
0.0
  0
LINE
  5
B092
330
1E
100
AcDbEntity
  8
0
 48
0.27
100
AcDbLine
 10
931.6648868239006
 20
729.6841868263664
 30
0.0
 11
931.8798136503989
 21
729.6750591397713
 31
0.0
  0
LINE
  5
B093
330
1E
100
AcDbEntity
  8
0
 48
0.27
100
AcDbLine
 10
931.6648868239006
 20
733.5605197517707
 30
0.0
 11
931.8798136503989
 21
733.5696461023453
 31
0.0
  0
LINE
  5
B094
330
1E
100
AcDbEntity
  8
0
 48
0.27
100
AcDbLine
 10
933.4998270598841
 20
729.1179883541708
 30
0.0
 11
934.7503201303805
 21
729.8650892389669
 31
0.0
  0
LINE
  5
B095
330
1E
100
AcDbEntity
  8
0
 48
0.27
100
AcDbLine
 10
934.7503201303805
 20
729.8650892389669
 30
0.0
 11
934.8789427557937
 21
729.9670475829834
 31
0.0
  0
LINE
  5
B096
330
1E
100
AcDbEntity
  8
0
 48
0.27
100
AcDbLine
 10
934.9974824403723
 20
733.112088744785
 30
0.0
 11
934.8789427557937
 21
733.2776576591331
 31
0.0
  0
LINE
  5
B097
330
1E
100
AcDbEntity
  8
0
 48
0.27
100
AcDbLine
 10
933.3091944157965
 20
729.06892436641
 30
0.0
 11
933.4998270598841
 21
729.1179883541708
 31
0.0
  0
LINE
  5
B098
330
1E
100
AcDbEntity
  8
0
 48
0.27
100
AcDbLine
 10
932.9483568689099
 20
729.0968084337055
 30
0.0
 11
933.3091944157965
 21
729.06892436641
 31
0.0
  0
LINE
  5
B099
330
1E
100
AcDbEntity
  8
0
 48
0.27
100
AcDbLine
 10
931.8798136503989
 20
729.6750591397713
 30
0.0
 11
932.4337688380353
 21
729.3098367762004
 31
0.0
  0
LINE
  5
B09A
330
1E
100
AcDbEntity
  8
0
 48
0.27
100
AcDbLine
 10
934.6165565011476
 20
729.8306626831008
 30
0.0
 11
934.7503201303805
 21
729.8650892389669
 31
0.0
  0
LINE
  5
B09B
330
1E
100
AcDbEntity
  8
0
 48
0.27
100
AcDbLine
 10
933.4998270598841
 20
734.1267182239653
 30
0.0
 11
934.7503201303805
 21
733.3796160031506
 31
0.0
  0
LINE
  5
B09C
330
1E
100
AcDbEntity
  8
0
 48
0.27
100
AcDbLine
 10
934.7503201303805
 20
733.3796160031506
 30
0.0
 11
934.8789427557937
 21
733.2776576591331
 31
0.0
  0
LINE
  5
B09D
330
1E
100
AcDbEntity
  8
0
 48
0.27
100
AcDbLine
 10
933.3091944157965
 20
734.1757808757074
 30
0.0
 11
933.4998270598841
 21
734.1267182239653
 31
0.0
  0
LINE
  5
B09E
330
1E
100
AcDbEntity
  8
0
 48
0.27
100
AcDbLine
 10
932.9483568689099
 20
734.1478981443315
 30
0.0
 11
933.3091944157965
 21
734.1757808757074
 31
0.0
  0
LINE
  5
B09F
330
1E
100
AcDbEntity
  8
0
 48
0.27
100
AcDbLine
 10
931.6889752593086
 20
729.8195643674498
 30
0.0
 11
931.8290582616562
 21
729.708522425381
 31
0.0
  0
LINE
  5
B0A0
330
1E
100
AcDbEntity
  8
0
 48
0.27
100
AcDbLine
 10
932.4337688380353
 20
729.3098367762004
 30
0.0
 11
932.7598057434968
 21
729.1453353416291
 31
0.0
  0
LINE
  5
B0A1
330
1E
100
AcDbEntity
  8
0
 48
0.27
100
AcDbLine
 10
932.7598057434968
 20
729.1453353416291
 30
0.0
 11
932.9483568689099
 21
729.0968084337055
 31
0.0
  0
LINE
  5
B0A2
330
1E
100
AcDbEntity
  8
0
 48
0.27
100
AcDbLine
 10
931.8798136503989
 20
733.5696461023453
 30
0.0
 11
932.4337688380353
 21
733.9348684659171
 31
0.0
  0
LINE
  5
B0A3
330
1E
100
AcDbEntity
  8
0
 48
0.27
100
AcDbLine
 10
931.6889752593086
 20
733.4251408746677
 30
0.0
 11
931.8290582616562
 21
733.5361828167361
 31
0.0
  0
LINE
  5
B0A4
330
1E
100
AcDbEntity
  8
0
 48
0.27
100
AcDbLine
 10
933.1185604356885
 20
729.1179883541708
 30
0.0
 11
933.3091944157965
 21
729.06892436641
 31
0.0
  0
LINE
  5
B0A5
330
1E
100
AcDbEntity
  8
0
 48
0.27
100
AcDbLine
 10
932.7598057434968
 20
734.0993699004875
 30
0.0
 11
932.9483568689099
 21
734.1478981443315
 31
0.0
  0
LINE
  5
B0A6
330
1E
100
AcDbEntity
  8
0
 48
0.27
100
AcDbLine
 10
932.4337688380353
 20
733.9348684659171
 30
0.0
 11
932.7598057434968
 21
734.0993699004875
 31
0.0
  0
LINE
  5
B0A7
330
1E
100
AcDbEntity
  8
0
 48
0.27
100
AcDbLine
 10
931.6889752593086
 20
729.8195643674498
 30
0.0
 11
931.5598730027975
 21
729.9998856113697
 31
0.0
  0
LINE
  5
B0A8
330
1E
100
AcDbEntity
  8
0
 48
0.27
100
AcDbLine
 10
934.4827928720158
 20
729.8650892389669
 30
0.0
 11
934.6165565011476
 21
729.8306626831008
 31
0.0
  0
LINE
  5
B0A9
330
1E
100
AcDbEntity
  8
0
 48
0.27
100
AcDbLine
 10
934.6165565011476
 20
733.4140425590167
 30
0.0
 11
934.7503201303805
 21
733.3796160031506
 31
0.0
  0
LINE
  5
B0AA
330
1E
100
AcDbEntity
  8
0
 48
0.27
100
AcDbLine
 10
933.1185604356885
 20
734.1267182239653
 30
0.0
 11
933.3091944157965
 21
734.1757808757074
 31
0.0
  0
LINE
  5
B0AB
330
1E
100
AcDbEntity
  8
0
 48
0.27
100
AcDbLine
 10
932.2645031571425
 20
733.800694678599
 30
0.0
 11
932.4337688380353
 21
733.9348684659171
 31
0.0
  0
LINE
  5
B0AC
330
1E
100
AcDbEntity
  8
0
 48
0.27
100
AcDbLine
 10
931.5598730027975
 20
733.2448196307478
 30
0.0
 11
931.6889752593086
 21
733.4251408746677
 31
0.0
  0
LINE
  5
B0AD
330
1E
100
AcDbEntity
  8
0
 48
0.27
100
AcDbLine
 10
931.5598730027975
 20
729.9998856113697
 30
0.0
 11
931.4467148056472
 21
730.2425575591359
 31
0.0
  0
LINE
  5
B0AE
330
1E
100
AcDbEntity
  8
0
 48
0.27
100
AcDbLine
 10
932.9352531875963
 20
729.2632925216075
 30
0.0
 11
933.1185604356885
 21
729.1179883541708
 31
0.0
  0
LINE
  5
B0AF
330
1E
100
AcDbEntity
  8
0
 48
0.27
100
AcDbLine
 10
931.4467148056472
 20
733.0021476829815
 30
0.0
 11
931.5598730027975
 21
733.2448196307478
 31
0.0
  0
LINE
  5
B0B0
330
1E
100
AcDbEntity
  8
0
 48
0.27
100
AcDbLine
 10
934.354168910583
 20
729.9670475829834
 30
0.0
 11
934.4827928720158
 21
729.8650892389669
 31
0.0
  0
LINE
  5
B0B1
330
1E
100
AcDbEntity
  8
0
 48
0.27
100
AcDbLine
 10
932.9352531875963
 20
733.981412720509
 30
0.0
 11
933.1185604356885
 21
734.1267182239653
 31
0.0
  0
LINE
  5
B0B2
330
1E
100
AcDbEntity
  8
0
 48
0.27
100
AcDbLine
 10
934.4827928720158
 20
733.3796160031506
 30
0.0
 11
934.6165565011476
 21
733.4140425590167
 31
0.0
  0
LINE
  5
B0B3
330
1E
100
AcDbEntity
  8
0
 48
0.27
100
AcDbLine
 10
931.4467148056472
 20
730.2425575591359
 30
0.0
 11
931.3538480756985
 21
730.5382547930685
 31
0.0
  0
LINE
  5
B0B4
330
1E
100
AcDbEntity
  8
0
 48
0.27
100
AcDbLine
 10
931.3538480756985
 20
732.7064504490485
 30
0.0
 11
931.4467148056472
 21
733.0021476829815
 31
0.0
  0
LINE
  5
B0B5
330
1E
100
AcDbEntity
  8
0
 48
0.27
100
AcDbLine
 10
932.9352531875963
 20
729.2632925216075
 30
0.0
 11
932.7663161675998
 21
729.4992549783664
 31
0.0
  0
LINE
  5
B0B6
330
1E
100
AcDbEntity
  8
0
 48
0.27
100
AcDbLine
 10
931.3538480756985
 20
730.5382547930685
 30
0.0
 11
931.2848426577437
 21
730.8756131296368
 31
0.0
  0
LINE
  5
B0B7
330
1E
100
AcDbEntity
  8
0
 48
0.27
100
AcDbLine
 10
934.354168910583
 20
733.2776576591331
 30
0.0
 11
934.4827928720158
 21
733.3796160031506
 31
0.0
  0
LINE
  5
B0B8
330
1E
100
AcDbEntity
  8
0
 48
0.27
100
AcDbLine
 10
934.354168910583
 20
729.9670475829834
 30
0.0
 11
934.2356292260044
 21
730.1326164973316
 31
0.0
  0
LINE
  5
B0B9
330
1E
100
AcDbEntity
  8
0
 48
0.27
100
AcDbLine
 10
932.7663161675998
 20
733.7454502637501
 30
0.0
 11
932.9352531875963
 21
733.981412720509
 31
0.0
  0
LINE
  5
B0BA
330
1E
100
AcDbEntity
  8
0
 48
0.27
100
AcDbLine
 10
931.2848426577437
 20
732.3690921124807
 30
0.0
 11
931.3538480756985
 21
732.7064504490485
 31
0.0
  0
LINE
  5
B0BB
330
1E
100
AcDbEntity
  8
0
 48
0.27
100
AcDbLine
 10
931.2848426577437
 20
730.8756131296368
 30
0.0
 11
931.242347878943
 21
731.2416678334535
 31
0.0
  0
LINE
  5
B0BC
330
1E
100
AcDbEntity
  8
0
 48
0.27
100
AcDbLine
 10
931.242347878943
 20
732.0030374086636
 30
0.0
 11
931.2848426577437
 21
732.3690921124807
 31
0.0
  0
LINE
  5
B0BD
330
1E
100
AcDbEntity
  8
0
 48
0.27
100
AcDbLine
 10
931.242347878943
 20
731.2416678334535
 30
0.0
 11
931.2280003632784
 21
731.622353289068
 31
0.0
  0
LINE
  5
B0BE
330
1E
100
AcDbEntity
  8
0
 48
0.27
100
AcDbLine
 10
931.2280003632784
 20
731.622353289068
 30
0.0
 11
931.242347878943
 21
732.0030374086636
 31
0.0
  0
LINE
  5
B0BF
330
1E
100
AcDbEntity
  8
0
 48
0.27
100
AcDbLine
 10
932.7663161675998
 20
729.4992549783664
 30
0.0
 11
932.6182410952284
 21
729.8168068227105
 31
0.0
  0
LINE
  5
B0C0
330
1E
100
AcDbEntity
  8
0
 48
0.27
100
AcDbLine
 10
934.2356292260044
 20
733.112088744785
 30
0.0
 11
934.354168910583
 21
733.2776576591331
 31
0.0
  0
LINE
  5
B0C1
330
1E
100
AcDbEntity
  8
0
 48
0.27
100
AcDbLine
 10
934.2356292260044
 20
730.1326164973316
 30
0.0
 11
934.131728309341
 21
730.3554365283107
 31
0.0
  0
LINE
  5
B0C2
330
1E
100
AcDbEntity
  8
0
 48
0.27
100
AcDbLine
 10
932.6182410952284
 20
733.4278997554265
 30
0.0
 11
932.7663161675998
 21
733.7454502637501
 31
0.0
  0
LINE
  5
B0C3
330
1E
100
AcDbEntity
  8
0
 48
0.27
100
AcDbLine
 10
934.131728309341
 20
732.8892687138059
 30
0.0
 11
934.2356292260044
 21
733.112088744785
 31
0.0
  0
LINE
  5
B0C4
330
1E
100
AcDbEntity
  8
0
 48
0.27
100
AcDbLine
 10
932.6182410952284
 20
729.8168068227105
 30
0.0
 11
932.4967194146354
 21
730.2037435145457
 31
0.0
  0
LINE
  5
B0C5
330
1E
100
AcDbEntity
  8
0
 48
0.27
100
AcDbLine
 10
934.131728309341
 20
730.3554365283107
 30
0.0
 11
934.0464595234641
 21
730.6269437893538
 31
0.0
  0
LINE
  5
B0C6
330
1E
100
AcDbEntity
  8
0
 48
0.27
100
AcDbLine
 10
932.4967194146354
 20
733.0409617274713
 30
0.0
 11
932.6182410952284
 21
733.4278997554265
 31
0.0
  0
LINE
  5
B0C7
330
1E
100
AcDbEntity
  8
0
 48
0.27
100
AcDbLine
 10
934.0464595234641
 20
732.6177627887828
 30
0.0
 11
934.131728309341
 21
732.8892687138059
 31
0.0
  0
LINE
  5
B0C8
330
1E
100
AcDbEntity
  8
0
 48
0.27
100
AcDbLine
 10
932.4967194146354
 20
730.2037435145457
 30
0.0
 11
932.4064205145575
 21
730.6451978266241
 31
0.0
  0
LINE
  5
B0C9
330
1E
100
AcDbEntity
  8
0
 48
0.27
100
AcDbLine
 10
934.0464595234641
 20
730.6269437893538
 30
0.0
 11
933.9830987887788
 21
730.9367026307791
 31
0.0
  0
LINE
  5
B0CA
330
1E
100
AcDbEntity
  8
0
 48
0.27
100
AcDbLine
 10
932.4064205145575
 20
732.599507415493
 30
0.0
 11
932.4967194146354
 21
733.0409617274713
 31
0.0
  0
LINE
  5
B0CB
330
1E
100
AcDbEntity
  8
0
 48
0.27
100
AcDbLine
 10
933.9830987887788
 20
732.3080026113379
 30
0.0
 11
934.0464595234641
 21
732.6177627887828
 31
0.0
  0
LINE
  5
B0CC
330
1E
100
AcDbEntity
  8
0
 48
0.27
100
AcDbLine
 10
932.4064205145575
 20
730.6451978266241
 30
0.0
 11
932.3508153743448
 21
731.1242036446692
 31
0.0
  0
LINE
  5
B0CD
330
1E
100
AcDbEntity
  8
0
 48
0.27
100
AcDbLine
 10
933.9830987887788
 20
730.9367026307791
 30
0.0
 11
933.9440803332061
 21
731.2728117888187
 31
0.0
  0
LINE
  5
B0CE
330
1E
100
AcDbEntity
  8
0
 48
0.27
100
AcDbLine
 10
932.3508153743448
 20
732.1205015974483
 30
0.0
 11
932.4064205145575
 21
732.599507415493
 31
0.0
  0
LINE
  5
B0CF
330
1E
100
AcDbEntity
  8
0
 48
0.27
100
AcDbLine
 10
933.9440803332061
 20
731.9718947893179
 30
0.0
 11
933.9830987887788
 21
732.3080026113379
 31
0.0
  0
LINE
  5
B0D0
330
1E
100
AcDbEntity
  8
0
 48
0.27
100
AcDbLine
 10
932.3508153743448
 20
731.1242036446692
 30
0.0
 11
932.3320389533517
 21
731.622353289068
 31
0.0
  0
LINE
  5
B0D1
330
1E
100
AcDbEntity
  8
0
 48
0.27
100
AcDbLine
 10
933.9440803332061
 20
731.2728117888187
 30
0.0
 11
933.9309058428586
 21
731.622353289068
 31
0.0
  0
LINE
  5
B0D2
330
1E
100
AcDbEntity
  8
0
 48
0.27
100
AcDbLine
 10
933.9309058428586
 20
731.622353289068
 30
0.0
 11
933.9440803332061
 21
731.9718947893179
 31
0.0
  0
LINE
  5
B0D3
330
1E
100
AcDbEntity
  8
0
 48
0.27
100
AcDbLine
 10
932.3320389533517
 20
731.622353289068
 30
0.0
 11
932.3508153743448
 21
732.1205015974483
 31
0.0
  0
LINE
  5
B0D4
330
1E
100
AcDbEntity
  8
0
 48
0.27
100
AcDbLine
 10
931.8290582616562
 20
729.708522425381
 30
0.0
 11
931.8798136503989
 21
729.6750591397713
 31
0.0
  0
LINE
  5
B0D5
330
1E
100
AcDbEntity
  8
0
 48
0.27
100
AcDbLine
 10
931.6165322626918
 20
729.6862402887309
 30
0.0
 11
931.6648868239006
 21
729.6841868263664
 31
0.0
  0
LINE
  5
B0D6
330
1E
100
AcDbEntity
  8
0
 48
0.27
100
AcDbLine
 10
931.8290582616562
 20
733.5361828167361
 30
0.0
 11
931.8798136503989
 21
733.5696461023453
 31
0.0
  0
LINE
  5
B0D7
330
1E
100
AcDbEntity
  8
0
 48
0.27
100
AcDbLine
 10
928.4319409094576
 20
728.6223090102193
 30
0.0
 11
927.8545826646148
 21
727.6222942506028
 31
0.0
  0
LINE
  5
B0D8
330
1E
100
AcDbEntity
  8
0
 48
0.27
100
AcDbLine
 10
926.8466720285784
 20
728.6223090102193
 30
0.0
 11
929.8607845949179
 21
728.6223090102193
 31
0.0
  0
LINE
  5
B0D9
330
1E
100
AcDbEntity
  8
0
 48
0.27
100
AcDbLine
 10
929.923684402777
 20
734.3377051282709
 30
0.0
 11
929.8607845949179
 21
734.6223962318977
 31
0.0
  0
LINE
  5
B0DA
330
1E
100
AcDbEntity
  8
0
 48
0.27
100
AcDbLine
 10
929.8607845949179
 20
728.6223090102193
 30
0.0
 11
929.923684402777
 21
728.9070001138461
 31
0.0
  0
LINE
  5
B0DB
330
1E
100
AcDbEntity
  8
0
 48
0.27
100
AcDbLine
 10
926.8466720285784
 20
734.6223962318977
 30
0.0
 11
929.8607845949179
 21
734.6223962318977
 31
0.0
  0
LINE
  5
B0DC
330
1E
100
AcDbEntity
  8
0
 48
0.27
100
AcDbLine
 10
929.1979478091377
 20
728.6223090102193
 30
0.0
 11
929.4219248330998
 21
728.6799542526019
 31
0.0
  0
LINE
  5
B0DD
330
1E
100
AcDbEntity
  8
0
 48
0.27
100
AcDbLine
 10
929.1979478091377
 20
734.6223962318977
 30
0.0
 11
929.4219248330998
 21
734.5647509895152
 31
0.0
  0
LINE
  5
B0DE
330
1E
100
AcDbEntity
  8
0
 48
0.27
100
AcDbLine
 10
928.9739707851747
 20
728.6799542526019
 30
0.0
 11
929.1979478091377
 21
728.6223090102193
 31
0.0
  0
LINE
  5
B0DF
330
1E
100
AcDbEntity
  8
0
 48
0.27
100
AcDbLine
 10
928.9739707851747
 20
734.5647509895152
 30
0.0
 11
929.1979478091377
 21
734.6223962318977
 31
0.0
  0
LINE
  5
B0E0
330
1E
100
AcDbEntity
  8
0
 48
0.27
100
AcDbLine
 10
928.7586017361233
 20
728.8506735229057
 30
0.0
 11
928.9739707851747
 21
728.6799542526019
 31
0.0
  0
LINE
  5
B0E1
330
1E
100
AcDbEntity
  8
0
 48
0.27
100
AcDbLine
 10
928.7586017361233
 20
734.3940317192109
 30
0.0
 11
928.9739707851747
 21
734.5647509895152
 31
0.0
  0
LINE
  5
B0E2
330
1E
100
AcDbEntity
  8
0
 48
0.27
100
AcDbLine
 10
926.1838352427991
 20
731.622353289068
 30
0.0
 11
926.8466720285784
 21
734.6223962318977
 31
0.0
  0
LINE
  5
B0E3
330
1E
100
AcDbEntity
  8
0
 48
0.27
100
AcDbLine
 10
926.1838352427991
 20
731.622353289068
 30
0.0
 11
927.8722742375773
 21
731.622353289068
 31
0.0
  0
LINE
  5
B0E4
330
1E
100
AcDbEntity
  8
0
 48
0.27
100
AcDbLine
 10
926.8466720285784
 20
728.6223090102193
 30
0.0
 11
926.1838352427991
 21
731.622353289068
 31
0.0
  0
LINE
  5
B0E5
330
1E
100
AcDbEntity
  8
0
 48
0.27
100
AcDbLine
 10
928.7586017361233
 20
728.8506735229057
 30
0.0
 11
928.5601159682398
 21
729.1279069645074
 31
0.0
  0
LINE
  5
B0E6
330
1E
100
AcDbEntity
  8
0
 48
0.27
100
AcDbLine
 10
928.5601159682398
 20
734.1167982776096
 30
0.0
 11
928.7586017361233
 21
734.3940317192109
 31
0.0
  0
LINE
  5
B0E7
330
1E
100
AcDbEntity
  8
0
 48
0.27
100
AcDbLine
 10
928.5601159682398
 20
729.1279069645074
 30
0.0
 11
928.3861421538437
 21
729.5010011561475
 31
0.0
  0
LINE
  5
B0E8
330
1E
100
AcDbEntity
  8
0
 48
0.27
100
AcDbLine
 10
928.3861421538437
 20
733.7437040859695
 30
0.0
 11
928.5601159682398
 21
734.1167982776096
 31
0.0
  0
LINE
  5
B0E9
330
1E
100
AcDbEntity
  8
0
 48
0.27
100
AcDbLine
 10
928.5351110233575
 20
728.6223090102193
 30
0.0
 11
927.8722742375773
 21
731.622353289068
 31
0.0
  0
LINE
  5
B0EA
330
1E
100
AcDbEntity
  8
0
 48
0.27
100
AcDbLine
 10
927.8722742375773
 20
731.622353289068
 30
0.0
 11
928.5351110233575
 21
734.6223962318977
 31
0.0
  0
LINE
  5
B0EB
330
1E
100
AcDbEntity
  8
0
 48
0.27
100
AcDbLine
 10
928.3861421538437
 20
729.5010011561475
 30
0.0
 11
928.2433643996736
 21
729.9556179343981
 31
0.0
  0
LINE
  5
B0EC
330
1E
100
AcDbEntity
  8
0
 48
0.27
100
AcDbLine
 10
928.2433643996736
 20
733.2890873077194
 30
0.0
 11
928.3861421538437
 21
733.7437040859695
 31
0.0
  0
LINE
  5
B0ED
330
1E
100
AcDbEntity
  8
0
 48
0.27
100
AcDbLine
 10
928.2433643996736
 20
729.9556179343981
 30
0.0
 11
928.1372724107376
 21
730.4742861695126
 31
0.0
  0
LINE
  5
B0EE
330
1E
100
AcDbEntity
  8
0
 48
0.27
100
AcDbLine
 10
928.1372724107376
 20
732.770420408624
 30
0.0
 11
928.2433643996736
 21
733.2890873077194
 31
0.0
  0
LINE
  5
B0EF
330
1E
100
AcDbEntity
  8
0
 48
0.27
100
AcDbLine
 10
928.1372724107376
 20
730.4742861695126
 30
0.0
 11
928.0719410469954
 21
731.0370737833355
 31
0.0
  0
LINE
  5
B0F0
330
1E
100
AcDbEntity
  8
0
 48
0.27
100
AcDbLine
 10
928.0719410469954
 20
732.2076327947016
 30
0.0
 11
928.1372724107376
 21
732.770420408624
 31
0.0
  0
LINE
  5
B0F1
330
1E
100
AcDbEntity
  8
0
 48
0.27
100
AcDbLine
 10
928.0719410469954
 20
731.0370737833355
 30
0.0
 11
928.0498806895819
 21
731.622353289068
 31
0.0
  0
LINE
  5
B0F2
330
1E
100
AcDbEntity
  8
0
 48
0.27
100
AcDbLine
 10
928.0498806895819
 20
731.622353289068
 30
0.0
 11
928.0719410469954
 21
732.2076327947016
 31
0.0
  0
LINE
  5
B0F3
330
1E
100
AcDbEntity
  8
0
 48
0.27
100
AcDbLine
 10
929.4219248330998
 20
728.6799542526019
 30
0.0
 11
931.4237606509912
 21
729.5857822948078
 31
0.0
  0
LINE
  5
B0F4
330
1E
100
AcDbEntity
  8
0
 48
0.27
100
AcDbLine
 10
929.4219248330998
 20
734.5647509895152
 30
0.0
 11
931.4237606509912
 21
733.6589229473092
 31
0.0
  0
LINE
  5
B0F5
330
1E
100
AcDbEntity
  8
0
 48
0.27
100
AcDbLine
 10
928.4319409094576
 20
734.6223962318977
 30
0.0
 11
927.8545813285953
 21
735.6224109915138
 31
0.0
  0
LINE
  5
B0F6
330
1E
100
AcDbEntity
  8
中心線
 48
0.25
100
AcDbLine
 10
936.2797019816923
 20
731.622353289068
 30
0.0
 11
919.9121616812361
 21
731.622353289068
 31
0.0
  0
LINE
  5
B0F7
330
1E
100
AcDbEntity
  8
0
 48
0.3
100
AcDbLine
 10
963.0837446934298
 20
699.1223532885685
 30
0.0
 11
948.0451470132036
 21
699.1223532885685
 31
0.0
  0
LINE
  5
B0FB
330
1E
100
AcDbEntity
  8
中心線
 48
0.27
100
AcDbLine
 10
884.5451470132037
 20
701.0341299351398
 30
0.0
 11
884.5451470132037
 21
742.6223532885683
 31
0.0
  0
LINE
  5
B0FD
330
1E
100
AcDbEntity
  8
虛線
 48
0.25
100
AcDbLine
 10
932.5451470132035
 20
724.8223532888458
 30
0.0
 11
932.5451470132035
 21
732.8223532885683
 31
0.0
  0
LINE
  5
B0FE
330
1E
100
AcDbEntity
  8
虛線
 48
0.25
100
AcDbLine
 10
918.5451470132036
 20
724.8223532888456
 30
0.0
 11
918.5451470132036
 21
732.8223532885683
 31
0.0
  0
LINE
  5
B0FF
330
1E
100
AcDbEntity
  8
中心線
 48
0.27
100
AcDbLine
 10
966.5451470132037
 20
701.0341299351398
 30
0.0
 11
966.5451470132037
 21
742.6223532885683
 31
0.0
  0
LINE
  5
B100
330
1E
100
AcDbEntity
  8
虛線
 48
0.25
100
AcDbLine
 10
959.5451470132037
 20
699.1223532885683
 30
0.0
 11
959.5451470132035
 21
727.622353288568
 31
0.0
  0
LINE
  5
B104
330
1E
100
AcDbEntity
  8
虛線
 48
0.3
100
AcDbLine
 10
959.5451470132035
 20
727.622353288568
 30
0.0
 11
963.0451470132037
 21
727.6223532885681
 31
0.0
  0
LINE
  5
B105
330
1E
100
AcDbEntity
  8
虛線
 48
0.25
100
AcDbLine
 10
970.7951470132035
 20
727.6223532885681
 30
0.0
 11
970.7951470132035
 21
739.3223532885683
 31
0.0
  0
LINE
  5
B106
330
1E
100
AcDbEntity
  8
虛線
 48
0.25
100
AcDbLine
 10
971.5451470132036
 20
727.6223532885681
 30
0.0
 11
971.5451470132036
 21
740.0723532885678
 31
0.0
  0
LINE
  5
B107
330
1E
100
AcDbEntity
  8
虛線
 48
0.25
100
AcDbLine
 10
961.5451470132036
 20
727.6223532885681
 30
0.0
 11
961.5451470132036
 21
740.0723532885681
 31
0.0
  0
LINE
  5
B108
330
1E
100
AcDbEntity
  8
虛線
 48
0.25
100
AcDbLine
 10
962.2951470132036
 20
727.6223532885681
 30
0.0
 11
962.2951470132036
 21
739.3223532885683
 31
0.0
  0
LINE
  5
B109
330
1E
100
AcDbEntity
  8
虛線
 48
0.25
100
AcDbLine
 10
962.2951470132036
 20
739.3223532885683
 30
0.0
 11
970.7951470132035
 21
739.3223532885683
 31
0.0
  0
LINE
  5
B10A
330
1E
100
AcDbEntity
  8
虛線
 48
0.25
100
AcDbLine
 10
970.7951470132035
 20
739.3223532885683
 30
0.0
 11
972.0951470132028
 21
740.6223532885681
 31
0.0
  0
LINE
  5
B10B
330
1E
100
AcDbEntity
  8
虛線
 48
0.25
100
AcDbLine
 10
962.2951470132036
 20
739.3223532885683
 30
0.0
 11
960.9951470132044
 21
740.6223532885682
 31
0.0
  0
LINE
  5
B10C
330
1E
100
AcDbEntity
  8
虛線
 48
0.25
100
AcDbLine
 10
932.5451470132035
 20
732.8223532885683
 30
0.0
 11
918.5451470132036
 21
732.8223532885683
 31
0.0
  0
LINE
  5
B10D
330
1E
100
AcDbEntity
  8
虛線
 48
0.25
100
AcDbLine
 10
921.2951470132036
 20
732.8223532885683
 30
0.0
 11
921.2951470132036
 21
739.3223532885683
 31
0.0
  0
LINE
  5
B10E
330
1E
100
AcDbEntity
  8
虛線
 48
0.25
100
AcDbLine
 10
920.5451470132036
 20
732.8223532885683
 30
0.0
 11
920.5451470132036
 21
740.0723532885681
 31
0.0
  0
LINE
  5
B10F
330
1E
100
AcDbEntity
  8
虛線
 48
0.25
100
AcDbLine
 10
921.2951470132036
 20
739.3223532885683
 30
0.0
 11
929.7951470132035
 21
739.3223532885683
 31
0.0
  0
LINE
  5
B110
330
1E
100
AcDbEntity
  8
虛線
 48
0.25
100
AcDbLine
 10
930.5451470132041
 20
732.8223532885683
 30
0.0
 11
930.5451470132018
 21
740.0723532885674
 31
0.0
  0
LINE
  5
B111
330
1E
100
AcDbEntity
  8
虛線
 48
0.25
100
AcDbLine
 10
929.7951470132035
 20
732.8223532885683
 30
0.0
 11
929.7951470132035
 21
739.3223532885683
 31
0.0
  0
LINE
  5
B112
330
1E
100
AcDbEntity
  8
0
100
AcDbLine
 10
963.0451470132037
 20
727.6223532885681
 30
0.0
 11
975.5451470132056
 21
727.6223532885681
 31
0.0
  0
LINE
  5
B113
330
1E
100
AcDbEntity
  8
0
100
AcDbLine
 10
963.0451470132037
 20
699.1223532885685
 30
0.0
 11
963.0451470132037
 21
727.6223532885681
 31
0.0
  0
LINE
  5
B114
330
1E
100
AcDbEntity
  8
虛線
 48
0.25
100
AcDbLine
 10
891.5451470132055
 20
699.1223532885683
 30
0.0
 11
891.5451470132055
 21
727.622353288568
 31
0.0
  0
LINE
  5
B115
330
1E
100
AcDbEntity
  8
虛線
 48
0.3
100
AcDbLine
 10
891.5451470132055
 20
727.622353288568
 30
0.0
 11
888.0451470132054
 21
727.6223532885681
 31
0.0
  0
LINE
  5
B116
330
1E
100
AcDbEntity
  8
0
100
AcDbLine
 10
888.0451470132054
 20
727.6223532885681
 30
0.0
 11
876.045147013202
 21
727.6223532885681
 31
0.0
  0
LINE
  5
B117
330
1E
100
AcDbEntity
  8
0
100
AcDbLine
 10
888.0451470132037
 20
699.1223532885683
 30
0.0
 11
888.0451470132054
 21
727.6223532885681
 31
0.0
  0
LINE
  5
B118
330
1E
100
AcDbEntity
  8
0
100
AcDbLine
 10
875.5451470132054
 20
738.8223532885688
 30
0.0
 11
875.5451470132044
 21
728.6223532885673
 31
0.0
  0
LINE
  5
B119
330
1E
100
AcDbEntity
  8
0
100
AcDbLine
 10
896.0451470132055
 20
740.1223532885681
 30
0.0
 11
915.0451470132036
 21
740.1223532885683
 31
0.0
  0
LINE
  5
B11A
330
1E
100
AcDbEntity
  8
0
100
AcDbLine
 10
895.5451470132036
 20
740.6223532885682
 30
0.0
 11
877.3451470132046
 21
740.6223532885681
 31
0.0
  0
LINE
  5
B11B
330
1E
100
AcDbEntity
  8
0
100
AcDbLine
 10
877.3451470132046
 20
740.6223532885681
 30
0.0
 11
875.5451470132054
 21
738.8223532885688
 31
0.0
  0
LINE
  5
B11C
330
1E
100
AcDbEntity
  8
0
100
AcDbLine
 10
895.5451470132036
 20
740.6223532885682
 30
0.0
 11
896.0451470132055
 21
740.1223532885681
 31
0.0
  0
LINE
  5
B11D
330
1E
100
AcDbEntity
  8
0
100
AcDbLine
 10
955.0451470132037
 20
740.1223532885683
 30
0.0
 11
936.0451470132035
 21
740.1223532885683
 31
0.0
  0
LINE
  5
B11E
330
1E
100
AcDbEntity
  8
0
100
AcDbLine
 10
915.5451470132035
 20
740.6223532885682
 30
0.0
 11
935.5451470132036
 21
740.6223532885682
 31
0.0
  0
LINE
  5
B11F
330
1E
100
AcDbEntity
  8
0
100
AcDbLine
 10
915.0451470132036
 20
740.1223532885683
 30
0.0
 11
915.5451470132035
 21
740.6223532885682
 31
0.0
  0
LINE
  5
B120
330
1E
100
AcDbEntity
  8
0
100
AcDbLine
 10
936.0451470132035
 20
740.1223532885683
 30
0.0
 11
935.5451470132036
 21
740.6223532885682
 31
0.0
  0
LINE
  5
B121
330
1E
100
AcDbEntity
  8
0
100
AcDbLine
 10
975.5451470132037
 20
738.8223532885679
 30
0.0
 11
975.5451470132086
 21
711.5837556083473
 31
0.0
  0
LINE
  5
B123
330
1E
100
AcDbEntity
  8
0
100
AcDbLine
 10
955.5451470132036
 20
740.6223532885682
 30
0.0
 11
973.7451470132025
 21
740.6223532885681
 31
0.0
  0
LINE
  5
B124
330
1E
100
AcDbEntity
  8
0
100
AcDbLine
 10
955.5451470132036
 20
740.6223532885682
 30
0.0
 11
955.0451470132037
 21
740.1223532885683
 31
0.0
  0
LINE
  5
B125
330
1E
100
AcDbEntity
  8
0
100
AcDbLine
 10
975.5451470132037
 20
738.8223532885679
 30
0.0
 11
973.7451470132025
 21
740.6223532885681
 31
0.0
  0
LINE
  5
B126
330
1E
100
AcDbEntity
  8
虛線
 48
0.25
100
AcDbLine
 10
921.2951470132036
 20
739.3223532885683
 30
0.0
 11
919.9951470132026
 21
740.6223532885682
 31
0.0
  0
LINE
  5
B127
330
1E
100
AcDbEntity
  8
虛線
 48
0.25
100
AcDbLine
 10
929.7951470132035
 20
739.3223532885683
 30
0.0
 11
931.0951470132048
 21
740.6223532885681
 31
0.0
  0
LINE
  5
B128
330
1E
100
AcDbEntity
  8
虛線
 48
0.25
100
AcDbLine
 10
880.2951470132036
 20
727.6223532885681
 30
0.0
 11
880.2951470132036
 21
739.3223532885683
 31
0.0
  0
LINE
  5
B129
330
1E
100
AcDbEntity
  8
虛線
 48
0.25
100
AcDbLine
 10
879.5451470132036
 20
727.6223532885681
 30
0.0
 11
879.5451470132036
 21
740.0723532885678
 31
0.0
  0
LINE
  5
B12A
330
1E
100
AcDbEntity
  8
虛線
 48
0.25
100
AcDbLine
 10
889.5451470132035
 20
727.6223532885681
 30
0.0
 11
889.5451470132035
 21
740.0723532885681
 31
0.0
  0
LINE
  5
B12B
330
1E
100
AcDbEntity
  8
虛線
 48
0.25
100
AcDbLine
 10
888.7951470132035
 20
727.6223532885681
 30
0.0
 11
888.7951470132035
 21
739.3223532885683
 31
0.0
  0
LINE
  5
B12C
330
1E
100
AcDbEntity
  8
虛線
 48
0.25
100
AcDbLine
 10
888.7951470132035
 20
739.3223532885683
 30
0.0
 11
880.2951470132036
 21
739.3223532885683
 31
0.0
  0
LINE
  5
B12D
330
1E
100
AcDbEntity
  8
虛線
 48
0.25
100
AcDbLine
 10
880.2951470132036
 20
739.3223532885683
 30
0.0
 11
878.9951470132043
 21
740.6223532885682
 31
0.0
  0
LINE
  5
B12E
330
1E
100
AcDbEntity
  8
虛線
 48
0.25
100
AcDbLine
 10
888.7951470132035
 20
739.3223532885683
 30
0.0
 11
890.0951470132048
 21
740.6223532885682
 31
0.0
  0
LINE
  5
B12F
330
1E
100
AcDbEntity
  8
0
 48
0.27
100
AcDbLine
 10
888.0065493330903
 20
699.1223532884589
 30
0.0
 11
876.0451470131982
 21
711.0837556083508
 31
0.0
  0
LINE
  5
B130
330
1E
100
AcDbEntity
  8
0
 48
0.27
100
AcDbLine
 10
963.0837446934298
 20
699.1223532885685
 30
0.0
 11
975.5451470132086
 21
711.5837556083473
 31
0.0
  0
LINE
  5
B131
330
1E
100
AcDbEntity
  8
0
100
AcDbLine
 10
1205.344771654748
 20
905.028748374948
 30
0.0
 11
1205.344771654748
 21
805.0287483749498
 31
0.0
  0
LINE
  5
B132
330
1E
100
AcDbEntity
  8
0
100
AcDbLine
 10
1126.344771654748
 20
905.028748374948
 30
0.0
 11
1126.344771654748
 21
805.0287483749498
 31
0.0
  0
LINE
  5
B133
330
1E
100
AcDbEntity
  8
0
100
AcDbLine
 10
1205.344771654748
 20
805.0287483749498
 30
0.0
 11
1126.344771654748
 21
805.0287483749498
 31
0.0
  0
CIRCLE
  5
B134
330
1E
100
AcDbEntity
  8
0
100
AcDbCircle
 10
1196.844771654749
 20
896.0287483749478
 30
0.0
 40
4.25
  0
LINE
  5
B135
330
1E
100
AcDbEntity
  8
中心線
 48
0.5
100
AcDbLine
 10
1188.831993936217
 20
896.028748374948
 30
0.0
 11
1204.85754937328
 21
896.028748374948
 31
0.0
  0
LINE
  5
B136
330
1E
100
AcDbEntity
  8
中心線
 48
0.5
100
AcDbLine
 10
1196.844771654749
 20
904.0415260934796
 30
0.0
 11
1196.844771654749
 21
888.0159706564164
 31
0.0
  0
CIRCLE
  5
B138
330
1E
100
AcDbEntity
  8
0
100
AcDbCircle
 10
1191.844771654748
 20
855.0287483749478
 30
0.0
 40
4.25
  0
CIRCLE
  5
B139
330
1E
100
AcDbEntity
  8
0
100
AcDbCircle
 10
1196.844771654749
 20
814.028748374948
 30
0.0
 40
4.25
  0
LINE
  5
B13A
330
1E
100
AcDbEntity
  8
中心線
 48
0.5
100
AcDbLine
 10
1196.844771654749
 20
822.0415260934796
 30
0.0
 11
1196.844771654749
 21
806.0159706564164
 31
0.0
  0
LINE
  5
B13B
330
1E
100
AcDbEntity
  8
中心線
 48
0.5
100
AcDbLine
 10
1188.831993936217
 20
814.028748374948
 30
0.0
 11
1204.85754937328
 21
814.028748374948
 31
0.0
  0
CIRCLE
  5
B13C
330
1E
100
AcDbEntity
  8
0
100
AcDbCircle
 10
1134.844771654748
 20
814.028748374948
 30
0.0
 40
4.25
  0
LINE
  5
B13D
330
1E
100
AcDbEntity
  8
中心線
 48
0.5
100
AcDbLine
 10
1134.844771654748
 20
822.0415260934796
 30
0.0
 11
1134.844771654748
 21
806.0159706564164
 31
0.0
  0
LINE
  5
B13E
330
1E
100
AcDbEntity
  8
中心線
 48
0.5
100
AcDbLine
 10
1126.831993936217
 20
814.028748374948
 30
0.0
 11
1142.85754937328
 21
814.028748374948
 31
0.0
  0
CIRCLE
  5
B140
330
1E
100
AcDbEntity
  8
0
100
AcDbCircle
 10
1139.844771654749
 20
855.0287483749478
 30
0.0
 40
4.25
  0
CIRCLE
  5
B141
330
1E
100
AcDbEntity
  8
0
100
AcDbCircle
 10
1134.844771654748
 20
896.028748374948
 30
0.0
 40
4.25
  0
LINE
  5
B142
330
1E
100
AcDbEntity
  8
中心線
 48
0.5
100
AcDbLine
 10
1126.831993936217
 20
896.028748374948
 30
0.0
 11
1142.85754937328
 21
896.028748374948
 31
0.0
  0
LINE
  5
B143
330
1E
100
AcDbEntity
  8
中心線
 48
0.5
100
AcDbLine
 10
1134.844771654748
 20
904.0415260934796
 30
0.0
 11
1134.844771654748
 21
888.0159706564164
 31
0.0
  0
LINE
  5
B144
330
1E
100
AcDbEntity
  8
中心線
 48
0.5
100
AcDbLine
 10
1139.844771654749
 20
864.2940228078824
 30
0.0
 11
1139.844771654749
 21
845.7634739420145
 31
0.0
  0
LINE
  5
B145
330
1E
100
AcDbEntity
  8
中心線
 48
0.5
100
AcDbLine
 10
1191.844771654748
 20
864.2940228078824
 30
0.0
 11
1191.844771654748
 21
845.7634739420145
 31
0.0
  0
ARC
  5
B146
330
1E
100
AcDbEntity
  8
標註線
 62
     1
100
AcDbCircle
 10
1134.844771654748
 20
896.028748374948
 30
0.0
 40
5.0
100
AcDbArc
 50
169.9999999988309
 51
100.0000000011691
  0
LINE
  5
B153
330
1E
100
AcDbEntity
  8
0
100
AcDbLine
 10
1205.344771654748
 20
903.2287483749485
 30
0.0
 11
1126.344771654748
 21
903.2287483749477
 31
0.0
  0
LINE
  5
B154
330
1E
100
AcDbEntity
  8
0
100
AcDbLine
 10
1205.344771654748
 20
885.0287483749486
 30
0.0
 11
1126.344771654748
 21
885.0287483749481
 31
0.0
  0
LINE
  5
B155
330
1E
100
AcDbEntity
  8
0
100
AcDbLine
 10
1205.344771654748
 20
884.528748374948
 30
0.0
 11
1126.344771654748
 21
884.5287483749487
 31
0.0
  0
LINE
  5
B156
330
1E
100
AcDbEntity
  8
0
100
AcDbLine
 10
1205.344771654748
 20
865.0287483749488
 30
0.0
 11
1126.344771654748
 21
865.0287483749496
 31
0.0
  0
LINE
  5
B157
330
1E
100
AcDbEntity
  8
0
100
AcDbLine
 10
1205.344771654748
 20
865.5287483749496
 30
0.0
 11
1126.344771654748
 21
865.5287483749489
 31
0.0
  0
LINE
  5
B158
330
1E
100
AcDbEntity
  8
0
100
AcDbLine
 10
1205.344771654748
 20
845.0287483749493
 30
0.0
 11
1126.344771654748
 21
845.028748374948
 31
0.0
  0
LINE
  5
B159
330
1E
100
AcDbEntity
  8
0
100
AcDbLine
 10
1205.344771654748
 20
844.5287483749487
 30
0.0
 11
1126.344771654748
 21
844.528748374948
 31
0.0
  0
LINE
  5
B15A
330
1E
100
AcDbEntity
  8
0
100
AcDbLine
 10
1205.344771654748
 20
825.5287483749507
 30
0.0
 11
1126.344771654748
 21
825.5287483749507
 31
0.0
  0
LINE
  5
B15B
330
1E
100
AcDbEntity
  8
0
100
AcDbLine
 10
1205.344771654748
 20
825.0287483749479
 30
0.0
 11
1126.344771654748
 21
825.0287483749493
 31
0.0
  0
LINE
  5
B15C
330
1E
100
AcDbEntity
  8
0
100
AcDbLine
 10
1205.344771654748
 20
806.82874837495
 30
0.0
 11
1126.344771654748
 21
806.82874837495
 31
0.0
  0
LINE
  5
B15E
330
1E
100
AcDbEntity
  8
0
100
AcDbLine
 10
1205.344771654748
 20
905.028748374948
 30
0.0
 11
1126.344771654748
 21
905.028748374948
 31
0.0
  0
LINE
  5
B161
330
1E
100
AcDbEntity
  8
0
100
AcDbLine
 10
1205.344771654748
 20
890.0287483749478
 30
0.0
 11
1205.344771654748
 21
820.028748374948
 31
0.0
  0
LINE
  5
B162
330
1E
100
AcDbEntity
  8
0
100
AcDbLine
 10
1126.344771654748
 20
890.0287483749478
 30
0.0
 11
1126.344771654748
 21
820.0287483749498
 31
0.0
  0
LINE
  5
B163
330
1E
100
AcDbEntity
  8
0
  6
Continuous
 62
     7
100
AcDbLine
 10
1103.844771654749
 20
820.5287483749488
 30
0.0
 11
1126.344771654748
 21
820.5287483749488
 31
0.0
  0
LINE
  5
B164
330
1E
100
AcDbEntity
  8
0
  6
Continuous
 62
     7
100
AcDbLine
 10
1103.844771654749
 20
822.0287483749489
 30
0.0
 11
1126.344771654748
 21
822.0287483749489
 31
0.0
  0
LINE
  5
B165
330
1E
100
AcDbEntity
  8
0
  6
Continuous
 62
     7
100
AcDbLine
 10
1126.344771654748
 20
820.5287483749488
 30
0.0
 11
1126.344771654748
 21
889.5287483749489
 31
0.0
  0
LINE
  5
B166
330
1E
100
AcDbEntity
  8
0
  6
Continuous
 62
     7
100
AcDbLine
 10
1106.344771654748
 20
847.0787483749486
 30
0.0
 11
1126.344771654748
 21
847.0787483749486
 31
0.0
  0
LINE
  5
B167
330
1E
100
AcDbEntity
  8
0
  6
Continuous
 62
     7
100
AcDbLine
 10
1106.344771654748
 20
847.528748374949
 30
0.0
 11
1126.344771654748
 21
847.528748374949
 31
0.0
  0
LINE
  5
B168
330
1E
100
AcDbEntity
  8
0
  6
Continuous
 62
     7
100
AcDbLine
 10
1126.344771654748
 20
862.5287483749488
 30
0.0
 11
1106.344771654748
 21
862.5287483749488
 31
0.0
  0
LINE
  5
B169
330
1E
100
AcDbEntity
  8
0
  6
Continuous
 62
     7
100
AcDbLine
 10
1126.344771654748
 20
862.9787483749487
 30
0.0
 11
1106.344771654748
 21
862.9787483749487
 31
0.0
  0
LINE
  5
B16A
330
1E
100
AcDbEntity
  8
0
  6
Continuous
 62
     7
100
AcDbLine
 10
1106.344771654748
 20
820.5287483749488
 30
0.0
 11
1106.344771654748
 21
889.5287483749489
 31
0.0
  0
LINE
  5
B16B
330
1E
100
AcDbEntity
  8
0
  6
Continuous
 62
     7
100
AcDbLine
 10
1103.844771654749
 20
888.0287483749489
 30
0.0
 11
1126.344771654748
 21
888.0287483749489
 31
0.0
  0
LINE
  5
B16C
330
1E
100
AcDbEntity
  8
0
  6
Continuous
 62
     7
100
AcDbLine
 10
1103.844771654749
 20
889.5287483749489
 30
0.0
 11
1126.344771654748
 21
889.5287483749489
 31
0.0
  0
CIRCLE
  5
B16D
330
1E
100
AcDbEntity
  8
0
  6
Continuous
 62
     7
100
AcDbCircle
 10
1118.344771654748
 20
855.0287483749489
 30
0.0
 40
0.75
  0
CIRCLE
  5
B16E
330
1E
100
AcDbEntity
  8
0
  6
Continuous
 62
     7
100
AcDbCircle
 10
1118.344771654748
 20
855.0287483749489
 30
0.0
 40
5.15
  0
LINE
  5
B171
330
1E
100
AcDbEntity
  8
0
  6
Continuous
 62
     7
100
AcDbLine
 10
1227.844771654748
 20
820.5287483749488
 30
0.0
 11
1205.344771654748
 21
820.5287483749488
 31
0.0
  0
LINE
  5
B172
330
1E
100
AcDbEntity
  8
0
  6
Continuous
 62
     7
100
AcDbLine
 10
1227.844771654749
 20
822.0287483749489
 30
0.0
 11
1205.344771654748
 21
822.0287483749489
 31
0.0
  0
LINE
  5
B173
330
1E
100
AcDbEntity
  8
0
  6
Continuous
 62
     7
100
AcDbLine
 10
1225.344771654748
 20
847.0787483749486
 30
0.0
 11
1205.344771654748
 21
847.0787483749486
 31
0.0
  0
LINE
  5
B174
330
1E
100
AcDbEntity
  8
0
  6
Continuous
 62
     7
100
AcDbLine
 10
1225.344771654748
 20
847.528748374949
 30
0.0
 11
1205.344771654748
 21
847.528748374949
 31
0.0
  0
LINE
  5
B175
330
1E
100
AcDbEntity
  8
0
  6
Continuous
 62
     7
100
AcDbLine
 10
1205.344771654748
 20
862.5287483749488
 30
0.0
 11
1225.344771654748
 21
862.5287483749488
 31
0.0
  0
LINE
  5
B176
330
1E
100
AcDbEntity
  8
0
  6
Continuous
 62
     7
100
AcDbLine
 10
1205.344771654748
 20
862.9787483749487
 30
0.0
 11
1225.344771654748
 21
862.9787483749487
 31
0.0
  0
LINE
  5
B177
330
1E
100
AcDbEntity
  8
0
  6
Continuous
 62
     7
100
AcDbLine
 10
1225.344771654748
 20
820.5287483749488
 30
0.0
 11
1225.344771654748
 21
889.5287483749489
 31
0.0
  0
LINE
  5
B178
330
1E
100
AcDbEntity
  8
0
  6
Continuous
 62
     7
100
AcDbLine
 10
1227.844771654749
 20
888.0287483749489
 30
0.0
 11
1205.344771654748
 21
888.0287483749489
 31
0.0
  0
LINE
  5
B179
330
1E
100
AcDbEntity
  8
0
  6
Continuous
 62
     7
100
AcDbLine
 10
1227.844771654749
 20
889.5287483749489
 30
0.0
 11
1205.344771654748
 21
889.5287483749489
 31
0.0
  0
CIRCLE
  5
B17A
330
1E
100
AcDbEntity
  8
0
  6
Continuous
 62
     7
100
AcDbCircle
 10
1213.344771654748
 20
855.0287483749489
 30
0.0
 40
0.75
  0
CIRCLE
  5
B17B
330
1E
100
AcDbEntity
  8
0
  6
Continuous
 62
     7
100
AcDbCircle
 10
1213.344771654748
 20
855.0287483749489
 30
0.0
 40
5.15
  0
LINE
  5
B17E
330
1E
100
AcDbEntity
  8
0
 48
0.27
100
AcDbLine
 10
1103.844771654749
 20
889.5287483749489
 30
0.0
 11
1103.844771654749
 21
820.5287483749488
 31
0.0
  0
LINE
  5
B17F
330
1E
100
AcDbEntity
  8
0
 48
0.27
100
AcDbLine
 10
1227.844771654749
 20
889.5287483749489
 30
0.0
 11
1227.844771654748
 21
820.5287483749488
 31
0.0
  0
LINE
  5
B180
330
1E
100
AcDbEntity
  8
中心線
 48
0.3
100
AcDbLine
 10
1099.68104495637
 20
828.8287483715498
 30
0.0
 11
1106.844771654748
 21
828.8287483715498
 31
0.0
  0
ARC
  5
B181
330
1E
100
AcDbEntity
  8
0
  6
Continuous
 62
     7
100
AcDbCircle
 10
1108.348938321415
 20
828.8287483714993
 30
0.0
 40
5.704166666666643
100
AcDbArc
 50
142.1507111678919
 51
217.8492888321081
  0
LINE
  5
B182
330
1E
100
AcDbEntity
  8
中心線
 48
0.3
100
AcDbLine
 10
1099.68104495637
 20
881.2287483719542
 30
0.0
 11
1106.844771654748
 21
881.2287483719542
 31
0.0
  0
ARC
  5
B183
330
1E
100
AcDbEntity
  8
0
  6
Continuous
 62
     7
100
AcDbCircle
 10
1108.348938321415
 20
881.2287483719037
 30
0.0
 40
5.704166666666643
100
AcDbArc
 50
142.1507111678919
 51
217.8492888321081
  0
LINE
  5
B184
330
1E
100
AcDbEntity
  8
中心線
 48
0.3
100
AcDbLine
 10
1232.008498353126
 20
828.8287483715498
 30
0.0
 11
1224.844771654748
 21
828.8287483715498
 31
0.0
  0
ARC
  5
B185
330
1E
100
AcDbEntity
  8
0
  6
Continuous
 62
     7
100
AcDbCircle
 10
1223.340604988081
 20
828.8287483714993
 30
0.0
 40
5.704166666666643
100
AcDbArc
 50
322.1507111678919
 51
37.84928883210811
  0
LINE
  5
B186
330
1E
100
AcDbEntity
  8
中心線
 48
0.3
100
AcDbLine
 10
1232.008498353126
 20
881.2287483719542
 30
0.0
 11
1224.844771654749
 21
881.2287483719542
 31
0.0
  0
ARC
  5
B187
330
1E
100
AcDbEntity
  8
0
  6
Continuous
 62
     7
100
AcDbCircle
 10
1223.340604988082
 20
881.2287483719037
 30
0.0
 40
5.704166666666643
100
AcDbArc
 50
322.1507111678919
 51
37.84928883210811
  0
CIRCLE
  5
B188
330
1E
100
AcDbEntity
  8
0
  6
Continuous
 62
     7
100
AcDbCircle
 10
1116.344771654748
 20
728.0223532890113
 30
0.0
 40
3.0
  0
CIRCLE
  5
B189
330
1E
100
AcDbEntity
  8
0
  6
Continuous
 62
     7
100
AcDbCircle
 10
1116.344771654748
 20
728.0223532890113
 30
0.0
 40
2.5
  0
CIRCLE
  5
B18A
330
1E
100
AcDbEntity
  8
0
  6
Continuous
 62
     7
100
AcDbCircle
 10
1116.344771654748
 20
728.0223532890113
 30
0.0
 40
1.25
  0
CIRCLE
  5
B18B
330
1E
100
AcDbEntity
  8
0
  6
Continuous
 62
     7
100
AcDbCircle
 10
1215.344771654749
 20
728.022353288512
 30
0.0
 40
3.0
  0
CIRCLE
  5
B18C
330
1E
100
AcDbEntity
  8
0
  6
Continuous
 62
     7
100
AcDbCircle
 10
1215.344771654749
 20
728.022353288512
 30
0.0
 40
1.25
  0
CIRCLE
  5
B18D
330
1E
100
AcDbEntity
  8
0
  6
Continuous
 62
     7
100
AcDbCircle
 10
1215.344771654749
 20
728.022353288512
 30
0.0
 40
2.5
  0
ARC
  5
B18E
330
1E
100
AcDbEntity
  8
0
  6
Continuous
 62
     7
100
AcDbCircle
 10
1107.344771654749
 20
708.3223532885117
 30
0.0
 40
0.5
100
AcDbArc
 50
180.0
 51
270.0
  0
ARC
  5
B18F
330
1E
100
AcDbEntity
  8
0
  6
Continuous
 62
     7
100
AcDbCircle
 10
1107.344771654749
 20
712.8223532885117
 30
0.0
 40
0.5
100
AcDbArc
 50
90.0
 51
180.0
  0
ARC
  5
B190
330
1E
100
AcDbEntity
  8
0
  6
Continuous
 62
     7
100
AcDbCircle
 10
1224.344771654749
 20
708.3223532885117
 30
0.0
 40
0.5
100
AcDbArc
 50
270.0
 51
0.0
  0
ARC
  5
B191
330
1E
100
AcDbEntity
  8
0
  6
Continuous
 62
     7
100
AcDbCircle
 10
1224.344771654749
 20
712.8223532885117
 30
0.0
 40
0.5
100
AcDbArc
 50
0.0
 51
90.0
  0
LINE
  5
B192
330
1E
100
AcDbEntity
  8
0
  6
Continuous
 62
     7
100
AcDbLine
 10
1225.344771654748
 20
699.1223532884537
 30
0.0
 11
1225.344771654748
 21
740.2723532885118
 31
0.0
  0
LINE
  5
B193
330
1E
100
AcDbEntity
  8
0
  6
Continuous
 62
     7
100
AcDbLine
 10
1224.844771654749
 20
712.8222464232116
 30
0.0
 11
1224.844771654749
 21
708.3224601539114
 31
0.0
  0
LINE
  5
B194
330
1E
100
AcDbEntity
  8
0
  6
Continuous
 62
     7
100
AcDbLine
 10
1221.844771654749
 20
713.5723532885117
 30
0.0
 11
1221.844771654749
 21
707.5723532885117
 31
0.0
  0
LINE
  5
B195
330
1E
100
AcDbEntity
  8
0
  6
Continuous
 62
     7
100
AcDbLine
 10
1205.344771654748
 20
699.1223532885378
 30
0.0
 11
1205.344771654748
 21
740.6223532888457
 31
0.0
  0
LINE
  5
B196
330
1E
100
AcDbEntity
  8
0
  6
Continuous
 62
     7
100
AcDbLine
 10
1205.344771654748
 20
739.8223532885118
 30
0.0
 11
1227.844771654749
 21
739.8223532885118
 31
0.0
  0
LINE
  5
B197
330
1E
100
AcDbEntity
  8
0
  6
Continuous
 62
     7
100
AcDbLine
 10
1103.844771654749
 20
739.8223532890114
 30
0.0
 11
1126.344771654748
 21
739.8223532890114
 31
0.0
  0
LINE
  5
B198
330
1E
100
AcDbEntity
  8
0
  6
Continuous
 62
     7
100
AcDbLine
 10
1205.344771654748
 20
738.3223532885117
 30
0.0
 11
1227.844771654749
 21
738.3223532885117
 31
0.0
  0
LINE
  5
B199
330
1E
100
AcDbEntity
  8
0
  6
Continuous
 62
     7
100
AcDbLine
 10
1103.844771654749
 20
738.3223532890115
 30
0.0
 11
1126.344771654748
 21
738.3223532890115
 31
0.0
  0
LINE
  5
B19A
330
1E
100
AcDbEntity
  8
0
  6
Continuous
 62
     7
100
AcDbLine
 10
1221.844771654749
 20
713.5723532885117
 30
0.0
 11
1225.344771654748
 21
713.5723532885117
 31
0.0
  0
LINE
  5
B19B
330
1E
100
AcDbEntity
  8
0
  6
Continuous
 62
     7
100
AcDbLine
 10
1109.844771654748
 20
713.5723532890115
 30
0.0
 11
1106.344771654748
 21
713.5723532890115
 31
0.0
  0
LINE
  5
B19C
330
1E
100
AcDbEntity
  8
0
  6
Continuous
 62
     7
100
AcDbLine
 10
1221.844771654749
 20
713.3223532885117
 30
0.0
 11
1224.344771654749
 21
713.3223532885117
 31
0.0
  0
LINE
  5
B19D
330
1E
100
AcDbEntity
  8
0
  6
Continuous
 62
     7
100
AcDbLine
 10
1107.344771654749
 20
713.3223532885117
 30
0.0
 11
1109.844771654748
 21
713.3223532885117
 31
0.0
  0
LINE
  5
B19E
330
1E
100
AcDbEntity
  8
0
  6
Continuous
 62
     7
100
AcDbLine
 10
1221.844771654749
 20
707.8223532885117
 30
0.0
 11
1224.344771654749
 21
707.8223532885117
 31
0.0
  0
LINE
  5
B19F
330
1E
100
AcDbEntity
  8
0
  6
Continuous
 62
     7
100
AcDbLine
 10
1107.344771654749
 20
707.8223532885117
 30
0.0
 11
1109.844771654748
 21
707.8223532885117
 31
0.0
  0
LINE
  5
B1A0
330
1E
100
AcDbEntity
  8
0
  6
Continuous
 62
     7
100
AcDbLine
 10
1221.844771654749
 20
707.5723532885117
 30
0.0
 11
1225.344771654748
 21
707.5723532885117
 31
0.0
  0
LINE
  5
B1A1
330
1E
100
AcDbEntity
  8
0
  6
Continuous
 62
     7
100
AcDbLine
 10
1109.844771654748
 20
707.5723532890115
 30
0.0
 11
1106.344771654748
 21
707.5723532890115
 31
0.0
  0
LINE
  5
B1A2
330
1E
100
AcDbEntity
  8
0
  6
Continuous
 62
     7
100
AcDbLine
 10
1205.344771654748
 20
700.1223532885115
 30
0.0
 11
1227.844771654749
 21
700.1223532885115
 31
0.0
  0
LINE
  5
B1A3
330
1E
100
AcDbEntity
  8
0
  6
Continuous
 62
     7
100
AcDbLine
 10
1126.344771654748
 20
700.1223532890117
 30
0.0
 11
1103.844771654749
 21
700.1223532890117
 31
0.0
  0
LINE
  5
B1A4
330
1E
100
AcDbEntity
  8
0
  6
Continuous
 62
     7
100
AcDbLine
 10
1103.844771654749
 20
699.1223532890801
 30
0.0
 11
1126.344771654748
 21
699.1223532889855
 31
0.0
  0
LINE
  5
B1A5
330
1E
100
AcDbEntity
  8
0
  6
Continuous
 62
     7
100
AcDbLine
 10
1126.344771654748
 20
699.1223532889275
 30
0.0
 11
1205.344771654748
 21
699.1223532885956
 31
0.0
  0
LINE
  5
B1A6
330
1E
100
AcDbEntity
  8
0
  6
Continuous
 62
     7
100
AcDbLine
 10
1205.344771654748
 20
699.1223532885378
 30
0.0
 11
1227.844771654749
 21
699.1223532884433
 31
0.0
  0
LINE
  5
B1A7
330
1E
100
AcDbEntity
  8
0
  6
Continuous
 62
     7
100
AcDbLine
 10
1126.344771654748
 20
699.1223532889855
 30
0.0
 11
1126.344771654748
 21
740.6223532888457
 31
0.0
  0
LINE
  5
B1A8
330
1E
100
AcDbEntity
  8
0
  6
Continuous
 62
     7
100
AcDbLine
 10
1109.844771654748
 20
713.5723532890115
 30
0.0
 11
1109.844771654748
 21
707.5723532890115
 31
0.0
  0
LINE
  5
B1A9
330
1E
100
AcDbEntity
  8
0
  6
Continuous
 62
     7
100
AcDbLine
 10
1106.844771654748
 20
708.3223549315116
 30
0.0
 11
1106.844771654748
 21
712.8223516456118
 31
0.0
  0
LINE
  5
B1AA
330
1E
100
AcDbEntity
  8
0
  6
Continuous
 62
     7
100
AcDbLine
 10
1106.344771654748
 20
699.1223532890694
 30
0.0
 11
1106.344771654748
 21
740.2723532890113
 31
0.0
  0
SPLINE
  5
B1AB
330
1E
100
AcDbEntity
  8
0
  6
Continuous
 62
     7
100
AcDbSpline
210
0.0
220
0.0
230
1.0
 70
     8
 71
     3
 72
    10
 73
     6
 74
     4
 42
0.0000000001
 43
0.0000000001
 44
0.0000000001
 12
0.4944860456749705
 22
0.8691855674323701
 32
0.0
 13
0.0
 23
1.0
 33
0.0
 40
0.0
 40
0.0
 40
0.0
 40
0.0
 40
1.175827532424803
 40
2.382252441129304
 40
3.616216036101269
 40
3.616216036101269
 40
3.616216036101269
 40
3.616216036101269
 10
1140.929070626748
 20
699.1223532888457
 30
0.0
 10
1141.122880729049
 20
699.4630240625034
 30
0.0
 10
1141.458096145043
 20
700.1878182092456
 30
0.0
 10
1141.772662643771
 20
701.3570727379433
 30
0.0
 10
1141.844771661048
 20
702.1724346902217
 30
0.0
 10
1141.844771661048
 20
702.5837558885457
 30
0.0
 11
1140.929070626748
 21
699.1223532888457
 31
0.0
 11
1141.422610175348
 21
700.1895876117457
 31
0.0
 11
1141.736009835848
 21
701.3545947847456
 31
0.0
 11
1141.844771661048
 21
702.5837558885457
 31
0.0
  0
SPLINE
  5
B1AC
330
1E
100
AcDbEntity
  8
0
  6
Continuous
 62
     7
100
AcDbSpline
210
0.0
220
0.0
230
1.0
 70
     8
 71
     3
 72
    10
 73
     6
 74
     4
 42
0.0000000001
 43
0.0000000001
 44
0.0000000001
 12
0.0
 22
-1.0
 32
0.0
 13
0.4944860456808043
 23
-0.8691855674290511
 33
0.0
 40
0.0
 40
0.0
 40
0.0
 40
0.0
 40
1.23411223745029
 40
2.440360681808724
 40
3.61621573600266
 40
3.61621573600266
 40
3.61621573600266
 40
3.61621573600266
 10
1189.844771654748
 20
702.5837556086457
 30
0.0
 10
1189.844771654748
 20
702.172384862829
 30
0.0
 10
1189.916888792929
 20
701.3570314396234
 30
0.0
 10
1190.231464892448
 20
700.1877819673256
 30
0.0
 10
1190.566658044067
 20
699.4630320363436
 30
0.0
 10
1190.760472682748
 20
699.1223532888457
 30
0.0
 11
1189.844771654748
 21
702.5837556086457
 31
0.0
 11
1189.953559727148
 21
701.3544476041456
 31
0.0
 11
1190.266923687748
 21
700.1896135654456
 31
0.0
 11
1190.760472682748
 21
699.1223532888457
 31
0.0
  0
LINE
  5
B1AD
330
1E
100
AcDbEntity
  8
0
  6
Continuous
 62
     7
100
AcDbLine
 10
1126.344771654748
 20
739.1223532888457
 30
0.0
 11
1205.344771654748
 21
739.1223532888457
 31
0.0
  0
LINE
  5
B1AE
330
1E
100
AcDbEntity
  8
0
  6
Continuous
 62
     7
100
AcDbLine
 10
1189.844771654748
 20
702.5837556086457
 30
0.0
 11
1189.844771654748
 21
727.6223532888457
 31
0.0
  0
LINE
  5
B1AF
330
1E
100
AcDbEntity
  8
0
  6
Continuous
 62
     7
100
AcDbLine
 10
1189.844771654748
 20
711.5837556086457
 30
0.0
 11
1141.844771654748
 21
711.5837556086457
 31
0.0
  0
LINE
  5
B1B0
330
1E
100
AcDbEntity
  8
0
  6
Continuous
 62
     7
100
AcDbLine
 10
1141.844771661048
 20
702.5837558885457
 30
0.0
 11
1141.84477165499
 21
727.6223532888457
 31
0.0
  0
LINE
  5
B1B1
330
1E
100
AcDbEntity
  8
虛線
 48
0.25
100
AcDbLine
 10
1130.594771654749
 20
727.622353290426
 30
0.0
 11
1130.594771654749
 21
739.3223532904262
 31
0.0
  0
LINE
  5
B1B2
330
1E
100
AcDbEntity
  8
虛線
 48
0.25
100
AcDbLine
 10
1129.844771654749
 20
727.622353290426
 30
0.0
 11
1129.844771654749
 21
740.0723532904257
 31
0.0
  0
LINE
  5
B1B3
330
1E
100
AcDbEntity
  8
虛線
 48
0.3
100
AcDbLine
 10
1139.844771654749
 20
727.622353290426
 30
0.0
 11
1139.844771654749
 21
740.072353290426
 31
0.0
  0
LINE
  5
B1B4
330
1E
100
AcDbEntity
  8
虛線
 48
0.25
100
AcDbLine
 10
1139.094771654749
 20
727.622353290426
 30
0.0
 11
1139.094771654749
 21
739.3223532904262
 31
0.0
  0
LINE
  5
B1B5
330
1E
100
AcDbEntity
  8
虛線
 48
0.25
100
AcDbLine
 10
1139.094771654749
 20
739.3223532904262
 30
0.0
 11
1130.594771654749
 21
739.3223532904262
 31
0.0
  0
LINE
  5
B1B6
330
1E
100
AcDbEntity
  8
虛線
 48
0.25
100
AcDbLine
 10
1130.594771654749
 20
739.3223532904262
 30
0.0
 11
1129.294771654749
 21
740.6223532904261
 31
0.0
  0
LINE
  5
B1B7
330
1E
100
AcDbEntity
  8
虛線
 48
0.25
100
AcDbLine
 10
1139.094771654749
 20
739.3223532904262
 30
0.0
 11
1140.39477165475
 21
740.6223532904261
 31
0.0
  0
LINE
  5
B1B8
330
1E
100
AcDbEntity
  8
虛線
 48
0.25
100
AcDbLine
 10
1201.094771654749
 20
727.622353290426
 30
0.0
 11
1201.094771654749
 21
739.3223532904262
 31
0.0
  0
LINE
  5
B1B9
330
1E
100
AcDbEntity
  8
虛線
 48
0.25
100
AcDbLine
 10
1201.844771654748
 20
727.622353290426
 30
0.0
 11
1201.844771654748
 21
740.0723532904257
 31
0.0
  0
LINE
  5
B1BA
330
1E
100
AcDbEntity
  8
虛線
 48
0.3
100
AcDbLine
 10
1191.844771654748
 20
727.622353290426
 30
0.0
 11
1191.844771654748
 21
740.072353290426
 31
0.0
  0
LINE
  5
B1BB
330
1E
100
AcDbEntity
  8
虛線
 48
0.25
100
AcDbLine
 10
1192.594771654748
 20
727.622353290426
 30
0.0
 11
1192.594771654748
 21
739.3223532904262
 31
0.0
  0
LINE
  5
B1BC
330
1E
100
AcDbEntity
  8
虛線
 48
0.25
100
AcDbLine
 10
1192.594771654748
 20
739.3223532904262
 30
0.0
 11
1201.094771654749
 21
739.3223532904262
 31
0.0
  0
LINE
  5
B1BD
330
1E
100
AcDbEntity
  8
虛線
 48
0.25
100
AcDbLine
 10
1201.094771654749
 20
739.3223532904262
 30
0.0
 11
1202.394771654748
 21
740.6223532904261
 31
0.0
  0
LINE
  5
B1BE
330
1E
100
AcDbEntity
  8
虛線
 48
0.25
100
AcDbLine
 10
1192.594771654748
 20
739.3223532904262
 30
0.0
 11
1191.294771654747
 21
740.6223532904261
 31
0.0
  0
LINE
  5
B1BF
330
1E
100
AcDbEntity
  8
0
  6
Continuous
 62
     7
100
AcDbLine
 10
1126.344771654748
 20
740.6223532888457
 30
0.0
 11
1205.344771654748
 21
740.6223532888457
 31
0.0
  0
LINE
  5
B1C0
330
1E
100
AcDbEntity
  8
中心線
 48
0.3
100
AcDbLine
 10
1134.844771654748
 20
699.1223532888918
 30
0.0
 11
1134.844771654748
 21
742.6223532904262
 31
0.0
  0
LINE
  5
B1C1
330
1E
100
AcDbEntity
  8
中心線
 48
0.3
100
AcDbLine
 10
1139.844771654749
 20
721.8282416137119
 30
0.0
 11
1139.844771654749
 21
742.6223532904262
 31
0.0
  0
LINE
  5
B1C2
330
1E
100
AcDbEntity
  8
虛線
 48
0.25
100
AcDbLine
 10
1146.844771654748
 20
724.8223532888458
 30
0.0
 11
1146.844771654748
 21
732.8223532888458
 31
0.0
  0
LINE
  5
B1C3
330
1E
100
AcDbEntity
  8
虛線
 48
0.25
100
AcDbLine
 10
1132.844771654748
 20
724.8223532888458
 30
0.0
 11
1132.844771654748
 21
732.8223532888458
 31
0.0
  0
LINE
  5
B1C4
330
1E
100
AcDbEntity
  8
虛線
 48
0.25
100
AcDbLine
 10
1146.844771654748
 20
732.8223532888458
 30
0.0
 11
1132.844771654748
 21
732.8223532888458
 31
0.0
  0
LINE
  5
B1C5
330
1E
100
AcDbEntity
  8
虛線
 48
0.25
100
AcDbLine
 10
1135.594771654748
 20
732.8223532888458
 30
0.0
 11
1135.594771654748
 21
739.3223532888457
 31
0.0
  0
LINE
  5
B1C6
330
1E
100
AcDbEntity
  8
虛線
 48
0.25
100
AcDbLine
 10
1134.844771654748
 20
732.8223532888458
 30
0.0
 11
1134.844771654748
 21
740.0723532888455
 31
0.0
  0
LINE
  5
B1C7
330
1E
100
AcDbEntity
  8
虛線
 48
0.25
100
AcDbLine
 10
1135.594771654748
 20
739.3223532888457
 30
0.0
 11
1144.094771654748
 21
739.3223532888457
 31
0.0
  0
LINE
  5
B1C8
330
1E
100
AcDbEntity
  8
虛線
 48
0.25
100
AcDbLine
 10
1144.844771654748
 20
732.8223532888458
 30
0.0
 11
1144.844771654747
 21
740.0723532888449
 31
0.0
  0
LINE
  5
B1C9
330
1E
100
AcDbEntity
  8
虛線
 48
0.25
100
AcDbLine
 10
1144.094771654748
 20
732.8223532888458
 30
0.0
 11
1144.094771654748
 21
739.3223532888457
 31
0.0
  0
LINE
  5
B1CA
330
1E
100
AcDbEntity
  8
虛線
 48
0.25
100
AcDbLine
 10
1144.094771654748
 20
739.3223532888457
 30
0.0
 11
1145.39477165475
 21
740.6223532888454
 31
0.0
  0
LINE
  5
B1CB
330
1E
100
AcDbEntity
  8
虛線
 48
0.25
100
AcDbLine
 10
1135.594771654748
 20
739.3223532888457
 30
0.0
 11
1134.294771654747
 21
740.6223532888454
 31
0.0
  0
LINE
  5
B1CC
330
1E
100
AcDbEntity
  8
虛線
 48
0.25
100
AcDbLine
 10
1205.344771654748
 20
724.8223532888458
 30
0.0
 11
1126.344771654748
 21
724.8223532888458
 31
0.0
  0
LINE
  5
B1CD
330
1E
100
AcDbEntity
  8
虛線
 48
0.25
100
AcDbLine
 10
1198.844771654749
 20
724.8223532888458
 30
0.0
 11
1198.844771654749
 21
732.8223532888458
 31
0.0
  0
LINE
  5
B1CE
330
1E
100
AcDbEntity
  8
虛線
 48
0.25
100
AcDbLine
 10
1184.844771654748
 20
724.8223532888458
 30
0.0
 11
1184.844771654748
 21
732.8223532888458
 31
0.0
  0
LINE
  5
B1CF
330
1E
100
AcDbEntity
  8
虛線
 48
0.25
100
AcDbLine
 10
1198.844771654749
 20
732.8223532888458
 30
0.0
 11
1184.844771654748
 21
732.8223532888458
 31
0.0
  0
LINE
  5
B1D0
330
1E
100
AcDbEntity
  8
虛線
 48
0.25
100
AcDbLine
 10
1187.594771654748
 20
732.8223532888458
 30
0.0
 11
1187.594771654748
 21
739.3223532888457
 31
0.0
  0
LINE
  5
B1D1
330
1E
100
AcDbEntity
  8
虛線
 48
0.25
100
AcDbLine
 10
1187.594771654748
 20
739.3223532888457
 30
0.0
 11
1196.094771654748
 21
739.3223532888457
 31
0.0
  0
LINE
  5
B1D2
330
1E
100
AcDbEntity
  8
虛線
 48
0.25
100
AcDbLine
 10
1196.844771654749
 20
732.8223532888458
 30
0.0
 11
1196.844771654747
 21
740.0723532888449
 31
0.0
  0
LINE
  5
B1D3
330
1E
100
AcDbEntity
  8
虛線
 48
0.25
100
AcDbLine
 10
1196.094771654748
 20
732.8223532888458
 30
0.0
 11
1196.094771654748
 21
739.3223532888457
 31
0.0
  0
LINE
  5
B1D4
330
1E
100
AcDbEntity
  8
虛線
 48
0.25
100
AcDbLine
 10
1196.094771654748
 20
739.3223532888457
 30
0.0
 11
1197.394771654749
 21
740.6223532888454
 31
0.0
  0
LINE
  5
B1D5
330
1E
100
AcDbEntity
  8
虛線
 48
0.25
100
AcDbLine
 10
1187.594771654748
 20
739.3223532888457
 30
0.0
 11
1186.294771654747
 21
740.6223532888454
 31
0.0
  0
LINE
  5
B1D6
330
1E
100
AcDbEntity
  8
中心線
 48
0.3
100
AcDbLine
 10
1196.844771654749
 20
699.1223532886313
 30
0.0
 11
1196.844771654749
 21
742.6223532904262
 31
0.0
  0
LINE
  5
B1D7
330
1E
100
AcDbEntity
  8
中心線
 48
0.3
100
AcDbLine
 10
1191.844771654748
 20
721.8282416137119
 30
0.0
 11
1191.844771654748
 21
742.6223532904262
 31
0.0
  0
LINE
  5
B1D8
330
1E
100
AcDbEntity
  8
0
 48
0.27
100
AcDbLine
 10
1141.84477165499
 20
727.6223532888457
 30
0.0
 11
1126.344771654748
 21
727.6223532888457
 31
0.0
  0
LINE
  5
B1D9
330
1E
100
AcDbEntity
  8
0
 48
0.27
100
AcDbLine
 10
1189.844771654748
 20
727.6223532888457
 30
0.0
 11
1205.344771654748
 21
727.6223532888457
 31
0.0
  0
SPLINE
  5
B1DA
330
1E
100
AcDbEntity
  8
0
  6
Continuous
 62
     7
100
AcDbSpline
210
0.0
220
0.0
230
1.0
 70
     8
 71
     3
 72
    10
 73
     6
 74
     4
 42
0.0000000001
 43
0.0000000001
 44
0.0000000001
 12
0.0
 22
-1.0
 32
0.0
 13
-0.4944860456808042
 23
-0.8691855674290511
 33
0.0
 40
0.0
 40
0.0
 40
0.0
 40
0.0
 40
1.23411223745029
 40
2.440360681808842
 40
3.616215736002778
 40
3.616215736002778
 40
3.616215736002778
 40
3.616215736002778
 10
1203.844771654749
 20
702.5837556086457
 30
0.0
 10
1203.844771654749
 20
702.172384862829
 30
0.0
 10
1203.772654516569
 20
701.3570314396234
 30
0.0
 10
1203.458078417048
 20
700.1877819673258
 30
0.0
 10
1203.122885265429
 20
699.4630320363436
 30
0.0
 10
1202.929070626749
 20
699.1223532888457
 30
0.0
 11
1203.844771654749
 21
702.5837556086457
 31
0.0
 11
1203.735983582349
 21
701.3544476041456
 31
0.0
 11
1203.422619621748
 21
700.1896135654456
 31
0.0
 11
1202.929070626749
 21
699.1223532888457
 31
0.0
  0
LINE
  5
B1DB
330
1E
100
AcDbEntity
  8
0
  6
Continuous
 62
     7
100
AcDbLine
 10
1203.844771654749
 20
702.5837556086457
 30
0.0
 11
1203.844771654749
 21
727.6223532888457
 31
0.0
  0
SPLINE
  5
B1DC
330
1E
100
AcDbEntity
  8
0
  6
Continuous
 62
     7
100
AcDbSpline
210
0.0
220
0.0
230
1.0
 70
     8
 71
     3
 72
    10
 73
     6
 74
     4
 42
0.0000000001
 43
0.0000000001
 44
0.0000000001
 12
-0.4944860456749705
 22
0.8691855674323701
 32
0.0
 13
0.0
 23
1.0
 33
0.0
 40
0.0
 40
0.0
 40
0.0
 40
0.0
 40
1.175827532424803
 40
2.382252441129304
 40
3.616216036101189
 40
3.616216036101189
 40
3.616216036101189
 40
3.616216036101189
 10
1128.760472682748
 20
699.1223532888457
 30
0.0
 10
1128.566662580446
 20
699.4630240625034
 30
0.0
 10
1128.231447164454
 20
700.1878182092456
 30
0.0
 10
1127.916880665725
 20
701.3570727379431
 30
0.0
 10
1127.844771648448
 20
702.1724346902217
 30
0.0
 10
1127.844771648448
 20
702.5837558885457
 30
0.0
 11
1128.760472682748
 21
699.1223532888457
 31
0.0
 11
1128.266933134148
 21
700.1895876117457
 31
0.0
 11
1127.953533473648
 21
701.3545947847456
 31
0.0
 11
1127.844771648448
 21
702.5837558885457
 31
0.0
  0
LINE
  5
B1DD
330
1E
100
AcDbEntity
  8
0
  6
Continuous
 62
     7
100
AcDbLine
 10
1127.844771648448
 20
702.5837558885457
 30
0.0
 11
1127.844771654507
 21
727.6223532888457
 31
0.0
  0
LINE
  5
B1DE
330
1E
100
AcDbEntity
  8
0
 48
0.27
100
AcDbLine
 10
1227.844771654749
 20
699.1223532884433
 30
0.0
 11
1227.844771654749
 21
739.8223532885118
 31
0.0
  0
LINE
  5
B1DF
330
1E
100
AcDbEntity
  8
0
 48
0.27
100
AcDbLine
 10
1103.844771654749
 20
739.8223532890114
 30
0.0
 11
1103.844771654749
 21
699.1223532890801
 31
0.0
  0
LINE
  5
B1E0
330
1E
100
AcDbEntity
  8
0
 48
0.27
100
AcDbLine
 10
1305.844771654748
 20
838.0287483749487
 30
0.0
 11
1305.844771654748
 21
872.0287483749487
 31
0.0
  0
LINE
  5
B1E1
330
1E
100
AcDbEntity
  8
0
 48
0.27
100
AcDbLine
 10
1025.844771654748
 20
872.0287483749487
 30
0.0
 11
1025.844771654748
 21
838.0287483749487
 31
0.0
  0
LINE
  5
B1E2
330
1E
100
AcDbEntity
  8
0
 48
0.27
100
AcDbLine
 10
1025.844771654748
 20
838.0287483749487
 30
0.0
 11
1103.844771654749
 21
838.0287483749487
 31
0.0
  0
LINE
  5
B1E3
330
1E
100
AcDbEntity
  8
0
 48
0.27
100
AcDbLine
 10
1227.844771654749
 20
838.0287483749487
 30
0.0
 11
1305.844771654748
 21
838.0287483749487
 31
0.0
  0
LINE
  5
B1E4
330
1E
100
AcDbEntity
  8
0
 48
0.27
100
AcDbLine
 10
1025.844771654748
 20
872.0287483749487
 30
0.0
 11
1103.844771654749
 21
872.0287483749487
 31
0.0
  0
LINE
  5
B1E5
330
1E
100
AcDbEntity
  8
0
 48
0.27
100
AcDbLine
 10
1227.844771654749
 20
872.0287483749487
 30
0.0
 11
1305.844771654748
 21
872.0287483749487
 31
0.0
  0
CIRCLE
  5
B1E6
330
1E
100
AcDbEntity
  8
0
 48
0.27
100
AcDbCircle
 10
1045.844771654748
 20
855.0287483749487
 30
0.0
 40
4.499999999999772
  0
CIRCLE
  5
B1E7
330
1E
100
AcDbEntity
  8
0
 48
0.27
100
AcDbCircle
 10
1045.844771654748
 20
855.0287483749487
 30
0.0
 40
6.999999999999772
  0
CIRCLE
  5
B1E8
330
1E
100
AcDbEntity
  8
0
 48
0.27
100
AcDbCircle
 10
1085.844771654748
 20
855.0287483749487
 30
0.0
 40
4.499999999999772
  0
ARC
  5
B1E9
330
1E
100
AcDbEntity
  8
0
 48
0.27
100
AcDbCircle
 10
1085.844771654748
 20
855.0287483749487
 30
0.0
 40
6.999999999999772
100
AcDbArc
 50
344.5799378814883
 51
348.9567002153113
  0
CIRCLE
  5
B1EA
330
1E
100
AcDbEntity
  8
0
 48
0.27
100
AcDbCircle
 10
1245.844771654749
 20
855.0287483749487
 30
0.0
 40
4.499999999999772
  0
CIRCLE
  5
B1EB
330
1E
100
AcDbEntity
  8
0
 48
0.27
100
AcDbCircle
 10
1245.844771654749
 20
855.0287483749487
 30
0.0
 40
6.999999999999772
  0
CIRCLE
  5
B1EC
330
1E
100
AcDbEntity
  8
0
 48
0.27
100
AcDbCircle
 10
1285.844771654749
 20
855.0287483749487
 30
0.0
 40
4.499999999999772
  0
CIRCLE
  5
B1ED
330
1E
100
AcDbEntity
  8
0
 48
0.27
100
AcDbCircle
 10
1285.844771654749
 20
855.0287483749487
 30
0.0
 40
6.999999999999772
  0
LINE
  5
B1EE
330
1E
100
AcDbEntity
  8
中心線
 48
0.3
100
AcDbLine
 10
1036.597854149023
 20
855.0287483749487
 30
0.0
 11
1055.091689160475
 21
855.0287483749487
 31
0.0
  0
LINE
  5
B1EF
330
1E
100
AcDbEntity
  8
中心線
 48
0.3
100
AcDbLine
 10
1045.844771654748
 20
845.7818308692225
 30
0.0
 11
1045.844771654748
 21
864.2756658806751
 31
0.0
  0
LINE
  5
B1F0
330
1E
100
AcDbEntity
  8
中心線
 48
0.3
100
AcDbLine
 10
1076.597854149023
 20
855.0287483749487
 30
0.0
 11
1092.483718832263
 21
855.0287483749487
 31
0.0
  0
LINE
  5
B1F1
330
1E
100
AcDbEntity
  8
中心線
 48
0.3
100
AcDbLine
 10
1085.844771654748
 20
845.7818308692225
 30
0.0
 11
1085.844771654748
 21
864.2756658806751
 31
0.0
  0
LINE
  5
B1F2
330
1E
100
AcDbEntity
  8
中心線
 48
0.3
100
AcDbLine
 10
1236.597854149022
 20
855.0287483749487
 30
0.0
 11
1255.091689160474
 21
855.0287483749487
 31
0.0
  0
LINE
  5
B1F3
330
1E
100
AcDbEntity
  8
中心線
 48
0.3
100
AcDbLine
 10
1245.844771654749
 20
845.7818308692225
 30
0.0
 11
1245.844771654749
 21
864.2756658806751
 31
0.0
  0
LINE
  5
B1F4
330
1E
100
AcDbEntity
  8
中心線
 48
0.3
100
AcDbLine
 10
1276.597854149022
 20
855.0287483749487
 30
0.0
 11
1295.091689160474
 21
855.0287483749487
 31
0.0
  0
LINE
  5
B1F5
330
1E
100
AcDbEntity
  8
中心線
 48
0.3
100
AcDbLine
 10
1285.844771654749
 20
845.7818308692225
 30
0.0
 11
1285.844771654749
 21
864.2756658806751
 31
0.0
  0
LINE
  5
B1F6
330
1E
100
AcDbEntity
  8
0
  6
Continuous
 62
     7
100
AcDbLine
 10
1102.733110923642
 20
722.8223532885696
 30
0.0
 11
1025.844771654748
 21
722.8223532885699
 31
0.0
  0
LINE
  5
B1F7
330
1E
100
AcDbEntity
  8
0
  6
Continuous
 62
     7
100
AcDbLine
 10
1305.844771654748
 20
722.8223532885699
 30
0.0
 11
1228.956432385855
 21
722.8223532885701
 31
0.0
  0
LINE
  5
B216
330
1E
100
AcDbEntity
  8
0
  6
Continuous
 62
     7
100
AcDbLine
 10
1305.844771654748
 20
692.6223532885696
 30
0.0
 11
1025.844771654748
 21
692.6223532885683
 31
0.0
  0
LINE
  5
B217
330
1E
100
AcDbEntity
  8
虛線
 48
0.3
100
AcDbLine
 10
1252.844771654748
 20
722.4223532885694
 30
0.0
 11
1252.844771654748
 21
710.8223532885702
 31
0.0
  0
LINE
  5
B218
330
1E
100
AcDbEntity
  8
虛線
 48
0.3
100
AcDbLine
 10
1238.844771654748
 20
722.4223532885698
 30
0.0
 11
1238.844771654748
 21
710.8223532885702
 31
0.0
  0
LINE
  5
B219
330
1E
100
AcDbEntity
  8
虛線
 48
0.3
100
AcDbLine
 10
1250.344771654748
 20
710.5223532885706
 30
0.0
 11
1250.344771654748
 21
693.1223532885696
 31
0.0
  0
LINE
  5
B21A
330
1E
100
AcDbEntity
  8
虛線
 48
0.3
100
AcDbLine
 10
1241.344771654748
 20
710.5223532885697
 30
0.0
 11
1241.344771654748
 21
693.1223532885699
 31
0.0
  0
LINE
  5
B21B
330
1E
100
AcDbEntity
  8
虛線
 48
0.3
100
AcDbLine
 10
1238.844771654748
 20
710.8223532885702
 30
0.0
 11
1252.844771654748
 21
710.8223532885702
 31
0.0
  0
LINE
  5
B21C
330
1E
100
AcDbEntity
  8
虛線
 48
0.3
100
AcDbLine
 10
1252.844771654748
 20
722.4223532885698
 30
0.0
 11
1238.844771654748
 21
722.4223532885698
 31
0.0
  0
LINE
  5
B21D
330
1E
100
AcDbEntity
  8
虛線
 48
0.3
100
AcDbLine
 10
1250.344771654748
 20
693.1223532885696
 30
0.0
 11
1241.344771654748
 21
693.1223532885696
 31
0.0
  0
LINE
  5
B21E
330
1E
100
AcDbEntity
  8
虛線
 48
0.7
100
AcDbLine
 10
1240.844770940461
 20
692.6223532885706
 30
0.0
 11
1241.344771654748
 21
693.1223532885699
 31
0.0
  0
LINE
  5
B21F
330
1E
100
AcDbEntity
  8
虛線
 48
0.7
100
AcDbLine
 10
1250.344771654748
 20
693.1223532885699
 30
0.0
 11
1250.844772369034
 21
692.6223532885706
 31
0.0
  0
LINE
  5
B220
330
1E
100
AcDbEntity
  8
虛線
 48
0.3
100
AcDbLine
 10
1250.644771654748
 20
710.8223532885699
 30
0.0
 11
1250.344771654748
 21
710.52235328857
 31
0.0
  0
LINE
  5
B221
330
1E
100
AcDbEntity
  8
虛線
 48
0.3
100
AcDbLine
 10
1241.044771654748
 20
710.8223532885699
 30
0.0
 11
1241.344771654748
 21
710.52235328857
 31
0.0
  0
LINE
  5
B222
330
1E
100
AcDbEntity
  8
虛線
 48
0.3
100
AcDbLine
 10
1241.344771654748
 20
710.52235328857
 30
0.0
 11
1250.344771654748
 21
710.52235328857
 31
0.0
  0
LINE
  5
B223
330
1E
100
AcDbEntity
  8
虛線
 48
0.7
100
AcDbLine
 10
1238.844771654748
 20
722.4223532885698
 30
0.0
 11
1238.613831547072
 21
722.8223532885699
 31
0.0
  0
LINE
  5
B224
330
1E
100
AcDbEntity
  8
虛線
 48
0.7
100
AcDbLine
 10
1252.844771654748
 20
722.4223532885698
 30
0.0
 11
1253.075711762424
 21
722.8223532885699
 31
0.0
  0
LINE
  5
B225
330
1E
100
AcDbEntity
  8
中心線
 48
0.25
100
AcDbLine
 10
1245.844771654749
 20
690.6223532885704
 30
0.0
 11
1245.844771654748
 21
724.8223532885697
 31
0.0
  0
LINE
  5
B226
330
1E
100
AcDbEntity
  8
虛線
 48
0.3
100
AcDbLine
 10
1292.844771654748
 20
722.4223532885694
 30
0.0
 11
1292.844771654748
 21
710.8223532885702
 31
0.0
  0
LINE
  5
B227
330
1E
100
AcDbEntity
  8
虛線
 48
0.3
100
AcDbLine
 10
1278.844771654748
 20
722.4223532885698
 30
0.0
 11
1278.844771654748
 21
710.8223532885702
 31
0.0
  0
LINE
  5
B228
330
1E
100
AcDbEntity
  8
虛線
 48
0.3
100
AcDbLine
 10
1290.344771654748
 20
710.5223532885706
 30
0.0
 11
1290.344771654748
 21
693.1223532885696
 31
0.0
  0
LINE
  5
B229
330
1E
100
AcDbEntity
  8
虛線
 48
0.3
100
AcDbLine
 10
1281.344771654748
 20
710.5223532885697
 30
0.0
 11
1281.344771654748
 21
693.1223532885699
 31
0.0
  0
LINE
  5
B22A
330
1E
100
AcDbEntity
  8
虛線
 48
0.3
100
AcDbLine
 10
1278.844771654748
 20
710.8223532885702
 30
0.0
 11
1292.844771654748
 21
710.8223532885702
 31
0.0
  0
LINE
  5
B22B
330
1E
100
AcDbEntity
  8
虛線
 48
0.3
100
AcDbLine
 10
1292.844771654748
 20
722.4223532885698
 30
0.0
 11
1278.844771654748
 21
722.4223532885698
 31
0.0
  0
LINE
  5
B22C
330
1E
100
AcDbEntity
  8
虛線
 48
0.3
100
AcDbLine
 10
1290.344771654748
 20
693.1223532885696
 30
0.0
 11
1281.344771654748
 21
693.1223532885696
 31
0.0
  0
LINE
  5
B22D
330
1E
100
AcDbEntity
  8
虛線
 48
0.7
100
AcDbLine
 10
1280.844770940461
 20
692.6223532885706
 30
0.0
 11
1281.344771654748
 21
693.1223532885699
 31
0.0
  0
LINE
  5
B22E
330
1E
100
AcDbEntity
  8
虛線
 48
0.7
100
AcDbLine
 10
1290.344771654748
 20
693.1223532885699
 30
0.0
 11
1290.844772369034
 21
692.6223532885706
 31
0.0
  0
LINE
  5
B22F
330
1E
100
AcDbEntity
  8
虛線
 48
0.3
100
AcDbLine
 10
1290.644771654748
 20
710.8223532885699
 30
0.0
 11
1290.344771654748
 21
710.52235328857
 31
0.0
  0
LINE
  5
B230
330
1E
100
AcDbEntity
  8
虛線
 48
0.3
100
AcDbLine
 10
1281.044771654748
 20
710.8223532885699
 30
0.0
 11
1281.344771654748
 21
710.52235328857
 31
0.0
  0
LINE
  5
B231
330
1E
100
AcDbEntity
  8
虛線
 48
0.3
100
AcDbLine
 10
1281.344771654748
 20
710.52235328857
 30
0.0
 11
1290.344771654748
 21
710.52235328857
 31
0.0
  0
LINE
  5
B232
330
1E
100
AcDbEntity
  8
虛線
 48
0.7
100
AcDbLine
 10
1278.844771654748
 20
722.4223532885698
 30
0.0
 11
1278.613831547072
 21
722.8223532885699
 31
0.0
  0
LINE
  5
B233
330
1E
100
AcDbEntity
  8
虛線
 48
0.7
100
AcDbLine
 10
1292.844771654748
 20
722.4223532885698
 30
0.0
 11
1293.075711762424
 21
722.8223532885699
 31
0.0
  0
LINE
  5
B234
330
1E
100
AcDbEntity
  8
中心線
 48
0.25
100
AcDbLine
 10
1285.844771654749
 20
690.6223532885704
 30
0.0
 11
1285.844771654748
 21
724.8223532885697
 31
0.0
  0
LINE
  5
B235
330
1E
100
AcDbEntity
  8
0
  6
Continuous
 62
     7
100
AcDbLine
 10
1305.844771654748
 20
692.6223532885696
 30
0.0
 11
1305.844771654748
 21
722.8223532885699
 31
0.0
  0
LINE
  5
B236
330
1E
100
AcDbEntity
  8
虛線
 48
0.3
100
AcDbLine
 10
1170.344771654748
 20
699.1223532888102
 30
0.0
 11
1170.344771654748
 21
693.1223532885699
 31
0.0
  0
LINE
  5
B237
330
1E
100
AcDbEntity
  8
虛線
 48
0.3
100
AcDbLine
 10
1161.344771654748
 20
699.1223532888479
 30
0.0
 11
1161.344771654748
 21
693.1223532885701
 31
0.0
  0
LINE
  5
B238
330
1E
100
AcDbEntity
  8
虛線
 48
0.3
100
AcDbLine
 10
1170.344771654748
 20
693.1223532885699
 30
0.0
 11
1161.344771654748
 21
693.1223532885699
 31
0.0
  0
LINE
  5
B239
330
1E
100
AcDbEntity
  8
虛線
 48
0.7
100
AcDbLine
 10
1160.844770940461
 20
692.6223532885708
 30
0.0
 11
1161.344771654748
 21
693.1223532885701
 31
0.0
  0
LINE
  5
B23A
330
1E
100
AcDbEntity
  8
虛線
 48
0.7
100
AcDbLine
 10
1170.344771654748
 20
693.1223532885701
 30
0.0
 11
1170.844772369034
 21
692.6223532885708
 31
0.0
  0
LINE
  5
B23B
330
1E
100
AcDbEntity
  8
中心線
 48
0.25
100
AcDbLine
 10
1165.844771654748
 20
690.6223532885706
 30
0.0
 11
1165.844771654748
 21
699.1223532889973
 31
0.0
  0
LINE
  5
B23C
330
1E
100
AcDbEntity
  8
虛線
 48
0.3
100
AcDbLine
 10
1210.344771654748
 20
699.1223532888102
 30
0.0
 11
1210.344771654748
 21
693.1223532885699
 31
0.0
  0
LINE
  5
B23D
330
1E
100
AcDbEntity
  8
虛線
 48
0.3
100
AcDbLine
 10
1201.344771654748
 20
699.1223532888479
 30
0.0
 11
1201.344771654748
 21
693.1223532885701
 31
0.0
  0
LINE
  5
B23E
330
1E
100
AcDbEntity
  8
虛線
 48
0.3
100
AcDbLine
 10
1210.344771654748
 20
693.1223532885699
 30
0.0
 11
1201.344771654748
 21
693.1223532885699
 31
0.0
  0
LINE
  5
B23F
330
1E
100
AcDbEntity
  8
虛線
 48
0.7
100
AcDbLine
 10
1200.844770940461
 20
692.6223532885708
 30
0.0
 11
1201.344771654748
 21
693.1223532885701
 31
0.0
  0
LINE
  5
B240
330
1E
100
AcDbEntity
  8
虛線
 48
0.7
100
AcDbLine
 10
1210.344771654748
 20
693.1223532885701
 30
0.0
 11
1210.844772369034
 21
692.6223532885708
 31
0.0
  0
LINE
  5
B241
330
1E
100
AcDbEntity
  8
中心線
 48
0.25
100
AcDbLine
 10
1205.844771654749
 20
690.6223532885706
 30
0.0
 11
1205.844771654749
 21
699.1223532889973
 31
0.0
  0
LINE
  5
B242
330
1E
100
AcDbEntity
  8
虛線
 48
0.3
100
AcDbLine
 10
1130.344771654748
 20
699.1223532888102
 30
0.0
 11
1130.344771654748
 21
693.1223532885699
 31
0.0
  0
LINE
  5
B243
330
1E
100
AcDbEntity
  8
虛線
 48
0.3
100
AcDbLine
 10
1121.344771654748
 20
699.1223532888479
 30
0.0
 11
1121.344771654748
 21
693.1223532885701
 31
0.0
  0
LINE
  5
B244
330
1E
100
AcDbEntity
  8
虛線
 48
0.3
100
AcDbLine
 10
1130.344771654748
 20
693.1223532885699
 30
0.0
 11
1121.344771654748
 21
693.1223532885699
 31
0.0
  0
LINE
  5
B245
330
1E
100
AcDbEntity
  8
虛線
 48
0.7
100
AcDbLine
 10
1120.844770940461
 20
692.6223532885708
 30
0.0
 11
1121.344771654748
 21
693.1223532885701
 31
0.0
  0
LINE
  5
B246
330
1E
100
AcDbEntity
  8
虛線
 48
0.7
100
AcDbLine
 10
1130.344771654748
 20
693.1223532885701
 30
0.0
 11
1130.844772369034
 21
692.6223532885708
 31
0.0
  0
LINE
  5
B247
330
1E
100
AcDbEntity
  8
中心線
 48
0.25
100
AcDbLine
 10
1125.844771654748
 20
690.6223532885706
 30
0.0
 11
1125.844771654748
 21
699.1223532889973
 31
0.0
  0
LINE
  5
B248
330
1E
100
AcDbEntity
  8
虛線
 48
0.3
100
AcDbLine
 10
1078.844771654749
 20
722.4223532885694
 30
0.0
 11
1078.844771654749
 21
710.8223532885702
 31
0.0
  0
LINE
  5
B249
330
1E
100
AcDbEntity
  8
虛線
 48
0.3
100
AcDbLine
 10
1092.844771654748
 20
722.4223532885698
 30
0.0
 11
1092.844771654748
 21
710.8223532885702
 31
0.0
  0
LINE
  5
B24A
330
1E
100
AcDbEntity
  8
虛線
 48
0.3
100
AcDbLine
 10
1081.344771654748
 20
710.5223532885706
 30
0.0
 11
1081.344771654748
 21
693.1223532885696
 31
0.0
  0
LINE
  5
B24B
330
1E
100
AcDbEntity
  8
虛線
 48
0.3
100
AcDbLine
 10
1090.344771654748
 20
710.5223532885697
 30
0.0
 11
1090.344771654748
 21
693.1223532885699
 31
0.0
  0
LINE
  5
B24C
330
1E
100
AcDbEntity
  8
虛線
 48
0.3
100
AcDbLine
 10
1092.844771654748
 20
710.8223532885702
 30
0.0
 11
1078.844771654749
 21
710.8223532885702
 31
0.0
  0
LINE
  5
B24D
330
1E
100
AcDbEntity
  8
虛線
 48
0.3
100
AcDbLine
 10
1078.844771654749
 20
722.4223532885698
 30
0.0
 11
1092.844771654748
 21
722.4223532885698
 31
0.0
  0
LINE
  5
B24E
330
1E
100
AcDbEntity
  8
虛線
 48
0.3
100
AcDbLine
 10
1081.344771654748
 20
693.1223532885696
 30
0.0
 11
1090.344771654748
 21
693.1223532885696
 31
0.0
  0
LINE
  5
B24F
330
1E
100
AcDbEntity
  8
虛線
 48
0.7
100
AcDbLine
 10
1090.844772369035
 20
692.6223532885706
 30
0.0
 11
1090.344771654748
 21
693.1223532885699
 31
0.0
  0
LINE
  5
B250
330
1E
100
AcDbEntity
  8
虛線
 48
0.7
100
AcDbLine
 10
1081.344771654748
 20
693.1223532885699
 30
0.0
 11
1080.844770940462
 21
692.6223532885706
 31
0.0
  0
LINE
  5
B251
330
1E
100
AcDbEntity
  8
虛線
 48
0.3
100
AcDbLine
 10
1081.044771654748
 20
710.8223532885699
 30
0.0
 11
1081.344771654748
 21
710.52235328857
 31
0.0
  0
LINE
  5
B252
330
1E
100
AcDbEntity
  8
虛線
 48
0.3
100
AcDbLine
 10
1090.644771654749
 20
710.8223532885699
 30
0.0
 11
1090.344771654748
 21
710.52235328857
 31
0.0
  0
LINE
  5
B253
330
1E
100
AcDbEntity
  8
虛線
 48
0.3
100
AcDbLine
 10
1090.344771654748
 20
710.52235328857
 30
0.0
 11
1081.344771654748
 21
710.52235328857
 31
0.0
  0
LINE
  5
B254
330
1E
100
AcDbEntity
  8
虛線
 48
0.7
100
AcDbLine
 10
1092.844771654748
 20
722.4223532885698
 30
0.0
 11
1093.075711762424
 21
722.8223532885699
 31
0.0
  0
LINE
  5
B255
330
1E
100
AcDbEntity
  8
虛線
 48
0.7
100
AcDbLine
 10
1078.844771654749
 20
722.4223532885698
 30
0.0
 11
1078.613831547073
 21
722.8223532885699
 31
0.0
  0
LINE
  5
B256
330
1E
100
AcDbEntity
  8
中心線
 48
0.25
100
AcDbLine
 10
1085.844771654748
 20
690.6223532885704
 30
0.0
 11
1085.844771654748
 21
724.8223532885697
 31
0.0
  0
LINE
  5
B257
330
1E
100
AcDbEntity
  8
0
100
AcDbLine
 10
1038.844771654749
 20
722.4223532885694
 30
0.0
 11
1038.844771654749
 21
710.8223532885702
 31
0.0
  0
LINE
  5
B258
330
1E
100
AcDbEntity
  8
0
100
AcDbLine
 10
1052.844771654749
 20
722.4223532885698
 30
0.0
 11
1052.844771654749
 21
710.8223532885702
 31
0.0
  0
LINE
  5
B259
330
1E
100
AcDbEntity
  8
0
100
AcDbLine
 10
1041.344771654749
 20
710.5223532885706
 30
0.0
 11
1041.344771654749
 21
693.1223532885696
 31
0.0
  0
LINE
  5
B25A
330
1E
100
AcDbEntity
  8
0
100
AcDbLine
 10
1050.344771654748
 20
710.5223532885697
 30
0.0
 11
1050.344771654748
 21
693.1223532885699
 31
0.0
  0
LINE
  5
B25B
330
1E
100
AcDbEntity
  8
0
100
AcDbLine
 10
1052.844771654749
 20
710.8223532885702
 30
0.0
 11
1038.844771654749
 21
710.8223532885702
 31
0.0
  0
LINE
  5
B25C
330
1E
100
AcDbEntity
  8
0
100
AcDbLine
 10
1038.844771654749
 20
722.4223532885698
 30
0.0
 11
1052.844771654749
 21
722.4223532885698
 31
0.0
  0
LINE
  5
B25D
330
1E
100
AcDbEntity
  8
0
100
AcDbLine
 10
1041.344771654749
 20
693.1223532885696
 30
0.0
 11
1050.344771654748
 21
693.1223532885696
 31
0.0
  0
LINE
  5
B25E
330
1E
100
AcDbEntity
  8
0
100
AcDbLine
 10
1050.844772369035
 20
692.6223532885706
 30
0.0
 11
1050.344771654748
 21
693.1223532885699
 31
0.0
  0
LINE
  5
B25F
330
1E
100
AcDbEntity
  8
0
100
AcDbLine
 10
1041.344771654749
 20
693.1223532885699
 30
0.0
 11
1040.844770940462
 21
692.6223532885706
 31
0.0
  0
LINE
  5
B260
330
1E
100
AcDbEntity
  8
0
100
AcDbLine
 10
1041.044771654748
 20
710.8223532885699
 30
0.0
 11
1041.344771654749
 21
710.52235328857
 31
0.0
  0
LINE
  5
B261
330
1E
100
AcDbEntity
  8
0
100
AcDbLine
 10
1050.644771654749
 20
710.8223532885699
 30
0.0
 11
1050.344771654748
 21
710.52235328857
 31
0.0
  0
LINE
  5
B262
330
1E
100
AcDbEntity
  8
0
100
AcDbLine
 10
1050.344771654748
 20
710.52235328857
 30
0.0
 11
1041.344771654749
 21
710.52235328857
 31
0.0
  0
LINE
  5
B263
330
1E
100
AcDbEntity
  8
0
100
AcDbLine
 10
1052.844771654749
 20
722.4223532885698
 30
0.0
 11
1053.075711762424
 21
722.8223532885699
 31
0.0
  0
LINE
  5
B264
330
1E
100
AcDbEntity
  8
0
100
AcDbLine
 10
1038.844771654749
 20
722.4223532885698
 30
0.0
 11
1038.613831547072
 21
722.8223532885699
 31
0.0
  0
LINE
  5
B265
330
1E
100
AcDbEntity
  8
中心線
 48
0.25
100
AcDbLine
 10
1045.844771654748
 20
690.6223532885704
 30
0.0
 11
1045.844771654748
 21
724.8223532885697
 31
0.0
  0
LINE
  5
B266
330
1E
100
AcDbEntity
  8
0
  6
Continuous
 62
     7
100
AcDbLine
 10
1025.844771654748
 20
692.6223532885696
 30
0.0
 11
1025.844771654748
 21
722.8223532885699
 31
0.0
  0
ARC
  5
D4A8
330
1E
100
AcDbEntity
  8
標註線
 62
     1
100
AcDbCircle
 10
1139.844771654749
 20
855.0287483749478
 30
0.0
 40
5.0
100
AcDbArc
 50
169.9999999988309
 51
100.0000000011691
  0
ARC
  5
D4AF
330
1E
100
AcDbEntity
  8
標註線
 62
     1
100
AcDbCircle
 10
1134.844771654748
 20
814.0287483749482
 30
0.0
 40
5.0
100
AcDbArc
 50
169.9999999988309
 51
100.0000000011691
  0
ARC
  5
D4B6
330
1E
100
AcDbEntity
  8
標註線
 62
     1
100
AcDbCircle
 10
1196.844771654749
 20
814.028748374948
 30
0.0
 40
5.0
100
AcDbArc
 50
169.9999999988309
 51
100.0000000011691
  0
ARC
  5
D4BD
330
1E
100
AcDbEntity
  8
標註線
 62
     1
100
AcDbCircle
 10
1191.844771654748
 20
855.0287483749478
 30
0.0
 40
5.0
100
AcDbArc
 50
169.9999999988309
 51
100.0000000011691
  0
ARC
  5
D4C4
330
1E
100
AcDbEntity
  8
標註線
 62
     1
100
AcDbCircle
 10
1196.844771654749
 20
896.0287483749478
 30
0.0
 40
5.0
100
AcDbArc
 50
169.9999999988309
 51
100.0000000011691
  0
ARC
  5
D4CF
330
1E
100
AcDbEntity
  8
0
  6
Continuous
 62
     7
100
AcDbCircle
 10
1223.340604988082
 20
723.822353288338
 30
0.0
 40
5.704166666666643
100
AcDbArc
 50
322.1507111678919
 51
37.84928883210811
  0
LINE
  5
D4D0
330
1E
100
AcDbEntity
  8
中心線
 48
0.3
100
AcDbLine
 10
1232.008498353127
 20
723.8223532883885
 30
0.0
 11
1224.844771654749
 21
723.8223532883885
 31
0.0
  0
ARC
  5
D4D9
330
1E
100
AcDbEntity
  8
0
  6
Continuous
 62
     7
100
AcDbCircle
 10
1108.348938321415
 20
723.822353288338
 30
0.0
 40
5.704166666666643
100
AcDbArc
 50
142.1507111678919
 51
217.8492888321081
  0
LINE
  5
D4DA
330
1E
100
AcDbEntity
  8
中心線
 48
0.3
100
AcDbLine
 10
1099.68104495637
 20
723.8223532883885
 30
0.0
 11
1106.844771654748
 21
723.8223532883885
 31
0.0
  0
LINE
  5
D539
330
1E
100
AcDbEntity
  8
中心線
 48
0.27
100
AcDbLine
 10
1211.744771654749
 20
728.022353288512
 30
0.0
 11
1218.944771654748
 21
728.022353288512
 31
0.0
  0
LINE
  5
D53A
330
1E
100
AcDbEntity
  8
中心線
 48
0.27
100
AcDbLine
 10
1215.344771654749
 20
724.4223532885121
 30
0.0
 11
1215.344771654749
 21
731.6223532885119
 31
0.0
  0
LINE
  5
D542
330
1E
100
AcDbEntity
  8
中心線
 48
0.27
100
AcDbLine
 10
1112.744771654749
 20
728.0223532890113
 30
0.0
 11
1119.944771654748
 21
728.0223532890113
 31
0.0
  0
LINE
  5
D543
330
1E
100
AcDbEntity
  8
中心線
 48
0.27
100
AcDbLine
 10
1116.344771654748
 20
724.4223532890114
 30
0.0
 11
1116.344771654748
 21
731.6223532890112
 31
0.0
  0
LINE
  5
D544
330
1E
100
AcDbEntity
  8
虛線
 48
0.25
100
AcDbLine
 10
1196.844771654749
 20
732.8223532888458
 30
0.0
 11
1196.844771654749
 21
740.0723532888449
 31
0.0
  0
LINE
  5
D545
330
1E
100
AcDbEntity
  8
虛線
 48
0.25
100
AcDbLine
 10
1186.844771654748
 20
732.8223532888458
 30
0.0
 11
1186.844771654748
 21
740.072353288845
 31
0.0
  0
LINE
  5
D546
330
1E
100
AcDbEntity
  8
虛線
 48
0.25
100
AcDbLine
 10
1191.844771654748
 20
727.622353290426
 30
0.0
 11
1191.844771654748
 21
740.0723532904257
 31
0.0
  0
LINE
  5
D547
330
1E
100
AcDbEntity
  8
虛線
 48
0.25
100
AcDbLine
 10
1139.844771654749
 20
727.622353290426
 30
0.0
 11
1139.844771654749
 21
740.0723532904257
 31
0.0
  0
LINE
  5
D54D
330
1E
100
AcDbEntity
  8
中心線
 48
0.8
100
AcDbLine
 10
1165.844771654748
 20
909.0287483749479
 30
0.0
 11
1165.844771654749
 21
801.02874837495
 31
0.0
  0
LINE
  5
D54E
330
1E
100
AcDbEntity
  8
中心線
 48
0.8
100
AcDbLine
 10
1209.344771654748
 20
855.0287483749478
 30
0.0
 11
1122.344771654748
 21
855.0287483749489
 31
0.0
  0
ARC
  5
D57F
330
1E
100
AcDbEntity
  8
0
  6
Continuous
100
AcDbCircle
 10
1097.124457966355
 20
856.5756294824172
 30
0.0
 40
6.971504732179473
100
AcDbArc
 50
230.7213499979145
 51
264.2786500020961
  0
ARC
  5
D580
330
1E
100
AcDbEntity
  8
0
  6
Continuous
100
AcDbCircle
 10
1092.587972588244
 20
845.6235849570733
 30
0.0
 40
6.971504732179473
100
AcDbArc
 50
50.72134999791451
 51
84.27865000208308
  0
LINE
  5
D581
330
1E
100
AcDbEntity
  8
0
  6
Continuous
100
AcDbLine
 10
1092.466890528625
 20
853.2196411347401
 30
0.0
 11
1098.044813367183
 21
850.9091898451389
 31
0.0
  0
LINE
  5
D582
330
1E
100
AcDbEntity
  8
0
  6
Continuous
100
AcDbLine
 10
1091.667617187416
 20
851.2900245943516
 30
0.0
 11
1097.245540025974
 21
848.9795733047502
 31
0.0
  0
ARC
  5
D583
330
1E
100
AcDbEntity
  8
0
  6
Continuous
100
AcDbCircle
 10
1093.333041909653
 20
846.7053605569116
 30
0.0
 40
2.860349020536762
100
AcDbArc
 50
331.4135141737281
 51
16.41351417374012
  0
ARC
  5
D584
330
1E
100
AcDbEntity
  8
0
  6
Continuous
100
AcDbCircle
 10
1098.001647760244
 20
846.7805889448595
 30
0.0
 40
2.059673609817604
100
AcDbArc
 50
89.15209883494572
 51
159.1520988349398
  0
LINE
  5
D585
330
1E
100
AcDbEntity
  8
0
  6
Continuous
100
AcDbLine
 10
1091.64220237984
 20
849.3504833314867
 30
0.0
 11
1095.892048229392
 21
847.5901395426072
 31
0.0
  0
ARC
  5
D586
330
1E
100
AcDbEntity
  8
0
  6
Continuous
100
AcDbCircle
 10
1092.826059880989
 20
846.9153593890638
 30
0.0
 40
2.860349020536762
100
AcDbArc
 50
118.5864858262542
 51
163.5864858262599
  0
LINE
  5
D587
330
1E
100
AcDbEntity
  8
0
  6
Continuous
100
AcDbLine
 10
1093.700757633016
 20
843.1927822437268
 30
0.0
 11
1095.844702538549
 21
845.33672714926
 31
0.0
  0
LINE
  5
D588
330
1E
100
AcDbEntity
  8
0
  6
Continuous
100
AcDbLine
 10
1090.082277654748
 20
844.6916057259008
 30
0.0
 11
1090.082277654748
 21
847.7236016882867
 31
0.0
  0
LINE
  5
D589
330
1E
100
AcDbEntity
  8
0
  6
Continuous
100
AcDbLine
 10
1090.082277654748
 20
844.6916057259008
 30
0.0
 11
1093.700757633016
 21
843.1927822437268
 31
0.0
  0
LINE
  5
D58A
330
1E
100
AcDbEntity
  8
0
  6
Continuous
100
AcDbLine
 10
1090.082277654748
 20
847.7236016882867
 30
0.0
 11
1095.844702538549
 21
845.33672714926
 31
0.0
  0
ARC
  5
D58B
330
1E
100
AcDbEntity
  8
0
  6
Continuous
100
AcDbCircle
 10
1089.578051528605
 20
850.2697567479593
 30
0.0
 40
2.059673609817605
100
AcDbArc
 50
335.8479011650642
 51
45.8479011650646
  0
ARC
  5
D58C
330
1E
100
AcDbEntity
  8
0
  6
Continuous
100
AcDbCircle
 10
1092.377163447245
 20
853.003020797959
 30
0.0
 40
1.854133729915247
100
AcDbArc
 50
214.6327799989322
 51
280.3672200010575
  0
ARC
  5
D58D
330
1E
100
AcDbEntity
  8
0
  6
Continuous
100
AcDbCircle
 10
1091.757344268797
 20
851.5066449311326
 30
0.0
 40
1.854133729915247
100
AcDbArc
 50
34.63277999893215
 51
100.3672200010575
  0
LINE
  5
D58E
330
1E
100
AcDbEntity
  8
0
  6
Continuous
100
AcDbLine
 10
1090.851561524684
 20
851.9493496848268
 30
0.0
 11
1091.423638793199
 21
853.3304663852026
 31
0.0
  0
LINE
  5
D58F
330
1E
100
AcDbEntity
  8
0
  6
Continuous
100
AcDbLine
 10
1092.710869244884
 20
851.1791992104951
 30
0.0
 11
1093.282946513399
 21
852.5603159108708
 31
0.0
  0
ARC
  5
D590
330
1E
100
AcDbEntity
  8
0
  6
Continuous
100
AcDbCircle
 10
1108.049711634382
 20
855.0287483749492
 30
0.0
 40
7.96743397963368
100
AcDbArc
 50
163.2213499979083
 51
196.7786500020917
  0
LINE
  5
D591
330
1E
100
AcDbEntity
  8
0
  6
Continuous
100
AcDbLine
 10
1100.082277654748
 20
851.5787482753562
 30
0.0
 11
1100.082277654748
 21
858.4787484745421
 31
0.0
  0
LINE
  5
D592
330
1E
100
AcDbEntity
  8
0
  6
Continuous
100
AcDbLine
 10
1100.421530196858
 20
852.728748574135
 30
0.0
 11
1103.844771654749
 21
852.728748574135
 31
0.0
  0
LINE
  5
D593
330
1E
100
AcDbEntity
  8
0
  6
Continuous
100
AcDbLine
 10
1100.421530196858
 20
850.4287483749491
 30
0.0
 11
1103.844771654749
 21
850.4287483749491
 31
0.0
  0
ARC
  5
D594
330
1E
100
AcDbEntity
  8
0
  6
Continuous
100
AcDbCircle
 10
1102.201287631794
 20
851.5787482753562
 30
0.0
 40
2.119009977045996
100
AcDbArc
 50
147.1327799989424
 51
212.8672200010575
  0
ARC
  5
D595
330
1E
100
AcDbEntity
  8
0
  6
Continuous
100
AcDbCircle
 10
1097.335267107355
 20
849.1961936415314
 30
0.0
 40
1.854133729915247
100
AcDbArc
 50
34.63277999893215
 51
100.3672200010575
  0
LINE
  5
D596
330
1E
100
AcDbEntity
  8
0
  6
Continuous
100
AcDbLine
 10
1097.756173543017
 20
851.0287483749491
 30
0.0
 11
1100.154899742763
 21
851.0287483749491
 31
0.0
  0
LINE
  5
D597
330
1E
100
AcDbEntity
  8
0
  6
Continuous
100
AcDbLine
 10
1096.4294840412
 20
849.6388985286195
 30
0.0
 11
1097.001561309715
 21
851.0200152289954
 31
0.0
  0
ARC
  5
D598
330
1E
100
AcDbEntity
  8
0
  6
Continuous
100
AcDbCircle
 10
1097.955086285802
 20
850.6925695083578
 30
0.0
 40
1.854133729915247
100
AcDbArc
 50
214.6327799989322
 51
280.3672200010575
  0
LINE
  5
D599
330
1E
100
AcDbEntity
  8
0
  6
Continuous
100
AcDbLine
 10
1098.288749509353
 20
848.8687052750172
 30
0.0
 11
1098.860869402719
 21
850.2499248808845
 31
0.0
  0
LINE
  5
D59A
330
1E
100
AcDbEntity
  8
0
  6
Continuous
100
AcDbLine
 10
1100.421530196858
 20
859.6287483749492
 30
0.0
 11
1103.844771654749
 21
859.6287483749492
 31
0.0
  0
LINE
  5
D59B
330
1E
100
AcDbEntity
  8
0
  6
Continuous
100
AcDbLine
 10
1100.421530196858
 20
857.3287481757633
 30
0.0
 11
1103.844771654749
 21
857.3287481757633
 31
0.0
  0
LINE
  5
D59C
330
1E
100
AcDbEntity
  8
0
  6
Continuous
100
AcDbLine
 10
1096.483718832263
 20
859.0287483749492
 30
0.0
 11
1100.154899742763
 21
859.0287483749492
 31
0.0
  0
ARC
  5
D59D
330
1E
100
AcDbEntity
  8
0
  6
Continuous
100
AcDbCircle
 10
1102.201287631794
 20
858.4787484745421
 30
0.0
 40
2.119009977045996
100
AcDbArc
 50
147.1327799989424
 51
212.8672200010575
  0
ARC
  5
D59E
330
1E
100
AcDbEntity
  8
0
  6
Continuous
100
AcDbCircle
 10
1096.483718832263
 20
855.0287483749492
 30
0.0
 40
4.0
100
AcDbArc
 50
90.0
 51
210.8352048940846
  0
ARC
  5
D5A3
330
1E
100
AcDbEntity
  8
0
 48
0.27
100
AcDbCircle
 10
1085.844771654748
 20
855.0287483749487
 30
0.0
 40
6.999999999999772
100
AcDbArc
 50
11.04329978469363
 51
324.251666473528
  0
LINE
  5
D629
330
1E
100
AcDbEntity
  8
中心線
 48
0.27
100
AcDbLine
 10
1088.844773413765
 20
731.622353289068
 30
0.0
 11
1104.149241528302
 21
731.622353289068
 31
0.0
  0
ARC
  5
D62A
330
1E
100
AcDbEntity
  8
0
 48
0.27
100
AcDbCircle
 10
1103.036388654748
 20
729.6223726201681
 30
0.0
 40
2.954110999999976
100
AcDbArc
 50
137.3885930045096
 51
222.6114069976016
  0
ARC
  5
D62B
330
1E
100
AcDbEntity
  8
0
 48
0.27
100
AcDbCircle
 10
1103.036389654748
 20
733.6223726201681
 30
0.0
 40
2.954111999999976
100
AcDbArc
 50
137.3885980021923
 51
222.6114019999052
  0
LWPOLYLINE
  5
D62C
330
1E
100
AcDbEntity
  8
0
 48
0.27
100
AcDbPolyline
 90
       31
 70
     0
 43
0.0
 10
1092.753560654748
 20
731.622372620168
 10
1092.720742654748
 20
731.832627620168
 10
1092.676595654748
 20
731.938114620168
 10
1092.613562654748
 20
732.035893620168
 10
1092.534086654748
 20
732.1200066201681
 10
1092.442595654748
 20
732.1858796201682
 10
1092.344675654749
 20
732.231160620168
 10
1092.212039654748
 20
732.2601016201681
 10
1092.089030654748
 20
732.2574426201681
 10
1091.982106654748
 20
732.2319366201679
 10
1091.865901654748
 20
732.176168620168
 10
1091.755331654749
 20
732.0866796201681
 10
1091.667101654748
 20
731.972129620168
 10
1091.610467654748
 20
731.8522906201681
 10
1091.582616654748
 20
731.7486346201681
 10
1091.570995654748
 20
731.622372620168
 10
1091.603813654749
 20
731.4121176201681
 10
1091.647961654748
 20
731.306629620168
 10
1091.710993654748
 20
731.2088516201681
 10
1091.790469654748
 20
731.124738620168
 10
1091.881960654748
 20
731.058865620168
 10
1091.979880654748
 20
731.013584620168
 10
1092.112516654748
 20
730.9846426201679
 10
1092.235525654748
 20
730.987302620168
 10
1092.342449654748
 20
731.0128076201681
 10
1092.458654654748
 20
731.0685756201681
 10
1092.569224654749
 20
731.1580656201681
 10
1092.657454654748
 20
731.272614620168
 10
1092.714088654748
 20
731.392453620168
 10
1092.741940654748
 20
731.4961106201681
 10
1092.753560654748
 20
731.622372620168
  0
ARC
  5
D62D
330
1E
100
AcDbEntity
  8
0
 48
0.27
100
AcDbCircle
 10
1096.333937654748
 20
731.622372620168
 30
0.0
 40
3.999999999999968
100
AcDbArc
 50
90.0
 51
131.4096219995944
  0
ARC
  5
D62E
330
1E
100
AcDbEntity
  8
0
 48
0.27
100
AcDbCircle
 10
1096.333937654748
 20
731.622372620168
 30
0.0
 40
3.999999999999968
100
AcDbArc
 50
228.5903779972994
 51
270.0
  0
LINE
  5
D62F
330
1E
100
AcDbEntity
  8
0
 48
0.27
100
AcDbLine
 10
1103.844771654749
 20
735.622372620168
 30
0.0
 11
1096.333937654748
 21
735.622372620168
 31
0.0
  0
LINE
  5
D630
330
1E
100
AcDbEntity
  8
0
 48
0.27
100
AcDbLine
 10
1100.862273654748
 20
731.622372620168
 30
0.0
 11
1103.844771654749
 21
731.622372620168
 31
0.0
  0
LINE
  5
D631
330
1E
100
AcDbEntity
  8
0
 48
0.27
100
AcDbLine
 10
1096.333937654748
 20
727.622372620168
 30
0.0
 11
1103.844771654749
 21
727.6223726201679
 31
0.0
  0
LINE
  5
D632
330
1E
100
AcDbEntity
  8
0
 48
0.27
100
AcDbLine
 10
1100.082277654748
 20
735.622372620168
 30
0.0
 11
1100.082277654748
 21
727.622372620168
 31
0.0
  0
LINE
  5
D633
330
1E
100
AcDbEntity
  8
0
 48
0.27
100
AcDbLine
 10
1092.806500654748
 20
734.6223726201681
 30
0.0
 11
1096.706276654748
 21
734.6223726201681
 31
0.0
  0
LINE
  5
D634
330
1E
100
AcDbEntity
  8
0
 48
0.27
100
AcDbLine
 10
1092.560107654748
 20
729.0842996201681
 30
0.0
 11
1092.806500654748
 21
728.6223726201681
 31
0.0
  0
LINE
  5
D635
330
1E
100
AcDbEntity
  8
0
 48
0.27
100
AcDbLine
 10
1092.806500654748
 20
734.6223726201681
 30
0.0
 11
1092.560107654748
 21
734.160445620168
 31
0.0
  0
LINE
  5
D636
330
1E
100
AcDbEntity
  8
0
 48
0.27
100
AcDbLine
 10
1097.607118654748
 20
731.622372620168
 30
0.0
 11
1098.306482654749
 21
731.622372620168
 31
0.0
  0
LINE
  5
D637
330
1E
100
AcDbEntity
  8
0
 48
0.27
100
AcDbLine
 10
1096.706276654748
 20
734.6223726201681
 30
0.0
 11
1098.306482654749
 21
731.622372620168
 31
0.0
  0
LINE
  5
D638
330
1E
100
AcDbEntity
  8
0
 48
0.27
100
AcDbLine
 10
1096.706276654748
 20
728.6223726201681
 30
0.0
 11
1092.806500654748
 21
728.6223726201681
 31
0.0
  0
LINE
  5
D639
330
1E
100
AcDbEntity
  8
0
 48
0.27
100
AcDbLine
 10
1098.306482654749
 20
731.622372620168
 30
0.0
 11
1096.706276654748
 21
728.6223726201681
 31
0.0
  0
LINE
  5
D63A
330
1E
100
AcDbEntity
  8
0
 48
0.27
100
AcDbLine
 10
1092.927579654748
 20
734.1519066201681
 30
0.0
 11
1093.346046654748
 21
734.394010620168
 31
0.0
  0
LINE
  5
D63B
330
1E
100
AcDbEntity
  8
0
 48
0.27
100
AcDbLine
 10
1092.927579654748
 20
729.0928376201682
 30
0.0
 11
1093.346046654748
 21
728.850733620168
 31
0.0
  0
LINE
  5
D63C
330
1E
100
AcDbEntity
  8
0
 48
0.27
100
AcDbLine
 10
1093.346046654748
 20
734.394010620168
 30
0.0
 11
1093.865986654749
 21
734.5647286201681
 31
0.0
  0
LINE
  5
D63D
330
1E
100
AcDbEntity
  8
0
 48
0.27
100
AcDbLine
 10
1093.346046654748
 20
728.850733620168
 30
0.0
 11
1093.865986654749
 21
728.6800166201681
 31
0.0
  0
LINE
  5
D63E
330
1E
100
AcDbEntity
  8
0
 48
0.27
100
AcDbLine
 10
1093.865986654749
 20
734.5647286201681
 30
0.0
 11
1094.406706654748
 21
734.6223726201681
 31
0.0
  0
LINE
  5
D63F
330
1E
100
AcDbEntity
  8
0
 48
0.27
100
AcDbLine
 10
1093.865986654749
 20
728.6800166201681
 30
0.0
 11
1094.406706654748
 21
728.6223726201681
 31
0.0
  0
LINE
  5
D640
330
1E
100
AcDbEntity
  8
0
 48
0.27
100
AcDbLine
 10
1094.406706654748
 20
734.6223726201681
 30
0.0
 11
1094.947426654748
 21
734.5647286201681
 31
0.0
  0
LINE
  5
D641
330
1E
100
AcDbEntity
  8
0
 48
0.27
100
AcDbLine
 10
1094.406706654748
 20
728.6223726201681
 30
0.0
 11
1094.947426654748
 21
728.6800166201681
 31
0.0
  0
LINE
  5
D642
330
1E
100
AcDbEntity
  8
0
 48
0.27
100
AcDbLine
 10
1094.947426654748
 20
734.5647286201681
 30
0.0
 11
1095.467366654748
 21
734.394010620168
 31
0.0
  0
LINE
  5
D643
330
1E
100
AcDbEntity
  8
0
 48
0.27
100
AcDbLine
 10
1094.947426654748
 20
728.6800166201681
 30
0.0
 11
1095.467366654748
 21
728.850733620168
 31
0.0
  0
LINE
  5
D644
330
1E
100
AcDbEntity
  8
0
 48
0.27
100
AcDbLine
 10
1095.467366654748
 20
734.394010620168
 30
0.0
 11
1095.946546654748
 21
734.116781620168
 31
0.0
  0
LINE
  5
D645
330
1E
100
AcDbEntity
  8
0
 48
0.27
100
AcDbLine
 10
1095.467366654748
 20
728.850733620168
 30
0.0
 11
1095.946546654748
 21
729.1279636201681
 31
0.0
  0
LINE
  5
D646
330
1E
100
AcDbEntity
  8
0
 48
0.27
100
AcDbLine
 10
1095.946546654748
 20
734.116781620168
 30
0.0
 11
1096.366550654748
 21
733.743692620168
 31
0.0
  0
LINE
  5
D647
330
1E
100
AcDbEntity
  8
0
 48
0.27
100
AcDbLine
 10
1095.946546654748
 20
729.1279636201681
 30
0.0
 11
1096.366550654748
 21
729.501051620168
 31
0.0
  0
LINE
  5
D648
330
1E
100
AcDbEntity
  8
0
 48
0.27
100
AcDbLine
 10
1096.006912654749
 20
734.6223726201681
 30
0.0
 11
1097.607118654748
 21
731.622372620168
 31
0.0
  0
LINE
  5
D649
330
1E
100
AcDbEntity
  8
0
 48
0.27
100
AcDbLine
 10
1097.607118654748
 20
731.622372620168
 30
0.0
 11
1096.006912654749
 21
728.6223726201681
 31
0.0
  0
LINE
  5
D64A
330
1E
100
AcDbEntity
  8
0
 48
0.27
100
AcDbLine
 10
1096.366550654748
 20
733.743692620168
 30
0.0
 11
1096.711239654748
 21
733.2890826201681
 31
0.0
  0
LINE
  5
D64B
330
1E
100
AcDbEntity
  8
0
 48
0.27
100
AcDbLine
 10
1096.711239654748
 20
729.955661620168
 30
0.0
 11
1096.366550654748
 21
729.501051620168
 31
0.0
  0
LINE
  5
D64C
330
1E
100
AcDbEntity
  8
0
 48
0.27
100
AcDbLine
 10
1096.711239654748
 20
733.2890826201681
 30
0.0
 11
1096.967366654748
 21
732.7704226201681
 31
0.0
  0
LINE
  5
D64D
330
1E
100
AcDbEntity
  8
0
 48
0.27
100
AcDbLine
 10
1096.967366654748
 20
730.4743216201682
 30
0.0
 11
1096.711239654748
 21
729.955661620168
 31
0.0
  0
LINE
  5
D64E
330
1E
100
AcDbEntity
  8
0
 48
0.27
100
AcDbLine
 10
1096.967366654748
 20
732.7704226201681
 30
0.0
 11
1097.125088654749
 21
732.2076436201682
 31
0.0
  0
LINE
  5
D64F
330
1E
100
AcDbEntity
  8
0
 48
0.27
100
AcDbLine
 10
1097.125088654749
 20
731.0371016201681
 30
0.0
 11
1096.967366654748
 21
730.4743216201682
 31
0.0
  0
LINE
  5
D650
330
1E
100
AcDbEntity
  8
0
 48
0.27
100
AcDbLine
 10
1097.125088654749
 20
732.2076436201682
 30
0.0
 11
1097.178344654748
 21
731.622372620168
 31
0.0
  0
LINE
  5
D651
330
1E
100
AcDbEntity
  8
0
 48
0.27
100
AcDbLine
 10
1097.178344654748
 20
731.622372620168
 30
0.0
 11
1097.125088654749
 21
731.0371016201681
 31
0.0
  0
LINE
  5
D652
330
1E
100
AcDbEntity
  8
0
 48
0.27
100
AcDbLine
 10
1091.502809654748
 20
733.2625996201679
 30
0.0
 11
1091.505780654748
 21
733.260984620168
 31
0.0
  0
LINE
  5
D653
330
1E
100
AcDbEntity
  8
0
 48
0.27
100
AcDbLine
 10
1091.502809654748
 20
729.9821446201681
 30
0.0
 11
1091.505780654748
 21
729.9837606201681
 31
0.0
  0
LINE
  5
D654
330
1E
100
AcDbEntity
  8
0
 48
0.27
100
AcDbLine
 10
1090.390099654748
 20
732.120514620168
 30
0.0
 11
1090.344771654748
 21
731.622372620168
 31
0.0
  0
LINE
  5
D655
330
1E
100
AcDbEntity
  8
0
 48
0.27
100
AcDbLine
 10
1090.524341654748
 20
732.599512620168
 30
0.0
 11
1090.390099654748
 21
732.120514620168
 31
0.0
  0
LINE
  5
D656
330
1E
100
AcDbEntity
  8
0
 48
0.27
100
AcDbLine
 10
1090.344771654748
 20
731.622372620168
 30
0.0
 11
1090.390099654748
 21
731.1242306201681
 31
0.0
  0
LINE
  5
D657
330
1E
100
AcDbEntity
  8
0
 48
0.27
100
AcDbLine
 10
1090.742338654749
 20
733.0409606201681
 30
0.0
 11
1090.524341654748
 21
732.599512620168
 31
0.0
  0
LINE
  5
D658
330
1E
100
AcDbEntity
  8
0
 48
0.27
100
AcDbLine
 10
1090.390099654748
 20
731.1242306201681
 30
0.0
 11
1090.524341654748
 21
730.645231620168
 31
0.0
  0
LINE
  5
D659
330
1E
100
AcDbEntity
  8
0
 48
0.27
100
AcDbLine
 10
1091.035714654748
 20
733.4278926201682
 30
0.0
 11
1090.742338654749
 21
733.0409606201681
 31
0.0
  0
LINE
  5
D65A
330
1E
100
AcDbEntity
  8
0
 48
0.27
100
AcDbLine
 10
1090.524341654748
 20
730.645231620168
 30
0.0
 11
1090.742338654749
 21
730.2037846201681
 31
0.0
  0
LINE
  5
D65B
330
1E
100
AcDbEntity
  8
0
 48
0.27
100
AcDbLine
 10
1091.035714654748
 20
733.4278926201682
 30
0.0
 11
1091.393192654749
 21
733.7454396201681
 31
0.0
  0
LINE
  5
D65C
330
1E
100
AcDbEntity
  8
0
 48
0.27
100
AcDbLine
 10
1090.742338654749
 20
730.2037846201681
 30
0.0
 11
1091.035714654748
 21
729.8168526201679
 31
0.0
  0
LINE
  5
D65D
330
1E
100
AcDbEntity
  8
0
 48
0.27
100
AcDbLine
 10
1090.538802654748
 20
731.971908620168
 30
0.0
 11
1090.506996654748
 21
731.622372620168
 31
0.0
  0
LINE
  5
D65E
330
1E
100
AcDbEntity
  8
0
 48
0.27
100
AcDbLine
 10
1090.632997654748
 20
732.308012620168
 30
0.0
 11
1090.538802654748
 21
731.971908620168
 31
0.0
  0
LINE
  5
D65F
330
1E
100
AcDbEntity
  8
0
 48
0.27
100
AcDbLine
 10
1090.506996654748
 20
731.622372620168
 30
0.0
 11
1090.538802654748
 21
731.2728366201682
 31
0.0
  0
LINE
  5
D660
330
1E
100
AcDbEntity
  8
0
 48
0.27
100
AcDbLine
 10
1090.785961654749
 20
732.617767620168
 30
0.0
 11
1090.632997654748
 21
732.308012620168
 31
0.0
  0
LINE
  5
D661
330
1E
100
AcDbEntity
  8
0
 48
0.27
100
AcDbLine
 10
1090.538802654748
 20
731.2728366201682
 30
0.0
 11
1090.632997654748
 21
730.9367326201681
 31
0.0
  0
LINE
  5
D662
330
1E
100
AcDbEntity
  8
0
 48
0.27
100
AcDbLine
 10
1091.393192654749
 20
733.7454396201681
 30
0.0
 11
1091.801037654748
 21
733.9813986201682
 31
0.0
  0
LINE
  5
D663
330
1E
100
AcDbEntity
  8
0
 48
0.27
100
AcDbLine
 10
1091.035714654748
 20
729.8168526201679
 30
0.0
 11
1091.393192654749
 21
729.4993056201681
 31
0.0
  0
LINE
  5
D664
330
1E
100
AcDbEntity
  8
0
 48
0.27
100
AcDbLine
 10
1090.991817654749
 20
732.889269620168
 30
0.0
 11
1090.785961654749
 21
732.617767620168
 31
0.0
  0
LINE
  5
D665
330
1E
100
AcDbEntity
  8
0
 48
0.27
100
AcDbLine
 10
1090.632997654748
 20
730.9367326201681
 30
0.0
 11
1090.785961654749
 21
730.6269776201681
 31
0.0
  0
LINE
  5
D666
330
1E
100
AcDbEntity
  8
0
 48
0.27
100
AcDbLine
 10
1091.801037654748
 20
733.9813986201682
 30
0.0
 11
1092.243574654748
 21
734.1267006201681
 31
0.0
  0
LINE
  5
D667
330
1E
100
AcDbEntity
  8
0
 48
0.27
100
AcDbLine
 10
1091.393192654749
 20
729.4993056201681
 30
0.0
 11
1091.801037654748
 21
729.263346620168
 31
0.0
  0
LINE
  5
D668
330
1E
100
AcDbEntity
  8
0
 48
0.27
100
AcDbLine
 10
1090.991817654749
 20
732.889269620168
 30
0.0
 11
1091.242652654748
 21
733.1120866201681
 31
0.0
  0
LINE
  5
D669
330
1E
100
AcDbEntity
  8
0
 48
0.27
100
AcDbLine
 10
1090.785961654749
 20
730.6269776201681
 30
0.0
 11
1090.991817654749
 21
730.3554746201682
 31
0.0
  0
LINE
  5
D66A
330
1E
100
AcDbEntity
  8
0
 48
0.27
100
AcDbLine
 10
1092.243574654748
 20
734.1267006201681
 30
0.0
 11
1092.703797654748
 21
734.175763620168
 31
0.0
  0
LINE
  5
D66B
330
1E
100
AcDbEntity
  8
0
 48
0.27
100
AcDbLine
 10
1091.801037654748
 20
729.263346620168
 30
0.0
 11
1092.243574654748
 21
729.1180436201679
 31
0.0
  0
LINE
  5
D66C
330
1E
100
AcDbEntity
  8
0
 48
0.27
100
AcDbLine
 10
1091.242652654748
 20
733.1120866201681
 30
0.0
 11
1091.528829654748
 21
733.2776536201682
 31
0.0
  0
LINE
  5
D66D
330
1E
100
AcDbEntity
  8
0
 48
0.27
100
AcDbLine
 10
1090.991817654749
 20
730.3554746201682
 30
0.0
 11
1091.242652654748
 21
730.132658620168
 31
0.0
  0
LINE
  5
D66E
330
1E
100
AcDbEntity
  8
0
 48
0.27
100
AcDbLine
 10
1093.308456654749
 20
734.0993536201681
 30
0.0
 11
1093.746160654748
 21
733.9556376201681
 31
0.0
  0
LINE
  5
D66F
330
1E
100
AcDbEntity
  8
0
 48
0.27
100
AcDbLine
 10
1091.528829654748
 20
733.2776536201682
 30
0.0
 11
1091.839348654748
 21
733.3796096201681
 31
0.0
  0
LINE
  5
D670
330
1E
100
AcDbEntity
  8
0
 48
0.27
100
AcDbLine
 10
1091.242652654748
 20
730.132658620168
 30
0.0
 11
1091.528829654748
 21
729.9670906201681
 31
0.0
  0
LINE
  5
D671
330
1E
100
AcDbEntity
  8
0
 48
0.27
100
AcDbLine
 10
1093.164020654748
 20
734.1267006201681
 30
0.0
 11
1093.308456654749
 21
734.0993536201681
 31
0.0
  0
LINE
  5
D672
330
1E
100
AcDbEntity
  8
0
 48
0.27
100
AcDbLine
 10
1092.703797654748
 20
734.175763620168
 30
0.0
 11
1093.164020654748
 21
734.1267006201681
 31
0.0
  0
LINE
  5
D673
330
1E
100
AcDbEntity
  8
0
 48
0.27
100
AcDbLine
 10
1092.243574654748
 20
729.1180436201679
 30
0.0
 11
1092.703797654748
 21
729.0689816201681
 31
0.0
  0
LINE
  5
D674
330
1E
100
AcDbEntity
  8
0
 48
0.27
100
AcDbLine
 10
1093.746160654748
 20
733.9556376201681
 30
0.0
 11
1094.149551654749
 21
733.7222556201681
 31
0.0
  0
LINE
  5
D675
330
1E
100
AcDbEntity
  8
0
 48
0.27
100
AcDbLine
 10
1093.308456654749
 20
729.1453916201681
 30
0.0
 11
1093.746160654748
 21
729.2891076201681
 31
0.0
  0
LINE
  5
D676
330
1E
100
AcDbEntity
  8
0
 48
0.27
100
AcDbLine
 10
1094.149551654749
 20
733.7222556201681
 30
0.0
 11
1094.503126654748
 21
733.4081766201681
 31
0.0
  0
LINE
  5
D677
330
1E
100
AcDbEntity
  8
0
 48
0.27
100
AcDbLine
 10
1093.746160654748
 20
729.2891076201681
 30
0.0
 11
1094.149551654749
 21
729.5224896201682
 31
0.0
  0
LINE
  5
D678
330
1E
100
AcDbEntity
  8
0
 48
0.27
100
AcDbLine
 10
1091.839348654748
 20
733.3796096201681
 30
0.0
 11
1092.162278654748
 21
733.4140356201681
 31
0.0
  0
LINE
  5
D679
330
1E
100
AcDbEntity
  8
0
 48
0.27
100
AcDbLine
 10
1091.528829654748
 20
729.9670906201681
 30
0.0
 11
1091.839348654748
 21
729.8651346201681
 31
0.0
  0
LINE
  5
D67A
330
1E
100
AcDbEntity
  8
0
 48
0.27
100
AcDbLine
 10
1093.164020654748
 20
734.1267006201681
 30
0.0
 11
1093.606557654748
 21
733.9813986201682
 31
0.0
  0
LINE
  5
D67B
330
1E
100
AcDbEntity
  8
0
 48
0.27
100
AcDbLine
 10
1093.164020654748
 20
729.1180436201679
 30
0.0
 11
1093.308456654749
 21
729.1453916201681
 31
0.0
  0
LINE
  5
D67C
330
1E
100
AcDbEntity
  8
0
 48
0.27
100
AcDbLine
 10
1092.703797654748
 20
729.0689816201681
 30
0.0
 11
1093.164020654748
 21
729.1180436201679
 31
0.0
  0
LINE
  5
D67D
330
1E
100
AcDbEntity
  8
0
 48
0.27
100
AcDbLine
 10
1094.503126654748
 20
733.4081766201681
 30
0.0
 11
1094.793297654748
 21
733.025469620168
 31
0.0
  0
LINE
  5
D67E
330
1E
100
AcDbEntity
  8
0
 48
0.27
100
AcDbLine
 10
1094.149551654749
 20
729.5224896201682
 30
0.0
 11
1094.503126654748
 21
729.8365686201679
 31
0.0
  0
LINE
  5
D67F
330
1E
100
AcDbEntity
  8
0
 48
0.27
100
AcDbLine
 10
1092.162278654748
 20
733.4140356201681
 30
0.0
 11
1092.485207654748
 21
733.3796096201681
 31
0.0
  0
LINE
  5
D680
330
1E
100
AcDbEntity
  8
0
 48
0.27
100
AcDbLine
 10
1091.839348654748
 20
729.8651346201681
 30
0.0
 11
1092.162278654748
 21
729.8307086201682
 31
0.0
  0
LINE
  5
D681
330
1E
100
AcDbEntity
  8
0
 48
0.27
100
AcDbLine
 10
1093.606557654748
 20
733.9813986201682
 30
0.0
 11
1094.014401654748
 21
733.7454396201681
 31
0.0
  0
LINE
  5
D682
330
1E
100
AcDbEntity
  8
0
 48
0.27
100
AcDbLine
 10
1093.164020654748
 20
729.1180436201679
 30
0.0
 11
1093.606557654748
 21
729.263346620168
 31
0.0
  0
LINE
  5
D683
330
1E
100
AcDbEntity
  8
0
 48
0.27
100
AcDbLine
 10
1094.793297654748
 20
733.025469620168
 30
0.0
 11
1095.008914654749
 21
732.5888426201681
 31
0.0
  0
LINE
  5
D684
330
1E
100
AcDbEntity
  8
0
 48
0.27
100
AcDbLine
 10
1094.793297654748
 20
730.2192756201682
 30
0.0
 11
1094.503126654748
 21
729.8365686201679
 31
0.0
  0
LINE
  5
D685
330
1E
100
AcDbEntity
  8
0
 48
0.27
100
AcDbLine
 10
1095.008914654749
 20
732.5888426201681
 30
0.0
 11
1095.141690654748
 21
732.1150746201681
 31
0.0
  0
LINE
  5
D686
330
1E
100
AcDbEntity
  8
0
 48
0.27
100
AcDbLine
 10
1095.008914654749
 20
730.655902620168
 30
0.0
 11
1094.793297654748
 21
730.2192756201682
 31
0.0
  0
LINE
  5
D687
330
1E
100
AcDbEntity
  8
0
 48
0.27
100
AcDbLine
 10
1094.014401654748
 20
733.7454396201681
 30
0.0
 11
1094.371880654748
 21
733.4278926201682
 31
0.0
  0
LINE
  5
D688
330
1E
100
AcDbEntity
  8
0
 48
0.27
100
AcDbLine
 10
1093.606557654748
 20
729.263346620168
 30
0.0
 11
1094.014401654748
 21
729.4993056201681
 31
0.0
  0
LINE
  5
D689
330
1E
100
AcDbEntity
  8
0
 48
0.27
100
AcDbLine
 10
1095.141690654748
 20
732.1150746201681
 30
0.0
 11
1095.186523654748
 21
731.622372620168
 31
0.0
  0
LINE
  5
D68A
330
1E
100
AcDbEntity
  8
0
 48
0.27
100
AcDbLine
 10
1095.141690654748
 20
731.129670620168
 30
0.0
 11
1095.008914654749
 21
730.655902620168
 31
0.0
  0
LINE
  5
D68B
330
1E
100
AcDbEntity
  8
0
 48
0.27
100
AcDbLine
 10
1092.485207654748
 20
733.3796096201681
 30
0.0
 11
1092.795726654749
 21
733.2776536201682
 31
0.0
  0
LINE
  5
D68C
330
1E
100
AcDbEntity
  8
0
 48
0.27
100
AcDbLine
 10
1092.162278654748
 20
729.8307086201682
 30
0.0
 11
1092.485207654748
 21
729.8651346201681
 31
0.0
  0
LINE
  5
D68D
330
1E
100
AcDbEntity
  8
0
 48
0.27
100
AcDbLine
 10
1095.186523654748
 20
731.622372620168
 30
0.0
 11
1095.141690654748
 21
731.129670620168
 31
0.0
  0
LINE
  5
D68E
330
1E
100
AcDbEntity
  8
0
 48
0.27
100
AcDbLine
 10
1094.371880654748
 20
733.4278926201682
 30
0.0
 11
1094.665255654748
 21
733.0409606201681
 31
0.0
  0
LINE
  5
D68F
330
1E
100
AcDbEntity
  8
0
 48
0.27
100
AcDbLine
 10
1094.014401654748
 20
729.4993056201681
 30
0.0
 11
1094.371880654748
 21
729.8168526201679
 31
0.0
  0
LINE
  5
D690
330
1E
100
AcDbEntity
  8
0
 48
0.27
100
AcDbLine
 10
1092.795726654749
 20
733.2776536201682
 30
0.0
 11
1093.081903654748
 21
733.1120866201681
 31
0.0
  0
LINE
  5
D691
330
1E
100
AcDbEntity
  8
0
 48
0.27
100
AcDbLine
 10
1092.485207654748
 20
729.8651346201681
 30
0.0
 11
1092.795726654749
 21
729.9670906201681
 31
0.0
  0
LINE
  5
D692
330
1E
100
AcDbEntity
  8
0
 48
0.27
100
AcDbLine
 10
1094.665255654748
 20
733.0409606201681
 30
0.0
 11
1094.883252654748
 21
732.599512620168
 31
0.0
  0
LINE
  5
D693
330
1E
100
AcDbEntity
  8
0
 48
0.27
100
AcDbLine
 10
1094.665255654748
 20
730.2037846201681
 30
0.0
 11
1094.371880654748
 21
729.8168526201679
 31
0.0
  0
LINE
  5
D694
330
1E
100
AcDbEntity
  8
0
 48
0.27
100
AcDbLine
 10
1094.883252654748
 20
732.599512620168
 30
0.0
 11
1095.017495654748
 21
732.120514620168
 31
0.0
  0
LINE
  5
D695
330
1E
100
AcDbEntity
  8
0
 48
0.27
100
AcDbLine
 10
1094.883252654748
 20
730.645231620168
 30
0.0
 11
1094.665255654748
 21
730.2037846201681
 31
0.0
  0
LINE
  5
D696
330
1E
100
AcDbEntity
  8
0
 48
0.27
100
AcDbLine
 10
1093.081903654748
 20
733.1120866201681
 30
0.0
 11
1093.332738654749
 21
732.889269620168
 31
0.0
  0
LINE
  5
D697
330
1E
100
AcDbEntity
  8
0
 48
0.27
100
AcDbLine
 10
1092.795726654749
 20
729.9670906201681
 30
0.0
 11
1093.081903654748
 21
730.132658620168
 31
0.0
  0
LINE
  5
D698
330
1E
100
AcDbEntity
  8
0
 48
0.27
100
AcDbLine
 10
1095.017495654748
 20
732.120514620168
 30
0.0
 11
1095.062823654748
 21
731.622372620168
 31
0.0
  0
LINE
  5
D699
330
1E
100
AcDbEntity
  8
0
 48
0.27
100
AcDbLine
 10
1095.017495654748
 20
731.1242306201681
 30
0.0
 11
1094.883252654748
 21
730.645231620168
 31
0.0
  0
LINE
  5
D69A
330
1E
100
AcDbEntity
  8
0
 48
0.27
100
AcDbLine
 10
1095.062823654748
 20
731.622372620168
 30
0.0
 11
1095.017495654748
 21
731.1242306201681
 31
0.0
  0
LINE
  5
D69B
330
1E
100
AcDbEntity
  8
0
 48
0.27
100
AcDbLine
 10
1093.332738654749
 20
732.889269620168
 30
0.0
 11
1093.538594654748
 21
732.617767620168
 31
0.0
  0
LINE
  5
D69C
330
1E
100
AcDbEntity
  8
0
 48
0.27
100
AcDbLine
 10
1093.081903654748
 20
730.132658620168
 30
0.0
 11
1093.332738654749
 21
730.3554746201682
 31
0.0
  0
LINE
  5
D69D
330
1E
100
AcDbEntity
  8
0
 48
0.27
100
AcDbLine
 10
1093.538594654748
 20
732.617767620168
 30
0.0
 11
1093.691558654748
 21
732.308012620168
 31
0.0
  0
LINE
  5
D69E
330
1E
100
AcDbEntity
  8
0
 48
0.27
100
AcDbLine
 10
1093.538594654748
 20
730.6269776201681
 30
0.0
 11
1093.332738654749
 21
730.3554746201682
 31
0.0
  0
LINE
  5
D69F
330
1E
100
AcDbEntity
  8
0
 48
0.27
100
AcDbLine
 10
1093.691558654748
 20
732.308012620168
 30
0.0
 11
1093.785753654748
 21
731.971908620168
 31
0.0
  0
LINE
  5
D6A0
330
1E
100
AcDbEntity
  8
0
 48
0.27
100
AcDbLine
 10
1093.691558654748
 20
730.9367326201681
 30
0.0
 11
1093.538594654748
 21
730.6269776201681
 31
0.0
  0
LINE
  5
D6A1
330
1E
100
AcDbEntity
  8
0
 48
0.27
100
AcDbLine
 10
1093.785753654748
 20
731.971908620168
 30
0.0
 11
1093.817559654748
 21
731.622372620168
 31
0.0
  0
LINE
  5
D6A2
330
1E
100
AcDbEntity
  8
0
 48
0.27
100
AcDbLine
 10
1093.785753654748
 20
731.2728366201682
 30
0.0
 11
1093.691558654748
 21
730.9367326201681
 31
0.0
  0
LINE
  5
D6A3
330
1E
100
AcDbEntity
  8
0
 48
0.27
100
AcDbLine
 10
1093.817559654748
 20
731.622372620168
 30
0.0
 11
1093.785753654748
 21
731.2728366201682
 31
0.0
  0
POINT
  5
D6A4
330
1E
100
AcDbEntity
  8
0
100
AcDbPoint
 10
1090.344771654748
 20
731.622372620168
 30
0.0
1001
pntflag
1000
endpoint
  0
LINE
  5
D6AA
330
1E
100
AcDbEntity
  8
0
100
AcDbLine
 10
1060.32019198733
 20
722.8223532885697
 30
0.0
 11
1057.980106547009
 21
717.8352982403285
 31
0.0
  0
LINE
  5
D6AB
330
1E
100
AcDbEntity
  8
0
100
AcDbLine
 10
1057.980106547009
 20
717.8352982403285
 30
0.0
 11
1060.908490885933
 21
711.052981211872
 31
0.0
  0
LINE
  5
D6AC
330
1E
100
AcDbEntity
  8
0
100
AcDbLine
 10
1060.908490885933
 20
711.052981211872
 30
0.0
 11
1057.980106547009
 21
704.6276311560277
 31
0.0
  0
LINE
  5
D6AD
330
1E
100
AcDbEntity
  8
0
100
AcDbLine
 10
1057.980106547009
 20
704.6276311560277
 30
0.0
 11
1060.622801321284
 21
698.2022811001825
 31
0.0
  0
LINE
  5
D6AE
330
1E
100
AcDbEntity
  8
0
100
AcDbLine
 10
1060.622801321284
 20
698.2022811001825
 30
0.0
 11
1058.694342678707
 21
692.6223532885684
 31
0.0
  0
MTEXT
  5
D6B2
330
1E
100
AcDbEntity
  8
0
100
AcDbMText
 10
894.260253561854
 20
675.181152761198
 30
0.0
 40
7.800000159341863
 41
100.6095
 71
     1
 72
     5
  1
\A1;{\fTimes New Roman|b0|i0|c0|p18;RGW35CC\PC : 5890 kgf\PC\fProxy 1|b0|i0|c0|p0;\H0.7x;\S^ 0;\fTimes New Roman|b0|i0|c0|p18;\H1.429x;: 10720 kgf}
 73
     1
 44
1.0
1001
ACAD
1000
MTEXTBEGIN
1070
    73
1070
     1
1070
    44
1040
1.0
1070
    74
1070
     0
1000
MTEXTEND
  0
LINE
  5
D6B4
330
1E
100
AcDbEntity
  8
0
100
AcDbLine
 10
876.0451470132021
 20
728.1223532885694
 30
0.0
 11
876.0451470131982
 21
711.0837556083508
 31
0.0
  0
LINE
  5
D6B5
330
1E
100
AcDbEntity
  8
0
 48
0.3
100
AcDbLine
 10
875.5451470132044
 20
728.6223532885673
 30
0.0
 11
876.0451470132021
 21
728.1223532885694
 31
0.0
  0
LWPOLYLINE
  5
D6B6
330
1E
100
AcDbEntity
  8
0
 48
0.3
100
AcDbPolyline
 90
        2
 70
     0
 43
0.0
 10
875.5451470132038
 20
728.6223532885685
 10
875.5451470132038
 20
728.6223532885685
  0
LWPOLYLINE
  5
D6B7
330
1E
100
AcDbEntity
  8
0
 48
0.3
100
AcDbPolyline
 90
        2
 70
     0
 43
0.0
 10
875.5451470132038
 20
728.6223532885685
 10
875.5451470132038
 20
728.6223532885685
  0
LINE
  5
DEB1
330
1E
100
AcDbEntity
  8
0
  6
ByBlock
100
AcDbLine
 10
891.0451470167034
 20
700.1223532885529
 30
0.0
 11
892.0451470167034
 21
699.1223532885838
 31
0.0
  0
LINE
  5
DEBF
330
1E
100
AcDbEntity
  8
虛線
 48
0.25
100
AcDbLine
 10
933.0451470132038
 20
724.8223532888458
 30
0.0
 11
918.0451470132036
 21
724.8223532888456
 31
0.0
  0
LINE
  5
EAA1
330
1E
100
AcDbEntity
  8
0
  6
Continuous
 62
     7
100
AcDbLine
 10
1305.844771654748
 20
721.8223532885685
 30
0.0
 11
1228.682656781357
 21
721.8223532885685
 31
0.0
  0
LINE
  5
EAA2
330
1E
100
AcDbEntity
  8
0
  6
Continuous
 62
     7
100
AcDbLine
 10
1305.844771654748
 20
720.2223532890862
 30
0.0
 11
1227.844771654749
 21
720.2223532890862
 31
0.0
  0
LINE
  5
EAA3
330
1E
100
AcDbEntity
  8
0
  6
Continuous
 62
     7
100
AcDbLine
 10
1305.844771654748
 20
714.2223532880532
 30
0.0
 11
1227.844771654749
 21
714.2223532880532
 31
0.0
  0
LINE
  5
EAA4
330
1E
100
AcDbEntity
  8
0
  6
Continuous
 62
     7
100
AcDbLine
 10
1305.844771654748
 20
706.932353282357
 30
0.0
 11
1227.844771654749
 21
706.932353282357
 31
0.0
  0
LINE
  5
EAA5
330
1E
100
AcDbEntity
  8
0
  6
Continuous
 62
     7
100
AcDbLine
 10
1305.844771654748
 20
700.9323532899655
 30
0.0
 11
1227.844771654749
 21
700.9323532899655
 31
0.0
  0
LINE
  5
EAA6
330
1E
100
AcDbEntity
  8
0
  6
Continuous
 62
     7
100
AcDbLine
 10
1305.844771654748
 20
694.1223532885683
 30
0.0
 11
1059.212752246272
 21
694.1223532885683
 31
0.0
  0
LINE
  5
EAA7
330
1E
100
AcDbEntity
  8
0
  6
Continuous
 62
     7
100
AcDbLine
 10
1103.00688652814
 20
721.8223532885685
 30
0.0
 11
1059.850960062339
 21
721.8223532885685
 31
0.0
  0
LINE
  5
EAA9
330
1E
100
AcDbEntity
  8
0
  6
Continuous
 62
     7
100
AcDbLine
 10
1103.844771654749
 20
720.2223532890862
 30
0.0
 11
1059.100188982597
 21
720.2223532890862
 31
0.0
  0
LINE
  5
EAAA
330
1E
100
AcDbEntity
  8
0
  6
Continuous
 62
     7
100
AcDbLine
 10
1103.844771654749
 20
714.2223532880532
 30
0.0
 11
1059.540058901233
 21
714.2223532880532
 31
0.0
  0
LINE
  5
EAAB
330
1E
100
AcDbEntity
  8
0
  6
Continuous
 62
     7
100
AcDbLine
 10
1103.844771654749
 20
706.932353282357
 30
0.0
 11
1059.030494793821
 21
706.932353282357
 31
0.0
  0
LINE
  5
EAAC
330
1E
100
AcDbEntity
  8
0
  6
Continuous
 62
     7
100
AcDbLine
 10
1103.844771654749
 20
700.9323532899655
 30
0.0
 11
1059.499944598051
 21
700.9323532899655
 31
0.0
  0
ENDSEC
  0
SECTION
  2
OBJECTS
  0
DICTIONARY
  5
C
330
0
100
AcDbDictionary
281
     1
  3
ACAD_COLOR
350
3D97
  3
ACAD_GROUP
350
D
  3
ACAD_LAYOUT
350
19
  3
ACAD_MATERIAL
350
3D96
  3
ACAD_MLINESTYLE
350
16
  3
ACAD_PLOTSETTINGS
350
18
  3
ACAD_PLOTSTYLENAME
350
E
  3
ACAD_TABLESTYLE
350
E7A3
  3
ACDBHEADERROUNDTRIPXREC
350
EACA
  3
AcDbVariableDictionary
350
3E63
  0
DICTIONARY
  5
43C2
330
2
100
AcDbDictionary
280
     1
281
     1
  3
ACAD_LAYERSTATES
360
43C3
  0
DICTIONARY
  5
3D1E
330
1E
100
AcDbDictionary
280
     1
281
     1
  3
ACAD_LAYOUTSELFREF
360
3D92
  3
ACAD_SORTENTS
360
EAA8
  0
DICTIONARY
  5
3D20
330
1A
100
AcDbDictionary
280
     1
281
     1
  3
ACAD_LAYOUTSELFREF
360
3D91
  0
DICTIONARY
  5
69B8
330
69B7
100
AcDbDictionary
280
     1
281
     1
  3
ACAD_SORTENTS
360
69B9
  0
DICTIONARY
  5
69CC
330
69CB
100
AcDbDictionary
280
     1
281
     1
  3
ACAD_SORTENTS
360
69CD
  0
DICTIONARY
  5
3D97
102
{ACAD_REACTORS
330
C
102
}
330
C
100
AcDbDictionary
281
     1
  0
DICTIONARY
  5
D
102
{ACAD_REACTORS
330
C
102
}
330
C
100
AcDbDictionary
281
     1
  3
*A1
350
4143
  3
*A10
350
4378
  3
*A11
350
43BF
  3
*A12
350
423A
  3
*A13
350
414C
  3
*A14
350
579E
  3
*A15
350
4235
  3
*A16
350
437C
  3
*A17
350
414F
  3
*A18
350
437E
  3
*A19
350
4149
  3
*A2
350
4241
  3
*A20
350
4239
  3
*A21
350
4237
  3
*A22
350
423C
  3
*A23
350
43B6
  3
*A24
350
423B
  3
*A25
350
43B8
  3
*A26
350
576A
  3
*A27
350
4240
  3
*A28
350
423E
  3
*A29
350
4374
  3
*A3
350
43BB
  3
*A30
350
4373
  3
*A31
350
43BD
  3
*A32
350
4236
  3
*A33
350
4377
  3
*A34
350
4145
  3
*A35
350
437A
  3
*A36
350
4379
  3
*A37
350
43C1
  3
*A38
350
423D
  3
*A39
350
437D
  3
*A4
350
414D
  3
*A40
350
4146
  3
*A41
350
437F
  3
*A42
350
414B
  3
*A43
350
4375
  3
*A44
350
43B7
  3
*A45
350
414E
  3
*A46
350
43B9
  3
*A47
350
57D9
  3
*A48
350
437B
  3
*A49
350
43BC
  3
*A5
350
4144
  3
*A50
350
43BE
  3
*A51
350
4238
  3
*A52
350
43B5
  3
*A53
350
43C0
  3
*A54
350
4148
  3
*A55
350
423F
  3
*A56
350
43BA
  3
*A6
350
414A
  3
*A7
350
5691
  3
*A8
350
4376
  3
*A9
350
4147
  0
DICTIONARY
  5
19
102
{ACAD_REACTORS
330
C
102
}
330
C
100
AcDbDictionary
281
     1
  3
Model
350
21
  3
配置1
350
1D
  0
DICTIONARY
  5
3D96
102
{ACAD_REACTORS
330
C
102
}
330
C
100
AcDbDictionary
281
     1
  0
DICTIONARY
  5
16
102
{ACAD_REACTORS
330
C
102
}
330
C
100
AcDbDictionary
281
     1
  3
Standard
350
17
  0
DICTIONARY
  5
18
102
{ACAD_REACTORS
330
C
102
}
330
C
100
AcDbDictionary
281
     1
  3
LANSRO
350
4150
  0
ACDBDICTIONARYWDFLT
  5
E
102
{ACAD_REACTORS
330
C
102
}
330
C
100
AcDbDictionary
281
     1
  3
Normal
350
F
100
AcDbDictionaryWithDefault
340
F
  0
DICTIONARY
  5
E7A3
102
{ACAD_REACTORS
330
C
102
}
330
C
100
AcDbDictionary
281
     1
  3
Standard
350
E7A4
  0
DICTIONARY
  5
EACA
102
{ACAD_REACTORS
330
C
102
}
330
C
100
AcDbDictionary
281
     1
  3
COLORDICT
350
EACC
  3
MATERIALDICT
350
EACB
  0
DICTIONARY
  5
3E63
102
{ACAD_REACTORS
330
C
102
}
330
C
100
AcDbDictionary
281
     1
  3
CTABLESTYLE
350
E8F8
  3
DIMASSOC
350
3E64
  3
PROJECTNAME
350
3E65
  0
DICTIONARY
  5
43C3
102
{ACAD_REACTORS
330
43C2
102
}
330
43C2
100
AcDbDictionary
281
     1
  0
XRECORD
  5
3D92
102
{ACAD_REACTORS
330
3D1E
102
}
330
3D1E
100
AcDbXrecord
280
     1
340
1E
  0
SORTENTSTABLE
  5
EAA8
102
{ACAD_REACTORS
330
3D1E
102
}
330
3D1E
100
AcDbSortentsTable
330
1E
331
B1C8
  5
B1C8
331
B050
  5
B050
331
B019
  5
B019
331
B191
  5
B191
331
B115
  5
B115
331
D58C
  5
D58C
331
B09F
  5
B09F
331
B1D0
  5
B1D0
331
B227
  5
B227
331
B0D6
  5
B0D6
331
B25E
  5
B25E
331
D64B
  5
D64B
331
B021
  5
B021
331
B15A
  5
B15A
331
B199
  5
B199
331
D653
  5
D653
331
B11D
  5
B11D
331
D594
  5
D594
331
B0A7
  5
B0A7
331
B068
  5
B068
331
B1A1
  5
B1A1
331
B1D8
  5
B1D8
331
B029
  5
B029
331
B162
  5
B162
331
B22F
  5
B22F
331
B0DE
  5
B0DE
331
B266
  5
B266
331
D65B
  5
D65B
331
B237
  5
B237
331
B0E6
  5
B0E6
331
B125
  5
B125
331
B0AF
  5
B0AF
331
B16A
  5
B16A
331
B070
  5
B070
331
B1E0
  5
B1E0
331
D59C
  5
D59C
331
B0EE
  5
B0EE
331
D680
  5
D680
331
D688
  5
D688
331
DEBF
  5
DEBF
331
D690
  5
D690
331
D698
  5
D698
331
B1E8
  5
B1E8
331
B078
  5
B078
331
B031
  5
B031
331
B172
  5
B172
331
B1A9
  5
B1A9
331
AFFA
  5
AFFA
331
B12B
  5
B12B
331
D545
  5
D545
331
D62C
  5
D62C
331
B0B7
  5
B0B7
331
B1F0
  5
B1F0
331
B23F
  5
B23F
331
B0F6
  5
B0F6
331
D4B6
  5
D4B6
331
B080
  5
B080
331
B039
  5
B039
331
B133
  5
B133
331
B17A
  5
B17A
331
B1B1
  5
B1B1
331
D54D
  5
D54D
331
D634
  5
D634
331
B088
  5
B088
331
B1B9
  5
B1B9
331
B0BF
  5
B0BF
331
B247
  5
B247
331
B00A
  5
B00A
331
B13B
  5
B13B
331
B182
  5
B182
331
B0FE
  5
B0FE
331
B106
  5
B106
331
B090
  5
B090
331
B049
  5
B049
331
B18A
  5
B18A
331
B1C1
  5
B1C1
331
B218
  5
B218
331
B012
  5
B012
331
B143
  5
B143
331
B0C7
  5
B0C7
331
B24F
  5
B24F
331
D63C
  5
D63C
331
D644
  5
D644
331
B257
  5
B257
331
B10E
  5
B10E
331
D585
  5
D585
331
B0CF
  5
B0CF
331
D661
  5
D661
331
D6A0
  5
D6A0
331
D669
  5
D669
331
EAA7
  5
EAA2
331
D671
  5
D671
331
D679
  5
D679
331
B098
  5
B098
331
B192
  5
B192
331
B1C9
  5
B1C9
331
B01A
  5
B01A
331
B153
  5
B153
331
B220
  5
B220
331
D64C
  5
D64C
331
B228
  5
B228
331
B0D7
  5
B0D7
331
B25F
  5
B25F
331
B116
  5
B116
331
B0A0
  5
B0A0
331
B022
  5
B022
331
B15B
  5
B15B
331
B19A
  5
B19A
331
B1D1
  5
B1D1
331
D58D
  5
D58D
331
D595
  5
D595
331
D654
  5
D654
331
B0A8
  5
B0A8
331
B1D9
  5
B1D9
331
B230
  5
B230
331
B0DF
  5
B0DF
331
B069
  5
B069
331
B02A
  5
B02A
331
B163
  5
B163
331
B1A2
  5
B1A2
331
B11E
  5
B11E
331
B126
  5
B126
331
D59D
  5
D59D
331
B1E1
  5
B1E1
331
B0E7
  5
B0E7
331
D65C
  5
D65C
331
A28B
  5
A28B
331
B16B
  5
B16B
331
B071
  5
B071
331
B0EF
  5
B0EF
331
D4AF
  5
D4AF
331
D681
  5
D681
331
D689
  5
D689
331
D691
  5
D691
331
D699
  5
D699
331
B0B0
  5
B0B0
331
B079
  5
B079
331
B1AA
  5
B1AA
331
B1E9
  5
B1E9
331
B238
  5
B238
331
B032
  5
B032
331
AFFB
  5
AFFB
331
B12C
  5
B12C
331
B173
  5
B173
331
B0F7
  5
B0F7
331
D546
  5
D546
331
B0B8
  5
B0B8
331
B081
  5
B081
331
B03A
  5
B03A
331
B17B
  5
B17B
331
B1B2
  5
B1B2
331
B003
  5
B003
331
B134
  5
B134
331
B1F1
  5
B1F1
331
B240
  5
B240
331
D62D
  5
D62D
331
D635
  5
D635
331
B0C0
  5
B0C0
331
B248
  5
B248
331
B0FF
  5
B0FF
331
B089
  5
B089
331
B042
  5
B042
331
B183
  5
B183
331
B1BA
  5
B1BA
331
D54E
  5
D54E
331
B00B
  5
B00B
331
B13C
  5
B13C
331
D63D
  5
D63D
331
B0C8
  5
B0C8
331
B250
  5
B250
331
B107
  5
B107
331
B091
  5
B091
331
B04A
  5
B04A
331
B013
  5
B013
331
B144
  5
B144
331
B18B
  5
B18B
331
B1C2
  5
B1C2
331
B219
  5
B219
331
D586
  5
D586
331
D645
  5
D645
331
B10F
  5
B10F
331
D4CF
  5
D4CF
331
D6A1
  5
D6A1
331
D662
  5
D662
331
D66A
  5
D66A
331
D672
  5
D672
331
DEB1
  5
DEB1
331
D67A
  5
D67A
331
B099
  5
B099
331
B1CA
  5
B1CA
331
B221
  5
B221
331
B0D0
  5
B0D0
331
B258
  5
B258
331
B01B
  5
B01B
331
B154
  5
B154
331
B193
  5
B193
331
B117
  5
B117
331
D58E
  5
D58E
331
B0A1
  5
B0A1
331
B19B
  5
B19B
331
B1D2
  5
B1D2
331
B023
  5
B023
331
B15C
  5
B15C
331
B229
  5
B229
331
B0D8
  5
B0D8
331
B260
  5
B260
331
D64D
  5
D64D
331
D655
  5
D655
331
B11F
  5
B11F
331
D596
  5
D596
331
B0A9
  5
B0A9
331
B06A
  5
B06A
331
B1A3
  5
B1A3
331
B1DA
  5
B1DA
331
B02B
  5
B02B
331
B164
  5
B164
331
B231
  5
B231
331
B0E0
  5
B0E0
331
D65D
  5
D65D
331
B0E8
  5
B0E8
331
D4A8
  5
D4A8
331
B127
  5
B127
331
B16C
  5
B16C
331
B072
  5
B072
331
B1E2
  5
B1E2
331
D59E
  5
D59E
331
D682
  5
D682
331
D68A
  5
D68A
331
D692
  5
D692
331
D69A
  5
D69A
331
B0B1
  5
B0B1
331
B1EA
  5
B1EA
331
B239
  5
B239
331
B0F0
  5
B0F0
331
B07A
  5
B07A
331
B033
  5
B033
331
AFFC
  5
AFFC
331
B12D
  5
B12D
331
B174
  5
B174
331
B1AB
  5
B1AB
331
D547
  5
D547
331
B0B9
  5
B0B9
331
B1F2
  5
B1F2
331
B241
  5
B241
331
D62E
  5
D62E
331
B082
  5
B082
331
B004
  5
B004
331
B135
  5
B135
331
B03B
  5
B03B
331
B1B3
  5
B1B3
331
D636
  5
D636
331
B08A
  5
B08A
331
B1BB
  5
B1BB
331
B0C1
  5
B0C1
331
B249
  5
B249
331
B043
  5
B043
331
B00C
  5
B00C
331
B13D
  5
B13D
331
B184
  5
B184
331
B100
  5
B100
331
B108
  5
B108
331
D57F
  5
D57F
331
B092
  5
B092
331
B04B
  5
B04B
331
B18C
  5
B18C
331
B1C3
  5
B1C3
331
B21A
  5
B21A
331
B145
  5
B145
331
B0C9
  5
B0C9
331
B251
  5
B251
331
D63E
  5
D63E
331
D646
  5
D646
331
D587
  5
D587
331
D663
  5
D663
331
D6A2
  5
D6A2
331
D6AA
  5
D6AA
331
EAA1
  5
EAA1
331
D66B
  5
D66B
331
D6B2
  5
D6B2
331
EAA9
  5
EAA5
331
D673
  5
D673
331
D67B
  5
D67B
331
B0D1
  5
B0D1
331
B259
  5
B259
331
B110
  5
B110
331
D4D0
  5
D4D0
331
B09A
  5
B09A
331
B194
  5
B194
331
B1CB
  5
B1CB
331
B01C
  5
B01C
331
B155
  5
B155
331
B222
  5
B222
331
D58F
  5
D58F
331
D64E
  5
D64E
331
B22A
  5
B22A
331
B0D9
  5
B0D9
331
B261
  5
B261
331
B118
  5
B118
331
B0A2
  5
B0A2
331
B024
  5
B024
331
B19C
  5
B19C
331
B1D3
  5
B1D3
331
D597
  5
D597
331
D656
  5
D656
331
B0AA
  5
B0AA
331
B1DB
  5
B1DB
331
B232
  5
B232
331
B0E1
  5
B0E1
331
B06B
  5
B06B
331
B02C
  5
B02C
331
B165
  5
B165
331
B1A4
  5
B1A4
331
B120
  5
B120
331
B073
  5
B073
331
B1E3
  5
B1E3
331
B16D
  5
B16D
331
B0E9
  5
B0E9
331
D65E
  5
D65E
331
D683
  5
D683
331
D68B
  5
D68B
331
D693
  5
D693
331
D69B
  5
D69B
331
B0B2
  5
B0B2
331
B07B
  5
B07B
331
B1AC
  5
B1AC
331
B1EB
  5
B1EB
331
B23A
  5
B23A
331
B034
  5
B034
331
AFFD
  5
AFFD
331
B12E
  5
B12E
331
B175
  5
B175
331
B0F1
  5
B0F1
331
B0BA
  5
B0BA
331
B083
  5
B083
331
B03C
  5
B03C
331
B1B4
  5
B1B4
331
B005
  5
B005
331
B136
  5
B136
331
B1F3
  5
B1F3
331
B242
  5
B242
331
D62F
  5
D62F
331
B0C2
  5
B0C2
331
B24A
  5
B24A
331
D637
  5
D637
331
B08B
  5
B08B
331
B044
  5
B044
331
B13E
  5
B13E
331
B185
  5
B185
331
B1BC
  5
B1BC
331
D580
  5
D580
331
D63F
  5
D63F
331
B21B
  5
B21B
331
B0CA
  5
B0CA
331
B252
  5
B252
331
B109
  5
B109
331
B093
  5
B093
331
B04C
  5
B04C
331
B146
  5
B146
331
B18D
  5
B18D
331
B1C4
  5
B1C4
331
D647
  5
D647
331
D664
  5
D664
331
D6A3
  5
D6A3
331
EAA2
  5
EAA4
331
D66C
  5
D66C
331
D6AB
  5
D6AB
331
EAAA
  5
EAA9
331
D674
  5
D674
331
D67C
  5
D67C
331
D588
  5
D588
331
B09B
  5
B09B
331
B1CC
  5
B1CC
331
B223
  5
B223
331
B0D2
  5
B0D2
331
B25A
  5
B25A
331
B01D
  5
B01D
331
B156
  5
B156
331
B195
  5
B195
331
B111
  5
B111
331
B119
  5
B119
331
D4D9
  5
D4D9
331
D590
  5
D590
331
B0A3
  5
B0A3
331
B19D
  5
B19D
331
B1D4
  5
B1D4
331
B025
  5
B025
331
B15E
  5
B15E
331
B22B
  5
B22B
331
B0DA
  5
B0DA
331
B262
  5
B262
331
D64F
  5
D64F
331
D657
  5
D657
331
B0E2
  5
B0E2
331
B121
  5
B121
331
D539
  5
D539
331
D598
  5
D598
331
B0AB
  5
B0AB
331
B06C
  5
B06C
331
B1A5
  5
B1A5
331
B1DC
  5
B1DC
331
B02D
  5
B02D
331
A286
  5
A286
331
B166
  5
B166
331
B233
  5
B233
331
B0EA
  5
B0EA
331
D65F
  5
D65F
331
B16E
  5
B16E
331
B074
  5
B074
331
B1E4
  5
B1E4
331
D684
  5
D684
331
D68C
  5
D68C
331
D694
  5
D694
331
D69C
  5
D69C
331
B0B3
  5
B0B3
331
B1EC
  5
B1EC
331
B23B
  5
B23B
331
B0F2
  5
B0F2
331
B07C
  5
B07C
331
B035
  5
B035
331
AFFE
  5
AFFE
331
B12F
  5
B12F
331
B176
  5
B176
331
B1AD
  5
B1AD
331
B0BB
  5
B0BB
331
B084
  5
B084
331
B1B5
  5
B1B5
331
B1F4
  5
B1F4
331
B243
  5
B243
331
D630
  5
D630
331
B03D
  5
B03D
331
B006
  5
B006
331
B17E
  5
B17E
331
B08C
  5
B08C
331
B1BD
  5
B1BD
331
B0C3
  5
B0C3
331
B24B
  5
B24B
331
D638
  5
D638
331
B045
  5
B045
331
B186
  5
B186
331
B10A
  5
B10A
331
D581
  5
D581
331
B094
  5
B094
331
B04D
  5
B04D
331
B18E
  5
B18E
331
B1C5
  5
B1C5
331
B21C
  5
B21C
331
B016
  5
B016
331
B0CB
  5
B0CB
331
B253
  5
B253
331
D640
  5
D640
331
D665
  5
D665
331
D6A4
  5
D6A4
331
D6AC
  5
D6AC
331
EAA3
  5
EAA7
331
D66D
  5
D66D
331
D675
  5
D675
331
D6B4
  5
D6B4
331
EAAB
  5
EAAC
331
D67D
  5
D67D
331
D648
  5
D648
331
B224
  5
B224
331
B0D3
  5
B0D3
331
B25B
  5
B25B
331
B112
  5
B112
331
B09C
  5
B09C
331
B01E
  5
B01E
331
B157
  5
B157
331
B196
  5
B196
331
B1CD
  5
B1CD
331
D589
  5
D589
331
D591
  5
D591
331
D650
  5
D650
331
B22C
  5
B22C
331
B0DB
  5
B0DB
331
B263
  5
B263
331
B11A
  5
B11A
331
B0A4
  5
B0A4
331
B065
  5
B065
331
B026
  5
B026
331
B19E
  5
B19E
331
B1D5
  5
B1D5
331
D4DA
  5
D4DA
331
D53A
  5
D53A
331
D599
  5
D599
331
B0AC
  5
B0AC
331
B1DD
  5
B1DD
331
B234
  5
B234
331
B0E3
  5
B0E3
331
D658
  5
D658
331
B06D
  5
B06D
331
B02E
  5
B02E
331
A287
  5
A287
331
B167
  5
B167
331
B1A6
  5
B1A6
331
B075
  5
B075
331
B1E5
  5
B1E5
331
B0EB
  5
B0EB
331
D685
  5
D685
331
D68D
  5
D68D
331
D695
  5
D695
331
D69D
  5
D69D
331
B128
  5
B128
331
B0F3
  5
B0F3
331
D542
  5
D542
331
B0B4
  5
B0B4
331
B07D
  5
B07D
331
B1AE
  5
B1AE
331
B1ED
  5
B1ED
331
B23C
  5
B23C
331
D629
  5
D629
331
B036
  5
B036
331
AFFF
  5
AFFF
331
B130
  5
B130
331
B177
  5
B177
331
D631
  5
D631
331
B0FB
  5
B0FB
331
B0BC
  5
B0BC
331
B085
  5
B085
331
B03E
  5
B03E
331
B17F
  5
B17F
331
B1B6
  5
B1B6
331
B007
  5
B007
331
B138
  5
B138
331
B1F5
  5
B1F5
331
B244
  5
B244
331
B0C4
  5
B0C4
331
B24C
  5
B24C
331
D639
  5
D639
331
B08D
  5
B08D
331
B046
  5
B046
331
B140
  5
B140
331
B187
  5
B187
331
B1BE
  5
B1BE
331
D582
  5
D582
331
D641
  5
D641
331
B095
  5
B095
331
B1C6
  5
B1C6
331
B21D
  5
B21D
331
B0CC
  5
B0CC
331
B254
  5
B254
331
B04E
  5
B04E
331
B18F
  5
B18F
331
B10B
  5
B10B
331
D666
  5
D666
331
EAA4
  5
EAAB
331
D66E
  5
D66E
331
D6AD
  5
D6AD
331
EAAC
  5
EAAF
331
D676
  5
D676
331
D6B5
  5
D6B5
331
D67E
  5
D67E
331
D58A
  5
D58A
331
D649
  5
D649
331
B09D
  5
B09D
331
B1CE
  5
B1CE
331
B225
  5
B225
331
B0D4
  5
B0D4
331
B25C
  5
B25C
331
B01F
  5
B01F
331
B158
  5
B158
331
B197
  5
B197
331
B113
  5
B113
331
B11B
  5
B11B
331
D592
  5
D592
331
B0A5
  5
B0A5
331
B066
  5
B066
331
B19F
  5
B19F
331
B1D6
  5
B1D6
331
B027
  5
B027
331
B22D
  5
B22D
331
B0DC
  5
B0DC
331
B264
  5
B264
331
D651
  5
D651
331
D659
  5
D659
331
B235
  5
B235
331
B0E4
  5
B0E4
331
B123
  5
B123
331
B0AD
  5
B0AD
331
B06E
  5
B06E
331
B02F
  5
B02F
331
B168
  5
B168
331
B1A7
  5
B1A7
331
A288
  5
A288
331
B1DE
  5
B1DE
331
D59A
  5
D59A
331
B0EC
  5
B0EC
331
B076
  5
B076
331
B1E6
  5
B1E6
331
D686
  5
D686
331
D68E
  5
D68E
331
D696
  5
D696
331
D69E
  5
D69E
331
B129
  5
B129
331
D62A
  5
D62A
331
B0B5
  5
B0B5
331
B1EE
  5
B1EE
331
B23D
  5
B23D
331
B0F4
  5
B0F4
331
B07E
  5
B07E
331
B037
  5
B037
331
B000
  5
B000
331
B131
  5
B131
331
B178
  5
B178
331
B1AF
  5
B1AF
331
D543
  5
D543
331
B0BD
  5
B0BD
331
B086
  5
B086
331
B1B7
  5
B1B7
331
B1F6
  5
B1F6
331
B245
  5
B245
331
D632
  5
D632
331
B03F
  5
B03F
331
B008
  5
B008
331
B139
  5
B139
331
B180
  5
B180
331
B104
  5
B104
331
D4C4
  5
D4C4
331
B08E
  5
B08E
331
B1BF
  5
B1BF
331
B216
  5
B216
331
B0C5
  5
B0C5
331
B24D
  5
B24D
331
D63A
  5
D63A
331
B047
  5
B047
331
B010
  5
B010
331
B141
  5
B141
331
B188
  5
B188
331
D642
  5
D642
331
B10C
  5
B10C
331
D583
  5
D583
331
B096
  5
B096
331
B04F
  5
B04F
331
B1C7
  5
B1C7
331
B21E
  5
B21E
331
B0CD
  5
B0CD
331
B255
  5
B255
331
D667
  5
D667
331
D6AE
  5
D6AE
331
EAA5
  5
EAAE
331
D66F
  5
D66F
331
D677
  5
D677
331
D6B6
  5
D6B6
331
D67F
  5
D67F
331
B190
  5
B190
331
B018
  5
B018
331
D64A
  5
D64A
331
B226
  5
B226
331
B0D5
  5
B0D5
331
B25D
  5
B25D
331
B114
  5
B114
331
B09E
  5
B09E
331
B159
  5
B159
331
B198
  5
B198
331
B1CF
  5
B1CF
331
D58B
  5
D58B
331
D593
  5
D593
331
D652
  5
D652
331
B0A6
  5
B0A6
331
B1D7
  5
B1D7
331
B22E
  5
B22E
331
B0DD
  5
B0DD
331
B265
  5
B265
331
B067
  5
B067
331
B028
  5
B028
331
B161
  5
B161
331
B1A0
  5
B1A0
331
B11C
  5
B11C
331
D59B
  5
D59B
331
D65A
  5
D65A
331
B0AE
  5
B0AE
331
B1DF
  5
B1DF
331
B236
  5
B236
331
B0E5
  5
B0E5
331
A289
  5
A289
331
B169
  5
B169
331
B06F
  5
B06F
331
B124
  5
B124
331
D5A3
  5
D5A3
331
B077
  5
B077
331
B1E7
  5
B1E7
331
B0ED
  5
B0ED
331
D687
  5
D687
331
D68F
  5
D68F
331
D697
  5
D697
331
D69F
  5
D69F
331
B1A8
  5
B1A8
331
B030
  5
B030
331
B12A
  5
B12A
331
B171
  5
B171
331
B0F5
  5
B0F5
331
D544
  5
D544
331
B0B6
  5
B0B6
331
B07F
  5
B07F
331
B038
  5
B038
331
B179
  5
B179
331
B1B0
  5
B1B0
331
B132
  5
B132
331
B1EF
  5
B1EF
331
B23E
  5
B23E
331
D62B
  5
D62B
331
D633
  5
D633
331
B246
  5
B246
331
B0FD
  5
B0FD
331
D4BD
  5
D4BD
331
B0BE
  5
B0BE
331
B087
  5
B087
331
B181
  5
B181
331
B1B8
  5
B1B8
331
B009
  5
B009
331
B13A
  5
B13A
331
B1F7
  5
B1F7
331
D63B
  5
D63B
331
B0C6
  5
B0C6
331
B24E
  5
B24E
331
B105
  5
B105
331
B08F
  5
B08F
331
B048
  5
B048
331
B011
  5
B011
331
B142
  5
B142
331
B189
  5
B189
331
B1C0
  5
B1C0
331
B217
  5
B217
331
D584
  5
D584
331
D643
  5
D643
331
B097
  5
B097
331
B21F
  5
B21F
331
B0CE
  5
B0CE
331
B256
  5
B256
331
B10D
  5
B10D
331
D660
  5
D660
331
D668
  5
D668
331
EAA6
  5
EAB1
331
D670
  5
D670
331
D678
  5
D678
331
D6B7
  5
D6B7
  0
XRECORD
  5
3D91
102
{ACAD_REACTORS
330
3D20
102
}
330
3D20
100
AcDbXrecord
280
     1
340
1A
  0
SORTENTSTABLE
  5
69B9
102
{ACAD_REACTORS
330
69B8
102
}
330
69B8
100
AcDbSortentsTable
330
69B7
  0
SORTENTSTABLE
  5
69CD
102
{ACAD_REACTORS
330
69CC
102
}
330
69CC
100
AcDbSortentsTable
330
69CB
  0
GROUP
  5
4143
102
{ACAD_REACTORS
330
D
102
}
330
D
100
AcDbGroup
300

 70
     1
 71
     1
  0
GROUP
  5
4378
102
{ACAD_REACTORS
330
D
102
}
330
D
100
AcDbGroup
300

 70
     1
 71
     1
  0
GROUP
  5
43BF
102
{ACAD_REACTORS
330
D
102
}
330
D
100
AcDbGroup
300

 70
     1
 71
     1
  0
GROUP
  5
423A
102
{ACAD_REACTORS
330
D
102
}
330
D
100
AcDbGroup
300

 70
     1
 71
     1
  0
GROUP
  5
414C
102
{ACAD_REACTORS
330
D
102
}
330
D
100
AcDbGroup
300

 70
     1
 71
     1
  0
GROUP
  5
579E
102
{ACAD_REACTORS
330
D
102
}
330
D
100
AcDbGroup
300

 70
     1
 71
     1
  0
GROUP
  5
4235
102
{ACAD_REACTORS
330
D
102
}
330
D
100
AcDbGroup
300

 70
     1
 71
     1
  0
GROUP
  5
437C
102
{ACAD_REACTORS
330
D
102
}
330
D
100
AcDbGroup
300

 70
     1
 71
     1
  0
GROUP
  5
414F
102
{ACAD_REACTORS
330
D
102
}
330
D
100
AcDbGroup
300

 70
     1
 71
     1
  0
GROUP
  5
437E
102
{ACAD_REACTORS
330
D
102
}
330
D
100
AcDbGroup
300

 70
     1
 71
     1
  0
GROUP
  5
4149
102
{ACAD_REACTORS
330
D
102
}
330
D
100
AcDbGroup
300

 70
     1
 71
     1
  0
GROUP
  5
4241
102
{ACAD_REACTORS
330
D
102
}
330
D
100
AcDbGroup
300

 70
     1
 71
     1
  0
GROUP
  5
4239
102
{ACAD_REACTORS
330
D
102
}
330
D
100
AcDbGroup
300

 70
     1
 71
     1
  0
GROUP
  5
4237
102
{ACAD_REACTORS
330
D
102
}
330
D
100
AcDbGroup
300

 70
     1
 71
     1
  0
GROUP
  5
423C
102
{ACAD_REACTORS
330
D
102
}
330
D
100
AcDbGroup
300

 70
     1
 71
     1
  0
GROUP
  5
43B6
102
{ACAD_REACTORS
330
D
102
}
330
D
100
AcDbGroup
300

 70
     1
 71
     1
  0
GROUP
  5
423B
102
{ACAD_REACTORS
330
D
102
}
330
D
100
AcDbGroup
300

 70
     1
 71
     1
  0
GROUP
  5
43B8
102
{ACAD_REACTORS
330
D
102
}
330
D
100
AcDbGroup
300

 70
     1
 71
     1
  0
GROUP
  5
576A
102
{ACAD_REACTORS
330
D
102
}
330
D
100
AcDbGroup
300

 70
     1
 71
     1
  0
GROUP
  5
4240
102
{ACAD_REACTORS
330
D
102
}
330
D
100
AcDbGroup
300

 70
     1
 71
     1
  0
GROUP
  5
423E
102
{ACAD_REACTORS
330
D
102
}
330
D
100
AcDbGroup
300

 70
     1
 71
     1
  0
GROUP
  5
4374
102
{ACAD_REACTORS
330
D
102
}
330
D
100
AcDbGroup
300

 70
     1
 71
     1
  0
GROUP
  5
43BB
102
{ACAD_REACTORS
330
D
102
}
330
D
100
AcDbGroup
300

 70
     1
 71
     1
  0
GROUP
  5
4373
102
{ACAD_REACTORS
330
D
102
}
330
D
100
AcDbGroup
300

 70
     1
 71
     1
  0
GROUP
  5
43BD
102
{ACAD_REACTORS
330
D
102
}
330
D
100
AcDbGroup
300

 70
     1
 71
     1
  0
GROUP
  5
4236
102
{ACAD_REACTORS
330
D
102
}
330
D
100
AcDbGroup
300

 70
     1
 71
     1
  0
GROUP
  5
4377
102
{ACAD_REACTORS
330
D
102
}
330
D
100
AcDbGroup
300

 70
     1
 71
     1
  0
GROUP
  5
4145
102
{ACAD_REACTORS
330
D
102
}
330
D
100
AcDbGroup
300

 70
     1
 71
     1
  0
GROUP
  5
437A
102
{ACAD_REACTORS
330
D
102
}
330
D
100
AcDbGroup
300

 70
     1
 71
     1
  0
GROUP
  5
4379
102
{ACAD_REACTORS
330
D
102
}
330
D
100
AcDbGroup
300

 70
     1
 71
     1
  0
GROUP
  5
43C1
102
{ACAD_REACTORS
330
D
102
}
330
D
100
AcDbGroup
300

 70
     1
 71
     1
  0
GROUP
  5
423D
102
{ACAD_REACTORS
330
D
102
}
330
D
100
AcDbGroup
300

 70
     1
 71
     1
  0
GROUP
  5
437D
102
{ACAD_REACTORS
330
D
102
}
330
D
100
AcDbGroup
300

 70
     1
 71
     1
  0
GROUP
  5
414D
102
{ACAD_REACTORS
330
D
102
}
330
D
100
AcDbGroup
300

 70
     1
 71
     1
  0
GROUP
  5
4146
102
{ACAD_REACTORS
330
D
102
}
330
D
100
AcDbGroup
300

 70
     1
 71
     1
  0
GROUP
  5
437F
102
{ACAD_REACTORS
330
D
102
}
330
D
100
AcDbGroup
300

 70
     1
 71
     1
  0
GROUP
  5
414B
102
{ACAD_REACTORS
330
D
102
}
330
D
100
AcDbGroup
300

 70
     1
 71
     1
  0
GROUP
  5
4375
102
{ACAD_REACTORS
330
D
102
}
330
D
100
AcDbGroup
300

 70
     1
 71
     1
  0
GROUP
  5
43B7
102
{ACAD_REACTORS
330
D
102
}
330
D
100
AcDbGroup
300

 70
     1
 71
     1
  0
GROUP
  5
414E
102
{ACAD_REACTORS
330
D
102
}
330
D
100
AcDbGroup
300

 70
     1
 71
     1
  0
GROUP
  5
43B9
102
{ACAD_REACTORS
330
D
102
}
330
D
100
AcDbGroup
300

 70
     1
 71
     1
  0
GROUP
  5
57D9
102
{ACAD_REACTORS
330
D
102
}
330
D
100
AcDbGroup
300

 70
     1
 71
     1
  0
GROUP
  5
437B
102
{ACAD_REACTORS
330
D
102
}
330
D
100
AcDbGroup
300

 70
     1
 71
     1
  0
GROUP
  5
43BC
102
{ACAD_REACTORS
330
D
102
}
330
D
100
AcDbGroup
300

 70
     1
 71
     1
  0
GROUP
  5
4144
102
{ACAD_REACTORS
330
D
102
}
330
D
100
AcDbGroup
300

 70
     1
 71
     1
  0
GROUP
  5
43BE
102
{ACAD_REACTORS
330
D
102
}
330
D
100
AcDbGroup
300

 70
     1
 71
     1
  0
GROUP
  5
4238
102
{ACAD_REACTORS
330
D
102
}
330
D
100
AcDbGroup
300

 70
     1
 71
     1
  0
GROUP
  5
43B5
102
{ACAD_REACTORS
330
D
102
}
330
D
100
AcDbGroup
300

 70
     1
 71
     1
  0
GROUP
  5
43C0
102
{ACAD_REACTORS
330
D
102
}
330
D
100
AcDbGroup
300

 70
     1
 71
     1
  0
GROUP
  5
4148
102
{ACAD_REACTORS
330
D
102
}
330
D
100
AcDbGroup
300

 70
     1
 71
     1
  0
GROUP
  5
423F
102
{ACAD_REACTORS
330
D
102
}
330
D
100
AcDbGroup
300

 70
     1
 71
     1
  0
GROUP
  5
43BA
102
{ACAD_REACTORS
330
D
102
}
330
D
100
AcDbGroup
300

 70
     1
 71
     1
  0
GROUP
  5
414A
102
{ACAD_REACTORS
330
D
102
}
330
D
100
AcDbGroup
300

 70
     1
 71
     1
  0
GROUP
  5
5691
102
{ACAD_REACTORS
330
D
102
}
330
D
100
AcDbGroup
300

 70
     1
 71
     1
  0
GROUP
  5
4376
102
{ACAD_REACTORS
330
D
102
}
330
D
100
AcDbGroup
300

 70
     1
 71
     1
  0
GROUP
  5
4147
102
{ACAD_REACTORS
330
D
102
}
330
D
100
AcDbGroup
300

 70
     1
 71
     1
  0
LAYOUT
  5
21
102
{ACAD_XDICTIONARY
360
EACF
102
}
102
{ACAD_REACTORS
330
19
102
}
330
19
100
AcDbPlotSettings
  1

  2
HP 2200
  4

  6

 40
0.0
 41
0.0
 42
0.0
 43
0.0
 44
0.0
 45
0.0
 46
0.0
 47
0.0
 48
0.0
 49
0.0
140
0.0
141
0.0
142
1.0
143
1.0
 70
  1712
 72
     0
 73
     0
 74
     0
  7
AAA.ctb
 75
     0
147
1.0
148
0.0
149
0.0
100
AcDbLayout
  1
Model
 70
     1
 71
     0
 10
0.0
 20
0.0
 11
12.0
 21
9.0
 12
0.0
 22
0.0
 32
0.0
 14
0.0
 24
0.0
 34
0.0
 15
0.0
 25
0.0
 35
0.0
146
0.0
 13
0.0
 23
0.0
 33
0.0
 16
1.0
 26
0.0
 36
0.0
 17
0.0
 27
1.0
 37
0.0
 76
     0
330
1E
  0
LAYOUT
  5
1D
102
{ACAD_XDICTIONARY
360
EACD
102
}
102
{ACAD_REACTORS
330
19
102
}
330
19
100
AcDbPlotSettings
  1

  2
HP 2200
  4

  6

 40
0.0
 41
0.0
 42
0.0
 43
0.0
 44
0.0
 45
0.0
 46
0.0
 47
0.0
 48
0.0
 49
0.0
140
0.0
141
0.0
142
1.0
143
1.0
 70
   688
 72
     0
 73
     0
 74
     5
  7
AAA.ctb
 75
    16
147
1.0
148
0.0
149
0.0
100
AcDbLayout
  1
配置1
 70
     0
 71
     1
 10
0.0
 20
0.0
 11
12.0
 21
9.0
 12
0.0
 22
0.0
 32
0.0
 14
1.000000000000000E+20
 24
1.000000000000000E+20
 34
1.000000000000000E+20
 15
-1.000000000000000E+20
 25
-1.000000000000000E+20
 35
-1.000000000000000E+20
146
0.0
 13
0.0
 23
0.0
 33
0.0
 16
1.0
 26
0.0
 36
0.0
 17
0.0
 27
1.0
 37
0.0
 76
     0
330
1A
  0
MLINESTYLE
  5
17
102
{ACAD_REACTORS
330
16
102
}
330
16
100
AcDbMlineStyle
  2
STANDARD
 70
     0
  3

 62
   256
 51
90.0
 52
90.0
 71
     2
 49
0.5
 62
   256
  6
BYLAYER
 49
-0.5
 62
   256
  6
BYLAYER
  0
PLOTSETTINGS
  5
4150
102
{ACAD_XDICTIONARY
360
EAD1
102
}
102
{ACAD_REACTORS
330
18
102
}
330
18
100
AcDbPlotSettings
  1
LANSRO
  2
\\1260\HP2200
  4
A4
  6

 40
6.043083190917968
 41
6.762742042541503
 42
7.736419677734375
 43
5.027069091796875
 44
209.9733276367187
 45
296.9683227539062
 46
5.15
 47
0.0
 48
0.0
 49
0.0
140
0.0
141
0.0
142
1.0
143
0.8829829263240881
 70
  1716
 72
     1
 73
     1
 74
     0
  7
AAA.ctb
 75
     0
147
1.132524729739748
148
-132.297014905803
149
-71.78507365635891
  0
ACDBPLACEHOLDER
  5
F
102
{ACAD_REACTORS
330
E
102
}
330
E
  0
ACAD_PROXY_OBJECT
  5
E7A4
102
{ACAD_REACTORS
330
E7A3
102
}
330
E7A3
100
AcDbProxyObject
 90
      499
 91
      514
 95
   983063
 70
     0
 93
     1841
310
4214DD185B99185C9928B81E85EB51B8AE3F2E07A17AD46E2B8FC02B5E8DC0F42B1CFD028000000C1008070000C3001FDFF8000000C1003FBFF000000182007F7FE00000030400FEFFC00000060801FDFF8000000C1003FBFF00000018200000000000000681FA0B0000001820100E000186003FBFF000000182007F7FE000
310
00030400FEFFC00000060801FDFF8000000C1003FBFF000000182007F7FE000000304000AD7A3703D0AC73F4160000003040201C00030C007F7FE00000030400FEFFC00000060801FDFF8000000C1003FBFF000000182007F7FE00000030400FEFFC000000608032
340
11
340
11
340
11
 94
        0
1001
ACAD
1000
AcRTDxfName
1000
TABLESTYLE
  0
XRECORD
  5
EACC
102
{ACAD_REACTORS
330
EACA
102
}
330
EACA
100
AcDbXrecord
280
     1
340
3D97
  0
XRECORD
  5
EACB
102
{ACAD_REACTORS
330
EACA
102
}
330
EACA
100
AcDbXrecord
280
     1
340
3D96
  0
DICTIONARYVAR
  5
E8F8
102
{ACAD_REACTORS
330
3E63
102
}
330
3E63
100
DictionaryVariables
280
     0
  1
STANDARD
  0
DICTIONARYVAR
  5
3E64
102
{ACAD_REACTORS
330
3E63
102
}
330
3E63
100
DictionaryVariables
280
     0
  1
1
  0
DICTIONARYVAR
  5
3E65
102
{ACAD_REACTORS
330
3E63
102
}
330
3E63
100
DictionaryVariables
280
     0
  1

  0
DICTIONARY
  5
EACF
330
21
100
AcDbDictionary
280
     1
281
     1
  3
ACAD_XREC_ROUNDTRIP
360
EAD0
  0
DICTIONARY
  5
EACD
330
1D
100
AcDbDictionary
280
     1
281
     1
  3
ACAD_XREC_ROUNDTRIP
360
EACE
  0
DICTIONARY
  5
EAD1
330
4150
100
AcDbDictionary
280
     1
281
     1
  3
ACAD_XREC_ROUNDTRIP
360
EAD2
  0
XRECORD
  5
EAD0
102
{ACAD_REACTORS
330
EACF
102
}
330
EACF
100
AcDbXrecord
280
     1
102
SHADEPLOT
 70
     0
102
SHADEPLOTRESLEVEL
 70
     2
102
SHADEPLOTCUSTOMDPI
 70
   300
  0
XRECORD
  5
EACE
102
{ACAD_REACTORS
330
EACD
102
}
330
EACD
100
AcDbXrecord
280
     1
102
SHADEPLOT
 70
     0
102
SHADEPLOTRESLEVEL
 70
     2
102
SHADEPLOTCUSTOMDPI
 70
   300
  0
XRECORD
  5
EAD2
102
{ACAD_REACTORS
330
EAD1
102
}
330
EAD1
100
AcDbXrecord
280
     1
102
SHADEPLOT
 70
     0
102
SHADEPLOTRESLEVEL
 70
     2
102
SHADEPLOTCUSTOMDPI
 70
   300
  0
ENDSEC
  0
EOF
