  0
SECTION
  2
HEADER
  9
$ACADVER
  1
AC1015
  9
$ACADMAINTVER
 70
    20
  9
$DWGCODEPAGE
  3
ANSI_950
  9
$INSBASE
 10
0.0
 20
0.0
 30
0.0
  9
$EXTMIN
 10
699.1498844872826
 20
-1183.286282353453
 30
0.0
  9
$EXTMAX
 10
1091.060560917947
 20
-974.2629044569673
 30
0.0
  9
$LIMMIN
 10
0.0
 20
0.0
  9
$LIMMAX
 10
420.0
 20
297.0
  9
$ORTHOMODE
 70
     0
  9
$REGENMODE
 70
     1
  9
$FILLMODE
 70
     1
  9
$QTEXTMODE
 70
     0
  9
$MIRRTEXT
 70
     0
  9
$LTSCALE
 40
2.0
  9
$ATTMODE
 70
     1
  9
$TEXTSIZE
 40
5.0
  9
$TRACEWID
 40
1.0
  9
$TEXTSTYLE
  7
型式2
  9
$CLAYER
  8
0
  9
$CELTYPE
  6
ByLayer
  9
$CECOLOR
 62
   256
  9
$CELTSCALE
 40
0.27
  9
$DISPSILH
 70
     0
  9
$DIMSCALE
 40
2.0
  9
$DIMASZ
 40
2.399999999999999
  9
$DIMEXO
 40
0.7
  9
$DIMDLI
 40
3.2
  9
$DIMRND
 40
0.0
  9
$DIMDLE
 40
0.0
  9
$DIMEXE
 40
0.7
  9
$DIMTP
 40
0.0
  9
$DIMTM
 40
0.0
  9
$DIMTXT
 40
2.5
  9
$DIMCEN
 40
2.5
  9
$DIMTSZ
 40
0.0
  9
$DIMTOL
 70
     0
  9
$DIMLIM
 70
     0
  9
$DIMTIH
 70
     0
  9
$DIMTOH
 70
     0
  9
$DIMSE1
 70
     0
  9
$DIMSE2
 70
     0
  9
$DIMTAD
 70
     1
  9
$DIMZIN
 70
     8
  9
$DIMBLK
  1

  9
$DIMASO
 70
     1
  9
$DIMSHO
 70
     1
  9
$DIMPOST
  1

  9
$DIMAPOST
  1

  9
$DIMALT
 70
     0
  9
$DIMALTD
 70
     3
  9
$DIMALTF
 40
0.03937007874016
  9
$DIMLFAC
 40
1.0
  9
$DIMTOFL
 70
     1
  9
$DIMTVP
 40
0.0
  9
$DIMTIX
 70
     0
  9
$DIMSOXD
 70
     0
  9
$DIMSAH
 70
     0
  9
$DIMBLK1
  1

  9
$DIMBLK2
  1

  9
$DIMSTYLE
  2
ISO-25
  9
$DIMCLRD
 70
   256
  9
$DIMCLRE
 70
   256
  9
$DIMCLRT
 70
   256
  9
$DIMTFAC
 40
1.0
  9
$DIMGAP
 40
0.7
  9
$DIMJUST
 70
     0
  9
$DIMSD1
 70
     0
  9
$DIMSD2
 70
     0
  9
$DIMTOLJ
 70
     0
  9
$DIMTZIN
 70
     8
  9
$DIMALTZ
 70
     0
  9
$DIMALTTZ
 70
     0
  9
$DIMUPT
 70
     0
  9
$DIMDEC
 70
     2
  9
$DIMTDEC
 70
     8
  9
$DIMALTU
 70
     2
  9
$DIMALTTD
 70
     3
  9
$DIMTXSTY
  7
Standard
  9
$DIMAUNIT
 70
     0
  9
$DIMADEC
 70
     0
  9
$DIMALTRND
 40
0.0
  9
$DIMAZIN
 70
     0
  9
$DIMDSEP
 70
    46
  9
$DIMATFIT
 70
     3
  9
$DIMFRAC
 70
     0
  9
$DIMLDRBLK
  1

  9
$DIMLUNIT
 70
     2
  9
$DIMLWD
 70
    -2
  9
$DIMLWE
 70
    -2
  9
$DIMTMOVE
 70
     0
  9
$LUNITS
 70
     2
  9
$LUPREC
 70
     4
  9
$SKETCHINC
 40
1.0
  9
$FILLETRAD
 40
0.5
  9
$AUNITS
 70
     0
  9
$AUPREC
 70
     0
  9
$MENU
  1
.
  9
$ELEVATION
 40
0.0
  9
$PELEVATION
 40
0.0
  9
$THICKNESS
 40
0.0
  9
$LIMCHECK
 70
     0
  9
$CHAMFERA
 40
0.0
  9
$CHAMFERB
 40
0.0
  9
$CHAMFERC
 40
20.0
  9
$CHAMFERD
 40
0.0
  9
$SKPOLY
 70
     0
  9
$TDCREATE
 40
2453634.789869607
  9
$TDUCREATE
 40
2453634.456536273
  9
$TDUPDATE
 40
2454042.438853368
  9
$TDUUPDATE
 40
2454042.105520035
  9
$TDINDWG
 40
0.6034609606
  9
$TDUSRTIMER
 40
0.6034607755
  9
$USRTIMER
 70
     1
  9
$ANGBASE
 50
0.0
  9
$ANGDIR
 70
     0
  9
$PDMODE
 70
     0
  9
$PDSIZE
 40
0.0
  9
$PLINEWID
 40
0.0
  9
$SPLFRAME
 70
     0
  9
$SPLINETYPE
 70
     6
  9
$SPLINESEGS
 70
    30
  9
$HANDSEED
  5
20A68
  9
$SURFTAB1
 70
     6
  9
$SURFTAB2
 70
     6
  9
$SURFTYPE
 70
     6
  9
$SURFU
 70
     6
  9
$SURFV
 70
     6
  9
$UCSBASE
  2

  9
$UCSNAME
  2

  9
$UCSORG
 10
0.0
 20
0.0
 30
0.0
  9
$UCSXDIR
 10
1.0
 20
0.0
 30
0.0
  9
$UCSYDIR
 10
0.0
 20
1.0
 30
0.0
  9
$UCSORTHOREF
  2

  9
$UCSORTHOVIEW
 70
     0
  9
$UCSORGTOP
 10
0.0
 20
0.0
 30
0.0
  9
$UCSORGBOTTOM
 10
0.0
 20
0.0
 30
0.0
  9
$UCSORGLEFT
 10
0.0
 20
0.0
 30
0.0
  9
$UCSORGRIGHT
 10
0.0
 20
0.0
 30
0.0
  9
$UCSORGFRONT
 10
0.0
 20
0.0
 30
0.0
  9
$UCSORGBACK
 10
0.0
 20
0.0
 30
0.0
  9
$PUCSBASE
  2

  9
$PUCSNAME
  2

  9
$PUCSORG
 10
0.0
 20
0.0
 30
0.0
  9
$PUCSXDIR
 10
1.0
 20
0.0
 30
0.0
  9
$PUCSYDIR
 10
0.0
 20
1.0
 30
0.0
  9
$PUCSORTHOREF
  2

  9
$PUCSORTHOVIEW
 70
     0
  9
$PUCSORGTOP
 10
0.0
 20
0.0
 30
0.0
  9
$PUCSORGBOTTOM
 10
0.0
 20
0.0
 30
0.0
  9
$PUCSORGLEFT
 10
0.0
 20
0.0
 30
0.0
  9
$PUCSORGRIGHT
 10
0.0
 20
0.0
 30
0.0
  9
$PUCSORGFRONT
 10
0.0
 20
0.0
 30
0.0
  9
$PUCSORGBACK
 10
0.0
 20
0.0
 30
0.0
  9
$USERI1
 70
     0
  9
$USERI2
 70
     0
  9
$USERI3
 70
     0
  9
$USERI4
 70
     0
  9
$USERI5
 70
     0
  9
$USERR1
 40
0.0
  9
$USERR2
 40
0.0
  9
$USERR3
 40
0.0
  9
$USERR4
 40
0.0
  9
$USERR5
 40
0.0
  9
$WORLDVIEW
 70
     1
  9
$SHADEDGE
 70
     3
  9
$SHADEDIF
 70
    70
  9
$TILEMODE
 70
     1
  9
$MAXACTVP
 70
    64
  9
$PINSBASE
 10
0.0
 20
0.0
 30
0.0
  9
$PLIMCHECK
 70
     0
  9
$PEXTMIN
 10
1.000000000000000E+20
 20
1.000000000000000E+20
 30
1.000000000000000E+20
  9
$PEXTMAX
 10
-1.000000000000000E+20
 20
-1.000000000000000E+20
 30
-1.000000000000000E+20
  9
$PLIMMIN
 10
0.0
 20
0.0
  9
$PLIMMAX
 10
420.0
 20
297.0
  9
$UNITMODE
 70
     0
  9
$VISRETAIN
 70
     1
  9
$PLINEGEN
 70
     0
  9
$PSLTSCALE
 70
     1
  9
$TREEDEPTH
 70
  3020
  9
$CMLSTYLE
  2
Standard
  9
$CMLJUST
 70
     0
  9
$CMLSCALE
 40
20.0
  9
$PROXYGRAPHICS
 70
     1
  9
$MEASUREMENT
 70
     1
  9
$CELWEIGHT
370
    -1
  9
$ENDCAPS
280
     0
  9
$JOINSTYLE
280
     0
  9
$LWDISPLAY
290
     0
  9
$INSUNITS
 70
     4
  9
$HYPERLINKBASE
  1

  9
$STYLESHEET
  1
aclt.ctb
  9
$XEDIT
290
     1
  9
$CEPSNTYPE
380
     0
  9
$PSTYLEMODE
290
     1
  9
$FINGERPRINTGUID
  2
{39E6D4C8-9137-4BAE-85E5-615910EF8948}
  9
$VERSIONGUID
  2
{F666E618-581B-4E03-84CD-D66F7B80DBDB}
  9
$EXTNAMES
290
     1
  9
$PSVPSCALE
 40
0.0
  9
$OLESTARTUP
290
     0
  0
ENDSEC
  0
SECTION
  2
CLASSES
  0
CLASS
  1
ACDBDICTIONARYWDFLT
  2
AcDbDictionaryWithDefault
  3
ObjectDBX Classes
 90
        0
280
     0
281
     0
  0
CLASS
  1
ACDBPLACEHOLDER
  2
AcDbPlaceHolder
  3
ObjectDBX Classes
 90
        0
280
     0
281
     0
  0
CLASS
  1
LAYOUT
  2
AcDbLayout
  3
ObjectDBX Classes
 90
        0
280
     0
281
     0
  0
CLASS
  1
DICTIONARYVAR
  2
AcDbDictionaryVar
  3
ObjectDBX Classes
 90
        0
280
     0
281
     0
  0
CLASS
  1
PLOTSETTINGS
  2
AcDbPlotSettings
  3
ObjectDBX Classes
 90
        0
280
     0
281
     0
  0
CLASS
  1
TABLESTYLE
  2
AcDbTableStyle
  3
ObjectDBX Classes
 90
     2047
280
     0
281
     0
  0
CLASS
  1
SORTENTSTABLE
  2
AcDbSortentsTable
  3
ObjectDBX Classes
 90
        0
280
     0
281
     0
  0
ENDSEC
  0
SECTION
  2
TABLES
  0
TABLE
  2
VPORT
  5
8
330
0
100
AcDbSymbolTable
 70
     4
  0
VPORT
  5
20A5C
330
8
100
AcDbSymbolTableRecord
100
AcDbViewportTableRecord
  2
*Active
 70
     0
 10
0.0
 20
0.0
 11
1.0
 21
1.0
 12
896.5295950153178
 22
-1071.271819388268
 13
0.0
 23
0.0
 14
10.0
 24
10.0
 15
10.0
 25
10.0
 16
0.0
 26
0.0
 36
1.0
 17
0.0
 27
0.0
 37
0.0
 40
262.2816938590589
 41
1.530456852791878
 42
50.0
 43
0.0
 44
0.0
 50
0.0
 51
0.0
 71
     0
 72
 20000
 73
     1
 74
     0
 75
     0
 76
     1
 77
     0
 78
     0
281
     0
 65
     1
110
0.0
120
0.0
130
0.0
111
1.0
121
0.0
131
0.0
112
0.0
122
1.0
132
0.0
 79
     0
146
0.0
  0
ENDTAB
  0
TABLE
  2
LTYPE
  5
5
330
0
100
AcDbSymbolTable
 70
     4
  0
LTYPE
  5
14
330
5
100
AcDbSymbolTableRecord
100
AcDbLinetypeTableRecord
  2
ByBlock
 70
     0
  3

 72
    65
 73
     0
 40
0.0
  0
LTYPE
  5
15
330
5
100
AcDbSymbolTableRecord
100
AcDbLinetypeTableRecord
  2
ByLayer
 70
     0
  3

 72
    65
 73
     0
 40
0.0
  0
LTYPE
  5
16
330
5
100
AcDbSymbolTableRecord
100
AcDbLinetypeTableRecord
  2
Continuous
 70
     0
  3
連續線 ________________________
 72
    65
 73
     2
 40
200000.0
 49
200000.0
 74
     0
 49
0.0
 74
     0
  0
LTYPE
  5
AFD
330
5
100
AcDbSymbolTableRecord
100
AcDbLinetypeTableRecord
  2
CENTER2
 70
     0
  3
Center (.5x) ___ _ ___ _ ___ _ ___ _ ___ _ ___
 72
    65
 73
     4
 40
28.575
 49
19.05
 74
     0
 49
-3.174999999999999
 74
     0
 49
3.174999999999999
 74
     0
 49
-3.174999999999999
 74
     0
  0
LTYPE
  5
AFE
330
5
100
AcDbSymbolTableRecord
100
AcDbLinetypeTableRecord
  2
DASHED2
 70
     0
  3
Dashed (.5x) _ _ _ _ _ _ _ _ _ _ _ _ _ _ _ _ _
 72
    65
 73
     2
 40
9.524999999999998
 49
6.349999999999999
 74
     0
 49
-3.174999999999999
 74
     0
  0
LTYPE
  5
AFF
330
5
100
AcDbSymbolTableRecord
100
AcDbLinetypeTableRecord
  2
PHANTOM2
 70
     0
  3
Phantom (.5x) ___ _ _ ___ _ _ ___ _ _ ___ _ _
 72
    65
 73
     6
 40
31.75
 49
15.875
 74
     0
 49
-3.174999999999999
 74
     0
 49
3.174999999999999
 74
     0
 49
-3.174999999999999
 74
     0
 49
3.174999999999999
 74
     0
 49
-3.174999999999999
 74
     0
  0
ENDTAB
  0
TABLE
  2
LAYER
  5
2
102
{ACAD_XDICTIONARY
360
B56
102
}
330
0
100
AcDbSymbolTable
 70
    12
  0
LAYER
  5
10
330
2
100
AcDbSymbolTableRecord
100
AcDbLayerTableRecord
  2
0
 70
     0
 62
     7
  6
Continuous
370
    15
390
F
  0
LAYER
  5
30
330
2
100
AcDbSymbolTableRecord
100
AcDbLayerTableRecord
  2
虛線
 70
     0
 62
     6
  6
DASHED2
370
    13
390
F
  0
LAYER
  5
32
330
2
100
AcDbSymbolTableRecord
100
AcDbLayerTableRecord
  2
標註線
 70
     0
 62
     3
  6
Continuous
370
     9
390
F
  0
LAYER
  5
33
330
2
100
AcDbSymbolTableRecord
100
AcDbLayerTableRecord
  2
文字
 70
     0
 62
     2
  6
Continuous
370
    15
390
F
  0
LAYER
  5
34
330
2
100
AcDbSymbolTableRecord
100
AcDbLayerTableRecord
  2
中心線
 70
     0
 62
     4
  6
CENTER2
370
    15
390
F
  0
LAYER
  5
35
330
2
100
AcDbSymbolTableRecord
100
AcDbLayerTableRecord
  2
圖框
 70
     0
 62
     1
  6
Continuous
370
    35
390
F
  0
LAYER
  5
C67
330
2
100
AcDbSymbolTableRecord
100
AcDbLayerTableRecord
  2
Defpoints
 70
     0
 62
     7
  6
Continuous
290
     0
370
    -3
390
F
  0
LAYER
  5
2A16
330
2
100
AcDbSymbolTableRecord
100
AcDbLayerTableRecord
  2
AM11
 70
     0
 62
     1
  6
PHANTOM2
370
    13
390
F
  0
LAYER
  5
1E3A2
330
2
100
AcDbSymbolTableRecord
100
AcDbLayerTableRecord
  2
假想線
 70
     0
 62
     3
  6
PHANTOM2
370
    15
390
F
  0
LAYER
  5
1E3A3
330
2
100
AcDbSymbolTableRecord
100
AcDbLayerTableRecord
  2
建構線
 70
     0
 62
     1
  6
Continuous
370
    15
390
F
  0
LAYER
  5
1E3A4
330
2
100
AcDbSymbolTableRecord
100
AcDbLayerTableRecord
  2
指線
 70
     0
 62
     3
  6
Continuous
370
    15
390
F
  0
LAYER
  5
1E3A5
330
2
100
AcDbSymbolTableRecord
100
AcDbLayerTableRecord
  2
HIWIN
 70
     0
 62
     7
  6
Continuous
370
    -3
390
F
  0
ENDTAB
  0
TABLE
  2
STYLE
  5
3
330
0
100
AcDbSymbolTable
 70
     8
  0
STYLE
  5
11
330
3
100
AcDbSymbolTableRecord
100
AcDbTextStyleTableRecord
  2
Standard
 70
     0
 40
0.0
 41
1.0
 50
0.0
 71
     0
 42
5.0
  3
isocp.shx
  4
chineset.shx
  0
STYLE
  5
56
330
3
100
AcDbSymbolTableRecord
100
AcDbTextStyleTableRecord
  2
型式1
 70
     0
 40
0.0
 41
1.0
 50
0.0
 71
     0
 42
2.5
  3
PMingLiU.ttf
  4

1001
ACAD
1000
PMingLiU
1071
    34834
  0
STYLE
  5
58
330
3
100
AcDbSymbolTableRecord
100
AcDbTextStyleTableRecord
  2
型式2
 70
     0
 40
0.0
 41
1.0
 50
0.0
 71
     0
 42
5.0
  3
KAIU.TTF
  4

1001
ACAD
1000
DFKai-SB
1071
    34881
  0
STYLE
  5
11FF
330
3
100
AcDbSymbolTableRecord
100
AcDbTextStyleTableRecord
  2
SIMPLEX
 70
     0
 40
0.0
 41
1.0
 50
0.0
 71
     0
 42
2.3
  3
SIMPLEX
  4

  0
STYLE
  5
1200
330
3
100
AcDbSymbolTableRecord
100
AcDbTextStyleTableRecord
  2
COMPLEX
 70
     0
 40
0.0
 41
1.0
 50
0.0
 71
     0
 42
2.3
  3
PMINGLIU
  4
CHINESET
  0
STYLE
  5
1201
330
3
100
AcDbSymbolTableRecord
100
AcDbTextStyleTableRecord
  2
型式I
 70
     0
 40
0.0
 41
1.0
 50
5.0
 71
     0
 42
1.8
  3
KAIU.TTF
  4

1001
ACAD
1000
DFKai-SB
1071
    34881
  0
STYLE
  5
13FD
330
3
100
AcDbSymbolTableRecord
100
AcDbTextStyleTableRecord
  2
ROMANS
 70
     0
 40
0.0
 41
1.0
 50
0.0
 71
     0
 42
6.0
  3
romans
  4

  0
STYLE
  5
1E3A6
330
3
100
AcDbSymbolTableRecord
100
AcDbTextStyleTableRecord
  2
SIMPLEX1
 70
     0
 40
0.0
 41
1.0
 50
0.0
 71
     0
 42
2.5
  3
PMINGLIU
  4
CHINESET
  0
ENDTAB
  0
TABLE
  2
VIEW
  5
6
330
0
100
AcDbSymbolTable
 70
     0
  0
ENDTAB
  0
TABLE
  2
UCS
  5
7
330
0
100
AcDbSymbolTable
 70
     0
  0
ENDTAB
  0
TABLE
  2
APPID
  5
9
330
0
100
AcDbSymbolTable
 70
    38
  0
APPID
  5
12
330
9
100
AcDbSymbolTableRecord
100
AcDbRegAppTableRecord
  2
ACAD
 70
     0
  0
APPID
  5
B4F
330
9
100
AcDbSymbolTableRecord
100
AcDbRegAppTableRecord
  2
partlineartxt_1
 70
     0
  0
APPID
  5
B50
330
9
100
AcDbSymbolTableRecord
100
AcDbRegAppTableRecord
  2
partlineartxt_2
 70
     0
  0
APPID
  5
B51
330
9
100
AcDbSymbolTableRecord
100
AcDbRegAppTableRecord
  2
partlineartxt_3
 70
     0
  0
APPID
  5
B52
330
9
100
AcDbSymbolTableRecord
100
AcDbRegAppTableRecord
  2
partlineartxt_4
 70
     0
  0
APPID
  5
B53
330
9
100
AcDbSymbolTableRecord
100
AcDbRegAppTableRecord
  2
partlineartxt_5
 70
     0
  0
APPID
  5
B54
330
9
100
AcDbSymbolTableRecord
100
AcDbRegAppTableRecord
  2
partlineartxt_6
 70
     0
  0
APPID
  5
B55
330
9
100
AcDbSymbolTableRecord
100
AcDbRegAppTableRecord
  2
partleader2_1
 70
     0
  0
APPID
  5
BF9
330
9
100
AcDbSymbolTableRecord
100
AcDbRegAppTableRecord
  2
CONTENTBLOCKICON
 70
     0
  0
APPID
  5
CA3
330
9
100
AcDbSymbolTableRecord
100
AcDbRegAppTableRecord
  2
TCAD
 70
     0
  0
APPID
  5
CA4
330
9
100
AcDbSymbolTableRecord
100
AcDbRegAppTableRecord
  2
pntflag
 70
     0
  0
APPID
  5
1097
330
9
100
AcDbSymbolTableRecord
100
AcDbRegAppTableRecord
  2
partleader_1
 70
     0
  0
APPID
  5
109A
330
9
100
AcDbSymbolTableRecord
100
AcDbRegAppTableRecord
  2
partgeo_1
 70
     0
  0
APPID
  5
109B
330
9
100
AcDbSymbolTableRecord
100
AcDbRegAppTableRecord
  2
partgeo_2
 70
     0
  0
APPID
  5
109D
330
9
100
AcDbSymbolTableRecord
100
AcDbRegAppTableRecord
  2
boltgbase_1
 70
     0
  0
APPID
  5
109E
330
9
100
AcDbSymbolTableRecord
100
AcDbRegAppTableRecord
  2
boltgbase_2
 70
     0
  0
APPID
  5
109F
330
9
100
AcDbSymbolTableRecord
100
AcDbRegAppTableRecord
  2
boltgbase_3
 70
     0
  0
APPID
  5
12C3
330
9
100
AcDbSymbolTableRecord
100
AcDbRegAppTableRecord
  2
sheetflag
 70
     0
  0
APPID
  5
12C5
330
9
100
AcDbSymbolTableRecord
100
AcDbRegAppTableRecord
  2
sheettxtflag
 70
     0
  0
APPID
  5
12D5
330
9
100
AcDbSymbolTableRecord
100
AcDbRegAppTableRecord
  2
series
 70
     0
  0
APPID
  5
12D6
330
9
100
AcDbSymbolTableRecord
100
AcDbRegAppTableRecord
  2
msize
 70
     0
  0
APPID
  5
12D9
330
9
100
AcDbSymbolTableRecord
100
AcDbRegAppTableRecord
  2
savename
 70
     0
  0
APPID
  5
12DF
330
9
100
AcDbSymbolTableRecord
100
AcDbRegAppTableRecord
  2
sheetnoteflag
 70
     0
  0
APPID
  5
142E
330
9
100
AcDbSymbolTableRecord
100
AcDbRegAppTableRecord
  2
multi_txt
 70
     0
  0
APPID
  5
1454
330
9
100
AcDbSymbolTableRecord
100
AcDbRegAppTableRecord
  2
eview
 70
     0
  0
APPID
  5
1455
330
9
100
AcDbSymbolTableRecord
100
AcDbRegAppTableRecord
  2
handle
 70
     0
  0
APPID
  5
1456
330
9
100
AcDbSymbolTableRecord
100
AcDbRegAppTableRecord
  2
po
 70
     0
  0
APPID
  5
145C
330
9
100
AcDbSymbolTableRecord
100
AcDbRegAppTableRecord
  2
viewe
 70
     0
  0
APPID
  5
145D
330
9
100
AcDbSymbolTableRecord
100
AcDbRegAppTableRecord
  2
str_drawtype
 70
     0
  0
APPID
  5
1654
330
9
100
AcDbSymbolTableRecord
100
AcDbRegAppTableRecord
  2
BLKBOM
 70
     0
  0
APPID
  5
2108
330
9
100
AcDbSymbolTableRecord
100
AcDbRegAppTableRecord
  2
ACAD_PSEXT
 70
     0
  0
APPID
  5
EFB0
330
9
100
AcDbSymbolTableRecord
100
AcDbRegAppTableRecord
  2
ACAD_DSTYLE_DIMFLIPARROW_SYMBOL
 70
     0
  0
APPID
  5
EFB1
330
9
100
AcDbSymbolTableRecord
100
AcDbRegAppTableRecord
  2
ACAD_DSTYLE_DIMFLIPARROW_WHICH_SYMBOL
 70
     0
  0
APPID
  5
1E3A7
330
9
100
AcDbSymbolTableRecord
100
AcDbRegAppTableRecord
  2
partlineartxt_7
 70
     0
  0
APPID
  5
1E3A8
330
9
100
AcDbSymbolTableRecord
100
AcDbRegAppTableRecord
  2
partlineartxt_8
 70
     0
  0
APPID
  5
1E3A9
330
9
100
AcDbSymbolTableRecord
100
AcDbRegAppTableRecord
  2
partlineartxt_9
 70
     0
  0
APPID
  5
1E3AA
330
9
100
AcDbSymbolTableRecord
100
AcDbRegAppTableRecord
  2
partlineartxt_10
 70
     0
  0
APPID
  5
1E3AB
330
9
100
AcDbSymbolTableRecord
100
AcDbRegAppTableRecord
  2
partlineartxt_11
 70
     0
  0
ENDTAB
  0
TABLE
  2
DIMSTYLE
  5
A
330
0
100
AcDbSymbolTable
 70
     2
100
AcDbDimStyleTable
 71
     1
340
27
  0
DIMSTYLE
105
27
330
A
100
AcDbSymbolTableRecord
100
AcDbDimStyleTableRecord
  2
ISO-25
 70
     0
 40
2.0
 41
2.399999999999999
 42
0.7
 43
3.2
 44
0.7
 73
     0
 74
     0
 77
     1
 78
     8
140
2.5
141
2.5
143
0.03937007874016
147
0.7
171
     3
172
     1
176
   256
177
   256
178
   256
271
     2
272
     8
274
     3
283
     0
284
     8
340
11
  0
DIMSTYLE
105
CA2
330
A
100
AcDbSymbolTableRecord
100
AcDbDimStyleTableRecord
  2
Standard
 70
     0
 40
2.0
340
11
  0
ENDTAB
  0
TABLE
  2
BLOCK_RECORD
  5
1
330
0
100
AcDbSymbolTable
 70
    15
  0
BLOCK_RECORD
  5
1F
102
{ACAD_XDICTIONARY
360
37F6
102
}
330
1
100
AcDbSymbolTableRecord
100
AcDbBlockTableRecord
  2
*Model_Space
340
22
  0
BLOCK_RECORD
  5
1B
330
1
100
AcDbSymbolTableRecord
100
AcDbBlockTableRecord
  2
*Paper_Space
340
1E
  0
BLOCK_RECORD
  5
23
330
1
100
AcDbSymbolTableRecord
100
AcDbBlockTableRecord
  2
*Paper_Space0
340
26
  0
BLOCK_RECORD
  5
1202
330
1
100
AcDbSymbolTableRecord
100
AcDbBlockTableRecord
  2
a4hc_HG
340
0
  0
BLOCK_RECORD
  5
13FE
330
1
100
AcDbSymbolTableRecord
100
AcDbBlockTableRecord
  2
f04s
340
0
  0
BLOCK_RECORD
  5
140E
330
1
100
AcDbSymbolTableRecord
100
AcDbBlockTableRecord
  2
f04s1
340
0
  0
BLOCK_RECORD
  5
144C
330
1
100
AcDbSymbolTableRecord
100
AcDbBlockTableRecord
  2
eview
340
0
  0
BLOCK_RECORD
  5
1457
330
1
100
AcDbSymbolTableRecord
100
AcDbBlockTableRecord
  2
viewe
340
0
  0
BLOCK_RECORD
  5
1E1CC
102
{ACAD_XDICTIONARY
360
1E1CD
102
}
330
1
100
AcDbSymbolTableRecord
100
AcDbBlockTableRecord
  2
a4hc_RG
340
0
  0
BLOCK_RECORD
  5
1E382
330
1
100
AcDbSymbolTableRecord
100
AcDbBlockTableRecord
  2
_DotSmall
340
0
  0
BLOCK_RECORD
  5
1E386
330
1
100
AcDbSymbolTableRecord
100
AcDbBlockTableRecord
  2
4
340
0
102
{BLKREFS
331
1E3A0
102
}
  0
BLOCK_RECORD
  5
1E38A
330
1
100
AcDbSymbolTableRecord
100
AcDbBlockTableRecord
  2
blk_c
340
0
  0
BLOCK_RECORD
  5
1E38F
330
1
100
AcDbSymbolTableRecord
100
AcDbBlockTableRecord
  2
blk_a
340
0
  0
BLOCK_RECORD
  5
1E394
330
1
100
AcDbSymbolTableRecord
100
AcDbBlockTableRecord
  2
blk_d
340
0
  0
BLOCK_RECORD
  5
1E399
330
1
100
AcDbSymbolTableRecord
100
AcDbBlockTableRecord
  2
blk_b
340
0
  0
BLOCK_RECORD
  5
1E39E
330
1
100
AcDbSymbolTableRecord
100
AcDbBlockTableRecord
  2
2
340
0
1001
ACAD
1000
DesignCenter Data
1002
{
1070
     1
1070
     4
1002
}
  0
BLOCK_RECORD
  5
1EC49
102
{ACAD_XDICTIONARY
360
1ECC2
102
}
330
1
100
AcDbSymbolTableRecord
100
AcDbBlockTableRecord
  2
A$C2BEC5252
340
0
  0
ENDTAB
  0
ENDSEC
  0
SECTION
  2
BLOCKS
  0
BLOCK
  5
20
330
1F
100
AcDbEntity
  8
0
100
AcDbBlockBegin
  2
*Model_Space
 70
     0
 10
0.0
 20
0.0
 30
0.0
  3
*Model_Space
  1

  0
ENDBLK
  5
21
330
1F
100
AcDbEntity
  8
0
100
AcDbBlockEnd
  0
BLOCK
  5
1C
330
1B
100
AcDbEntity
 67
     1
  8
0
100
AcDbBlockBegin
  2
*Paper_Space
 70
     0
 10
0.0
 20
0.0
 30
0.0
  3
*Paper_Space
  1

  0
ENDBLK
  5
1D
330
1B
100
AcDbEntity
 67
     1
  8
0
100
AcDbBlockEnd
  0
BLOCK
  5
24
330
23
100
AcDbEntity
  8
0
100
AcDbBlockBegin
  2
*Paper_Space0
 70
     0
 10
0.0
 20
0.0
 30
0.0
  3
*Paper_Space0
  1

  0
ENDBLK
  5
25
330
23
100
AcDbEntity
  8
0
100
AcDbBlockEnd
  0
BLOCK
  5
12C0
330
1202
100
AcDbEntity
  8
0
 62
     7
 48
0.27
100
AcDbBlockBegin
  2
a4hc_HG
 70
     0
 10
0.0
 20
0.0
 30
0.0
  3
a4hc_HG
  1

  0
HATCH
  5
1203
330
1202
100
AcDbEntity
  8
文字
100
AcDbHatch
 10
0.0
 20
0.0
 30
0.0
210
0.0
220
0.0
230
1.0
  2
SOLID
 70
     1
 71
     0
 91
        5
 92
        7
 72
     1
 73
     1
 93
       25
 10
87.31284730300007
 20
-88.66045918365001
 42
0.0
 10
85.7376951546
 20
-88.66045918365001
 42
0.0
 10
85.60907954220002
 20
-89.14045918365001
 42
0.0
 10
85.7763054527
 20
-89.14045918365001
 42
-0.4931454259997348
 10
86.0081276509956
 20
-89.44257575446648
 42
0.0
 10
84.81011119419003
 20
-93.91363403988721
 42
-0.3394542588631269
 10
84.46237789672606
 20
-94.18045918365001
 42
0.0
 10
84.25861561239997
 20
-94.18045918365001
 42
0.0
 10
84.13000000000002
 20
-94.66045918365001
 42
0.0
 10
86.05000000000002
 20
-94.66045918365001
 42
0.0
 10
86.17861561239999
 20
-94.18045918365001
 42
0.0
 10
85.8827740895
 20
-94.18045918365001
 42
-0.4931454260042405
 10
85.65095189120532
 20
-93.87834261283016
 42
0.0
 10
86.6437023613
 20
-90.17334741915
 42
0.0
 10
88.93
 20
-94.66045918365001
 42
0.0
 10
89.77000000000002
 20
-94.66045918365001
 42
0.0
 10
91.17758396041134
 20
-89.40728432740771
 42
-0.33945425885905
 10
91.52531725787396
 20
-89.14045918365001
 42
0.0
 10
91.62423169070001
 20
-89.14045918365001
 42
0.0
 10
91.75284730299997
 20
-88.66045918365001
 42
0.0
 10
89.83284730299999
 20
-88.66045918365001
 42
0.0
 10
89.70423169069997
 20
-89.14045918365001
 42
0.0
 10
90.09630545270002
 20
-89.14045918365001
 42
-0.49314542600108
 10
90.32812765099533
 20
-89.4425757544675
 42
0.0
 10
89.42628221460003
 20
-92.80830874384998
 42
0.0
 97
        0
 92
        7
 72
     1
 73
     1
 93
       16
 10
84.48141582100573
 20
-89.31834261282872
 42
-0.3394542588673643
 10
84.71323801931598
 20
-89.14045918365001
 42
0.0
 10
85.12907954219997
 20
-89.14045918365001
 42
0.0
 10
85.25769515459996
 20
-88.66045918365001
 42
0.0
 10
82.85769515459998
 20
-88.66045918365001
 42
0.0
 10
82.72907954220002
 20
-89.14045918365001
 42
0.0
 10
83.17269249750001
 20
-89.14045918365001
 42
-0.4931454258380596
 10
83.28860359660103
 20
-89.29151746904622
 42
0.0
 10
82.02627933359531
 20
-94.00257575446746
 42
-0.3394542588719629
 10
81.79445713528403
 20
-94.18045918365001
 42
0.0
 10
81.37861561240004
 20
-94.18045918365001
 42
0.0
 10
81.25000000000003
 20
-94.66045918365001
 42
0.0
 10
83.65
 20
-94.66045918365001
 42
0.0
 10
83.77861561240004
 20
-94.18045918365001
 42
0.0
 10
83.49138970180002
 20
-94.18045918365001
 42
-0.4931454260061948
 10
83.2595675035057
 20
-93.87834261282872
 42
0.0
 97
        0
 92
        7
 72
     1
 73
     1
 93
       31
 10
81.84769145359755
 20
-89.26045918365428
 42
-0.2679491924366411
 10
82.05553755050829
 20
-89.14045918365001
 42
0.0
 10
82.36907954220001
 20
-89.14045918365001
 42
0.0
 10
82.4976951546
 20
-88.66045918365001
 42
0.0
 10
80.33769515459999
 20
-88.66045918365001
 42
0.0
 10
80.20907954220005
 20
-89.14045918365001
 42
0.0
 10
80.56289929950001
 20
-89.14045918365001
 42
-0.5628963153237844
 10
80.72256124950014
 20
-89.40357393404978
 42
0.0
 10
78.89163332860002
 20
-92.92075374574997
 42
0.0
 10
78.82777920529955
 20
-89.26255347242422
 42
-0.4193348017625921
 10
78.94776092871828
 20
-89.14045918365001
 42
0.0
 10
79.24907954219998
 20
-89.14045918365001
 42
0.0
 10
79.37769515459999
 20
-88.66045918365001
 42
0.0
 10
77.09769515460002
 20
-88.66045918365001
 42
0.0
 10
76.96907954220003
 20
-89.14045918365001
 42
0.0
 10
77.1255890983
 20
-89.14045918365001
 42
-0.5773502691742179
 10
77.54128129210283
 20
-89.8604591836451
 42
0.0
 10
75.77171508830002
 20
-92.92543775595001
 42
0.0
 10
75.70991036910072
 20
-89.38464776119046
 42
-0.4193348017528848
 10
75.94987381593833
 20
-89.14045918365001
 42
0.0
 10
76.24907954220003
 20
-89.14045918365001
 42
0.0
 10
76.37769515459999
 20
-88.66045918365001
 42
0.0
 10
73.97769515459998
 20
-88.66045918365001
 42
0.0
 10
73.8490795422
 20
-89.14045918365001
 42
0.0
 10
74.17924157699999
 20
-89.14045918365001
 42
-0.4014906669321768
 10
74.41901315020141
 20
-89.36999053068218
 42
0.0
 10
74.64999999999998
 20
-94.66045918365001
 42
0.0
 10
75.61000000000001
 20
-94.66045918365001
 42
0.0
 10
77.7149916749
 20
-91.50903434665009
 42
0.0
 10
77.77000000000001
 20
-94.66045918365001
 42
0.0
 10
78.73000000000001
 20
-94.66045918365001
 42
0.0
 97
        0
 92
        7
 72
     1
 73
     1
 93
       16
 10
72.84141582100571
 20
-89.31834261282872
 42
-0.3394542588673603
 10
73.07323801931596
 20
-89.14045918365001
 42
0.0
 10
73.48907954220002
 20
-89.14045918365001
 42
0.0
 10
73.6176951546
 20
-88.66045918365001
 42
0.0
 10
71.21769515459999
 20
-88.66045918365001
 42
0.0
 10
71.08907954220004
 20
-89.14045918365001
 42
0.0
 10
71.53269249749996
 20
-89.14045918365001
 42
-0.4931454258381302
 10
71.64860359660102
 20
-89.29151746904622
 42
0.0
 10
70.38627933359535
 20
-94.00257575446746
 42
-0.3394542588719971
 10
70.15445713528404
 20
-94.18045918365001
 42
0.0
 10
69.73861561239999
 20
-94.18045918365001
 42
0.0
 10
69.61000000000004
 20
-94.66045918365001
 42
0.0
 10
72.01000000000002
 20
-94.66045918365001
 42
0.0
 10
72.1386156124
 20
-94.18045918365001
 42
0.0
 10
71.8513897018
 20
-94.18045918365001
 42
-0.4931454260061438
 10
71.61956750350572
 20
-93.87834261282874
 42
0.0
 97
        0
 92
        7
 72
     1
 73
     1
 93
       40
 10
70.08141582100572
 20
-89.31834261282872
 42
-0.3394542588673941
 10
70.313238019316
 20
-89.14045918365001
 42
0.0
 10
70.72907954219999
 20
-89.14045918365001
 42
0.0
 10
70.8576951546
 20
-88.66045918365001
 42
0.0
 10
68.4576951546
 20
-88.66045918365001
 42
0.0
 10
68.32907954220002
 20
-89.14045918365001
 42
0.0
 10
68.77269249749997
 20
-89.14045918365001
 42
-0.4931454258321303
 10
68.88860359660163
 20
-89.291517469044
 42
0.0
 10
68.37414114719493
 20
-91.21151746906901
 42
-0.3394542588472685
 10
68.25823004804203
 20
-91.30045918365
 42
0.0
 10
66.10669633130001
 20
-91.30045918365
 42
-0.4931454258316102
 10
65.99078523219836
 20
-91.14940089825617
 42
0.0
 10
66.4814158210034
 20
-89.31834261283734
 42
-0.339454258877745
 10
66.71323801931598
 20
-89.14045918365001
 42
0.0
 10
67.1290795422
 20
-89.14045918365001
 42
0.0
 10
67.25769515459998
 20
-88.66045918365001
 42
0.0
 10
64.85769515460001
 20
-88.66045918365001
 42
0.0
 10
64.72907954219997
 20
-89.14045918365001
 42
0.0
 10
65.1726924975
 20
-89.14045918365001
 42
-0.4931454258380596
 10
65.28860359660104
 20
-89.29151746904622
 42
0.0
 10
64.02627933359531
 20
-94.00257575446746
 42
-0.3394542588719629
 10
63.79445713528403
 20
-94.18045918365001
 42
0.0
 10
63.37861561240003
 20
-94.18045918365001
 42
0.0
 10
63.25
 20
-94.66045918365001
 42
0.0
 10
65.65000000000003
 20
-94.66045918365001
 42
0.0
 10
65.77861561240005
 20
-94.18045918365001
 42
0.0
 10
65.64777674660001
 20
-94.18045918365001
 42
-0.4931454260592977
 10
65.30004344911154
 20
-93.72728432740695
 42
0.0
 10
65.73355400740609
 20
-92.10940089822733
 42
-0.339454258838397
 10
65.849465106558
 20
-92.02045918365
 42
0.0
 10
68.00099882329999
 20
-92.02045918365
 42
-0.4931454258316087
 10
68.11690992240165
 20
-92.17151746904383
 42
0.0
 10
67.62627933359661
 20
-94.00257575446266
 42
-0.3394542588777114
 10
67.39445713528406
 20
-94.18045918365001
 42
0.0
 10
66.97861561240003
 20
-94.18045918365001
 42
0.0
 10
66.85000000000002
 20
-94.66045918365001
 42
0.0
 10
69.25
 20
-94.66045918365001
 42
0.0
 10
69.37861561240001
 20
-94.18045918365001
 42
0.0
 10
69.09138970180001
 20
-94.18045918365001
 42
-0.4931454260061438
 10
68.85956750350572
 20
-93.87834261282874
 42
0.0
 97
        0
 75
     0
 76
     1
 47
0.0375180088224066
 98
        5
 10
88.20901055367233
 20
-91.69475157655403
 10
83.70319790931592
 20
-90.83183694378936
 10
80.21119388198883
 20
-91.16949944083188
 10
71.95053736733552
 20
-90.64424730510967
 10
69.05930767299003
 20
-90.90687337297078
  0
CIRCLE
  5
1204
330
1202
100
AcDbEntity
  8
文字
100
AcDbCircle
 10
92.35440421570002
 20
-93.78229363355
 30
0.0
 40
1.199999999999988
  0
LINE
  5
1205
330
1202
100
AcDbEntity
  8
文字
100
AcDbLine
 10
89.83284730299999
 20
-88.66045918365001
 30
0.0
 11
91.75284730300001
 21
-88.66045918365001
 31
0.0
  0
LINE
  5
1206
330
1202
100
AcDbEntity
  8
文字
100
AcDbLine
 10
87.31284730300002
 20
-88.66045918365001
 30
0.0
 11
85.7376951546
 21
-88.66045918365001
 31
0.0
  0
LINE
  5
1207
330
1202
100
AcDbEntity
  8
文字
100
AcDbLine
 10
89.7042316907
 20
-89.14045918365001
 30
0.0
 11
90.09630545270002
 21
-89.14045918365001
 31
0.0
  0
LINE
  5
1208
330
1202
100
AcDbEntity
  8
文字
100
AcDbLine
 10
91.52531725790002
 20
-89.14045918365001
 30
0.0
 11
91.62423169070001
 21
-89.14045918365001
 31
0.0
  0
ARC
  5
1209
330
1202
100
AcDbEntity
  8
文字
100
AcDbCircle
 10
90.09630545270002
 20
-89.38045918365
 30
0.0
 40
0.24
100
AcDbArc
 50
345.0000109816997
 51
90.0
  0
ARC
  5
120A
330
1202
100
AcDbEntity
  8
文字
100
AcDbCircle
 10
91.52531725790002
 20
-89.50045918365001
 30
0.0
 40
0.36
100
AcDbArc
 50
90.0
 51
165.0000052521
  0
TEXT
  5
120B
330
1202
100
AcDbEntity
  8
文字
100
AcDbText
 10
91.70403496470001
 20
-94.61179976495001
 30
0.0
 40
1.558055249599999
  1
R
 41
0.75
 51
5.000000159199999
  7
SIMPLEX
100
AcDbText
  0
LINE
  5
120C
330
1202
100
AcDbEntity
  8
文字
100
AcDbLine
 10
89.77000000000002
 20
-94.66045918365001
 30
0.0
 11
91.17758396040001
 21
-89.40728432745
 31
0.0
  0
LINE
  5
120D
330
1202
100
AcDbEntity
  8
文字
100
AcDbLine
 10
85.12907954220001
 20
-89.14045918365001
 30
0.0
 11
84.71323801930001
 21
-89.14045918365001
 31
0.0
  0
ARC
  5
120E
330
1202
100
AcDbEntity
  8
文字
100
AcDbCircle
 10
84.71323801930001
 20
-89.38045918365
 30
0.0
 40
0.24
100
AcDbArc
 50
90.0
 51
165.0000052521
  0
LINE
  5
120F
330
1202
100
AcDbEntity
  8
文字
100
AcDbLine
 10
85.7763054527
 20
-89.14045918365001
 30
0.0
 11
85.60907954220002
 21
-89.14045918365001
 31
0.0
  0
ARC
  5
1210
330
1202
100
AcDbEntity
  8
文字
100
AcDbCircle
 10
85.7763054527
 20
-89.38045918365
 30
0.0
 40
0.24
100
AcDbArc
 50
345.0000109816997
 51
90.0
  0
LINE
  5
1211
330
1202
100
AcDbEntity
  8
文字
100
AcDbLine
 10
86.05000000000002
 20
-94.66045918365001
 30
0.0
 11
84.13
 21
-94.66045918365001
 31
0.0
  0
LINE
  5
1212
330
1202
100
AcDbEntity
  8
文字
100
AcDbLine
 10
86.17861561239999
 20
-94.18045918365001
 30
0.0
 11
85.8827740895
 21
-94.18045918365001
 31
0.0
  0
LINE
  5
1213
330
1202
100
AcDbEntity
  8
文字
100
AcDbLine
 10
84.13
 20
-94.66045918365001
 30
0.0
 11
84.25861561240001
 21
-94.18045918365001
 31
0.0
  0
LINE
  5
1214
330
1202
100
AcDbEntity
  8
文字
100
AcDbLine
 10
86.05000000000002
 20
-94.66045918365001
 30
0.0
 11
86.17861561239999
 21
-94.18045918365001
 31
0.0
  0
LINE
  5
1215
330
1202
100
AcDbEntity
  8
文字
100
AcDbLine
 10
84.46237789670002
 20
-94.18045918365001
 30
0.0
 11
84.25861561240001
 21
-94.18045918365001
 31
0.0
  0
ARC
  5
1216
330
1202
100
AcDbEntity
  8
文字
100
AcDbCircle
 10
84.46237789670002
 20
-93.82045918364999
 30
0.0
 40
0.36
100
AcDbArc
 50
270.0
 51
345.0000109816995
  0
ARC
  5
1217
330
1202
100
AcDbEntity
  8
文字
100
AcDbCircle
 10
85.8827740895
 20
-93.94045918365
 30
0.0
 40
0.24
100
AcDbArc
 50
165.0000052521
 51
270.0
  0
LINE
  5
1218
330
1202
100
AcDbEntity
  8
文字
100
AcDbLine
 10
86.008127651
 20
-89.44257575445
 30
0.0
 11
84.81011119420001
 21
-93.91363403985002
 31
0.0
  0
LINE
  5
1219
330
1202
100
AcDbEntity
  8
文字
100
AcDbLine
 10
86.6437023613
 20
-90.17334741915
 30
0.0
 11
85.6509518912
 21
-93.87834261285
 31
0.0
  0
LINE
  5
121A
330
1202
100
AcDbEntity
  8
文字
100
AcDbLine
 10
88.93
 20
-94.66045918365001
 30
0.0
 11
86.6437023613
 21
-90.17334741915
 31
0.0
  0
LINE
  5
121B
330
1202
100
AcDbEntity
  8
文字
100
AcDbLine
 10
88.93
 20
-94.66045918365001
 30
0.0
 11
89.77000000000002
 21
-94.66045918365001
 31
0.0
  0
LINE
  5
121C
330
1202
100
AcDbEntity
  8
文字
100
AcDbLine
 10
89.42628221460001
 20
-92.80830874385001
 30
0.0
 11
90.32812765100002
 21
-89.44257575445
 31
0.0
  0
LINE
  5
121D
330
1202
100
AcDbEntity
  8
文字
100
AcDbLine
 10
85.12907954220001
 20
-89.14045918365001
 30
0.0
 11
85.25769515460002
 21
-88.66045918365001
 31
0.0
  0
LINE
  5
121E
330
1202
100
AcDbEntity
  8
文字
100
AcDbLine
 10
85.60907954220002
 20
-89.14045918365001
 30
0.0
 11
85.7376951546
 21
-88.66045918365001
 31
0.0
  0
LINE
  5
121F
330
1202
100
AcDbEntity
  8
文字
100
AcDbLine
 10
89.42628221460001
 20
-92.80830874385001
 30
0.0
 11
87.31284730300002
 21
-88.66045918365001
 31
0.0
  0
LINE
  5
1220
330
1202
100
AcDbEntity
  8
文字
100
AcDbLine
 10
89.7042316907
 20
-89.14045918365001
 30
0.0
 11
89.83284730299999
 21
-88.66045918365001
 31
0.0
  0
LINE
  5
1221
330
1202
100
AcDbEntity
  8
文字
100
AcDbLine
 10
91.62423169070001
 20
-89.14045918365001
 30
0.0
 11
91.75284730300001
 21
-88.66045918365001
 31
0.0
  0
LINE
  5
1222
330
1202
100
AcDbEntity
  8
文字
100
AcDbLine
 10
82.4976951546
 20
-88.66045918365001
 30
0.0
 11
80.33769515459999
 21
-88.66045918365001
 31
0.0
  0
LINE
  5
1223
330
1202
100
AcDbEntity
  8
文字
100
AcDbLine
 10
76.37769515460002
 20
-88.66045918365001
 30
0.0
 11
73.97769515460002
 21
-88.66045918365001
 31
0.0
  0
LINE
  5
1224
330
1202
100
AcDbEntity
  8
文字
100
AcDbLine
 10
79.37769515460002
 20
-88.66045918365001
 30
0.0
 11
77.09769515460002
 21
-88.66045918365001
 31
0.0
  0
LINE
  5
1225
330
1202
100
AcDbEntity
  8
文字
100
AcDbLine
 10
70.8576951546
 20
-88.66045918365001
 30
0.0
 11
68.4576951546
 21
-88.66045918365001
 31
0.0
  0
LINE
  5
1226
330
1202
100
AcDbEntity
  8
文字
100
AcDbLine
 10
67.25769515460001
 20
-88.66045918365001
 30
0.0
 11
64.85769515460001
 21
-88.66045918365001
 31
0.0
  0
LINE
  5
1227
330
1202
100
AcDbEntity
  8
文字
100
AcDbLine
 10
73.6176951546
 20
-88.66045918365001
 30
0.0
 11
71.21769515459999
 21
-88.66045918365001
 31
0.0
  0
LINE
  5
1228
330
1202
100
AcDbEntity
  8
文字
100
AcDbLine
 10
82.36907954220001
 20
-89.14045918365001
 30
0.0
 11
82.05553755050003
 21
-89.14045918365001
 31
0.0
  0
ARC
  5
1229
330
1202
100
AcDbEntity
  8
文字
100
AcDbCircle
 10
82.05553755050003
 20
-89.38045918365
 30
0.0
 40
0.24
100
AcDbArc
 50
90.0
 51
150.0000047745997
  0
ARC
  5
122A
330
1202
100
AcDbEntity
  8
文字
100
AcDbCircle
 10
83.17269249750001
 20
-89.26045918365
 30
0.0
 40
0.12
100
AcDbArc
 50
345.0000109816994
 51
90.0
  0
LINE
  5
122B
330
1202
100
AcDbEntity
  8
文字
100
AcDbLine
 10
83.17269249750001
 20
-89.14045918365001
 30
0.0
 11
82.7290795422
 21
-89.14045918365001
 31
0.0
  0
LINE
  5
122C
330
1202
100
AcDbEntity
  8
文字
100
AcDbLine
 10
79.2490795422
 20
-89.14045918365001
 30
0.0
 11
78.94776092879999
 21
-89.14045918365001
 31
0.0
  0
LINE
  5
122D
330
1202
100
AcDbEntity
  8
文字
100
AcDbLine
 10
80.56289929950001
 20
-89.14045918365001
 30
0.0
 11
80.20907954220001
 21
-89.14045918365001
 31
0.0
  0
LINE
  5
122E
330
1202
100
AcDbEntity
  8
文字
100
AcDbLine
 10
78.89163332859999
 20
-92.92075374575
 30
0.0
 11
78.8277792053
 21
-89.26255347245001
 31
0.0
  0
LINE
  5
122F
330
1202
100
AcDbEntity
  8
文字
100
AcDbLine
 10
78.89163332859999
 20
-92.92075374575
 30
0.0
 11
80.72256124950001
 21
-89.40357393404999
 31
0.0
  0
ARC
  5
1230
330
1202
100
AcDbEntity
  8
文字
100
AcDbCircle
 10
78.94776092879999
 20
-89.26045918365
 30
0.0
 40
0.12
100
AcDbArc
 50
90.0
 51
181.0000057614001
  0
ARC
  5
1231
330
1202
100
AcDbEntity
  8
文字
100
AcDbCircle
 10
80.56289929950001
 20
-89.32045918365
 30
0.0
 40
0.18
100
AcDbArc
 50
332.5000105837975
 51
90.0
  0
ARC
  5
1232
330
1202
100
AcDbEntity
  8
文字
100
AcDbCircle
 10
83.49138970180002
 20
-93.94045918365
 30
0.0
 40
0.24
100
AcDbArc
 50
165.0000052521
 51
270.0
  0
LINE
  5
1233
330
1202
100
AcDbEntity
  8
文字
100
AcDbLine
 10
83.77861561240001
 20
-94.18045918365001
 30
0.0
 11
83.49138970180002
 21
-94.18045918365001
 31
0.0
  0
LINE
  5
1234
330
1202
100
AcDbEntity
  8
文字
100
AcDbLine
 10
83.65
 20
-94.66045918365001
 30
0.0
 11
83.77861561240001
 21
-94.18045918365001
 31
0.0
  0
LINE
  5
1235
330
1202
100
AcDbEntity
  8
文字
100
AcDbLine
 10
81.7944571353
 20
-94.18045918365001
 30
0.0
 11
81.37861561240001
 21
-94.18045918365001
 31
0.0
  0
ARC
  5
1236
330
1202
100
AcDbEntity
  8
文字
100
AcDbCircle
 10
81.7944571353
 20
-93.94045918365
 30
0.0
 40
0.24
100
AcDbArc
 50
270.0
 51
345.0000109816997
  0
LINE
  5
1237
330
1202
100
AcDbEntity
  8
文字
100
AcDbLine
 10
83.65
 20
-94.66045918365001
 30
0.0
 11
81.25
 21
-94.66045918365001
 31
0.0
  0
LINE
  5
1238
330
1202
100
AcDbEntity
  8
文字
100
AcDbLine
 10
81.25
 20
-94.66045918365001
 30
0.0
 11
81.37861561240001
 21
-94.18045918365001
 31
0.0
  0
LINE
  5
1239
330
1202
100
AcDbEntity
  8
文字
100
AcDbLine
 10
78.73000000000001
 20
-94.66045918365001
 30
0.0
 11
81.84769145360002
 21
-89.26045918365
 31
0.0
  0
LINE
  5
123A
330
1202
100
AcDbEntity
  8
文字
100
AcDbLine
 10
82.0262793336
 20
-94.00257575445001
 30
0.0
 11
83.28860359660001
 21
-89.29151746905001
 31
0.0
  0
LINE
  5
123B
330
1202
100
AcDbEntity
  8
文字
100
AcDbLine
 10
76.24907954220001
 20
-89.14045918365001
 30
0.0
 11
75.94987381590001
 21
-89.14045918365001
 31
0.0
  0
LINE
  5
123C
330
1202
100
AcDbEntity
  8
文字
100
AcDbLine
 10
77.1255890983
 20
-89.14045918365001
 30
0.0
 11
76.96907954220001
 21
-89.14045918365001
 31
0.0
  0
LINE
  5
123D
330
1202
100
AcDbEntity
  8
文字
100
AcDbLine
 10
75.7717150883
 20
-92.92543775594999
 30
0.0
 11
77.54128129209999
 21
-89.86045918365
 31
0.0
  0
ARC
  5
123E
330
1202
100
AcDbEntity
  8
文字
100
AcDbCircle
 10
77.1255890983
 20
-89.62045918364999
 30
0.0
 40
0.4800000000000001
100
AcDbArc
 50
330.0000105041998
 51
90.0
  0
LINE
  5
123F
330
1202
100
AcDbEntity
  8
文字
100
AcDbLine
 10
73.48907954220002
 20
-89.14045918365001
 30
0.0
 11
73.07323801930002
 21
-89.14045918365001
 31
0.0
  0
LINE
  5
1240
330
1202
100
AcDbEntity
  8
文字
100
AcDbLine
 10
74.17924157699999
 20
-89.14045918365001
 30
0.0
 11
73.8490795422
 21
-89.14045918365001
 31
0.0
  0
ARC
  5
1241
330
1202
100
AcDbEntity
  8
文字
100
AcDbCircle
 10
74.17924157699999
 20
-89.38045918365
 30
0.0
 40
0.24
100
AcDbArc
 50
2.500000079599775
 51
90.0
  0
LINE
  5
1242
330
1202
100
AcDbEntity
  8
文字
100
AcDbLine
 10
75.7717150883
 20
-92.92543775594999
 30
0.0
 11
75.70991036910001
 21
-89.38464776115001
 31
0.0
  0
ARC
  5
1243
330
1202
100
AcDbEntity
  8
文字
100
AcDbCircle
 10
75.94987381590001
 20
-89.38045918365
 30
0.0
 40
0.24
100
AcDbArc
 50
90.0
 51
181.0000057613999
  0
LINE
  5
1244
330
1202
100
AcDbEntity
  8
文字
100
AcDbLine
 10
74.65
 20
-94.66045918365001
 30
0.0
 11
75.61000000000001
 21
-94.66045918365001
 31
0.0
  0
LINE
  5
1245
330
1202
100
AcDbEntity
  8
文字
100
AcDbLine
 10
74.65
 20
-94.66045918365001
 30
0.0
 11
74.41901315020001
 21
-89.36999053064999
 31
0.0
  0
LINE
  5
1246
330
1202
100
AcDbEntity
  8
文字
100
AcDbLine
 10
75.61000000000001
 20
-94.66045918365001
 30
0.0
 11
77.7149916749
 21
-91.50903434665002
 31
0.0
  0
LINE
  5
1247
330
1202
100
AcDbEntity
  8
文字
100
AcDbLine
 10
77.77000000000001
 20
-94.66045918365001
 30
0.0
 11
77.7149916749
 21
-91.50903434665002
 31
0.0
  0
LINE
  5
1248
330
1202
100
AcDbEntity
  8
文字
100
AcDbLine
 10
77.77000000000001
 20
-94.66045918365001
 30
0.0
 11
78.73000000000001
 21
-94.66045918365001
 31
0.0
  0
LINE
  5
1249
330
1202
100
AcDbEntity
  8
文字
100
AcDbLine
 10
70.72907954219999
 20
-89.14045918365001
 30
0.0
 11
70.3132380193
 21
-89.14045918365001
 31
0.0
  0
LINE
  5
124A
330
1202
100
AcDbEntity
  8
文字
100
AcDbLine
 10
71.5326924975
 20
-89.14045918365001
 30
0.0
 11
71.08907954220001
 21
-89.14045918365001
 31
0.0
  0
ARC
  5
124B
330
1202
100
AcDbEntity
  8
文字
100
AcDbCircle
 10
71.5326924975
 20
-89.26045918365
 30
0.0
 40
0.12
100
AcDbArc
 50
345.0000109816994
 51
90.0
  0
LINE
  5
124C
330
1202
100
AcDbEntity
  8
文字
100
AcDbLine
 10
68.7726924975
 20
-89.14045918365001
 30
0.0
 11
68.32907954220002
 21
-89.14045918365001
 31
0.0
  0
LINE
  5
124D
330
1202
100
AcDbEntity
  8
文字
100
AcDbLine
 10
68.37414114720002
 20
-91.21151746905001
 30
0.0
 11
68.8886035966
 21
-89.29151746905001
 31
0.0
  0
ARC
  5
124E
330
1202
100
AcDbEntity
  8
文字
100
AcDbCircle
 10
68.7726924975
 20
-89.26045918365
 30
0.0
 40
0.12
100
AcDbArc
 50
345.0000109816994
 51
90.0
  0
ARC
  5
124F
330
1202
100
AcDbEntity
  8
文字
100
AcDbCircle
 10
68.258230048
 20
-91.18045918365
 30
0.0
 40
0.12
100
AcDbArc
 50
270.0
 51
345.0000109816994
  0
ARC
  5
1250
330
1202
100
AcDbEntity
  8
文字
100
AcDbCircle
 10
68.00099882329999
 20
-92.14045918365
 30
0.0
 40
0.12
100
AcDbArc
 50
345.0000109816994
 51
90.0
  0
ARC
  5
1251
330
1202
100
AcDbEntity
  8
文字
100
AcDbCircle
 10
70.3132380193
 20
-89.38045918365
 30
0.0
 40
0.24
100
AcDbArc
 50
90.0
 51
165.0000052521
  0
ARC
  5
1252
330
1202
100
AcDbEntity
  8
文字
100
AcDbCircle
 10
70.15445713530002
 20
-93.94045918365
 30
0.0
 40
0.24
100
AcDbArc
 50
270.0
 51
345.0000109816997
  0
LINE
  5
1253
330
1202
100
AcDbEntity
  8
文字
100
AcDbLine
 10
72.01000000000002
 20
-94.66045918365001
 30
0.0
 11
72.1386156124
 21
-94.18045918365001
 31
0.0
  0
LINE
  5
1254
330
1202
100
AcDbEntity
  8
文字
100
AcDbLine
 10
72.1386156124
 20
-94.18045918365001
 30
0.0
 11
71.8513897018
 21
-94.18045918365001
 31
0.0
  0
ARC
  5
1255
330
1202
100
AcDbEntity
  8
文字
100
AcDbCircle
 10
71.8513897018
 20
-93.94045918365
 30
0.0
 40
0.24
100
AcDbArc
 50
165.0000052521
 51
270.0
  0
LINE
  5
1256
330
1202
100
AcDbEntity
  8
文字
100
AcDbLine
 10
69.25
 20
-94.66045918365001
 30
0.0
 11
69.37861561240001
 21
-94.18045918365001
 31
0.0
  0
LINE
  5
1257
330
1202
100
AcDbEntity
  8
文字
100
AcDbLine
 10
69.37861561240001
 20
-94.18045918365001
 30
0.0
 11
69.09138970180001
 21
-94.18045918365001
 31
0.0
  0
ARC
  5
1258
330
1202
100
AcDbEntity
  8
文字
100
AcDbCircle
 10
67.3944571353
 20
-93.94045918365
 30
0.0
 40
0.24
100
AcDbArc
 50
270.0
 51
345.0000109816997
  0
ARC
  5
1259
330
1202
100
AcDbEntity
  8
文字
100
AcDbCircle
 10
69.09138970180001
 20
-93.94045918365
 30
0.0
 40
0.24
100
AcDbArc
 50
165.0000052521
 51
270.0
  0
LINE
  5
125A
330
1202
100
AcDbEntity
  8
文字
100
AcDbLine
 10
69.61000000000002
 20
-94.66045918365001
 30
0.0
 11
69.73861561239999
 21
-94.18045918365001
 31
0.0
  0
LINE
  5
125B
330
1202
100
AcDbEntity
  8
文字
100
AcDbLine
 10
70.15445713530002
 20
-94.18045918365001
 30
0.0
 11
69.73861561239999
 21
-94.18045918365001
 31
0.0
  0
LINE
  5
125C
330
1202
100
AcDbEntity
  8
文字
100
AcDbLine
 10
72.01000000000002
 20
-94.66045918365001
 30
0.0
 11
69.61000000000002
 21
-94.66045918365001
 31
0.0
  0
LINE
  5
125D
330
1202
100
AcDbEntity
  8
文字
100
AcDbLine
 10
67.6262793336
 20
-94.00257575445001
 30
0.0
 11
68.11690992239999
 21
-92.17151746905001
 31
0.0
  0
LINE
  5
125E
330
1202
100
AcDbEntity
  8
文字
100
AcDbLine
 10
68.85956750350001
 20
-93.87834261285
 30
0.0
 11
70.08141582100001
 21
-89.31834261285001
 31
0.0
  0
LINE
  5
125F
330
1202
100
AcDbEntity
  8
文字
100
AcDbLine
 10
70.38627933360001
 20
-94.00257575445001
 30
0.0
 11
71.6486035966
 21
-89.29151746905001
 31
0.0
  0
LINE
  5
1260
330
1202
100
AcDbEntity
  8
文字
100
AcDbLine
 10
71.6195675035
 20
-93.87834261285
 30
0.0
 11
72.841415821
 21
-89.31834261285001
 31
0.0
  0
LINE
  5
1261
330
1202
100
AcDbEntity
  8
文字
100
AcDbLine
 10
67.1290795422
 20
-89.14045918365001
 30
0.0
 11
66.7132380193
 21
-89.14045918365001
 31
0.0
  0
LINE
  5
1262
330
1202
100
AcDbEntity
  8
文字
100
AcDbLine
 10
65.1726924975
 20
-89.14045918365001
 30
0.0
 11
64.7290795422
 21
-89.14045918365001
 31
0.0
  0
LINE
  5
1263
330
1202
100
AcDbEntity
  8
文字
100
AcDbLine
 10
65.99078523220001
 20
-91.14940089825001
 30
0.0
 11
66.48141582100001
 21
-89.31834261285001
 31
0.0
  0
ARC
  5
1264
330
1202
100
AcDbEntity
  8
文字
100
AcDbCircle
 10
65.1726924975
 20
-89.26045918365
 30
0.0
 40
0.12
100
AcDbArc
 50
345.0000109816994
 51
90.0
  0
ARC
  5
1265
330
1202
100
AcDbEntity
  8
文字
100
AcDbCircle
 10
66.7132380193
 20
-89.38045918365
 30
0.0
 40
0.24
100
AcDbArc
 50
90.0
 51
165.0000052521
  0
ARC
  5
1266
330
1202
100
AcDbEntity
  8
文字
100
AcDbCircle
 10
65.8494651066
 20
-92.14045918365
 30
0.0
 40
0.12
100
AcDbArc
 50
90.0
 51
165.0000052521
  0
ARC
  5
1267
330
1202
100
AcDbEntity
  8
文字
100
AcDbCircle
 10
66.10669633130001
 20
-91.18045918365
 30
0.0
 40
0.12
100
AcDbArc
 50
165.0000052521
 51
270.0
  0
LINE
  5
1268
330
1202
100
AcDbEntity
  8
文字
100
AcDbLine
 10
65.77861561240002
 20
-94.18045918365001
 30
0.0
 11
65.64777674660001
 21
-94.18045918365001
 31
0.0
  0
LINE
  5
1269
330
1202
100
AcDbEntity
  8
文字
100
AcDbLine
 10
65.65000000000001
 20
-94.66045918365001
 30
0.0
 11
65.77861561240002
 21
-94.18045918365001
 31
0.0
  0
LINE
  5
126A
330
1202
100
AcDbEntity
  8
文字
100
AcDbLine
 10
66.84999999999999
 20
-94.66045918365001
 30
0.0
 11
66.9786156124
 21
-94.18045918365001
 31
0.0
  0
ARC
  5
126B
330
1202
100
AcDbEntity
  8
文字
100
AcDbCircle
 10
65.64777674660001
 20
-93.82045918364999
 30
0.0
 40
0.36
100
AcDbArc
 50
165.0000052521
 51
270.0
  0
LINE
  5
126C
330
1202
100
AcDbEntity
  8
文字
100
AcDbLine
 10
63.7944571353
 20
-94.18045918365001
 30
0.0
 11
63.37861561240001
 21
-94.18045918365001
 31
0.0
  0
LINE
  5
126D
330
1202
100
AcDbEntity
  8
文字
100
AcDbLine
 10
63.25
 20
-94.66045918365001
 30
0.0
 11
63.37861561240001
 21
-94.18045918365001
 31
0.0
  0
ARC
  5
126E
330
1202
100
AcDbEntity
  8
文字
100
AcDbCircle
 10
63.7944571353
 20
-93.94045918365
 30
0.0
 40
0.24
100
AcDbArc
 50
270.0
 51
345.0000109816997
  0
LINE
  5
126F
330
1202
100
AcDbEntity
  8
文字
100
AcDbLine
 10
65.65000000000001
 20
-94.66045918365001
 30
0.0
 11
63.25
 21
-94.66045918365001
 31
0.0
  0
LINE
  5
1270
330
1202
100
AcDbEntity
  8
文字
100
AcDbLine
 10
64.0262793336
 20
-94.00257575445001
 30
0.0
 11
65.28860359660001
 21
-89.29151746905001
 31
0.0
  0
LINE
  5
1271
330
1202
100
AcDbEntity
  8
文字
100
AcDbLine
 10
65.3000434491
 20
-93.72728432745001
 30
0.0
 11
65.73355400740002
 21
-92.10940089824999
 31
0.0
  0
LINE
  5
1272
330
1202
100
AcDbEntity
  8
文字
100
AcDbLine
 10
67.3944571353
 20
-94.18045918365001
 30
0.0
 11
66.9786156124
 21
-94.18045918365001
 31
0.0
  0
LINE
  5
1273
330
1202
100
AcDbEntity
  8
文字
100
AcDbLine
 10
69.25
 20
-94.66045918365001
 30
0.0
 11
66.84999999999999
 21
-94.66045918365001
 31
0.0
  0
LINE
  5
1274
330
1202
100
AcDbEntity
  8
文字
100
AcDbLine
 10
66.10669633130001
 20
-91.30045918365
 30
0.0
 11
68.258230048
 21
-91.30045918365
 31
0.0
  0
LINE
  5
1275
330
1202
100
AcDbEntity
  8
文字
100
AcDbLine
 10
65.8494651066
 20
-92.02045918365
 30
0.0
 11
68.00099882329999
 21
-92.02045918365
 31
0.0
  0
ARC
  5
1276
330
1202
100
AcDbEntity
  8
文字
100
AcDbCircle
 10
73.07323801930002
 20
-89.38045918365
 30
0.0
 40
0.24
100
AcDbArc
 50
90.0
 51
165.0000052521
  0
LINE
  5
1277
330
1202
100
AcDbEntity
  8
文字
100
AcDbLine
 10
64.7290795422
 20
-89.14045918365001
 30
0.0
 11
64.85769515460001
 21
-88.66045918365001
 31
0.0
  0
LINE
  5
1278
330
1202
100
AcDbEntity
  8
文字
100
AcDbLine
 10
67.1290795422
 20
-89.14045918365001
 30
0.0
 11
67.25769515460001
 21
-88.66045918365001
 31
0.0
  0
LINE
  5
1279
330
1202
100
AcDbEntity
  8
文字
100
AcDbLine
 10
68.32907954220002
 20
-89.14045918365001
 30
0.0
 11
68.4576951546
 21
-88.66045918365001
 31
0.0
  0
LINE
  5
127A
330
1202
100
AcDbEntity
  8
文字
100
AcDbLine
 10
70.72907954219999
 20
-89.14045918365001
 30
0.0
 11
70.8576951546
 21
-88.66045918365001
 31
0.0
  0
LINE
  5
127B
330
1202
100
AcDbEntity
  8
文字
100
AcDbLine
 10
71.08907954220001
 20
-89.14045918365001
 30
0.0
 11
71.21769515459999
 21
-88.66045918365001
 31
0.0
  0
LINE
  5
127C
330
1202
100
AcDbEntity
  8
文字
100
AcDbLine
 10
73.48907954220002
 20
-89.14045918365001
 30
0.0
 11
73.6176951546
 21
-88.66045918365001
 31
0.0
  0
LINE
  5
127D
330
1202
100
AcDbEntity
  8
文字
100
AcDbLine
 10
73.8490795422
 20
-89.14045918365001
 30
0.0
 11
73.97769515460002
 21
-88.66045918365001
 31
0.0
  0
LINE
  5
127E
330
1202
100
AcDbEntity
  8
文字
100
AcDbLine
 10
76.24907954220001
 20
-89.14045918365001
 30
0.0
 11
76.37769515460002
 21
-88.66045918365001
 31
0.0
  0
LINE
  5
127F
330
1202
100
AcDbEntity
  8
文字
100
AcDbLine
 10
76.96907954220001
 20
-89.14045918365001
 30
0.0
 11
77.09769515460002
 21
-88.66045918365001
 31
0.0
  0
LINE
  5
1280
330
1202
100
AcDbEntity
  8
文字
100
AcDbLine
 10
79.2490795422
 20
-89.14045918365001
 30
0.0
 11
79.37769515460002
 21
-88.66045918365001
 31
0.0
  0
LINE
  5
1281
330
1202
100
AcDbEntity
  8
文字
100
AcDbLine
 10
80.20907954220001
 20
-89.14045918365001
 30
0.0
 11
80.33769515459999
 21
-88.66045918365001
 31
0.0
  0
LINE
  5
1282
330
1202
100
AcDbEntity
  8
文字
100
AcDbLine
 10
82.36907954220001
 20
-89.14045918365001
 30
0.0
 11
82.4976951546
 21
-88.66045918365001
 31
0.0
  0
LINE
  5
1283
330
1202
100
AcDbEntity
  8
文字
100
AcDbLine
 10
82.7290795422
 20
-89.14045918365001
 30
0.0
 11
82.85769515460001
 21
-88.66045918365001
 31
0.0
  0
LINE
  5
1284
330
1202
100
AcDbEntity
  8
文字
100
AcDbLine
 10
85.25769515460002
 20
-88.66045918365001
 30
0.0
 11
82.85769515460001
 21
-88.66045918365001
 31
0.0
  0
LINE
  5
1285
330
1202
100
AcDbEntity
  8
文字
100
AcDbLine
 10
83.2595675035
 20
-93.87834261285
 30
0.0
 11
84.48141582100001
 21
-89.31834261285001
 31
0.0
  0
LINE
  5
1286
330
1202
100
AcDbEntity
  8
圖框
100
AcDbLine
 10
137.5
 20
-45.56045918365
 30
0.0
 11
62.5
 21
-45.56045918365
 31
0.0
  0
TEXT
  5
1287
330
1202
100
AcDbEntity
  8
文字
100
AcDbText
 10
95.52649007453704
 20
-94.35242673930732
 30
0.0
 40
3.264802668514023
  1
TECHNOLOGIES CORP.
 51
5.0
  7
型式I
 72
     1
 11
116.3057866166815
 21
-95.27234351330852
 31
0.0
100
AcDbText
 73
     1
  0
TEXT
  5
1288
330
1202
100
AcDbEntity
  8
文字
100
AcDbText
 10
129.2516159000329
 20
93.68953067375702
 30
0.0
 40
2.0
  1
APP
  7
型式1
 72
     1
 11
131.815569388405
 21
93.09650741794307
 31
0.0
100
AcDbText
 73
     1
  0
TEXT
  5
1289
330
1202
100
AcDbEntity
  8
文字
100
AcDbText
 10
116.1171397230732
 20
93.68953067375702
 30
0.0
 40
2.0
  1
DATE
  7
型式1
 72
     1
 11
119.8438839091197
 21
93.09650741794307
 31
0.0
100
AcDbText
 73
     1
  0
TEXT
  5
128A
330
1202
100
AcDbEntity
  8
文字
100
AcDbText
 10
81.50767723018667
 20
93.68953067375702
 30
0.0
 40
2.0
  1
MODIFICATION
  7
型式1
 72
     1
 11
91.75913071855877
 21
93.09650741794307
 31
0.0
100
AcDbText
 73
     1
  0
LINE
  5
128B
330
1202
100
AcDbEntity
  8
圖框
100
AcDbLine
 10
70.5
 20
92.46045918365
 30
0.0
 11
137.5
 21
92.46045918365
 31
0.0
  0
LINE
  5
128C
330
1202
100
AcDbEntity
  8
圖框
100
AcDbLine
 10
113.5
 20
96.46045918365
 30
0.0
 11
113.5
 21
88.46045918365
 31
0.0
  0
LINE
  5
128D
330
1202
100
AcDbEntity
  8
圖框
100
AcDbLine
 10
125.5
 20
96.46045918365
 30
0.0
 11
125.5
 21
88.46045918365
 31
0.0
  0
LINE
  5
128E
330
1202
100
AcDbEntity
  8
圖框
100
AcDbLine
 10
70.5
 20
88.46045918365
 30
0.0
 11
70.5
 21
96.46045918365
 31
0.0
  0
TEXT
  5
128F
330
1202
100
AcDbEntity
  8
文字
 62
     2
100
AcDbText
 10
129.4000000000001
 20
93.46045918365
 30
0.0
 40
1.8
  1
APP
 41
0.85
  7
COMPLEX
100
AcDbText
  0
TEXT
  5
1290
330
1202
100
AcDbEntity
  8
文字
 62
     2
100
AcDbText
 10
116.7
 20
93.46045918365
 30
0.0
 40
1.8
  1
DATE
 41
0.85
  7
COMPLEX
100
AcDbText
  0
TEXT
  5
1291
330
1202
100
AcDbEntity
  8
文字
 62
     2
100
AcDbText
 10
84.29999999999996
 20
93.46045918365
 30
0.0
 40
1.8
  1
MODIFICATION
 41
0.85
  7
COMPLEX
100
AcDbText
  0
LINE
  5
1292
330
1202
100
AcDbEntity
  8
圖框
100
AcDbLine
 10
137.5
 20
-17.96045918365
 30
0.0
 11
62.5
 21
-17.96045918365
 31
0.0
  0
LINE
  5
1293
330
1202
100
AcDbEntity
  8
圖框
100
AcDbLine
 10
137.5
 20
-6.960459183650002
 30
0.0
 11
62.5
 21
-6.960459183650002
 31
0.0
  0
LINE
  5
1294
330
1202
100
AcDbEntity
  8
圖框
100
AcDbLine
 10
137.5
 20
-12.46045918365
 30
0.0
 11
62.5
 21
-12.46045918365
 31
0.0
  0
LINE
  5
1295
330
1202
100
AcDbEntity
  8
圖框
100
AcDbLine
 10
137.5
 20
-23.46045918365
 30
0.0
 11
62.5
 21
-23.46045918365
 31
0.0
  0
LINE
  5
1296
330
1202
100
AcDbEntity
  8
圖框
100
AcDbLine
 10
137.5
 20
-28.96045918365
 30
0.0
 11
62.5
 21
-28.96045918365
 31
0.0
  0
LINE
  5
1297
330
1202
100
AcDbEntity
  8
圖框
100
AcDbLine
 10
137.5
 20
-34.46045918365
 30
0.0
 11
62.5
 21
-34.46045918365
 31
0.0
  0
LINE
  5
1298
330
1202
100
AcDbEntity
  8
圖框
100
AcDbLine
 10
137.5
 20
-39.96045918365
 30
0.0
 11
62.5
 21
-39.96045918365
 31
0.0
  0
LINE
  5
1299
330
1202
100
AcDbEntity
  8
圖框
100
AcDbLine
 10
112.5
 20
-12.46045918365
 30
0.0
 11
112.5
 21
-45.56045918365001
 31
0.0
  0
LINE
  5
129A
330
1202
100
AcDbEntity
  8
圖框
100
AcDbLine
 10
62.5
 20
-6.960459183650002
 30
0.0
 11
62.5
 21
-45.56045918365001
 31
0.0
  0
TEXT
  5
129B
330
1202
100
AcDbEntity
  8
文字
 62
     2
100
AcDbText
 10
64.19520365879884
 20
-68.48550702672961
 30
0.0
 40
3.5
  1
LINEAR MOTION GUIDEWAY
 41
0.7000000000000001
  7
COMPLEX
100
AcDbText
  0
LINE
  5
129C
330
1202
100
AcDbEntity
  8
圖框
100
AcDbLine
 10
137.5
 20
-81.86045918365001
 30
0.0
 11
117.5
 21
-81.86045918365001
 31
0.0
  0
LINE
  5
129D
330
1202
100
AcDbEntity
  8
圖框
100
AcDbLine
 10
137.5
 20
-76.86045918365
 30
0.0
 11
117.5
 21
-76.86045918365
 31
0.0
  0
LINE
  5
129E
330
1202
100
AcDbEntity
  8
圖框
100
AcDbLine
 10
137.5
 20
-72.06045918364999
 30
0.0
 11
117.5
 21
-72.06045918364999
 31
0.0
  0
LINE
  5
129F
330
1202
100
AcDbEntity
  8
圖框
100
AcDbLine
 10
137.5
 20
-67.26045918365
 30
0.0
 11
117.5
 21
-67.26045918365
 31
0.0
  0
LINE
  5
12A0
330
1202
100
AcDbEntity
  8
圖框
100
AcDbLine
 10
137.5
 20
-46.36045918365
 30
0.0
 11
62.5
 21
-46.36045918365
 31
0.0
  0
LINE
  5
12A1
330
1202
100
AcDbEntity
  8
圖框
100
AcDbLine
 10
137.5
 20
-54.46045918365
 30
0.0
 11
62.5
 21
-54.46045918365
 31
0.0
  0
LINE
  5
12A2
330
1202
100
AcDbEntity
  8
圖框
100
AcDbLine
 10
137.5
 20
-62.76045918364999
 30
0.0
 11
62.5
 21
-62.76045918364999
 31
0.0
  0
LINE
  5
12A3
330
1202
100
AcDbEntity
  8
圖框
100
AcDbLine
 10
117.5
 20
-70.46045918365
 30
0.0
 11
62.5
 21
-70.46045918365
 31
0.0
  0
LINE
  5
12A4
330
1202
100
AcDbEntity
  8
圖框
100
AcDbLine
 10
117.5
 20
-78.46045918365
 30
0.0
 11
62.5
 21
-78.46045918365
 31
0.0
  0
LINE
  5
12A5
330
1202
100
AcDbEntity
  8
圖框
100
AcDbLine
 10
137.5
 20
-86.86045918365001
 30
0.0
 11
62.5
 21
-86.86045918365001
 31
0.0
  0
LINE
  5
12A6
330
1202
100
AcDbEntity
  8
圖框
100
AcDbLine
 10
62.5
 20
-46.36045918365
 30
0.0
 11
62.5
 21
-96.46045918365
 31
0.0
  0
LINE
  5
12A7
330
1202
100
AcDbEntity
  8
圖框
100
AcDbLine
 10
117.5
 20
-62.76045918364999
 30
0.0
 11
117.5
 21
-86.86045918365001
 31
0.0
  0
TEXT
  5
12A8
330
1202
100
AcDbEntity
  8
文字
 62
     2
100
AcDbText
 10
94.75440421570002
 20
-94.46045918364999
 30
0.0
 40
4.0
  1
TECHNOLOGIES CORP.
 41
0.6
 51
5.000000159199999
  7
COMPLEX
100
AcDbText
  0
LINE
  5
12A9
330
1202
100
AcDbEntity
  8
圖框
100
AcDbLine
 10
-137.5
 20
-96.46045918365
 30
0.0
 11
-137.5
 21
96.46045918365
 31
0.0
  0
LINE
  5
12AA
330
1202
100
AcDbEntity
  8
圖框
100
AcDbLine
 10
137.5
 20
-96.46045918365
 30
0.0
 11
-137.5
 21
-96.46045918365
 31
0.0
  0
LINE
  5
12AB
330
1202
100
AcDbEntity
  8
圖框
100
AcDbLine
 10
137.5
 20
96.46045918365
 30
0.0
 11
137.5
 21
-96.46045918365
 31
0.0
  0
LINE
  5
12AC
330
1202
100
AcDbEntity
  8
圖框
100
AcDbLine
 10
-137.5
 20
96.46045918365
 30
0.0
 11
137.5
 21
96.46045918365
 31
0.0
  0
TEXT
  5
12AD
330
1202
100
AcDbEntity
  8
文字
100
AcDbText
 10
93.21511627906977
 20
-10.94926101297211
 30
0.0
 40
3.0
  1
規    格
  7
型式1
 72
     1
 11
100.0
 21
-11.83879589669304
 31
0.0
100
AcDbText
 73
     1
  0
TEXT
  5
12AE
330
1202
100
AcDbEntity
  8
文字
100
AcDbText
 10
80.05813953488372
 20
-16.39060938413577
 30
0.0
 40
2.5
  1
滑塊型式
  7
型式1
 72
     1
 11
87.5
 21
-17.13188845390321
 31
0.0
100
AcDbText
 73
     1
  0
TEXT
  5
12AF
330
1202
100
AcDbEntity
  8
文字
100
AcDbText
 10
70.75581395348837
 20
-21.89060938413577
 30
0.0
 40
2.5
  1
單根滑軌上滑塊個數
  7
型式1
 72
     1
 11
87.5
 21
-22.63188845390322
 31
0.0
100
AcDbText
 73
     1
  0
TEXT
  5
12B0
330
1202
100
AcDbEntity
  8
文字
100
AcDbText
 10
80.05813953488372
 20
-27.39060938413578
 30
0.0
 40
2.5
  1
精度等級
  7
型式1
 72
     1
 11
87.5
 21
-28.13188845390321
 31
0.0
100
AcDbText
 73
     1
  0
TEXT
  5
12B1
330
1202
100
AcDbEntity
  8
文字
100
AcDbText
 10
80.05813953488372
 20
-32.89060938413577
 30
0.0
 40
2.5
  1
預壓等級
  7
型式1
 72
     1
 11
87.5
 21
-33.63188845390322
 31
0.0
100
AcDbText
 73
     1
  0
TEXT
  5
12B2
330
1202
100
AcDbEntity
  8
文字
100
AcDbText
 10
70.75581395348837
 20
-38.39060938413577
 30
0.0
 40
2.5
  1
同一軸使用之滑軌數
  7
型式1
 72
     1
 11
87.5
 21
-39.13188845390322
 31
0.0
100
AcDbText
 73
     1
  0
TEXT
  5
12B3
330
1202
100
AcDbEntity
  8
文字
100
AcDbText
 10
74.47674418604652
 20
-43.94060938413576
 30
0.0
 40
2.5
  1
滑塊內預封油脂
  7
型式1
 72
     1
 11
87.5
 21
-44.68188845390321
 31
0.0
100
AcDbText
 73
     1
  0
TEXT
  5
12B4
330
1202
100
AcDbEntity
  8
文字
100
AcDbText
 10
63.10000000000002
 20
-49.22348098820744
 30
0.0
 40
2.0
  1
客戶
  7
型式1
100
AcDbText
  0
TEXT
  5
12B5
330
1202
100
AcDbEntity
  8
文字
100
AcDbText
 10
63.10000000000002
 20
-57.22348098820745
 30
0.0
 40
2.0
  1
機型
  7
型式1
100
AcDbText
  0
TEXT
  5
12B6
330
1202
100
AcDbEntity
  8
文字
100
AcDbText
 10
70.67493132672578
 20
-68.12481386985424
 30
0.0
 40
3.731202987961495
  1
LINEAR GUIDEWAY
  7
型式2
 72
     1
 11
90.46473722972597
 21
-69.17614730845112
 31
0.0
100
AcDbText
 73
     1
  0
TEXT
  5
12B7
330
1202
100
AcDbEntity
  8
文字
100
AcDbText
 10
63.10000000000002
 20
-73.22348098820746
 30
0.0
 40
2.0
  1
型號
  7
型式1
100
AcDbText
  0
TEXT
  5
12B8
330
1202
100
AcDbEntity
  8
文字
100
AcDbText
 10
63.10000000000002
 20
-81.22348098820745
 30
0.0
 40
2.0
  1
圖號
  7
型式1
100
AcDbText
  0
TEXT
  5
12B9
330
1202
100
AcDbEntity
  8
文字
100
AcDbText
 10
118.0422826873949
 20
-69.09858188128906
 30
0.0
 40
1.399999999999999
  1
DATE
  7
型式1
100
AcDbText
  0
TEXT
  5
12BA
330
1202
100
AcDbEntity
  8
文字
100
AcDbText
 10
118.0422826873949
 20
-73.79398308954567
 30
0.0
 40
1.399999999999999
  1
DR
  7
型式1
100
AcDbText
  0
TEXT
  5
12BB
330
1202
100
AcDbEntity
  8
文字
100
AcDbText
 10
118.0422826873949
 20
-78.72376718588485
 30
0.0
 40
1.399999999999999
  1
CK
  7
型式1
100
AcDbText
  0
TEXT
  5
12BC
330
1202
100
AcDbEntity
  8
文字
100
AcDbText
 10
118.0422826873949
 20
-83.584745409562
 30
0.0
 40
1.399999999999999
  1
APP
  7
型式1
100
AcDbText
  0
LINE
  5
12BD
330
1202
100
AcDbEntity
  8
圖框
100
AcDbLine
 10
70.5
 20
88.46045918365
 30
0.0
 11
137.5
 21
88.46045918365
 31
0.0
  0
LINE
  5
12BE
330
1202
100
AcDbEntity
  8
圖框
100
AcDbLine
 10
137.5
 20
-61.96045918365
 30
0.0
 11
62.5
 21
-61.96045918365
 31
0.0
  0
TEXT
  5
12BF
330
1202
100
AcDbEntity
  8
文字
100
AcDbText
 10
118.0422826873949
 20
-64.59858188128906
 30
0.0
 40
1.399999999999999
  1
SCALE
  7
型式1
100
AcDbText
  0
ENDBLK
  5
12C1
330
1202
100
AcDbEntity
  8
0
 62
     7
 48
0.27
100
AcDbBlockEnd
  0
BLOCK
  5
1409
330
13FE
100
AcDbEntity
  8
0
 48
0.27
100
AcDbBlockBegin
  2
f04s
 70
     0
 10
0.0
 20
0.0
 30
0.0
  3
f04s
  1

  0
TEXT
  5
13FF
330
13FE
100
AcDbEntity
  8
標註線
100
AcDbText
 10
-0.9033659168728007
 20
2.483302084097783
 30
0.0
 40
1.729999999999999
  1
G
  7
ROMANS
100
AcDbText
  0
LINE
  5
1400
330
13FE
100
AcDbEntity
  8
標註線
100
AcDbLine
 10
-2.170837012152986
 20
0.0000000000000107
 30
0.0
 11
-3.25625551822948
 21
1.880000000000009
 31
0.0
  0
LINE
  5
1401
330
13FE
100
AcDbEntity
  8
標註線
100
AcDbLine
 10
-2.170837012152986
 20
0.0000000000000107
 30
0.0
 11
-1.085418506076493
 21
1.880000000000009
 31
0.0
  0
LINE
  5
1402
330
13FE
100
AcDbEntity
  8
標註線
100
AcDbLine
 10
-3.25625551822948
 20
1.880000000000009
 30
0.0
 11
-1.085418506076493
 21
1.880000000000009
 31
0.0
  0
LINE
  5
1403
330
13FE
100
AcDbEntity
  8
標註線
100
AcDbLine
 10
0.0
 20
0.0000000000000107
 30
0.0
 11
-1.085418506076493
 21
1.880000000000009
 31
0.0
  0
LINE
  5
1404
330
13FE
100
AcDbEntity
  8
標註線
100
AcDbLine
 10
0.0
 20
0.0000000000000107
 30
0.0
 11
1.085418506076493
 21
1.880000000000009
 31
0.0
  0
LINE
  5
1405
330
13FE
100
AcDbEntity
  8
標註線
100
AcDbLine
 10
-1.085418506076493
 20
1.880000000000009
 30
0.0
 11
1.085418506076493
 21
1.880000000000016
 31
0.0
  0
LINE
  5
1406
330
13FE
100
AcDbEntity
  8
標註線
100
AcDbLine
 10
2.170837012152986
 20
0.0000000000000142
 30
0.0
 11
1.085418506076493
 21
1.880000000000016
 31
0.0
  0
LINE
  5
1407
330
13FE
100
AcDbEntity
  8
標註線
100
AcDbLine
 10
2.170837012153015
 20
0.0000000000000142
 30
0.0
 11
3.256255518229508
 21
1.880000000000016
 31
0.0
  0
LINE
  5
1408
330
13FE
100
AcDbEntity
  8
標註線
100
AcDbLine
 10
1.085418506076493
 20
1.880000000000016
 30
0.0
 11
3.256255518229508
 21
1.880000000000016
 31
0.0
  0
ENDBLK
  5
140A
330
13FE
100
AcDbEntity
  8
0
 48
0.27
100
AcDbBlockEnd
  0
BLOCK
  5
1419
330
140E
100
AcDbEntity
  8
0
 48
0.27
100
AcDbBlockBegin
  2
f04s1
 70
     0
 10
0.0
 20
0.0
 30
0.0
  3
f04s1
  1

  0
TEXT
  5
140F
330
140E
100
AcDbEntity
  8
標註線
100
AcDbText
 10
0.7754438084131437
 20
4.163453471782446
 30
0.0
 40
1.727447620285638
  1
G
 50
180.0
  7
ROMANS
100
AcDbText
  0
LINE
  5
1410
330
140E
100
AcDbEntity
  8
標註線
100
AcDbLine
 10
-2.174660276251742
 20
0.0000000000000107
 30
0.0
 11
-3.261990414377606
 21
1.883311043834908
 31
0.0
  0
LINE
  5
1411
330
140E
100
AcDbEntity
  8
標註線
100
AcDbLine
 10
-2.174660276251742
 20
0.0000000000000107
 30
0.0
 11
-1.087330138125849
 21
1.883311043834908
 31
0.0
  0
LINE
  5
1412
330
140E
100
AcDbEntity
  8
標註線
100
AcDbLine
 10
-3.261990414377606
 20
1.883311043834908
 30
0.0
 11
-1.087330138125849
 21
1.883311043834908
 31
0.0
  0
LINE
  5
1413
330
140E
100
AcDbEntity
  8
標註線
100
AcDbLine
 10
0.0
 20
0.0000000000000107
 30
0.0
 11
-1.087330138125849
 21
1.883311043834908
 31
0.0
  0
LINE
  5
1414
330
140E
100
AcDbEntity
  8
標註線
100
AcDbLine
 10
0.0000000000000142
 20
0.0000000000000107
 30
0.0
 11
1.087330138125878
 21
1.883311043834908
 31
0.0
  0
LINE
  5
1415
330
140E
100
AcDbEntity
  8
標註線
100
AcDbLine
 10
-1.087330138125849
 20
1.883311043834908
 30
0.0
 11
1.087330138125878
 21
1.883311043834911
 31
0.0
  0
LINE
  5
1416
330
140E
100
AcDbEntity
  8
標註線
100
AcDbLine
 10
2.174660276251771
 20
0.0000000000000142
 30
0.0
 11
1.087330138125878
 21
1.883311043834911
 31
0.0
  0
LINE
  5
1417
330
140E
100
AcDbEntity
  8
標註線
100
AcDbLine
 10
2.174660276251771
 20
0.0000000000000142
 30
0.0
 11
3.261990414377635
 21
1.883311043834911
 31
0.0
  0
LINE
  5
1418
330
140E
100
AcDbEntity
  8
標註線
100
AcDbLine
 10
1.087330138125878
 20
1.883311043834911
 30
0.0
 11
3.261990414377635
 21
1.883311043834911
 31
0.0
  0
ENDBLK
  5
141A
330
140E
100
AcDbEntity
  8
0
 48
0.27
100
AcDbBlockEnd
  0
BLOCK
  5
1451
330
144C
100
AcDbEntity
  8
0
 48
0.27
100
AcDbBlockBegin
  2
eview
 70
     0
 10
0.0
 20
0.0
 30
0.0
  3
eview
  1

  0
TEXT
  5
144D
330
144C
100
AcDbEntity
  8
標註線
100
AcDbText
 10
-14.57901903109095
 20
1.030983075552512
 30
0.0
 40
3.5
  1
E
 72
     4
 11
-13.35401903109096
 21
2.780983075552512
 31
0.0
100
AcDbText
  0
LINE
  5
144E
330
144C
100
AcDbEntity
  8
標註線
100
AcDbLine
 10
-8.052285146048632
 20
-0.7968465076999678
 30
0.0
 11
-7.722792918948641
 21
1.071796769700029
 31
0.0
  0
LINE
  5
144F
330
144C
100
AcDbEntity
  8
標註線
100
AcDbLine
 10
-3.722792918948641
 20
0.0
 30
0.0
 11
-7.722792918948641
 21
1.071796769700029
 31
0.0
  0
LINE
  5
1450
330
144C
100
AcDbEntity
  8
標註線
100
AcDbLine
 10
-3.722792918948641
 20
0.0
 30
0.0
 11
-11.72279291894864
 21
0.0
 31
0.0
  0
ENDBLK
  5
1452
330
144C
100
AcDbEntity
  8
0
 48
0.27
100
AcDbBlockEnd
  0
BLOCK
  5
1459
330
1457
100
AcDbEntity
  8
0
 48
0.27
100
AcDbBlockBegin
  2
viewe
 70
     0
 10
0.0
 20
0.0
 30
0.0
  3
viewe
  1

  0
TEXT
  5
1458
330
1457
100
AcDbEntity
  8
標註線
100
AcDbText
 10
-6.677902407900195
 20
-4.794621995899788
 30
0.0
 40
3.5
  1
VIEW E
 72
     1
 11
0.4970975920998058
 21
-1.294621995899788
 31
0.0
100
AcDbText
 73
     3
  0
ENDBLK
  5
145A
330
1457
100
AcDbEntity
  8
0
 48
0.27
100
AcDbBlockEnd
  0
BLOCK
  5
1E1CE
330
1E1CC
100
AcDbEntity
  8
0
 62
     7
 48
0.27
100
AcDbBlockBegin
  2
a4hc_RG
 70
     0
 10
0.0
 20
0.0
 30
0.0
  3
a4hc_RG
  1

  0
HATCH
  5
1E1CF
330
1E1CC
100
AcDbEntity
  8
文字
100
AcDbHatch
 10
0.0
 20
0.0
 30
0.0
210
0.0
220
0.0
230
1.0
  2
SOLID
 70
     1
 71
     0
 91
        5
 92
        7
 72
     1
 73
     1
 93
       25
 10
87.31284730300007
 20
-88.66045918365001
 42
0.0
 10
85.7376951546
 20
-88.66045918365001
 42
0.0
 10
85.60907954220002
 20
-89.14045918365001
 42
0.0
 10
85.7763054527
 20
-89.14045918365001
 42
-0.4931454259997348
 10
86.0081276509956
 20
-89.44257575446648
 42
0.0
 10
84.81011119419003
 20
-93.91363403988721
 42
-0.3394542588631269
 10
84.46237789672606
 20
-94.18045918365001
 42
0.0
 10
84.25861561239997
 20
-94.18045918365001
 42
0.0
 10
84.13000000000002
 20
-94.66045918365001
 42
0.0
 10
86.05000000000002
 20
-94.66045918365001
 42
0.0
 10
86.17861561239999
 20
-94.18045918365001
 42
0.0
 10
85.8827740895
 20
-94.18045918365001
 42
-0.4931454260042405
 10
85.65095189120532
 20
-93.87834261283016
 42
0.0
 10
86.6437023613
 20
-90.17334741915
 42
0.0
 10
88.93
 20
-94.66045918365001
 42
0.0
 10
89.77000000000002
 20
-94.66045918365001
 42
0.0
 10
91.17758396041134
 20
-89.40728432740771
 42
-0.33945425885905
 10
91.52531725787396
 20
-89.14045918365001
 42
0.0
 10
91.62423169070001
 20
-89.14045918365001
 42
0.0
 10
91.75284730299997
 20
-88.66045918365001
 42
0.0
 10
89.83284730299999
 20
-88.66045918365001
 42
0.0
 10
89.70423169069997
 20
-89.14045918365001
 42
0.0
 10
90.09630545270002
 20
-89.14045918365001
 42
-0.49314542600108
 10
90.32812765099533
 20
-89.4425757544675
 42
0.0
 10
89.42628221460003
 20
-92.80830874384998
 42
0.0
 97
        0
 92
        7
 72
     1
 73
     1
 93
       16
 10
84.48141582100573
 20
-89.31834261282872
 42
-0.3394542588673643
 10
84.71323801931598
 20
-89.14045918365001
 42
0.0
 10
85.12907954219997
 20
-89.14045918365001
 42
0.0
 10
85.25769515459996
 20
-88.66045918365001
 42
0.0
 10
82.85769515459998
 20
-88.66045918365001
 42
0.0
 10
82.72907954220002
 20
-89.14045918365001
 42
0.0
 10
83.17269249750001
 20
-89.14045918365001
 42
-0.4931454258380596
 10
83.28860359660103
 20
-89.29151746904622
 42
0.0
 10
82.02627933359531
 20
-94.00257575446746
 42
-0.3394542588719629
 10
81.79445713528403
 20
-94.18045918365001
 42
0.0
 10
81.37861561240004
 20
-94.18045918365001
 42
0.0
 10
81.25000000000003
 20
-94.66045918365001
 42
0.0
 10
83.65
 20
-94.66045918365001
 42
0.0
 10
83.77861561240004
 20
-94.18045918365001
 42
0.0
 10
83.49138970180002
 20
-94.18045918365001
 42
-0.4931454260061948
 10
83.2595675035057
 20
-93.87834261282872
 42
0.0
 97
        0
 92
        7
 72
     1
 73
     1
 93
       31
 10
81.84769145359755
 20
-89.26045918365428
 42
-0.2679491924366411
 10
82.05553755050829
 20
-89.14045918365001
 42
0.0
 10
82.36907954220001
 20
-89.14045918365001
 42
0.0
 10
82.4976951546
 20
-88.66045918365001
 42
0.0
 10
80.33769515459999
 20
-88.66045918365001
 42
0.0
 10
80.20907954220005
 20
-89.14045918365001
 42
0.0
 10
80.56289929950001
 20
-89.14045918365001
 42
-0.5628963153237844
 10
80.72256124950014
 20
-89.40357393404978
 42
0.0
 10
78.89163332860002
 20
-92.92075374574997
 42
0.0
 10
78.82777920529955
 20
-89.26255347242422
 42
-0.4193348017625921
 10
78.94776092871828
 20
-89.14045918365001
 42
0.0
 10
79.24907954219998
 20
-89.14045918365001
 42
0.0
 10
79.37769515459999
 20
-88.66045918365001
 42
0.0
 10
77.09769515460002
 20
-88.66045918365001
 42
0.0
 10
76.96907954220003
 20
-89.14045918365001
 42
0.0
 10
77.1255890983
 20
-89.14045918365001
 42
-0.5773502691742179
 10
77.54128129210283
 20
-89.8604591836451
 42
0.0
 10
75.77171508830002
 20
-92.92543775595001
 42
0.0
 10
75.70991036910072
 20
-89.38464776119046
 42
-0.4193348017528848
 10
75.94987381593833
 20
-89.14045918365001
 42
0.0
 10
76.24907954220003
 20
-89.14045918365001
 42
0.0
 10
76.37769515459999
 20
-88.66045918365001
 42
0.0
 10
73.97769515459998
 20
-88.66045918365001
 42
0.0
 10
73.8490795422
 20
-89.14045918365001
 42
0.0
 10
74.17924157699999
 20
-89.14045918365001
 42
-0.4014906669321768
 10
74.41901315020141
 20
-89.36999053068218
 42
0.0
 10
74.64999999999998
 20
-94.66045918365001
 42
0.0
 10
75.61000000000001
 20
-94.66045918365001
 42
0.0
 10
77.7149916749
 20
-91.50903434665009
 42
0.0
 10
77.77000000000001
 20
-94.66045918365001
 42
0.0
 10
78.73000000000001
 20
-94.66045918365001
 42
0.0
 97
        0
 92
        7
 72
     1
 73
     1
 93
       16
 10
72.84141582100571
 20
-89.31834261282872
 42
-0.3394542588673603
 10
73.07323801931596
 20
-89.14045918365001
 42
0.0
 10
73.48907954220002
 20
-89.14045918365001
 42
0.0
 10
73.6176951546
 20
-88.66045918365001
 42
0.0
 10
71.21769515459999
 20
-88.66045918365001
 42
0.0
 10
71.08907954220004
 20
-89.14045918365001
 42
0.0
 10
71.53269249749996
 20
-89.14045918365001
 42
-0.4931454258381302
 10
71.64860359660102
 20
-89.29151746904622
 42
0.0
 10
70.38627933359535
 20
-94.00257575446746
 42
-0.3394542588719971
 10
70.15445713528404
 20
-94.18045918365001
 42
0.0
 10
69.73861561239999
 20
-94.18045918365001
 42
0.0
 10
69.61000000000004
 20
-94.66045918365001
 42
0.0
 10
72.01000000000002
 20
-94.66045918365001
 42
0.0
 10
72.1386156124
 20
-94.18045918365001
 42
0.0
 10
71.8513897018
 20
-94.18045918365001
 42
-0.4931454260061438
 10
71.61956750350572
 20
-93.87834261282874
 42
0.0
 97
        0
 92
        7
 72
     1
 73
     1
 93
       40
 10
70.08141582100572
 20
-89.31834261282872
 42
-0.3394542588673941
 10
70.313238019316
 20
-89.14045918365001
 42
0.0
 10
70.72907954219999
 20
-89.14045918365001
 42
0.0
 10
70.8576951546
 20
-88.66045918365001
 42
0.0
 10
68.4576951546
 20
-88.66045918365001
 42
0.0
 10
68.32907954220002
 20
-89.14045918365001
 42
0.0
 10
68.77269249749997
 20
-89.14045918365001
 42
-0.4931454258321303
 10
68.88860359660163
 20
-89.291517469044
 42
0.0
 10
68.37414114719493
 20
-91.21151746906901
 42
-0.3394542588472685
 10
68.25823004804203
 20
-91.30045918365
 42
0.0
 10
66.10669633130001
 20
-91.30045918365
 42
-0.4931454258316102
 10
65.99078523219836
 20
-91.14940089825617
 42
0.0
 10
66.4814158210034
 20
-89.31834261283734
 42
-0.339454258877745
 10
66.71323801931598
 20
-89.14045918365001
 42
0.0
 10
67.1290795422
 20
-89.14045918365001
 42
0.0
 10
67.25769515459998
 20
-88.66045918365001
 42
0.0
 10
64.85769515460001
 20
-88.66045918365001
 42
0.0
 10
64.72907954219997
 20
-89.14045918365001
 42
0.0
 10
65.1726924975
 20
-89.14045918365001
 42
-0.4931454258380596
 10
65.28860359660104
 20
-89.29151746904622
 42
0.0
 10
64.02627933359531
 20
-94.00257575446746
 42
-0.3394542588719629
 10
63.79445713528403
 20
-94.18045918365001
 42
0.0
 10
63.37861561240003
 20
-94.18045918365001
 42
0.0
 10
63.25
 20
-94.66045918365001
 42
0.0
 10
65.65000000000003
 20
-94.66045918365001
 42
0.0
 10
65.77861561240005
 20
-94.18045918365001
 42
0.0
 10
65.64777674660001
 20
-94.18045918365001
 42
-0.4931454260592977
 10
65.30004344911154
 20
-93.72728432740695
 42
0.0
 10
65.73355400740609
 20
-92.10940089822733
 42
-0.339454258838397
 10
65.849465106558
 20
-92.02045918365
 42
0.0
 10
68.00099882329999
 20
-92.02045918365
 42
-0.4931454258316087
 10
68.11690992240165
 20
-92.17151746904383
 42
0.0
 10
67.62627933359661
 20
-94.00257575446266
 42
-0.3394542588777114
 10
67.39445713528406
 20
-94.18045918365001
 42
0.0
 10
66.97861561240003
 20
-94.18045918365001
 42
0.0
 10
66.85000000000002
 20
-94.66045918365001
 42
0.0
 10
69.25
 20
-94.66045918365001
 42
0.0
 10
69.37861561240001
 20
-94.18045918365001
 42
0.0
 10
69.09138970180001
 20
-94.18045918365001
 42
-0.4931454260061438
 10
68.85956750350572
 20
-93.87834261282874
 42
0.0
 97
        0
 75
     0
 76
     1
 47
0.0375180088224066
 98
        5
 10
88.20901055367233
 20
-91.69475157655403
 10
83.70319790931592
 20
-90.83183694378936
 10
80.21119388198883
 20
-91.16949944083188
 10
71.95053736733552
 20
-90.64424730510967
 10
69.05930767299003
 20
-90.90687337297078
  0
CIRCLE
  5
1E1D0
330
1E1CC
100
AcDbEntity
  8
文字
100
AcDbCircle
 10
92.35440421570002
 20
-93.78229363355
 30
0.0
 40
1.199999999999988
  0
LINE
  5
1E1D1
330
1E1CC
100
AcDbEntity
  8
文字
100
AcDbLine
 10
89.83284730299999
 20
-88.66045918365001
 30
0.0
 11
91.75284730300001
 21
-88.66045918365001
 31
0.0
  0
LINE
  5
1E1D2
330
1E1CC
100
AcDbEntity
  8
文字
100
AcDbLine
 10
87.31284730300002
 20
-88.66045918365001
 30
0.0
 11
85.7376951546
 21
-88.66045918365001
 31
0.0
  0
LINE
  5
1E1D3
330
1E1CC
100
AcDbEntity
  8
文字
100
AcDbLine
 10
89.7042316907
 20
-89.14045918365001
 30
0.0
 11
90.09630545270002
 21
-89.14045918365001
 31
0.0
  0
LINE
  5
1E1D4
330
1E1CC
100
AcDbEntity
  8
文字
100
AcDbLine
 10
91.52531725790002
 20
-89.14045918365001
 30
0.0
 11
91.62423169070001
 21
-89.14045918365001
 31
0.0
  0
ARC
  5
1E1D5
330
1E1CC
100
AcDbEntity
  8
文字
100
AcDbCircle
 10
90.09630545270002
 20
-89.38045918365
 30
0.0
 40
0.24
100
AcDbArc
 50
345.0000109816997
 51
90.0
  0
ARC
  5
1E1D6
330
1E1CC
100
AcDbEntity
  8
文字
100
AcDbCircle
 10
91.52531725790002
 20
-89.50045918365001
 30
0.0
 40
0.36
100
AcDbArc
 50
90.0
 51
165.0000052521
  0
TEXT
  5
1E1D7
330
1E1CC
100
AcDbEntity
  8
文字
100
AcDbText
 10
91.70403496470001
 20
-94.61179976495001
 30
0.0
 40
1.558055249599999
  1
R
 41
0.75
 51
5.000000159199999
  7
SIMPLEX
100
AcDbText
  0
LINE
  5
1E1D8
330
1E1CC
100
AcDbEntity
  8
文字
100
AcDbLine
 10
89.77000000000002
 20
-94.66045918365001
 30
0.0
 11
91.17758396040001
 21
-89.40728432745
 31
0.0
  0
LINE
  5
1E1D9
330
1E1CC
100
AcDbEntity
  8
文字
100
AcDbLine
 10
85.12907954220001
 20
-89.14045918365001
 30
0.0
 11
84.71323801930001
 21
-89.14045918365001
 31
0.0
  0
ARC
  5
1E1DA
330
1E1CC
100
AcDbEntity
  8
文字
100
AcDbCircle
 10
84.71323801930001
 20
-89.38045918365
 30
0.0
 40
0.24
100
AcDbArc
 50
90.0
 51
165.0000052521
  0
LINE
  5
1E1DB
330
1E1CC
100
AcDbEntity
  8
文字
100
AcDbLine
 10
85.7763054527
 20
-89.14045918365001
 30
0.0
 11
85.60907954220002
 21
-89.14045918365001
 31
0.0
  0
ARC
  5
1E1DC
330
1E1CC
100
AcDbEntity
  8
文字
100
AcDbCircle
 10
85.7763054527
 20
-89.38045918365
 30
0.0
 40
0.24
100
AcDbArc
 50
345.0000109816997
 51
90.0
  0
LINE
  5
1E1DD
330
1E1CC
100
AcDbEntity
  8
文字
100
AcDbLine
 10
86.05000000000002
 20
-94.66045918365001
 30
0.0
 11
84.13
 21
-94.66045918365001
 31
0.0
  0
LINE
  5
1E1DE
330
1E1CC
100
AcDbEntity
  8
文字
100
AcDbLine
 10
86.17861561239999
 20
-94.18045918365001
 30
0.0
 11
85.8827740895
 21
-94.18045918365001
 31
0.0
  0
LINE
  5
1E1DF
330
1E1CC
100
AcDbEntity
  8
文字
100
AcDbLine
 10
84.13
 20
-94.66045918365001
 30
0.0
 11
84.25861561240001
 21
-94.18045918365001
 31
0.0
  0
LINE
  5
1E1E0
330
1E1CC
100
AcDbEntity
  8
文字
100
AcDbLine
 10
86.05000000000002
 20
-94.66045918365001
 30
0.0
 11
86.17861561239999
 21
-94.18045918365001
 31
0.0
  0
LINE
  5
1E1E1
330
1E1CC
100
AcDbEntity
  8
文字
100
AcDbLine
 10
84.46237789670002
 20
-94.18045918365001
 30
0.0
 11
84.25861561240001
 21
-94.18045918365001
 31
0.0
  0
ARC
  5
1E1E2
330
1E1CC
100
AcDbEntity
  8
文字
100
AcDbCircle
 10
84.46237789670002
 20
-93.82045918364999
 30
0.0
 40
0.36
100
AcDbArc
 50
270.0
 51
345.0000109816995
  0
ARC
  5
1E1E3
330
1E1CC
100
AcDbEntity
  8
文字
100
AcDbCircle
 10
85.8827740895
 20
-93.94045918365
 30
0.0
 40
0.24
100
AcDbArc
 50
165.0000052521
 51
270.0
  0
LINE
  5
1E1E4
330
1E1CC
100
AcDbEntity
  8
文字
100
AcDbLine
 10
86.008127651
 20
-89.44257575445
 30
0.0
 11
84.81011119420001
 21
-93.91363403985002
 31
0.0
  0
LINE
  5
1E1E5
330
1E1CC
100
AcDbEntity
  8
文字
100
AcDbLine
 10
86.6437023613
 20
-90.17334741915
 30
0.0
 11
85.6509518912
 21
-93.87834261285
 31
0.0
  0
LINE
  5
1E1E6
330
1E1CC
100
AcDbEntity
  8
文字
100
AcDbLine
 10
88.93
 20
-94.66045918365001
 30
0.0
 11
86.6437023613
 21
-90.17334741915
 31
0.0
  0
LINE
  5
1E1E7
330
1E1CC
100
AcDbEntity
  8
文字
100
AcDbLine
 10
88.93
 20
-94.66045918365001
 30
0.0
 11
89.77000000000002
 21
-94.66045918365001
 31
0.0
  0
LINE
  5
1E1E8
330
1E1CC
100
AcDbEntity
  8
文字
100
AcDbLine
 10
89.42628221460001
 20
-92.80830874385001
 30
0.0
 11
90.32812765100002
 21
-89.44257575445
 31
0.0
  0
LINE
  5
1E1E9
330
1E1CC
100
AcDbEntity
  8
文字
100
AcDbLine
 10
85.12907954220001
 20
-89.14045918365001
 30
0.0
 11
85.25769515460002
 21
-88.66045918365001
 31
0.0
  0
LINE
  5
1E1EA
330
1E1CC
100
AcDbEntity
  8
文字
100
AcDbLine
 10
85.60907954220002
 20
-89.14045918365001
 30
0.0
 11
85.7376951546
 21
-88.66045918365001
 31
0.0
  0
LINE
  5
1E1EB
330
1E1CC
100
AcDbEntity
  8
文字
100
AcDbLine
 10
89.42628221460001
 20
-92.80830874385001
 30
0.0
 11
87.31284730300002
 21
-88.66045918365001
 31
0.0
  0
LINE
  5
1E1EC
330
1E1CC
100
AcDbEntity
  8
文字
100
AcDbLine
 10
89.7042316907
 20
-89.14045918365001
 30
0.0
 11
89.83284730299999
 21
-88.66045918365001
 31
0.0
  0
LINE
  5
1E1ED
330
1E1CC
100
AcDbEntity
  8
文字
100
AcDbLine
 10
91.62423169070001
 20
-89.14045918365001
 30
0.0
 11
91.75284730300001
 21
-88.66045918365001
 31
0.0
  0
LINE
  5
1E1EE
330
1E1CC
100
AcDbEntity
  8
文字
100
AcDbLine
 10
82.4976951546
 20
-88.66045918365001
 30
0.0
 11
80.33769515459999
 21
-88.66045918365001
 31
0.0
  0
LINE
  5
1E1EF
330
1E1CC
100
AcDbEntity
  8
文字
100
AcDbLine
 10
76.37769515460002
 20
-88.66045918365001
 30
0.0
 11
73.97769515460002
 21
-88.66045918365001
 31
0.0
  0
LINE
  5
1E1F0
330
1E1CC
100
AcDbEntity
  8
文字
100
AcDbLine
 10
79.37769515460002
 20
-88.66045918365001
 30
0.0
 11
77.09769515460002
 21
-88.66045918365001
 31
0.0
  0
LINE
  5
1E1F1
330
1E1CC
100
AcDbEntity
  8
文字
100
AcDbLine
 10
70.8576951546
 20
-88.66045918365001
 30
0.0
 11
68.4576951546
 21
-88.66045918365001
 31
0.0
  0
LINE
  5
1E1F2
330
1E1CC
100
AcDbEntity
  8
文字
100
AcDbLine
 10
67.25769515460001
 20
-88.66045918365001
 30
0.0
 11
64.85769515460001
 21
-88.66045918365001
 31
0.0
  0
LINE
  5
1E1F3
330
1E1CC
100
AcDbEntity
  8
文字
100
AcDbLine
 10
73.6176951546
 20
-88.66045918365001
 30
0.0
 11
71.21769515459999
 21
-88.66045918365001
 31
0.0
  0
LINE
  5
1E1F4
330
1E1CC
100
AcDbEntity
  8
文字
100
AcDbLine
 10
82.36907954220001
 20
-89.14045918365001
 30
0.0
 11
82.05553755050003
 21
-89.14045918365001
 31
0.0
  0
ARC
  5
1E1F5
330
1E1CC
100
AcDbEntity
  8
文字
100
AcDbCircle
 10
82.05553755050003
 20
-89.38045918365
 30
0.0
 40
0.24
100
AcDbArc
 50
90.0
 51
150.0000047745997
  0
ARC
  5
1E1F6
330
1E1CC
100
AcDbEntity
  8
文字
100
AcDbCircle
 10
83.17269249750001
 20
-89.26045918365
 30
0.0
 40
0.12
100
AcDbArc
 50
345.0000109816994
 51
90.0
  0
LINE
  5
1E1F7
330
1E1CC
100
AcDbEntity
  8
文字
100
AcDbLine
 10
83.17269249750001
 20
-89.14045918365001
 30
0.0
 11
82.7290795422
 21
-89.14045918365001
 31
0.0
  0
LINE
  5
1E1F8
330
1E1CC
100
AcDbEntity
  8
文字
100
AcDbLine
 10
79.2490795422
 20
-89.14045918365001
 30
0.0
 11
78.94776092879999
 21
-89.14045918365001
 31
0.0
  0
LINE
  5
1E1F9
330
1E1CC
100
AcDbEntity
  8
文字
100
AcDbLine
 10
80.56289929950001
 20
-89.14045918365001
 30
0.0
 11
80.20907954220001
 21
-89.14045918365001
 31
0.0
  0
LINE
  5
1E1FA
330
1E1CC
100
AcDbEntity
  8
文字
100
AcDbLine
 10
78.89163332859999
 20
-92.92075374575
 30
0.0
 11
78.8277792053
 21
-89.26255347245001
 31
0.0
  0
LINE
  5
1E1FB
330
1E1CC
100
AcDbEntity
  8
文字
100
AcDbLine
 10
78.89163332859999
 20
-92.92075374575
 30
0.0
 11
80.72256124950001
 21
-89.40357393404999
 31
0.0
  0
ARC
  5
1E1FC
330
1E1CC
100
AcDbEntity
  8
文字
100
AcDbCircle
 10
78.94776092879999
 20
-89.26045918365
 30
0.0
 40
0.12
100
AcDbArc
 50
90.0
 51
181.0000057614001
  0
ARC
  5
1E1FD
330
1E1CC
100
AcDbEntity
  8
文字
100
AcDbCircle
 10
80.56289929950001
 20
-89.32045918365
 30
0.0
 40
0.18
100
AcDbArc
 50
332.5000105837975
 51
90.0
  0
ARC
  5
1E1FE
330
1E1CC
100
AcDbEntity
  8
文字
100
AcDbCircle
 10
83.49138970180002
 20
-93.94045918365
 30
0.0
 40
0.24
100
AcDbArc
 50
165.0000052521
 51
270.0
  0
LINE
  5
1E1FF
330
1E1CC
100
AcDbEntity
  8
文字
100
AcDbLine
 10
83.77861561240001
 20
-94.18045918365001
 30
0.0
 11
83.49138970180002
 21
-94.18045918365001
 31
0.0
  0
LINE
  5
1E200
330
1E1CC
100
AcDbEntity
  8
文字
100
AcDbLine
 10
83.65
 20
-94.66045918365001
 30
0.0
 11
83.77861561240001
 21
-94.18045918365001
 31
0.0
  0
LINE
  5
1E201
330
1E1CC
100
AcDbEntity
  8
文字
100
AcDbLine
 10
81.7944571353
 20
-94.18045918365001
 30
0.0
 11
81.37861561240001
 21
-94.18045918365001
 31
0.0
  0
ARC
  5
1E202
330
1E1CC
100
AcDbEntity
  8
文字
100
AcDbCircle
 10
81.7944571353
 20
-93.94045918365
 30
0.0
 40
0.24
100
AcDbArc
 50
270.0
 51
345.0000109816997
  0
LINE
  5
1E203
330
1E1CC
100
AcDbEntity
  8
文字
100
AcDbLine
 10
83.65
 20
-94.66045918365001
 30
0.0
 11
81.25
 21
-94.66045918365001
 31
0.0
  0
LINE
  5
1E204
330
1E1CC
100
AcDbEntity
  8
文字
100
AcDbLine
 10
81.25
 20
-94.66045918365001
 30
0.0
 11
81.37861561240001
 21
-94.18045918365001
 31
0.0
  0
LINE
  5
1E205
330
1E1CC
100
AcDbEntity
  8
文字
100
AcDbLine
 10
78.73000000000001
 20
-94.66045918365001
 30
0.0
 11
81.84769145360002
 21
-89.26045918365
 31
0.0
  0
LINE
  5
1E206
330
1E1CC
100
AcDbEntity
  8
文字
100
AcDbLine
 10
82.0262793336
 20
-94.00257575445001
 30
0.0
 11
83.28860359660001
 21
-89.29151746905001
 31
0.0
  0
LINE
  5
1E207
330
1E1CC
100
AcDbEntity
  8
文字
100
AcDbLine
 10
76.24907954220001
 20
-89.14045918365001
 30
0.0
 11
75.94987381590001
 21
-89.14045918365001
 31
0.0
  0
LINE
  5
1E208
330
1E1CC
100
AcDbEntity
  8
文字
100
AcDbLine
 10
77.1255890983
 20
-89.14045918365001
 30
0.0
 11
76.96907954220001
 21
-89.14045918365001
 31
0.0
  0
LINE
  5
1E209
330
1E1CC
100
AcDbEntity
  8
文字
100
AcDbLine
 10
75.7717150883
 20
-92.92543775594999
 30
0.0
 11
77.54128129209999
 21
-89.86045918365
 31
0.0
  0
ARC
  5
1E20A
330
1E1CC
100
AcDbEntity
  8
文字
100
AcDbCircle
 10
77.1255890983
 20
-89.62045918364999
 30
0.0
 40
0.4800000000000001
100
AcDbArc
 50
330.0000105041998
 51
90.0
  0
LINE
  5
1E20B
330
1E1CC
100
AcDbEntity
  8
文字
100
AcDbLine
 10
73.48907954220002
 20
-89.14045918365001
 30
0.0
 11
73.07323801930002
 21
-89.14045918365001
 31
0.0
  0
LINE
  5
1E20C
330
1E1CC
100
AcDbEntity
  8
文字
100
AcDbLine
 10
74.17924157699999
 20
-89.14045918365001
 30
0.0
 11
73.8490795422
 21
-89.14045918365001
 31
0.0
  0
ARC
  5
1E20D
330
1E1CC
100
AcDbEntity
  8
文字
100
AcDbCircle
 10
74.17924157699999
 20
-89.38045918365
 30
0.0
 40
0.24
100
AcDbArc
 50
2.500000079599775
 51
90.0
  0
LINE
  5
1E20E
330
1E1CC
100
AcDbEntity
  8
文字
100
AcDbLine
 10
75.7717150883
 20
-92.92543775594999
 30
0.0
 11
75.70991036910001
 21
-89.38464776115001
 31
0.0
  0
ARC
  5
1E20F
330
1E1CC
100
AcDbEntity
  8
文字
100
AcDbCircle
 10
75.94987381590001
 20
-89.38045918365
 30
0.0
 40
0.24
100
AcDbArc
 50
90.0
 51
181.0000057613999
  0
LINE
  5
1E210
330
1E1CC
100
AcDbEntity
  8
文字
100
AcDbLine
 10
74.65
 20
-94.66045918365001
 30
0.0
 11
75.61000000000001
 21
-94.66045918365001
 31
0.0
  0
LINE
  5
1E211
330
1E1CC
100
AcDbEntity
  8
文字
100
AcDbLine
 10
74.65
 20
-94.66045918365001
 30
0.0
 11
74.41901315020001
 21
-89.36999053064999
 31
0.0
  0
LINE
  5
1E212
330
1E1CC
100
AcDbEntity
  8
文字
100
AcDbLine
 10
75.61000000000001
 20
-94.66045918365001
 30
0.0
 11
77.7149916749
 21
-91.50903434665002
 31
0.0
  0
LINE
  5
1E213
330
1E1CC
100
AcDbEntity
  8
文字
100
AcDbLine
 10
77.77000000000001
 20
-94.66045918365001
 30
0.0
 11
77.7149916749
 21
-91.50903434665002
 31
0.0
  0
LINE
  5
1E214
330
1E1CC
100
AcDbEntity
  8
文字
100
AcDbLine
 10
77.77000000000001
 20
-94.66045918365001
 30
0.0
 11
78.73000000000001
 21
-94.66045918365001
 31
0.0
  0
LINE
  5
1E215
330
1E1CC
100
AcDbEntity
  8
文字
100
AcDbLine
 10
70.72907954219999
 20
-89.14045918365001
 30
0.0
 11
70.3132380193
 21
-89.14045918365001
 31
0.0
  0
LINE
  5
1E216
330
1E1CC
100
AcDbEntity
  8
文字
100
AcDbLine
 10
71.5326924975
 20
-89.14045918365001
 30
0.0
 11
71.08907954220001
 21
-89.14045918365001
 31
0.0
  0
ARC
  5
1E217
330
1E1CC
100
AcDbEntity
  8
文字
100
AcDbCircle
 10
71.5326924975
 20
-89.26045918365
 30
0.0
 40
0.12
100
AcDbArc
 50
345.0000109816994
 51
90.0
  0
LINE
  5
1E218
330
1E1CC
100
AcDbEntity
  8
文字
100
AcDbLine
 10
68.7726924975
 20
-89.14045918365001
 30
0.0
 11
68.32907954220002
 21
-89.14045918365001
 31
0.0
  0
LINE
  5
1E219
330
1E1CC
100
AcDbEntity
  8
文字
100
AcDbLine
 10
68.37414114720002
 20
-91.21151746905001
 30
0.0
 11
68.8886035966
 21
-89.29151746905001
 31
0.0
  0
ARC
  5
1E21A
330
1E1CC
100
AcDbEntity
  8
文字
100
AcDbCircle
 10
68.7726924975
 20
-89.26045918365
 30
0.0
 40
0.12
100
AcDbArc
 50
345.0000109816994
 51
90.0
  0
ARC
  5
1E21B
330
1E1CC
100
AcDbEntity
  8
文字
100
AcDbCircle
 10
68.258230048
 20
-91.18045918365
 30
0.0
 40
0.12
100
AcDbArc
 50
270.0
 51
345.0000109816994
  0
ARC
  5
1E21C
330
1E1CC
100
AcDbEntity
  8
文字
100
AcDbCircle
 10
68.00099882329999
 20
-92.14045918365
 30
0.0
 40
0.12
100
AcDbArc
 50
345.0000109816994
 51
90.0
  0
ARC
  5
1E21D
330
1E1CC
100
AcDbEntity
  8
文字
100
AcDbCircle
 10
70.3132380193
 20
-89.38045918365
 30
0.0
 40
0.24
100
AcDbArc
 50
90.0
 51
165.0000052521
  0
ARC
  5
1E21E
330
1E1CC
100
AcDbEntity
  8
文字
100
AcDbCircle
 10
70.15445713530002
 20
-93.94045918365
 30
0.0
 40
0.24
100
AcDbArc
 50
270.0
 51
345.0000109816997
  0
LINE
  5
1E21F
330
1E1CC
100
AcDbEntity
  8
文字
100
AcDbLine
 10
72.01000000000002
 20
-94.66045918365001
 30
0.0
 11
72.1386156124
 21
-94.18045918365001
 31
0.0
  0
LINE
  5
1E220
330
1E1CC
100
AcDbEntity
  8
文字
100
AcDbLine
 10
72.1386156124
 20
-94.18045918365001
 30
0.0
 11
71.8513897018
 21
-94.18045918365001
 31
0.0
  0
ARC
  5
1E221
330
1E1CC
100
AcDbEntity
  8
文字
100
AcDbCircle
 10
71.8513897018
 20
-93.94045918365
 30
0.0
 40
0.24
100
AcDbArc
 50
165.0000052521
 51
270.0
  0
LINE
  5
1E222
330
1E1CC
100
AcDbEntity
  8
文字
100
AcDbLine
 10
69.25
 20
-94.66045918365001
 30
0.0
 11
69.37861561240001
 21
-94.18045918365001
 31
0.0
  0
LINE
  5
1E223
330
1E1CC
100
AcDbEntity
  8
文字
100
AcDbLine
 10
69.37861561240001
 20
-94.18045918365001
 30
0.0
 11
69.09138970180001
 21
-94.18045918365001
 31
0.0
  0
ARC
  5
1E224
330
1E1CC
100
AcDbEntity
  8
文字
100
AcDbCircle
 10
67.3944571353
 20
-93.94045918365
 30
0.0
 40
0.24
100
AcDbArc
 50
270.0
 51
345.0000109816997
  0
ARC
  5
1E225
330
1E1CC
100
AcDbEntity
  8
文字
100
AcDbCircle
 10
69.09138970180001
 20
-93.94045918365
 30
0.0
 40
0.24
100
AcDbArc
 50
165.0000052521
 51
270.0
  0
LINE
  5
1E226
330
1E1CC
100
AcDbEntity
  8
文字
100
AcDbLine
 10
69.61000000000002
 20
-94.66045918365001
 30
0.0
 11
69.73861561239999
 21
-94.18045918365001
 31
0.0
  0
LINE
  5
1E227
330
1E1CC
100
AcDbEntity
  8
文字
100
AcDbLine
 10
70.15445713530002
 20
-94.18045918365001
 30
0.0
 11
69.73861561239999
 21
-94.18045918365001
 31
0.0
  0
LINE
  5
1E228
330
1E1CC
100
AcDbEntity
  8
文字
100
AcDbLine
 10
72.01000000000002
 20
-94.66045918365001
 30
0.0
 11
69.61000000000002
 21
-94.66045918365001
 31
0.0
  0
LINE
  5
1E229
330
1E1CC
100
AcDbEntity
  8
文字
100
AcDbLine
 10
67.6262793336
 20
-94.00257575445001
 30
0.0
 11
68.11690992239999
 21
-92.17151746905001
 31
0.0
  0
LINE
  5
1E22A
330
1E1CC
100
AcDbEntity
  8
文字
100
AcDbLine
 10
68.85956750350001
 20
-93.87834261285
 30
0.0
 11
70.08141582100001
 21
-89.31834261285001
 31
0.0
  0
LINE
  5
1E22B
330
1E1CC
100
AcDbEntity
  8
文字
100
AcDbLine
 10
70.38627933360001
 20
-94.00257575445001
 30
0.0
 11
71.6486035966
 21
-89.29151746905001
 31
0.0
  0
LINE
  5
1E22C
330
1E1CC
100
AcDbEntity
  8
文字
100
AcDbLine
 10
71.6195675035
 20
-93.87834261285
 30
0.0
 11
72.841415821
 21
-89.31834261285001
 31
0.0
  0
LINE
  5
1E22D
330
1E1CC
100
AcDbEntity
  8
文字
100
AcDbLine
 10
67.1290795422
 20
-89.14045918365001
 30
0.0
 11
66.7132380193
 21
-89.14045918365001
 31
0.0
  0
LINE
  5
1E22E
330
1E1CC
100
AcDbEntity
  8
文字
100
AcDbLine
 10
65.1726924975
 20
-89.14045918365001
 30
0.0
 11
64.7290795422
 21
-89.14045918365001
 31
0.0
  0
LINE
  5
1E22F
330
1E1CC
100
AcDbEntity
  8
文字
100
AcDbLine
 10
65.99078523220001
 20
-91.14940089825001
 30
0.0
 11
66.48141582100001
 21
-89.31834261285001
 31
0.0
  0
ARC
  5
1E230
330
1E1CC
100
AcDbEntity
  8
文字
100
AcDbCircle
 10
65.1726924975
 20
-89.26045918365
 30
0.0
 40
0.12
100
AcDbArc
 50
345.0000109816994
 51
90.0
  0
ARC
  5
1E231
330
1E1CC
100
AcDbEntity
  8
文字
100
AcDbCircle
 10
66.7132380193
 20
-89.38045918365
 30
0.0
 40
0.24
100
AcDbArc
 50
90.0
 51
165.0000052521
  0
ARC
  5
1E232
330
1E1CC
100
AcDbEntity
  8
文字
100
AcDbCircle
 10
65.8494651066
 20
-92.14045918365
 30
0.0
 40
0.12
100
AcDbArc
 50
90.0
 51
165.0000052521
  0
ARC
  5
1E233
330
1E1CC
100
AcDbEntity
  8
文字
100
AcDbCircle
 10
66.10669633130001
 20
-91.18045918365
 30
0.0
 40
0.12
100
AcDbArc
 50
165.0000052521
 51
270.0
  0
LINE
  5
1E234
330
1E1CC
100
AcDbEntity
  8
文字
100
AcDbLine
 10
65.77861561240002
 20
-94.18045918365001
 30
0.0
 11
65.64777674660001
 21
-94.18045918365001
 31
0.0
  0
LINE
  5
1E235
330
1E1CC
100
AcDbEntity
  8
文字
100
AcDbLine
 10
65.65000000000001
 20
-94.66045918365001
 30
0.0
 11
65.77861561240002
 21
-94.18045918365001
 31
0.0
  0
LINE
  5
1E236
330
1E1CC
100
AcDbEntity
  8
文字
100
AcDbLine
 10
66.84999999999999
 20
-94.66045918365001
 30
0.0
 11
66.9786156124
 21
-94.18045918365001
 31
0.0
  0
ARC
  5
1E237
330
1E1CC
100
AcDbEntity
  8
文字
100
AcDbCircle
 10
65.64777674660001
 20
-93.82045918364999
 30
0.0
 40
0.36
100
AcDbArc
 50
165.0000052521
 51
270.0
  0
LINE
  5
1E238
330
1E1CC
100
AcDbEntity
  8
文字
100
AcDbLine
 10
63.7944571353
 20
-94.18045918365001
 30
0.0
 11
63.37861561240001
 21
-94.18045918365001
 31
0.0
  0
LINE
  5
1E239
330
1E1CC
100
AcDbEntity
  8
文字
100
AcDbLine
 10
63.25
 20
-94.66045918365001
 30
0.0
 11
63.37861561240001
 21
-94.18045918365001
 31
0.0
  0
ARC
  5
1E23A
330
1E1CC
100
AcDbEntity
  8
文字
100
AcDbCircle
 10
63.7944571353
 20
-93.94045918365
 30
0.0
 40
0.24
100
AcDbArc
 50
270.0
 51
345.0000109816997
  0
LINE
  5
1E23B
330
1E1CC
100
AcDbEntity
  8
文字
100
AcDbLine
 10
65.65000000000001
 20
-94.66045918365001
 30
0.0
 11
63.25
 21
-94.66045918365001
 31
0.0
  0
LINE
  5
1E23C
330
1E1CC
100
AcDbEntity
  8
文字
100
AcDbLine
 10
64.0262793336
 20
-94.00257575445001
 30
0.0
 11
65.28860359660001
 21
-89.29151746905001
 31
0.0
  0
LINE
  5
1E23D
330
1E1CC
100
AcDbEntity
  8
文字
100
AcDbLine
 10
65.3000434491
 20
-93.72728432745001
 30
0.0
 11
65.73355400740002
 21
-92.10940089824999
 31
0.0
  0
LINE
  5
1E23E
330
1E1CC
100
AcDbEntity
  8
文字
100
AcDbLine
 10
67.3944571353
 20
-94.18045918365001
 30
0.0
 11
66.9786156124
 21
-94.18045918365001
 31
0.0
  0
LINE
  5
1E23F
330
1E1CC
100
AcDbEntity
  8
文字
100
AcDbLine
 10
69.25
 20
-94.66045918365001
 30
0.0
 11
66.84999999999999
 21
-94.66045918365001
 31
0.0
  0
LINE
  5
1E240
330
1E1CC
100
AcDbEntity
  8
文字
100
AcDbLine
 10
66.10669633130001
 20
-91.30045918365
 30
0.0
 11
68.258230048
 21
-91.30045918365
 31
0.0
  0
LINE
  5
1E241
330
1E1CC
100
AcDbEntity
  8
文字
100
AcDbLine
 10
65.8494651066
 20
-92.02045918365
 30
0.0
 11
68.00099882329999
 21
-92.02045918365
 31
0.0
  0
ARC
  5
1E242
330
1E1CC
100
AcDbEntity
  8
文字
100
AcDbCircle
 10
73.07323801930002
 20
-89.38045918365
 30
0.0
 40
0.24
100
AcDbArc
 50
90.0
 51
165.0000052521
  0
LINE
  5
1E243
330
1E1CC
100
AcDbEntity
  8
文字
100
AcDbLine
 10
64.7290795422
 20
-89.14045918365001
 30
0.0
 11
64.85769515460001
 21
-88.66045918365001
 31
0.0
  0
LINE
  5
1E244
330
1E1CC
100
AcDbEntity
  8
文字
100
AcDbLine
 10
67.1290795422
 20
-89.14045918365001
 30
0.0
 11
67.25769515460001
 21
-88.66045918365001
 31
0.0
  0
LINE
  5
1E245
330
1E1CC
100
AcDbEntity
  8
文字
100
AcDbLine
 10
68.32907954220002
 20
-89.14045918365001
 30
0.0
 11
68.4576951546
 21
-88.66045918365001
 31
0.0
  0
LINE
  5
1E246
330
1E1CC
100
AcDbEntity
  8
文字
100
AcDbLine
 10
70.72907954219999
 20
-89.14045918365001
 30
0.0
 11
70.8576951546
 21
-88.66045918365001
 31
0.0
  0
LINE
  5
1E247
330
1E1CC
100
AcDbEntity
  8
文字
100
AcDbLine
 10
71.08907954220001
 20
-89.14045918365001
 30
0.0
 11
71.21769515459999
 21
-88.66045918365001
 31
0.0
  0
LINE
  5
1E248
330
1E1CC
100
AcDbEntity
  8
文字
100
AcDbLine
 10
73.48907954220002
 20
-89.14045918365001
 30
0.0
 11
73.6176951546
 21
-88.66045918365001
 31
0.0
  0
LINE
  5
1E249
330
1E1CC
100
AcDbEntity
  8
文字
100
AcDbLine
 10
73.8490795422
 20
-89.14045918365001
 30
0.0
 11
73.97769515460002
 21
-88.66045918365001
 31
0.0
  0
LINE
  5
1E24A
330
1E1CC
100
AcDbEntity
  8
文字
100
AcDbLine
 10
76.24907954220001
 20
-89.14045918365001
 30
0.0
 11
76.37769515460002
 21
-88.66045918365001
 31
0.0
  0
LINE
  5
1E24B
330
1E1CC
100
AcDbEntity
  8
文字
100
AcDbLine
 10
76.96907954220001
 20
-89.14045918365001
 30
0.0
 11
77.09769515460002
 21
-88.66045918365001
 31
0.0
  0
LINE
  5
1E24C
330
1E1CC
100
AcDbEntity
  8
文字
100
AcDbLine
 10
79.2490795422
 20
-89.14045918365001
 30
0.0
 11
79.37769515460002
 21
-88.66045918365001
 31
0.0
  0
LINE
  5
1E24D
330
1E1CC
100
AcDbEntity
  8
文字
100
AcDbLine
 10
80.20907954220001
 20
-89.14045918365001
 30
0.0
 11
80.33769515459999
 21
-88.66045918365001
 31
0.0
  0
LINE
  5
1E24E
330
1E1CC
100
AcDbEntity
  8
文字
100
AcDbLine
 10
82.36907954220001
 20
-89.14045918365001
 30
0.0
 11
82.4976951546
 21
-88.66045918365001
 31
0.0
  0
LINE
  5
1E24F
330
1E1CC
100
AcDbEntity
  8
文字
100
AcDbLine
 10
82.7290795422
 20
-89.14045918365001
 30
0.0
 11
82.85769515460001
 21
-88.66045918365001
 31
0.0
  0
LINE
  5
1E250
330
1E1CC
100
AcDbEntity
  8
文字
100
AcDbLine
 10
85.25769515460002
 20
-88.66045918365001
 30
0.0
 11
82.85769515460001
 21
-88.66045918365001
 31
0.0
  0
LINE
  5
1E251
330
1E1CC
100
AcDbEntity
  8
文字
100
AcDbLine
 10
83.2595675035
 20
-93.87834261285
 30
0.0
 11
84.48141582100001
 21
-89.31834261285001
 31
0.0
  0
LINE
  5
1E252
330
1E1CC
100
AcDbEntity
  8
圖框
100
AcDbLine
 10
137.5
 20
-45.56045918365
 30
0.0
 11
62.5
 21
-45.56045918365
 31
0.0
  0
TEXT
  5
1E253
330
1E1CC
100
AcDbEntity
  8
文字
100
AcDbText
 10
95.52649007453704
 20
-94.35242673930732
 30
0.0
 40
3.264802668514023
  1
TECHNOLOGIES CORP.
 51
5.0
  7
型式I
 72
     1
 11
116.3057866166815
 21
-95.27234351330852
 31
0.0
100
AcDbText
 73
     1
  0
TEXT
  5
1E254
330
1E1CC
100
AcDbEntity
  8
文字
100
AcDbText
 10
129.2516159000329
 20
93.68953067375702
 30
0.0
 40
2.0
  1
APP
  7
型式1
 72
     1
 11
131.815569388405
 21
93.09650741794307
 31
0.0
100
AcDbText
 73
     1
  0
TEXT
  5
1E255
330
1E1CC
100
AcDbEntity
  8
文字
100
AcDbText
 10
116.1171397230732
 20
93.68953067375702
 30
0.0
 40
2.0
  1
DATE
  7
型式1
 72
     1
 11
119.8438839091197
 21
93.09650741794307
 31
0.0
100
AcDbText
 73
     1
  0
TEXT
  5
1E256
330
1E1CC
100
AcDbEntity
  8
文字
100
AcDbText
 10
81.50767723018667
 20
93.68953067375702
 30
0.0
 40
2.0
  1
MODIFICATION
  7
型式1
 72
     1
 11
91.75913071855877
 21
93.09650741794307
 31
0.0
100
AcDbText
 73
     1
  0
LINE
  5
1E257
330
1E1CC
100
AcDbEntity
  8
圖框
100
AcDbLine
 10
70.5
 20
92.46045918365
 30
0.0
 11
137.5
 21
92.46045918365
 31
0.0
  0
LINE
  5
1E258
330
1E1CC
100
AcDbEntity
  8
圖框
100
AcDbLine
 10
113.5
 20
96.46045918365
 30
0.0
 11
113.5
 21
88.46045918365
 31
0.0
  0
LINE
  5
1E259
330
1E1CC
100
AcDbEntity
  8
圖框
100
AcDbLine
 10
125.5
 20
96.46045918365
 30
0.0
 11
125.5
 21
88.46045918365
 31
0.0
  0
LINE
  5
1E25A
330
1E1CC
100
AcDbEntity
  8
圖框
100
AcDbLine
 10
70.5
 20
88.46045918365
 30
0.0
 11
70.5
 21
96.46045918365
 31
0.0
  0
TEXT
  5
1E25B
330
1E1CC
100
AcDbEntity
  8
文字
 62
     2
100
AcDbText
 10
129.4000000000001
 20
93.46045918365
 30
0.0
 40
1.8
  1
APP
 41
0.85
  7
COMPLEX
100
AcDbText
  0
TEXT
  5
1E25C
330
1E1CC
100
AcDbEntity
  8
文字
 62
     2
100
AcDbText
 10
116.7
 20
93.46045918365
 30
0.0
 40
1.8
  1
DATE
 41
0.85
  7
COMPLEX
100
AcDbText
  0
TEXT
  5
1E25D
330
1E1CC
100
AcDbEntity
  8
文字
 62
     2
100
AcDbText
 10
84.29999999999996
 20
93.46045918365
 30
0.0
 40
1.8
  1
MODIFICATION
 41
0.85
  7
COMPLEX
100
AcDbText
  0
LINE
  5
1E25E
330
1E1CC
100
AcDbEntity
  8
圖框
100
AcDbLine
 10
137.5
 20
-17.96045918365
 30
0.0
 11
62.5
 21
-17.96045918365
 31
0.0
  0
LINE
  5
1E25F
330
1E1CC
100
AcDbEntity
  8
圖框
100
AcDbLine
 10
137.5
 20
-6.960459183650002
 30
0.0
 11
62.5
 21
-6.960459183650002
 31
0.0
  0
LINE
  5
1E260
330
1E1CC
100
AcDbEntity
  8
圖框
100
AcDbLine
 10
137.5
 20
-12.46045918365
 30
0.0
 11
62.5
 21
-12.46045918365
 31
0.0
  0
LINE
  5
1E261
330
1E1CC
100
AcDbEntity
  8
圖框
100
AcDbLine
 10
137.5
 20
-23.46045918365
 30
0.0
 11
62.5
 21
-23.46045918365
 31
0.0
  0
LINE
  5
1E262
330
1E1CC
100
AcDbEntity
  8
圖框
100
AcDbLine
 10
137.5
 20
-28.96045918365
 30
0.0
 11
62.5
 21
-28.96045918365
 31
0.0
  0
LINE
  5
1E263
330
1E1CC
100
AcDbEntity
  8
圖框
100
AcDbLine
 10
137.5
 20
-34.46045918365
 30
0.0
 11
62.5
 21
-34.46045918365
 31
0.0
  0
LINE
  5
1E264
330
1E1CC
100
AcDbEntity
  8
圖框
100
AcDbLine
 10
137.5
 20
-39.96045918365
 30
0.0
 11
62.5
 21
-39.96045918365
 31
0.0
  0
LINE
  5
1E265
330
1E1CC
100
AcDbEntity
  8
圖框
100
AcDbLine
 10
112.5
 20
-12.46045918365
 30
0.0
 11
112.5
 21
-45.56045918365001
 31
0.0
  0
LINE
  5
1E266
330
1E1CC
100
AcDbEntity
  8
圖框
100
AcDbLine
 10
62.5
 20
-6.960459183650002
 30
0.0
 11
62.5
 21
-45.56045918365001
 31
0.0
  0
TEXT
  5
1E267
330
1E1CC
100
AcDbEntity
  8
文字
 62
     2
100
AcDbText
 10
64.19520365879884
 20
-68.48550702672961
 30
0.0
 40
3.5
  1
LINEAR MOTION GUIDEWAY
 41
0.7000000000000001
  7
COMPLEX
100
AcDbText
  0
LINE
  5
1E268
330
1E1CC
100
AcDbEntity
  8
圖框
100
AcDbLine
 10
137.5
 20
-81.86045918365001
 30
0.0
 11
117.5
 21
-81.86045918365001
 31
0.0
  0
LINE
  5
1E269
330
1E1CC
100
AcDbEntity
  8
圖框
100
AcDbLine
 10
137.5
 20
-76.86045918365
 30
0.0
 11
117.5
 21
-76.86045918365
 31
0.0
  0
LINE
  5
1E26A
330
1E1CC
100
AcDbEntity
  8
圖框
100
AcDbLine
 10
137.5
 20
-72.06045918364999
 30
0.0
 11
117.5
 21
-72.06045918364999
 31
0.0
  0
LINE
  5
1E26B
330
1E1CC
100
AcDbEntity
  8
圖框
100
AcDbLine
 10
137.5
 20
-67.26045918365
 30
0.0
 11
117.5
 21
-67.26045918365
 31
0.0
  0
LINE
  5
1E26C
330
1E1CC
100
AcDbEntity
  8
圖框
100
AcDbLine
 10
137.5
 20
-46.36045918365
 30
0.0
 11
62.5
 21
-46.36045918365
 31
0.0
  0
LINE
  5
1E26D
330
1E1CC
100
AcDbEntity
  8
圖框
100
AcDbLine
 10
137.5
 20
-54.46045918365
 30
0.0
 11
62.5
 21
-54.46045918365
 31
0.0
  0
LINE
  5
1E26E
330
1E1CC
100
AcDbEntity
  8
圖框
100
AcDbLine
 10
137.5
 20
-62.76045918364999
 30
0.0
 11
62.5
 21
-62.76045918364999
 31
0.0
  0
LINE
  5
1E26F
330
1E1CC
100
AcDbEntity
  8
圖框
100
AcDbLine
 10
117.5
 20
-70.46045918365
 30
0.0
 11
62.5
 21
-70.46045918365
 31
0.0
  0
LINE
  5
1E270
330
1E1CC
100
AcDbEntity
  8
圖框
100
AcDbLine
 10
117.5
 20
-78.46045918365
 30
0.0
 11
62.5
 21
-78.46045918365
 31
0.0
  0
LINE
  5
1E271
330
1E1CC
100
AcDbEntity
  8
圖框
100
AcDbLine
 10
137.5
 20
-86.86045918365001
 30
0.0
 11
62.5
 21
-86.86045918365001
 31
0.0
  0
LINE
  5
1E272
330
1E1CC
100
AcDbEntity
  8
圖框
100
AcDbLine
 10
62.5
 20
-46.36045918365
 30
0.0
 11
62.5
 21
-96.46045918365
 31
0.0
  0
LINE
  5
1E273
330
1E1CC
100
AcDbEntity
  8
圖框
100
AcDbLine
 10
117.5
 20
-62.76045918364999
 30
0.0
 11
117.5
 21
-86.86045918365001
 31
0.0
  0
TEXT
  5
1E274
330
1E1CC
100
AcDbEntity
  8
文字
 62
     2
100
AcDbText
 10
94.75440421570002
 20
-94.46045918364999
 30
0.0
 40
4.0
  1
TECHNOLOGIES CORP.
 41
0.6
 51
5.000000159199999
  7
COMPLEX
100
AcDbText
  0
LINE
  5
1E275
330
1E1CC
100
AcDbEntity
  8
圖框
100
AcDbLine
 10
-137.5
 20
-96.46045918365
 30
0.0
 11
-137.5
 21
96.46045918365
 31
0.0
  0
LINE
  5
1E276
330
1E1CC
100
AcDbEntity
  8
圖框
100
AcDbLine
 10
137.5
 20
-96.46045918365
 30
0.0
 11
-137.5
 21
-96.46045918365
 31
0.0
  0
LINE
  5
1E277
330
1E1CC
100
AcDbEntity
  8
圖框
100
AcDbLine
 10
137.5
 20
96.46045918365
 30
0.0
 11
137.5
 21
-96.46045918365
 31
0.0
  0
LINE
  5
1E278
330
1E1CC
100
AcDbEntity
  8
圖框
100
AcDbLine
 10
-137.5
 20
96.46045918365
 30
0.0
 11
137.5
 21
96.46045918365
 31
0.0
  0
TEXT
  5
1E279
330
1E1CC
100
AcDbEntity
  8
文字
100
AcDbText
 10
93.21511627906977
 20
-10.94926101297211
 30
0.0
 40
3.0
  1
規    格
  7
型式1
 72
     1
 11
100.0
 21
-11.83879589669304
 31
0.0
100
AcDbText
 73
     1
  0
TEXT
  5
1E27A
330
1E1CC
100
AcDbEntity
  8
文字
100
AcDbText
 10
80.05813953488372
 20
-16.39060938413577
 30
0.0
 40
2.5
  1
滑塊型式
  7
型式1
 72
     1
 11
87.5
 21
-17.13188845390321
 31
0.0
100
AcDbText
 73
     1
  0
TEXT
  5
1E27B
330
1E1CC
100
AcDbEntity
  8
文字
100
AcDbText
 10
70.75581395348837
 20
-21.89060938413577
 30
0.0
 40
2.5
  1
單根滑軌上滑塊個數
  7
型式1
 72
     1
 11
87.5
 21
-22.63188845390322
 31
0.0
100
AcDbText
 73
     1
  0
TEXT
  5
1E27C
330
1E1CC
100
AcDbEntity
  8
文字
100
AcDbText
 10
80.05813953488372
 20
-27.39060938413578
 30
0.0
 40
2.5
  1
精度等級
  7
型式1
 72
     1
 11
87.5
 21
-28.13188845390321
 31
0.0
100
AcDbText
 73
     1
  0
TEXT
  5
1E27D
330
1E1CC
100
AcDbEntity
  8
文字
100
AcDbText
 10
80.05813953488372
 20
-32.89060938413577
 30
0.0
 40
2.5
  1
預壓等級
  7
型式1
 72
     1
 11
87.5
 21
-33.63188845390322
 31
0.0
100
AcDbText
 73
     1
  0
TEXT
  5
1E27E
330
1E1CC
100
AcDbEntity
  8
文字
100
AcDbText
 10
70.75581395348837
 20
-38.39060938413577
 30
0.0
 40
2.5
  1
同一軸使用之滑軌數
  7
型式1
 72
     1
 11
87.5
 21
-39.13188845390322
 31
0.0
100
AcDbText
 73
     1
  0
TEXT
  5
1E27F
330
1E1CC
100
AcDbEntity
  8
文字
100
AcDbText
 10
74.47674418604652
 20
-43.94060938413576
 30
0.0
 40
2.5
  1
滑塊內預封油脂
  7
型式1
 72
     1
 11
87.5
 21
-44.68188845390321
 31
0.0
100
AcDbText
 73
     1
  0
TEXT
  5
1E280
330
1E1CC
100
AcDbEntity
  8
文字
100
AcDbText
 10
63.10000000000002
 20
-49.22348098820744
 30
0.0
 40
2.0
  1
客戶
  7
型式1
100
AcDbText
  0
TEXT
  5
1E281
330
1E1CC
100
AcDbEntity
  8
文字
100
AcDbText
 10
63.10000000000002
 20
-57.22348098820745
 30
0.0
 40
2.0
  1
機型
  7
型式1
100
AcDbText
  0
TEXT
  5
1E282
330
1E1CC
100
AcDbEntity
  8
文字
100
AcDbText
 10
70.67493132672578
 20
-68.12481386985424
 30
0.0
 40
3.731202987961495
  1
LINEAR GUIDEWAY
  7
型式2
 72
     1
 11
90.46473722972597
 21
-69.17614730845112
 31
0.0
100
AcDbText
 73
     1
  0
TEXT
  5
1E283
330
1E1CC
100
AcDbEntity
  8
文字
100
AcDbText
 10
63.10000000000002
 20
-73.22348098820746
 30
0.0
 40
2.0
  1
型號
  7
型式1
100
AcDbText
  0
TEXT
  5
1E284
330
1E1CC
100
AcDbEntity
  8
文字
100
AcDbText
 10
63.10000000000002
 20
-81.22348098820745
 30
0.0
 40
2.0
  1
圖號
  7
型式1
100
AcDbText
  0
TEXT
  5
1E285
330
1E1CC
100
AcDbEntity
  8
文字
100
AcDbText
 10
118.0422826873949
 20
-69.09858188128906
 30
0.0
 40
1.399999999999999
  1
DATE
  7
型式1
100
AcDbText
  0
TEXT
  5
1E286
330
1E1CC
100
AcDbEntity
  8
文字
100
AcDbText
 10
118.0422826873949
 20
-73.79398308954567
 30
0.0
 40
1.399999999999999
  1
DR
  7
型式1
100
AcDbText
  0
TEXT
  5
1E287
330
1E1CC
100
AcDbEntity
  8
文字
100
AcDbText
 10
118.0422826873949
 20
-78.72376718588485
 30
0.0
 40
1.399999999999999
  1
CK
  7
型式1
100
AcDbText
  0
TEXT
  5
1E288
330
1E1CC
100
AcDbEntity
  8
文字
100
AcDbText
 10
118.0422826873949
 20
-83.584745409562
 30
0.0
 40
1.399999999999999
  1
APP
  7
型式1
100
AcDbText
  0
LINE
  5
1E289
330
1E1CC
100
AcDbEntity
  8
圖框
100
AcDbLine
 10
70.5
 20
88.46045918365
 30
0.0
 11
137.5
 21
88.46045918365
 31
0.0
  0
LINE
  5
1E28A
330
1E1CC
100
AcDbEntity
  8
圖框
100
AcDbLine
 10
137.5
 20
-61.96045918365
 30
0.0
 11
62.5
 21
-61.96045918365
 31
0.0
  0
TEXT
  5
1E28B
330
1E1CC
100
AcDbEntity
  8
文字
100
AcDbText
 10
118.0422826873949
 20
-64.59858188128906
 30
0.0
 40
1.399999999999999
  1
SCALE
  7
型式1
100
AcDbText
  0
ENDBLK
  5
1E28C
330
1E1CC
100
AcDbEntity
  8
0
 62
     7
 48
0.27
100
AcDbBlockEnd
  0
BLOCK
  5
1E383
330
1E382
100
AcDbEntity
  8
0
100
AcDbBlockBegin
  2
_DotSmall
 70
     0
 10
0.0
 20
0.0
 30
0.0
  3
_DotSmall
  1

  0
LWPOLYLINE
  5
1E384
330
1E382
100
AcDbEntity
  8
0
  6
ByBlock
 62
     0
100
AcDbPolyline
 90
        2
 70
     1
 43
0.5
 10
-0.0625
 20
0.0
 42
1.0
 10
0.0625
 20
0.0
 42
1.0
  0
ENDBLK
  5
1E385
330
1E382
100
AcDbEntity
  8
0
100
AcDbBlockEnd
  0
BLOCK
  5
1E387
330
1E386
100
AcDbEntity
  8
0
 48
0.27
100
AcDbBlockBegin
  2
4
 70
     0
 10
0.0
 20
0.0
 30
0.0
  3
4
  1

  0
TEXT
  5
1E388
330
1E386
100
AcDbEntity
  8
HIWIN
 62
     5
100
AcDbText
 10
-1.539074279503282
 20
-1.527162655385474
 30
0.0
 40
3.0
  1
※
  7
SIMPLEX1
100
AcDbText
  0
ENDBLK
  5
1E389
330
1E386
100
AcDbEntity
  8
0
 48
0.27
100
AcDbBlockEnd
  0
BLOCK
  5
1E38B
330
1E38A
100
AcDbEntity
  8
0
 48
0.27
100
AcDbBlockBegin
  2
blk_c
 70
     0
 10
0.0
 20
0.0
 30
0.0
  3
blk_c
  1

  0
TEXT
  5
1E38C
330
1E38A
100
AcDbEntity
  8
標註線
 48
0.27
100
AcDbText
 10
-0.8936554201758141
 20
-1.139401422013806
 30
0.0
 40
2.499999999999962
  1
C
  7
型式2
 72
     4
 11
-0.0096775196233413
 21
0.02772564980938
 31
0.0
100
AcDbText
  0
LWPOLYLINE
  5
1E38D
330
1E38A
100
AcDbEntity
  8
標註線
 48
0.27
100
AcDbPolyline
 90
        4
 70
     1
 43
0.0
 10
1.75
 20
-1.749999999999972
 10
1.75
 20
1.749999999999972
 10
-1.75
 20
1.749999999999972
 10
-1.75
 20
-1.749999999999972
  0
ENDBLK
  5
1E38E
330
1E38A
100
AcDbEntity
  8
0
 48
0.27
100
AcDbBlockEnd
  0
BLOCK
  5
1E390
330
1E38F
100
AcDbEntity
  8
0
 48
0.27
100
AcDbBlockBegin
  2
blk_a
 70
     0
 10
0.0
 20
0.0
 30
0.0
  3
blk_a
  1

  0
LWPOLYLINE
  5
1E391
330
1E38F
100
AcDbEntity
  8
標註線
 48
0.27
100
AcDbPolyline
 90
        4
 70
     1
 43
0.0
 10
1.75
 20
-1.749999999999972
 10
1.75
 20
1.749999999999972
 10
-1.75
 20
1.749999999999972
 10
-1.75
 20
-1.749999999999972
  0
TEXT
  5
1E392
330
1E38F
100
AcDbEntity
  8
標註線
 48
0.27
100
AcDbText
 10
-0.8936554201758141
 20
-1.153213576709939
 30
0.0
 40
2.499999999999962
  1
A
  7
型式2
 72
     4
 11
-0.0096775196233413
 21
0.02772564980938
 31
0.0
100
AcDbText
  0
ENDBLK
  5
1E393
330
1E38F
100
AcDbEntity
  8
0
 48
0.27
100
AcDbBlockEnd
  0
BLOCK
  5
1E395
330
1E394
100
AcDbEntity
  8
0
 48
0.27
100
AcDbBlockBegin
  2
blk_d
 70
     0
 10
0.0
 20
0.0
 30
0.0
  3
blk_d
  1

  0
LWPOLYLINE
  5
1E396
330
1E394
100
AcDbEntity
  8
標註線
 48
0.27
100
AcDbPolyline
 90
        4
 70
     1
 43
0.0
 10
1.75
 20
-1.749999999999972
 10
1.75
 20
1.749999999999972
 10
-1.75
 20
1.749999999999972
 10
-1.75
 20
-1.749999999999972
  0
TEXT
  5
1E397
330
1E394
100
AcDbEntity
  8
標註線
 48
0.27
100
AcDbText
 10
-0.8936554201758141
 20
-1.139401422013806
 30
0.0
 40
2.499999999999962
  1
D
  7
型式2
 72
     4
 11
-0.0096775196233413
 21
0.02772564980938
 31
0.0
100
AcDbText
  0
ENDBLK
  5
1E398
330
1E394
100
AcDbEntity
  8
0
 48
0.27
100
AcDbBlockEnd
  0
BLOCK
  5
1E39A
330
1E399
100
AcDbEntity
  8
0
 48
0.27
100
AcDbBlockBegin
  2
blk_b
 70
     0
 10
0.0
 20
0.0
 30
0.0
  3
blk_b
  1

  0
LWPOLYLINE
  5
1E39B
330
1E399
100
AcDbEntity
  8
標註線
 48
0.27
100
AcDbPolyline
 90
        4
 70
     1
 43
0.0
 10
1.75
 20
-1.749999999999972
 10
1.75
 20
1.749999999999972
 10
-1.75
 20
1.749999999999972
 10
-1.75
 20
-1.749999999999972
  0
TEXT
  5
1E39C
330
1E399
100
AcDbEntity
  8
標註線
 48
0.27
100
AcDbText
 10
-0.8936554201758141
 20
-1.139401422013808
 30
0.0
 40
2.499999999999962
  1
B
  7
型式2
 72
     4
 11
-0.0096775196233413
 21
0.0277256498093788
 31
0.0
100
AcDbText
  0
ENDBLK
  5
1E39D
330
1E399
100
AcDbEntity
  8
0
 48
0.27
100
AcDbBlockEnd
  0
BLOCK
  5
1E39F
330
1E39E
100
AcDbEntity
  8
0
 48
0.27
100
AcDbBlockBegin
  2
2
 70
     0
 10
0.0
 20
0.0
 30
0.0
  3
2
  1

  0
INSERT
  5
1E3A0
330
1E39E
100
AcDbEntity
  8
標註線
 48
0.27
100
AcDbBlockReference
  2
4
 10
0.3603011646182495
 20
0.3432206475278008
 30
-5.0
 41
5.399999999999181
 42
5.400000000000034
 43
5.400000000000002
  0
ENDBLK
  5
1E3A1
330
1E39E
100
AcDbEntity
  8
0
 48
0.27
100
AcDbBlockEnd
  0
BLOCK
  5
1ECC4
330
1EC49
100
AcDbEntity
  8
0
 48
0.27
100
AcDbBlockBegin
  2
A$C2BEC5252
 70
     0
 10
0.0
 20
0.0
 30
0.0
  3
A$C2BEC5252
  1

  0
LINE
  5
1EC4A
330
1EC49
100
AcDbEntity
  8
0
 62
     1
 48
0.27
100
AcDbLine
 10
2.309433720339256
 20
8.000117384725399
 30
0.0
 11
6.928302351121601
 21
8.000117384725399
 31
0.0
  0
LINE
  5
1EC4B
330
1EC49
100
AcDbEntity
  8
0
 62
     1
 48
0.27
100
AcDbLine
 10
6.928303687141124
 20
0.0000006438144737
 30
0.0
 11
2.309433720339256
 21
0.0000006438144737
 31
0.0
  0
ARC
  5
1EC4C
330
1EC49
100
AcDbEntity
  8
0
 62
     1
 48
0.27
100
AcDbCircle
 10
4.618868035729974
 20
4.000059682279697
 30
0.0
 40
4.000057702445608
100
AcDbArc
 50
48.5903779988978
 51
311.4096220031896
  0
LINE
  5
1EC4D
330
1EC49
100
AcDbEntity
  8
0
 62
     1
 48
0.27
100
AcDbLine
 10
2.309433720339256
 20
8.000117384725399
 30
0.0
 11
-0.00000059505237
 21
4.000059682279697
 31
0.0
  0
LINE
  5
1EC4E
330
1EC49
100
AcDbEntity
  8
0
 62
     1
 48
0.27
100
AcDbLine
 10
-0.00000059505237
 20
4.000059682279697
 30
0.0
 11
2.309433720339256
 21
0.0000006438144737
 31
0.0
  0
LWPOLYLINE
  5
1EC4F
330
1EC49
100
AcDbEntity
  8
0
 62
     1
 48
0.27
100
AcDbPolyline
 90
       17
 70
     0
 43
0.0
 10
13.57068639155295
 20
4.000059682279697
 10
13.60423518250991
 20
3.783019272639194
 10
13.63712665167531
 20
3.720114120701964
 10
13.67369751913247
 20
3.690572052912557
 10
13.70767517234799
 20
3.690879337396381
 10
13.74416855067375
 20
3.721084070956294
 10
13.77551290906376
 20
3.780854920656111
 10
13.80489999859128
 20
3.910929799460973
 10
13.8098673198765
 20
4.000059682279697
 10
13.77631986493907
 20
4.217098755901133
 10
13.74342705975414
 20
4.280003907838363
 10
13.70685619229698
 20
4.309545975628225
 10
13.67287987510099
 20
4.309238691043901
 10
13.63638516075571
 20
4.279033957484443
 10
13.60504213838521
 20
4.219263107784172
 10
13.57565371283817
 20
4.089188229079354
 10
13.57068639155295
 20
4.000059682279697
  0
LINE
  5
1EC50
330
1EC49
100
AcDbEntity
  8
0
 62
     1
 48
0.27
100
AcDbLine
 10
14.36275235569701
 20
3.650518182030282
 30
0.0
 11
14.37592684604442
 21
4.000059682279697
 31
0.0
  0
LINE
  5
1EC51
330
1EC49
100
AcDbEntity
  8
0
 62
     1
 48
0.27
100
AcDbLine
 10
14.32373523614296
 20
3.31440902399072
 30
0.0
 11
14.36275235569701
 21
3.650518182030282
 31
0.0
  0
LINE
  5
1EC52
330
1EC49
100
AcDbEntity
  8
0
 62
     1
 48
0.27
100
AcDbLine
 10
14.37592684604442
 20
4.000059682279697
 30
0.0
 11
14.36275235569701
 21
4.349601182529568
 31
0.0
  0
LINE
  5
1EC53
330
1EC49
100
AcDbEntity
  8
0
 62
     1
 48
0.27
100
AcDbLine
 10
14.2603745014585
 20
3.004650182565455
 30
0.0
 11
14.32373523614296
 21
3.31440902399072
 31
0.0
  0
LINE
  5
1EC54
330
1EC49
100
AcDbEntity
  8
0
 62
     1
 48
0.27
100
AcDbLine
 10
14.36275235569701
 20
4.349601182529568
 30
0.0
 11
14.32373523614296
 21
4.685709004549607
 31
0.0
  0
LINE
  5
1EC55
330
1EC49
100
AcDbEntity
  8
0
 62
     1
 48
0.27
100
AcDbLine
 10
14.17510437956207
 20
2.733142921522357
 30
0.0
 11
14.2603745014585
 21
3.004650182565455
 31
0.0
  0
LINE
  5
1EC56
330
1EC49
100
AcDbEntity
  8
0
 62
     1
 48
0.27
100
AcDbLine
 10
13.41573883389537
 20
2.361726770569021
 30
0.0
 11
13.41763731789888
 21
2.36265530421906
 31
0.0
  0
LINE
  5
1EC57
330
1EC49
100
AcDbEntity
  8
0
 62
     1
 48
0.27
100
AcDbLine
 10
14.32373523614296
 20
4.685709004549607
 30
0.0
 11
14.2603745014585
 21
4.995469181994394
 31
0.0
  0
LINE
  5
1EC58
330
1EC49
100
AcDbEntity
  8
0
 62
     1
 48
0.27
100
AcDbLine
 10
14.07120346289866
 20
2.510322890543193
 30
0.0
 11
14.17510437956207
 21
2.733142921522357
 31
0.0
  0
LINE
  5
1EC59
330
1EC49
100
AcDbEntity
  8
0
 62
     1
 48
0.27
100
AcDbLine
 10
14.2603745014585
 20
4.995469181994394
 30
0.0
 11
14.17510437956207
 21
5.266975107017515
 31
0.0
  0
LINE
  5
1EC5A
330
1EC49
100
AcDbEntity
  8
0
 62
     1
 48
0.27
100
AcDbLine
 10
10.49748167351754
 20
1.963488688019424
 30
0.0
 11
10.73860784642693
 21
2.061893219577996
 31
0.0
  0
LINE
  5
1EC5B
330
1EC49
100
AcDbEntity
  8
0
 62
     1
 48
0.27
100
AcDbLine
 10
10.49748167351754
 20
6.036629340520903
 30
0.0
 11
10.73860784642693
 21
5.938226144982309
 31
0.0
  0
LINE
  5
1EC5C
330
1EC49
100
AcDbEntity
  8
0
 62
     1
 48
0.27
100
AcDbLine
 10
13.95266377832013
 20
2.344753976195079
 30
0.0
 11
14.07120346289866
 21
2.510322890543193
 31
0.0
  0
LINE
  5
1EC5D
330
1EC49
100
AcDbEntity
  8
0
 62
     1
 48
0.27
100
AcDbLine
 10
14.17510437956207
 20
5.266975107017515
 30
0.0
 11
14.07120346289866
 21
5.489795137996679
 31
0.0
  0
LINE
  5
1EC5E
330
1EC49
100
AcDbEntity
  8
0
 62
     1
 48
0.27
100
AcDbLine
 10
10.73860784642693
 20
2.061893219577996
 30
0.0
 11
10.95353467292534
 21
2.052765532982903
 31
0.0
  0
LINE
  5
1EC5F
330
1EC49
100
AcDbEntity
  8
0
 62
     1
 48
0.27
100
AcDbLine
 10
10.73860784642693
 20
5.938226144982309
 30
0.0
 11
10.95353467292534
 21
5.94735249555697
 31
0.0
  0
LINE
  5
1EC60
330
1EC49
100
AcDbEntity
  8
0
 62
     1
 48
0.27
100
AcDbLine
 10
12.57354808241052
 20
1.495694747382458
 30
0.0
 11
13.82404115290683
 21
2.242795632178513
 31
0.0
  0
LINE
  5
1EC61
330
1EC49
100
AcDbEntity
  8
0
 62
     1
 48
0.27
100
AcDbLine
 10
13.82404115290683
 20
2.242795632178513
 30
0.0
 11
13.95266377832013
 21
2.344753976195079
 31
0.0
  0
LINE
  5
1EC62
330
1EC49
100
AcDbEntity
  8
0
 62
     1
 48
0.27
100
AcDbLine
 10
14.07120346289866
 20
5.489795137996679
 30
0.0
 11
13.95266377832013
 21
5.655364052344793
 31
0.0
  0
LINE
  5
1EC63
330
1EC49
100
AcDbEntity
  8
0
 62
     1
 48
0.27
100
AcDbLine
 10
12.38291543832292
 20
1.446630759621712
 30
0.0
 11
12.57354808241052
 21
1.495694747382458
 31
0.0
  0
LINE
  5
1EC64
330
1EC49
100
AcDbEntity
  8
0
 62
     1
 48
0.27
100
AcDbLine
 10
12.02207789143631
 20
1.474514826917129
 30
0.0
 11
12.38291543832292
 21
1.446630759621712
 31
0.0
  0
LINE
  5
1EC65
330
1EC49
100
AcDbEntity
  8
0
 62
     1
 48
0.27
100
AcDbLine
 10
10.95353467292534
 20
2.052765532982903
 30
0.0
 11
11.50748986056169
 21
1.687543169412037
 31
0.0
  0
LINE
  5
1EC66
330
1EC49
100
AcDbEntity
  8
0
 62
     1
 48
0.27
100
AcDbLine
 10
13.69027752367401
 20
2.208369076312465
 30
0.0
 11
13.82404115290683
 21
2.242795632178513
 31
0.0
  0
LINE
  5
1EC67
330
1EC49
100
AcDbEntity
  8
0
 62
     1
 48
0.27
100
AcDbLine
 10
12.57354808241052
 20
6.504424617176937
 30
0.0
 11
13.82404115290683
 21
5.757322396362269
 31
0.0
  0
LINE
  5
1EC68
330
1EC49
100
AcDbEntity
  8
0
 62
     1
 48
0.27
100
AcDbLine
 10
13.82404115290683
 20
5.757322396362269
 30
0.0
 11
13.95266377832013
 21
5.655364052344793
 31
0.0
  0
LINE
  5
1EC69
330
1EC49
100
AcDbEntity
  8
0
 62
     1
 48
0.27
100
AcDbLine
 10
12.38291543832292
 20
6.55348726891907
 30
0.0
 11
12.57354808241052
 21
6.504424617176937
 31
0.0
  0
LINE
  5
1EC6A
330
1EC49
100
AcDbEntity
  8
0
 62
     1
 48
0.27
100
AcDbLine
 10
12.02207789143631
 20
6.525604537543131
 30
0.0
 11
12.38291543832292
 21
6.55348726891907
 31
0.0
  0
LINE
  5
1EC6B
330
1EC49
100
AcDbEntity
  8
0
 62
     1
 48
0.27
100
AcDbLine
 10
10.7626962818349
 20
2.197270760661467
 30
0.0
 11
10.90277928418254
 21
2.086228818592644
 31
0.0
  0
LINE
  5
1EC6C
330
1EC49
100
AcDbEntity
  8
0
 62
     1
 48
0.27
100
AcDbLine
 10
11.50748986056169
 20
1.687543169412037
 30
0.0
 11
11.83352676602317
 21
1.523041734840717
 31
0.0
  0
LINE
  5
1EC6D
330
1EC49
100
AcDbEntity
  8
0
 62
     1
 48
0.27
100
AcDbLine
 10
11.83352676602317
 20
1.523041734840717
 30
0.0
 11
12.02207789143631
 21
1.474514826917129
 31
0.0
  0
LINE
  5
1EC6E
330
1EC49
100
AcDbEntity
  8
0
 62
     1
 48
0.27
100
AcDbLine
 10
10.95353467292534
 20
5.94735249555697
 30
0.0
 11
11.50748986056169
 21
6.312574859128744
 31
0.0
  0
LINE
  5
1EC6F
330
1EC49
100
AcDbEntity
  8
0
 62
     1
 48
0.27
100
AcDbLine
 10
10.7626962818349
 20
5.802847267879315
 30
0.0
 11
10.90277928418254
 21
5.913889209947683
 31
0.0
  0
LINE
  5
1EC70
330
1EC49
100
AcDbEntity
  8
0
 62
     1
 48
0.27
100
AcDbLine
 10
12.19228145821489
 20
1.495694747382458
 30
0.0
 11
12.38291543832292
 21
1.446630759621712
 31
0.0
  0
LINE
  5
1EC71
330
1EC49
100
AcDbEntity
  8
0
 62
     1
 48
0.27
100
AcDbLine
 10
11.83352676602317
 20
6.477076293699155
 30
0.0
 11
12.02207789143631
 21
6.525604537543131
 31
0.0
  0
LINE
  5
1EC72
330
1EC49
100
AcDbEntity
  8
0
 62
     1
 48
0.27
100
AcDbLine
 10
11.50748986056169
 20
6.312574859128744
 30
0.0
 11
11.83352676602317
 21
6.477076293699155
 31
0.0
  0
LINE
  5
1EC73
330
1EC49
100
AcDbEntity
  8
0
 62
     1
 48
0.27
100
AcDbLine
 10
10.7626962818349
 20
2.197270760661467
 30
0.0
 11
10.63359402532387
 21
2.377592004581401
 31
0.0
  0
LINE
  5
1EC74
330
1EC49
100
AcDbEntity
  8
0
 62
     1
 48
0.27
100
AcDbLine
 10
13.55651389454215
 20
2.242795632178513
 30
0.0
 11
13.69027752367401
 21
2.208369076312465
 31
0.0
  0
LINE
  5
1EC75
330
1EC49
100
AcDbEntity
  8
0
 62
     1
 48
0.27
100
AcDbLine
 10
13.69027752367401
 20
5.791748952228317
 30
0.0
 11
13.82404115290683
 21
5.757322396362269
 31
0.0
  0
LINE
  5
1EC76
330
1EC49
100
AcDbEntity
  8
0
 62
     1
 48
0.27
100
AcDbLine
 10
12.19228145821489
 20
6.504424617176937
 30
0.0
 11
12.38291543832292
 21
6.55348726891907
 31
0.0
  0
LINE
  5
1EC77
330
1EC49
100
AcDbEntity
  8
0
 62
     1
 48
0.27
100
AcDbLine
 10
11.33822417966894
 20
6.17840107181064
 30
0.0
 11
11.50748986056169
 21
6.312574859128744
 31
0.0
  0
LINE
  5
1EC78
330
1EC49
100
AcDbEntity
  8
0
 62
     1
 48
0.27
100
AcDbLine
 10
10.63359402532387
 20
5.62252602395938
 30
0.0
 11
10.7626962818349
 21
5.802847267879315
 31
0.0
  0
LINE
  5
1EC79
330
1EC49
100
AcDbEntity
  8
0
 62
     1
 48
0.27
100
AcDbLine
 10
10.63359402532387
 20
2.377592004581401
 30
0.0
 11
10.5204358281735
 21
2.620263952347613
 31
0.0
  0
LINE
  5
1EC7A
330
1EC49
100
AcDbEntity
  8
0
 62
     1
 48
0.27
100
AcDbLine
 10
12.00897421012269
 20
1.640998914819192
 30
0.0
 11
12.19228145821489
 21
1.495694747382458
 31
0.0
  0
LINE
  5
1EC7B
330
1EC49
100
AcDbEntity
  8
0
 62
     1
 48
0.27
100
AcDbLine
 10
10.5204358281735
 20
5.379854076193169
 30
0.0
 11
10.63359402532387
 21
5.62252602395938
 31
0.0
  0
LINE
  5
1EC7C
330
1EC49
100
AcDbEntity
  8
0
 62
     1
 48
0.27
100
AcDbLine
 10
13.42788993310932
 20
2.344753976195079
 30
0.0
 11
13.55651389454215
 21
2.242795632178513
 31
0.0
  0
LINE
  5
1EC7D
330
1EC49
100
AcDbEntity
  8
0
 62
     1
 48
0.27
100
AcDbLine
 10
12.00897421012269
 20
6.35911911372068
 30
0.0
 11
12.19228145821489
 21
6.504424617176937
 31
0.0
  0
LINE
  5
1EC7E
330
1EC49
100
AcDbEntity
  8
0
 62
     1
 48
0.27
100
AcDbLine
 10
13.55651389454215
 20
5.757322396362269
 30
0.0
 11
13.69027752367401
 21
5.791748952228317
 31
0.0
  0
LINE
  5
1EC7F
330
1EC49
100
AcDbEntity
  8
0
 62
     1
 48
0.27
100
AcDbLine
 10
10.5204358281735
 20
2.620263952347613
 30
0.0
 11
10.42756909822492
 21
2.915961186280128
 31
0.0
  0
LINE
  5
1EC80
330
1EC49
100
AcDbEntity
  8
0
 62
     1
 48
0.27
100
AcDbLine
 10
10.42756909822492
 20
5.084156842260199
 30
0.0
 11
10.5204358281735
 21
5.379854076193169
 31
0.0
  0
LINE
  5
1EC81
330
1EC49
100
AcDbEntity
  8
0
 62
     1
 48
0.27
100
AcDbLine
 10
12.00897421012269
 20
1.640998914819192
 30
0.0
 11
11.84003719012617
 21
1.87696137157809
 31
0.0
  0
LINE
  5
1EC82
330
1EC49
100
AcDbEntity
  8
0
 62
     1
 48
0.27
100
AcDbLine
 10
10.42756909822492
 20
2.915961186280128
 30
0.0
 11
10.35856368026998
 21
3.253319522848414
 31
0.0
  0
LINE
  5
1EC83
330
1EC49
100
AcDbEntity
  8
0
 62
     1
 48
0.27
100
AcDbLine
 10
13.42788993310932
 20
5.655364052344793
 30
0.0
 11
13.55651389454215
 21
5.757322396362269
 31
0.0
  0
LINE
  5
1EC84
330
1EC49
100
AcDbEntity
  8
0
 62
     1
 48
0.27
100
AcDbLine
 10
13.42788993310932
 20
2.344753976195079
 30
0.0
 11
13.30935024853079
 21
2.510322890543193
 31
0.0
  0
LINE
  5
1EC85
330
1EC49
100
AcDbEntity
  8
0
 62
     1
 48
0.27
100
AcDbLine
 10
11.84003719012617
 20
6.123156656961782
 30
0.0
 11
12.00897421012269
 21
6.35911911372068
 31
0.0
  0
LINE
  5
1EC86
330
1EC49
100
AcDbEntity
  8
0
 62
     1
 48
0.27
100
AcDbLine
 10
10.35856368026998
 20
4.746798505692368
 30
0.0
 11
10.42756909822492
 21
5.084156842260199
 31
0.0
  0
LINE
  5
1EC87
330
1EC49
100
AcDbEntity
  8
0
 62
     1
 48
0.27
100
AcDbLine
 10
10.35856368026998
 20
3.253319522848414
 30
0.0
 11
10.31606890146941
 21
3.619374226665058
 31
0.0
  0
LINE
  5
1EC88
330
1EC49
100
AcDbEntity
  8
0
 62
     1
 48
0.27
100
AcDbLine
 10
10.31606890146941
 20
4.380743801875269
 30
0.0
 11
10.35856368026998
 21
4.746798505692368
 31
0.0
  0
LINE
  5
1EC89
330
1EC49
100
AcDbEntity
  8
0
 62
     1
 48
0.27
100
AcDbLine
 10
10.31606890146941
 20
3.619374226665058
 30
0.0
 11
10.30172138580474
 21
4.000059682279697
 31
0.0
  0
LINE
  5
1EC8A
330
1EC49
100
AcDbEntity
  8
0
 62
     1
 48
0.27
100
AcDbLine
 10
10.30172138580474
 20
4.000059682279697
 30
0.0
 11
10.31606890146941
 21
4.380743801875269
 31
0.0
  0
LINE
  5
1EC8B
330
1EC49
100
AcDbEntity
  8
0
 62
     1
 48
0.27
100
AcDbLine
 10
11.84003719012617
 20
1.87696137157809
 30
0.0
 11
11.69196211775488
 21
2.194513215922142
 31
0.0
  0
LINE
  5
1EC8C
330
1EC49
100
AcDbEntity
  8
0
 62
     1
 48
0.27
100
AcDbLine
 10
13.30935024853079
 20
5.489795137996679
 30
0.0
 11
13.42788993310932
 21
5.655364052344793
 31
0.0
  0
LINE
  5
1EC8D
330
1EC49
100
AcDbEntity
  8
0
 62
     1
 48
0.27
100
AcDbLine
 10
13.30935024853079
 20
2.510322890543193
 30
0.0
 11
13.20544933186738
 21
2.733142921522357
 31
0.0
  0
LINE
  5
1EC8E
330
1EC49
100
AcDbEntity
  8
0
 62
     1
 48
0.27
100
AcDbLine
 10
11.69196211775488
 20
5.805606148638162
 30
0.0
 11
11.84003719012617
 21
6.123156656961782
 31
0.0
  0
LINE
  5
1EC8F
330
1EC49
100
AcDbEntity
  8
0
 62
     1
 48
0.27
100
AcDbLine
 10
13.20544933186738
 20
5.266975107017515
 30
0.0
 11
13.30935024853079
 21
5.489795137996679
 31
0.0
  0
LINE
  5
1EC90
330
1EC49
100
AcDbEntity
  8
0
 62
     1
 48
0.27
100
AcDbLine
 10
11.69196211775488
 20
2.194513215922142
 30
0.0
 11
11.57044043716178
 21
2.58144990775736
 31
0.0
  0
LINE
  5
1EC91
330
1EC49
100
AcDbEntity
  8
0
 62
     1
 48
0.27
100
AcDbLine
 10
13.20544933186738
 20
2.733142921522357
 30
0.0
 11
13.12018054599048
 21
3.004650182565455
 31
0.0
  0
LINE
  5
1EC92
330
1EC49
100
AcDbEntity
  8
0
 62
     1
 48
0.27
100
AcDbLine
 10
11.57044043716178
 20
5.418668120682923
 30
0.0
 11
11.69196211775488
 21
5.805606148638162
 31
0.0
  0
LINE
  5
1EC93
330
1EC49
100
AcDbEntity
  8
0
 62
     1
 48
0.27
100
AcDbLine
 10
13.12018054599048
 20
4.995469181994394
 30
0.0
 11
13.20544933186738
 21
5.266975107017515
 31
0.0
  0
LINE
  5
1EC94
330
1EC49
100
AcDbEntity
  8
0
 62
     1
 48
0.27
100
AcDbLine
 10
11.57044043716178
 20
2.58144990775736
 30
0.0
 11
11.48014153708391
 21
3.022904219835709
 31
0.0
  0
LINE
  5
1EC95
330
1EC49
100
AcDbEntity
  8
0
 62
     1
 48
0.27
100
AcDbLine
 10
13.12018054599048
 20
3.004650182565455
 30
0.0
 11
13.0568198113051
 21
3.31440902399072
 31
0.0
  0
LINE
  5
1EC96
330
1EC49
100
AcDbEntity
  8
0
 62
     1
 48
0.27
100
AcDbLine
 10
11.48014153708391
 20
4.977213808704618
 30
0.0
 11
11.57044043716178
 21
5.418668120682923
 31
0.0
  0
LINE
  5
1EC97
330
1EC49
100
AcDbEntity
  8
0
 62
     1
 48
0.27
100
AcDbLine
 10
13.0568198113051
 20
4.685709004549607
 30
0.0
 11
13.12018054599048
 21
4.995469181994394
 31
0.0
  0
LINE
  5
1EC98
330
1EC49
100
AcDbEntity
  8
0
 62
     1
 48
0.27
100
AcDbLine
 10
11.48014153708391
 20
3.022904219835709
 30
0.0
 11
11.42453639687119
 21
3.501910037880861
 31
0.0
  0
LINE
  5
1EC99
330
1EC49
100
AcDbEntity
  8
0
 62
     1
 48
0.27
100
AcDbLine
 10
13.0568198113051
 20
3.31440902399072
 30
0.0
 11
13.01780135573244
 21
3.650518182030282
 31
0.0
  0
LINE
  5
1EC9A
330
1EC49
100
AcDbEntity
  8
0
 62
     1
 48
0.27
100
AcDbLine
 10
11.42453639687119
 20
4.498207990659921
 30
0.0
 11
11.48014153708391
 21
4.977213808704618
 31
0.0
  0
LINE
  5
1EC9B
330
1EC49
100
AcDbEntity
  8
0
 62
     1
 48
0.27
100
AcDbLine
 10
13.01780135573244
 20
4.349601182529568
 30
0.0
 11
13.0568198113051
 21
4.685709004549607
 31
0.0
  0
LINE
  5
1EC9C
330
1EC49
100
AcDbEntity
  8
0
 62
     1
 48
0.27
100
AcDbLine
 10
11.42453639687119
 20
3.501910037880861
 30
0.0
 11
11.40575997587802
 21
4.000059682279697
 31
0.0
  0
LINE
  5
1EC9D
330
1EC49
100
AcDbEntity
  8
0
 62
     1
 48
0.27
100
AcDbLine
 10
13.01780135573244
 20
3.650518182030282
 30
0.0
 11
13.00462686538503
 21
4.000059682279697
 31
0.0
  0
LINE
  5
1EC9E
330
1EC49
100
AcDbEntity
  8
0
 62
     1
 48
0.27
100
AcDbLine
 10
13.00462686538503
 20
4.000059682279697
 30
0.0
 11
13.01780135573244
 21
4.349601182529568
 31
0.0
  0
LINE
  5
1EC9F
330
1EC49
100
AcDbEntity
  8
0
 62
     1
 48
0.27
100
AcDbLine
 10
11.40575997587802
 20
4.000059682279697
 30
0.0
 11
11.42453639687119
 21
4.498207990659921
 31
0.0
  0
LINE
  5
1ECA0
330
1EC49
100
AcDbEntity
  8
0
 62
     1
 48
0.27
100
AcDbLine
 10
10.90277928418254
 20
2.086228818592644
 30
0.0
 11
10.95353467292534
 21
2.052765532982903
 31
0.0
  0
LINE
  5
1ECA1
330
1EC49
100
AcDbEntity
  8
0
 62
     1
 48
0.27
100
AcDbLine
 10
10.6902532852182
 20
2.063946681942525
 30
0.0
 11
10.73860784642693
 21
2.061893219577996
 31
0.0
  0
LINE
  5
1ECA2
330
1EC49
100
AcDbEntity
  8
0
 62
     1
 48
0.27
100
AcDbLine
 10
10.90277928418254
 20
5.913889209947683
 30
0.0
 11
10.95353467292534
 21
5.94735249555697
 31
0.0
  0
LINE
  5
1ECA3
330
1EC49
100
AcDbEntity
  8
0
 62
     1
 48
0.27
100
AcDbLine
 10
7.505661931983922
 20
1.000015403431007
 30
0.0
 11
6.928303687141124
 21
0.0000006438144737
 31
0.0
  0
LINE
  5
1ECA4
330
1EC49
100
AcDbEntity
  8
0
 62
     1
 48
0.27
100
AcDbLine
 10
5.920393051104838
 20
1.000015403431007
 30
0.0
 11
8.934505617444301
 21
1.000015403431007
 31
0.0
  0
LINE
  5
1ECA5
330
1EC49
100
AcDbEntity
  8
0
 62
     1
 48
0.27
100
AcDbLine
 10
8.997405425303441
 20
6.715411521482565
 30
0.0
 11
8.934505617444301
 21
7.00010262510932
 31
0.0
  0
LINE
  5
1ECA6
330
1EC49
100
AcDbEntity
  8
0
 62
     1
 48
0.27
100
AcDbLine
 10
8.934505617444301
 20
1.000015403431007
 30
0.0
 11
8.997405425303441
 21
1.284706507057762
 31
0.0
  0
LINE
  5
1ECA7
330
1EC49
100
AcDbEntity
  8
0
 62
     1
 48
0.27
100
AcDbLine
 10
5.920393051104838
 20
7.00010262510932
 30
0.0
 11
8.934505617444301
 21
7.00010262510932
 31
0.0
  0
LINE
  5
1ECA8
330
1EC49
100
AcDbEntity
  8
0
 62
     1
 48
0.27
100
AcDbLine
 10
8.271668831664101
 20
1.000015403431007
 30
0.0
 11
8.495645855626207
 21
1.057660645813484
 31
0.0
  0
LINE
  5
1ECA9
330
1EC49
100
AcDbEntity
  8
0
 62
     1
 48
0.27
100
AcDbLine
 10
8.271668831664101
 20
7.00010262510932
 30
0.0
 11
8.495645855626207
 21
6.942457382726843
 31
0.0
  0
LINE
  5
1ECAA
330
1EC49
100
AcDbEntity
  8
0
 62
     1
 48
0.27
100
AcDbLine
 10
8.047691807701085
 20
1.057660645813484
 30
0.0
 11
8.271668831664101
 21
1.000015403431007
 31
0.0
  0
LINE
  5
1ECAB
330
1EC49
100
AcDbEntity
  8
0
 62
     1
 48
0.27
100
AcDbLine
 10
8.047691807701085
 20
6.942457382726843
 30
0.0
 11
8.271668831664101
 21
7.00010262510932
 31
0.0
  0
LINE
  5
1ECAC
330
1EC49
100
AcDbEntity
  8
0
 62
     1
 48
0.27
100
AcDbLine
 10
7.832322758649752
 20
1.228379916117319
 30
0.0
 11
8.047691807701085
 21
1.057660645813484
 31
0.0
  0
LINE
  5
1ECAD
330
1EC49
100
AcDbEntity
  8
0
 62
     1
 48
0.27
100
AcDbLine
 10
7.832322758649752
 20
6.771738112422553
 30
0.0
 11
8.047691807701085
 21
6.942457382726843
 31
0.0
  0
LINE
  5
1ECAE
330
1EC49
100
AcDbEntity
  8
0
 62
     1
 48
0.27
100
AcDbLine
 10
5.257556265325547
 20
4.000059682279697
 30
0.0
 11
5.920393051104838
 21
7.00010262510932
 31
0.0
  0
LINE
  5
1ECAF
330
1EC49
100
AcDbEntity
  8
0
 62
     1
 48
0.27
100
AcDbLine
 10
5.257556265325547
 20
4.000059682279697
 30
0.0
 11
6.9459952601037
 21
4.000059682279697
 31
0.0
  0
LINE
  5
1ECB0
330
1EC49
100
AcDbEntity
  8
0
 62
     1
 48
0.27
100
AcDbLine
 10
5.920393051104838
 20
1.000015403431007
 30
0.0
 11
5.257556265325547
 21
4.000059682279697
 31
0.0
  0
LINE
  5
1ECB1
330
1EC49
100
AcDbEntity
  8
0
 62
     1
 48
0.27
100
AcDbLine
 10
7.832322758649752
 20
1.228379916117319
 30
0.0
 11
7.633836990766212
 21
1.505613357719084
 31
0.0
  0
LINE
  5
1ECB2
330
1EC49
100
AcDbEntity
  8
0
 62
     1
 48
0.27
100
AcDbLine
 10
7.633836990766212
 20
6.494504670821243
 30
0.0
 11
7.832322758649752
 21
6.771738112422553
 31
0.0
  0
LINE
  5
1ECB3
330
1EC49
100
AcDbEntity
  8
0
 62
     1
 48
0.27
100
AcDbLine
 10
7.633836990766212
 20
1.505613357719084
 30
0.0
 11
7.459863176370163
 21
1.878707549359205
 31
0.0
  0
LINE
  5
1ECB4
330
1EC49
100
AcDbEntity
  8
0
 62
     1
 48
0.27
100
AcDbLine
 10
7.459863176370163
 20
6.121410479181122
 30
0.0
 11
7.633836990766212
 21
6.494504670821243
 31
0.0
  0
LINE
  5
1ECB5
330
1EC49
100
AcDbEntity
  8
0
 62
     1
 48
0.27
100
AcDbLine
 10
7.6088320458839
 20
1.000015403431007
 30
0.0
 11
6.9459952601037
 21
4.000059682279697
 31
0.0
  0
LINE
  5
1ECB6
330
1EC49
100
AcDbEntity
  8
0
 62
     1
 48
0.27
100
AcDbLine
 10
6.9459952601037
 20
4.000059682279697
 30
0.0
 11
7.6088320458839
 21
7.00010262510932
 31
0.0
  0
LINE
  5
1ECB7
330
1EC49
100
AcDbEntity
  8
0
 62
     1
 48
0.27
100
AcDbLine
 10
7.459863176370163
 20
1.878707549359205
 30
0.0
 11
7.317085422199852
 21
2.333324327609716
 31
0.0
  0
LINE
  5
1ECB8
330
1EC49
100
AcDbEntity
  8
0
 62
     1
 48
0.27
100
AcDbLine
 10
7.317085422199852
 20
5.666793700931066
 30
0.0
 11
7.459863176370163
 21
6.121410479181122
 31
0.0
  0
LINE
  5
1ECB9
330
1EC49
100
AcDbEntity
  8
0
 62
     1
 48
0.27
100
AcDbLine
 10
7.317085422199852
 20
2.333324327609716
 30
0.0
 11
7.210993433263865
 21
2.851992562724262
 31
0.0
  0
LINE
  5
1ECBA
330
1EC49
100
AcDbEntity
  8
0
 62
     1
 48
0.27
100
AcDbLine
 10
7.210993433263865
 20
5.148126801835587
 30
0.0
 11
7.317085422199852
 21
5.666793700931066
 31
0.0
  0
LINE
  5
1ECBB
330
1EC49
100
AcDbEntity
  8
0
 62
     1
 48
0.27
100
AcDbLine
 10
7.210993433263865
 20
2.851992562724262
 30
0.0
 11
7.145662069521677
 21
3.414780176547083
 31
0.0
  0
LINE
  5
1ECBC
330
1EC49
100
AcDbEntity
  8
0
 62
     1
 48
0.27
100
AcDbLine
 10
7.145662069521677
 20
4.585339187913177
 30
0.0
 11
7.210993433263865
 21
5.148126801835587
 31
0.0
  0
LINE
  5
1ECBD
330
1EC49
100
AcDbEntity
  8
0
 62
     1
 48
0.27
100
AcDbLine
 10
7.145662069521677
 20
3.414780176547083
 30
0.0
 11
7.123601712108211
 21
4.000059682279697
 31
0.0
  0
LINE
  5
1ECBE
330
1EC49
100
AcDbEntity
  8
0
 62
     1
 48
0.27
100
AcDbLine
 10
7.123601712108211
 20
4.000059682279697
 30
0.0
 11
7.145662069521677
 21
4.585339187913177
 31
0.0
  0
LINE
  5
1ECBF
330
1EC49
100
AcDbEntity
  8
0
 62
     1
 48
0.27
100
AcDbLine
 10
8.495645855626207
 20
1.057660645813484
 30
0.0
 11
10.49748167351754
 21
1.963488688019424
 31
0.0
  0
LINE
  5
1ECC0
330
1EC49
100
AcDbEntity
  8
0
 62
     1
 48
0.27
100
AcDbLine
 10
8.495645855626207
 20
6.942457382726843
 30
0.0
 11
10.49748167351754
 21
6.036629340520903
 31
0.0
  0
LINE
  5
1ECC1
330
1EC49
100
AcDbEntity
  8
0
 62
     1
 48
0.27
100
AcDbLine
 10
7.505661931983922
 20
7.00010262510932
 30
0.0
 11
6.928302351121601
 21
8.000117384725399
 31
0.0
  0
ENDBLK
  5
1ECC5
330
1EC49
100
AcDbEntity
  8
0
 48
0.27
100
AcDbBlockEnd
  0
ENDSEC
  0
SECTION
  2
ENTITIES
  0
TEXT
  5
BC0B
330
1F
100
AcDbEntity
  8
標註線
100
AcDbText
 10
548.8276282314106
 20
-272.6528804859577
 30
0.0
 40
2.43
  1

  7
型式2
100
AcDbText
1001
sheetnoteflag
1010
348.0
1020
200.0
1030
0.0
  0
CIRCLE
  5
136D2
330
1F
100
AcDbEntity
  8
0
  6
Continuous
 62
     7
100
AcDbCircle
 10
1005.560560917947
 20
-1009.262904456968
 30
0.0
 40
0.75
  0
CIRCLE
  5
136D3
330
1F
100
AcDbEntity
  8
0
  6
Continuous
 62
     7
100
AcDbCircle
 10
1005.560560917947
 20
-1009.262904456968
 30
0.0
 40
5.15
  0
CIRCLE
  5
136D4
330
1F
100
AcDbEntity
  8
0
  6
Continuous
 62
     7
100
AcDbCircle
 10
896.5605609179471
 20
-1009.262904456968
 30
0.0
 40
0.75
  0
CIRCLE
  5
136D5
330
1F
100
AcDbEntity
  8
0
  6
Continuous
 62
     7
100
AcDbCircle
 10
896.5605609179471
 20
-1009.262904456968
 30
0.0
 40
5.15
  0
LINE
  5
13746
330
1F
100
AcDbEntity
  8
0
  6
Continuous
 62
     7
100
AcDbLine
 10
1014.560560917947
 20
-1038.762904456968
 30
0.0
 11
1014.560560917947
 21
-979.7629044569678
 31
0.0
  0
LINE
  5
13749
330
1F
100
AcDbEntity
  8
0
  6
Continuous
 62
     7
100
AcDbLine
 10
885.160560917947
 20
-979.7629044569678
 30
0.0
 11
904.5605609179471
 21
-979.7629044569678
 31
0.0
  0
LINE
  5
1374A
330
1F
100
AcDbEntity
  8
0
  6
Continuous
 62
     7
100
AcDbLine
 10
1016.960560917947
 20
-979.7629044569678
 30
0.0
 11
997.5605609179471
 21
-979.7629044569678
 31
0.0
  0
LINE
  5
1374C
330
1F
100
AcDbEntity
  8
0
  6
Continuous
 62
     7
100
AcDbLine
 10
885.160560917947
 20
-981.2629044569678
 30
0.0
 11
904.5605609179471
 21
-981.2629044569678
 31
0.0
  0
LINE
  5
1374D
330
1F
100
AcDbEntity
  8
0
  6
Continuous
 62
     7
100
AcDbLine
 10
1016.960560917947
 20
-981.2629044569678
 30
0.0
 11
997.5605609179471
 21
-981.2629044569678
 31
0.0
  0
LINE
  5
1379F
330
1F
100
AcDbEntity
  8
0
  6
Continuous
 62
     7
100
AcDbLine
 10
997.5605609179471
 20
-998.8871685256679
 30
0.0
 11
1014.560560917947
 21
-998.8871685256679
 31
0.0
  0
LINE
  5
137A0
330
1F
100
AcDbEntity
  8
0
  6
Continuous
 62
     7
100
AcDbLine
 10
904.5605609179471
 20
-998.8871685256679
 30
0.0
 11
887.5605609179471
 21
-998.8871685256679
 31
0.0
  0
LINE
  5
137A1
330
1F
100
AcDbEntity
  8
0
  6
Continuous
 62
     7
100
AcDbLine
 10
887.5605609179471
 20
-999.387168525768
 30
0.0
 11
904.5605609179471
 21
-999.387168525768
 31
0.0
  0
LINE
  5
137A2
330
1F
100
AcDbEntity
  8
0
  6
Continuous
 62
     7
100
AcDbLine
 10
1014.560560917947
 20
-999.3871685256678
 30
0.0
 11
997.5605609179471
 21
-999.3871685256678
 31
0.0
  0
LINE
  5
137AB
330
1F
100
AcDbEntity
  8
0
  6
Continuous
 62
     7
100
AcDbLine
 10
887.5605609179471
 20
-1019.138640388268
 30
0.0
 11
904.5605609179471
 21
-1019.138640388268
 31
0.0
  0
LINE
  5
137AC
330
1F
100
AcDbEntity
  8
0
  6
Continuous
 62
     7
100
AcDbLine
 10
1014.560560917947
 20
-1019.138640388268
 30
0.0
 11
997.5605609179471
 21
-1019.138640388268
 31
0.0
  0
LINE
  5
137AD
330
1F
100
AcDbEntity
  8
0
  6
Continuous
 62
     7
100
AcDbLine
 10
997.5605609179471
 20
-1019.638640388268
 30
0.0
 11
1014.560560917947
 21
-1019.638640388268
 31
0.0
  0
LINE
  5
137AE
330
1F
100
AcDbEntity
  8
0
  6
Continuous
 62
     7
100
AcDbLine
 10
904.5605609179471
 20
-1019.638640388268
 30
0.0
 11
887.5605609179471
 21
-1019.638640388268
 31
0.0
  0
LINE
  5
13800
330
1F
100
AcDbEntity
  8
0
  6
Continuous
 62
     7
100
AcDbLine
 10
885.160560917947
 20
-1037.262904456968
 30
0.0
 11
904.5605609179471
 21
-1037.262904456968
 31
0.0
  0
LINE
  5
13801
330
1F
100
AcDbEntity
  8
0
  6
Continuous
 62
     7
100
AcDbLine
 10
1016.960560917947
 20
-1037.262904456968
 30
0.0
 11
997.5605609179471
 21
-1037.262904456968
 31
0.0
  0
LINE
  5
13803
330
1F
100
AcDbEntity
  8
0
  6
Continuous
 62
     7
100
AcDbLine
 10
885.160560917947
 20
-1038.762904456968
 30
0.0
 11
904.5605609179471
 21
-1038.762904456968
 31
0.0
  0
LINE
  5
13804
330
1F
100
AcDbEntity
  8
0
  6
Continuous
 62
     7
100
AcDbLine
 10
1016.960560917947
 20
-1038.762904456968
 30
0.0
 11
997.5605609179471
 21
-1038.762904456968
 31
0.0
  0
LINE
  5
13807
330
1F
100
AcDbEntity
  8
0
  6
Continuous
 62
     7
100
AcDbLine
 10
887.5605609179471
 20
-1038.762904456968
 30
0.0
 11
887.5605609179471
 21
-979.7629044569678
 31
0.0
  0
LINE
  5
13809
330
1F
100
AcDbEntity
  8
0
  6
Continuous
 62
     7
100
AcDbLine
 10
885.160560917947
 20
-1038.762904456968
 30
0.0
 11
885.160560917947
 21
-979.7629044569678
 31
0.0
  0
LINE
  5
143CE
330
1F
100
AcDbEntity
  8
0
100
AcDbLine
 10
997.5605609179471
 20
-1039.262904456965
 30
0.0
 11
997.5605609179471
 21
-979.26290445697
 31
0.0
  0
LINE
  5
143CF
330
1F
100
AcDbEntity
  8
0
100
AcDbLine
 10
904.5605609179471
 20
-1039.262904456966
 30
0.0
 11
904.5605609179471
 21
-979.26290445697
 31
0.0
  0
LINE
  5
143D0
330
1F
100
AcDbEntity
  8
0
100
AcDbLine
 10
997.5605609179471
 20
-1039.262904456965
 30
0.0
 11
904.5605609179471
 21
-1039.262904456965
 31
0.0
  0
LINE
  5
143D2
330
1F
100
AcDbEntity
  8
0
100
AcDbLine
 10
997.5605609179471
 20
-1023.462904456967
 30
0.0
 11
904.5605609179471
 21
-1023.462904456967
 31
0.0
  0
LINE
  5
143D3
330
1F
100
AcDbEntity
  8
0
100
AcDbLine
 10
997.5605609179471
 20
-1022.348690894595
 30
0.0
 11
904.5605609179471
 21
-1022.348690894594
 31
0.0
  0
LINE
  5
143D4
330
1F
100
AcDbEntity
  8
0
100
AcDbLine
 10
997.5605609179471
 20
-1017.677118019342
 30
0.0
 11
905.5605609179471
 21
-1017.677118019341
 31
0.0
  0
LINE
  5
143D5
330
1F
100
AcDbEntity
  8
0
100
AcDbLine
 10
997.5605609179471
 20
-995.0629044569692
 30
0.0
 11
904.5605609179471
 21
-995.0629044569657
 31
0.0
  0
LINE
  5
143D6
330
1F
100
AcDbEntity
  8
0
100
AcDbLine
 10
997.5605609179471
 20
-996.1771180193434
 30
0.0
 11
904.5605609179471
 21
-996.1771180193398
 31
0.0
  0
LINE
  5
143D7
330
1F
100
AcDbEntity
  8
0
100
AcDbLine
 10
996.5605609179471
 20
-1000.848690894597
 30
0.0
 11
904.5605609179471
 21
-1000.848690894591
 31
0.0
  0
LINE
  5
143D8
330
1F
100
AcDbEntity
  8
0
100
AcDbLine
 10
997.5605609179471
 20
-1001.962904456971
 30
0.0
 11
904.5605609179471
 21
-1001.962904456967
 31
0.0
  0
LINE
  5
143D9
330
1F
100
AcDbEntity
  8
0
100
AcDbLine
 10
976.5605609179472
 20
-980.96290445697
 30
0.0
 11
905.5605609179471
 21
-980.9629044569689
 31
0.0
  0
LINE
  5
143DD
330
1F
100
AcDbEntity
  8
中心線
 48
0.35
100
AcDbLine
 10
986.060560917947
 20
-1029.262904456968
 30
0.0
 11
976.0605609179471
 21
-1029.262904456968
 31
0.0
  0
LINE
  5
143E0
330
1F
100
AcDbEntity
  8
中心線
 48
0.35
100
AcDbLine
 10
981.0605609179471
 20
-1034.262904456968
 30
0.0
 11
981.0605609179471
 21
-1024.262904456968
 31
0.0
  0
LINE
  5
143E1
330
1F
100
AcDbEntity
  8
中心線
 48
0.35
100
AcDbLine
 10
981.0605609179471
 20
-1014.262904456968
 30
0.0
 11
981.0605609179471
 21
-1004.262904456968
 31
0.0
  0
LINE
  5
143E2
330
1F
100
AcDbEntity
  8
0
100
AcDbLine
 10
904.5605609179471
 20
-980.9629044569708
 30
0.0
 11
997.5605609179471
 21
-980.962904456968
 31
0.0
  0
LINE
  5
143E4
330
1F
100
AcDbEntity
  8
中心線
 48
0.35
100
AcDbLine
 10
916.0605609179471
 20
-1029.262904456968
 30
0.0
 11
926.0605609179471
 21
-1029.262904456968
 31
0.0
  0
CIRCLE
  5
143E5
330
1F
100
AcDbEntity
  8
0
100
AcDbCircle
 10
921.060560917947
 20
-1029.262904456968
 30
0.0
 40
3.4
  0
LINE
  5
143E6
330
1F
100
AcDbEntity
  8
中心線
 48
0.35
100
AcDbLine
 10
921.060560917947
 20
-1034.262904456968
 30
0.0
 11
921.060560917947
 21
-1024.262904456968
 31
0.0
  0
LINE
  5
143E7
330
1F
100
AcDbEntity
  8
中心線
 48
0.35
100
AcDbLine
 10
921.0605609179467
 20
-1014.262904456968
 30
0.0
 11
921.0605609179467
 21
-1004.262904456968
 31
0.0
  0
ARC
  5
143E8
330
1F
100
AcDbEntity
  8
標註線
 62
     1
100
AcDbCircle
 10
921.060560917947
 20
-1029.262904456968
 30
0.0
 40
4.0
100
AcDbArc
 50
259.9999999988309
 51
169.9241594743866
  0
LINE
  5
143EA
330
1F
100
AcDbEntity
  8
中心線
 48
0.35
100
AcDbLine
 10
986.060560917947
 20
-989.2629044569682
 30
0.0
 11
976.0605609179471
 21
-989.2629044569682
 31
0.0
  0
LINE
  5
143EC
330
1F
100
AcDbEntity
  8
中心線
 48
0.35
100
AcDbLine
 10
981.0605609179471
 20
-984.2629044569683
 30
0.0
 11
981.0605609179471
 21
-994.2629044569683
 31
0.0
  0
LINE
  5
143EE
330
1F
100
AcDbEntity
  8
中心線
 48
0.35
100
AcDbLine
 10
916.060560917948
 20
-989.262904456971
 30
0.0
 11
926.060560917948
 21
-989.26290445697
 31
0.0
  0
LINE
  5
143EF
330
1F
100
AcDbEntity
  8
中心線
 48
0.35
100
AcDbLine
 10
921.0605609179475
 20
-984.2629044569701
 30
0.0
 11
921.0605609179484
 21
-994.26290445697
 31
0.0
  0
LINE
  5
14421
330
1F
100
AcDbEntity
  8
0
100
AcDbLine
 10
904.5605609179473
 20
-1036.162904456964
 30
0.0
 11
904.5605609179469
 21
-1032.662904456964
 31
0.0
  0
LINE
  5
14477
330
1F
100
AcDbEntity
  8
0
100
AcDbLine
 10
997.5605609179471
 20
-979.26290445697
 30
0.0
 11
904.5605609179471
 21
-979.26290445697
 31
0.0
  0
CIRCLE
  5
145C4
330
1F
100
AcDbEntity
  8
0
100
AcDbCircle
 10
921.0605609179467
 20
-1009.262904456967
 30
0.0
 40
3.4
  0
ARC
  5
145C5
330
1F
100
AcDbEntity
  8
標註線
 62
     1
100
AcDbCircle
 10
921.0605609179467
 20
-1009.262904456967
 30
0.0
 40
4.0
100
AcDbArc
 50
259.9999999988309
 51
169.9241594743866
  0
CIRCLE
  5
145C6
330
1F
100
AcDbEntity
  8
0
100
AcDbCircle
 10
921.0605609179479
 20
-989.2629044569705
 30
0.0
 40
3.4
  0
ARC
  5
145C7
330
1F
100
AcDbEntity
  8
標註線
 62
     1
100
AcDbCircle
 10
921.0605609179479
 20
-989.2629044569705
 30
0.0
 40
4.0
100
AcDbArc
 50
259.9999999988309
 51
169.9241594743866
  0
CIRCLE
  5
145C8
330
1F
100
AcDbEntity
  8
0
100
AcDbCircle
 10
981.0605609179471
 20
-989.2629044569682
 30
0.0
 40
3.4
  0
ARC
  5
145C9
330
1F
100
AcDbEntity
  8
標註線
 62
     1
100
AcDbCircle
 10
981.0605609179471
 20
-989.2629044569682
 30
0.0
 40
4.0
100
AcDbArc
 50
259.9999999988309
 51
169.9241594743866
  0
CIRCLE
  5
145CA
330
1F
100
AcDbEntity
  8
0
100
AcDbCircle
 10
981.0605609179471
 20
-1009.262904456968
 30
0.0
 40
3.4
  0
ARC
  5
145CB
330
1F
100
AcDbEntity
  8
標註線
 62
     1
100
AcDbCircle
 10
981.0605609179471
 20
-1009.262904456968
 30
0.0
 40
4.0
100
AcDbArc
 50
259.9999999988309
 51
169.9241594743866
  0
CIRCLE
  5
145CC
330
1F
100
AcDbEntity
  8
0
100
AcDbCircle
 10
981.0605609179471
 20
-1029.262904456968
 30
0.0
 40
3.4
  0
ARC
  5
145CD
330
1F
100
AcDbEntity
  8
標註線
 62
     1
100
AcDbCircle
 10
981.0605609179471
 20
-1029.262904456968
 30
0.0
 40
4.0
100
AcDbArc
 50
259.9999999988309
 51
169.9241594743866
  0
LINE
  5
173D3
330
1F
100
AcDbEntity
  8
0
  6
Continuous
 62
     7
100
AcDbLine
 10
1016.960560917947
 20
-1038.762904456968
 30
0.0
 11
1016.960560917947
 21
-979.7629044569678
 31
0.0
  0
LINE
  5
1EE43
330
1F
100
AcDbEntity
  8
中心線
 48
0.35
100
AcDbLine
 10
986.060560917947
 20
-1009.262904456968
 30
0.0
 11
976.0605609179471
 21
-1009.262904456968
 31
0.0
  0
LINE
  5
1EE4B
330
1F
100
AcDbEntity
  8
中心線
 48
0.35
100
AcDbLine
 10
926.0605609179465
 20
-1009.262904456968
 30
0.0
 11
916.0605609179466
 21
-1009.262904456968
 31
0.0
  0
TEXT
  5
201CF
330
1F
100
AcDbEntity
  8
0
100
AcDbText
 10
255.2595249969269
 20
-1530.489750617194
 30
0.0
 40
2.43
  1

  7
型式2
100
AcDbText
1001
sheetnoteflag
1010
348.0
1020
200.0
1030
0.0
  0
MTEXT
  5
2040E
330
1F
100
AcDbEntity
  8
0
 48
0.27
100
AcDbMText
 10
714.7205322810873
 20
-1158.818050309254
 30
0.0
 40
5.0
 41
65.71349999999999
 71
     1
 72
     5
  1
\A1;RGH30HA\PC:4900 kgf\PC{\H0.7x;\S^ 0;}:10690 kgf
  7
型式2
 73
     1
 44
1.0
1001
ACAD
1000
MTEXTBEGIN
1070
    73
1070
     1
1070
    44
1040
1.0
1070
    74
1070
     0
1000
MTEXTEND
  0
ARC
  5
20411
330
1F
100
AcDbEntity
  8
0
  6
Continuous
100
AcDbCircle
 10
879.3174370234424
 20
-1017.511063887058
 30
0.0
 40
2.059673609817604
100
AcDbArc
 50
89.15209883495883
 51
159.1520988349398
  0
LINE
  5
20412
330
1F
100
AcDbEntity
  8
0
  6
Continuous
100
AcDbLine
 10
872.9579916430381
 20
-1014.94116950043
 30
0.0
 11
877.20783749259
 21
-1016.70151328931
 31
0.0
  0
ARC
  5
20413
330
1F
100
AcDbEntity
  8
0
  6
Continuous
100
AcDbCircle
 10
874.1418491441875
 20
-1017.376293442853
 30
0.0
 40
2.860349020536762
100
AcDbArc
 50
118.5864858262542
 51
163.5864858262599
  0
ARC
  5
20414
330
1F
100
AcDbEntity
  8
0
  6
Continuous
100
AcDbCircle
 10
877.7995080954616
 20
-1009.262904456968
 30
0.0
 40
4.0
100
AcDbArc
 50
90.0
 51
210.8352048940814
  0
ARC
  5
20415
330
1F
100
AcDbEntity
  8
0
  6
Continuous
100
AcDbCircle
 10
889.3655008975803
 20
-1009.262904456968
 30
0.0
 40
7.96743397963368
100
AcDbArc
 50
163.2213499979083
 51
196.7786500020917
  0
LINE
  5
20416
330
1F
100
AcDbEntity
  8
0
  6
Continuous
100
AcDbLine
 10
881.3980669179469
 20
-1012.712904556561
 30
0.0
 11
881.3980669179469
 21
-1005.812904357375
 31
0.0
  0
LINE
  5
20417
330
1F
100
AcDbEntity
  8
0
  6
Continuous
100
AcDbLine
 10
881.7373194600561
 20
-1011.562904257782
 30
0.0
 11
885.160560917947
 21
-1011.562904257782
 31
0.0
  0
LINE
  5
20418
330
1F
100
AcDbEntity
  8
0
  6
Continuous
100
AcDbLine
 10
881.7373194600561
 20
-1013.862904456968
 30
0.0
 11
885.160560917947
 21
-1013.862904456968
 31
0.0
  0
ARC
  5
20419
330
1F
100
AcDbEntity
  8
0
  6
Continuous
100
AcDbCircle
 10
883.5170768949931
 20
-1012.712904556561
 30
0.0
 40
2.119009977045996
100
AcDbArc
 50
147.1327799989424
 51
212.8672200010575
  0
ARC
  5
2041A
330
1F
100
AcDbEntity
  8
0
  6
Continuous
100
AcDbCircle
 10
878.6510563705533
 20
-1015.095459190386
 30
0.0
 40
1.854133729915247
100
AcDbArc
 50
34.63277999893215
 51
100.3672200010575
  0
LINE
  5
2041B
330
1F
100
AcDbEntity
  8
0
  6
Continuous
100
AcDbLine
 10
879.0719628062161
 20
-1013.262904456968
 30
0.0
 11
881.4706890059616
 21
-1013.262904456968
 31
0.0
  0
LINE
  5
2041C
330
1F
100
AcDbEntity
  8
0
  6
Continuous
100
AcDbLine
 10
877.7452733043984
 20
-1014.652754303298
 30
0.0
 11
878.3173505729138
 21
-1013.271637602922
 31
0.0
  0
ARC
  5
2041D
330
1F
100
AcDbEntity
  8
0
  6
Continuous
100
AcDbCircle
 10
879.2708755490004
 20
-1013.599083323559
 30
0.0
 40
1.854133729915247
100
AcDbArc
 50
214.6327799989322
 51
280.3672200010575
  0
LINE
  5
2041E
330
1F
100
AcDbEntity
  8
0
  6
Continuous
100
AcDbLine
 10
879.6045387725518
 20
-1015.4229475569
 30
0.0
 11
880.1766586659175
 21
-1014.041727951033
 31
0.0
  0
LINE
  5
2041F
330
1F
100
AcDbEntity
  8
0
  6
Continuous
100
AcDbLine
 10
881.7373194600561
 20
-1004.662904456968
 30
0.0
 11
885.160560917947
 21
-1004.662904456968
 31
0.0
  0
LINE
  5
20420
330
1F
100
AcDbEntity
  8
0
  6
Continuous
100
AcDbLine
 10
881.7373194600561
 20
-1006.962904656154
 30
0.0
 11
885.160560917947
 21
-1006.962904656154
 31
0.0
  0
LINE
  5
20421
330
1F
100
AcDbEntity
  8
0
  6
Continuous
100
AcDbLine
 10
877.7995080954616
 20
-1005.262904456968
 30
0.0
 11
881.4706890059616
 21
-1005.262904456968
 31
0.0
  0
ARC
  5
20422
330
1F
100
AcDbEntity
  8
0
  6
Continuous
100
AcDbCircle
 10
883.5170768949931
 20
-1005.812904357375
 30
0.0
 40
2.119009977045996
100
AcDbArc
 50
147.1327799989424
 51
212.8672200010575
  0
ARC
  5
20423
330
1F
100
AcDbEntity
  8
0
  6
Continuous
100
AcDbCircle
 10
878.4402472295537
 20
-1007.7160233495
 30
0.0
 40
6.971504732179473
100
AcDbArc
 50
230.7213499979054
 51
264.2786500020824
  0
ARC
  5
20424
330
1F
100
AcDbEntity
  8
0
  6
Continuous
100
AcDbCircle
 10
873.9037618514423
 20
-1018.668067874844
 30
0.0
 40
6.971504732179473
100
AcDbArc
 50
50.72134999790536
 51
84.27865000208244
  0
LINE
  5
20425
330
1F
100
AcDbEntity
  8
0
  6
Continuous
100
AcDbLine
 10
873.7826797918234
 20
-1011.072011697177
 30
0.0
 11
879.3606026303811
 21
-1013.382462986778
 31
0.0
  0
LINE
  5
20426
330
1F
100
AcDbEntity
  8
0
  6
Continuous
100
AcDbLine
 10
872.983406450615
 20
-1013.001628237566
 30
0.0
 11
878.5613292891726
 21
-1015.312079527167
 31
0.0
  0
ARC
  5
20427
330
1F
100
AcDbEntity
  8
0
  6
Continuous
100
AcDbCircle
 10
870.8938407918031
 20
-1014.021896083958
 30
0.0
 40
2.059673609817605
100
AcDbArc
 50
335.8479011650668
 51
45.8479011650646
  0
ARC
  5
20428
330
1F
100
AcDbEntity
  8
0
  6
Continuous
100
AcDbCircle
 10
873.6929527104431
 20
-1011.288632033958
 30
0.0
 40
1.854133729915247
100
AcDbArc
 50
214.6327799989322
 51
280.3672200010575
  0
ARC
  5
20429
330
1F
100
AcDbEntity
  8
0
  6
Continuous
100
AcDbCircle
 10
873.0731335319953
 20
-1012.785007900785
 30
0.0
 40
1.854133729915247
100
AcDbArc
 50
34.63277999893215
 51
100.3672200010575
  0
LINE
  5
2042A
330
1F
100
AcDbEntity
  8
0
  6
Continuous
100
AcDbLine
 10
872.1673507878824
 20
-1012.34230314709
 30
0.0
 11
872.7394280563977
 21
-1010.961186446715
 31
0.0
  0
LINE
  5
2042B
330
1F
100
AcDbEntity
  8
0
  6
Continuous
100
AcDbLine
 10
874.0266585080817
 20
-1013.112453621422
 30
0.0
 11
874.5987357765976
 21
-1011.731336921046
 31
0.0
  0
ARC
  5
2042C
330
1F
100
AcDbEntity
  8
0
  6
Continuous
100
AcDbCircle
 10
874.6488311728517
 20
-1017.586292275006
 30
0.0
 40
2.860349020536762
100
AcDbArc
 50
331.4135141737281
 51
16.41351417374012
  0
LINE
  5
2042D
330
1F
100
AcDbEntity
  8
0
  6
Continuous
100
AcDbLine
 10
875.0165468962142
 20
-1021.098870588191
 30
0.0
 11
877.1604918017475
 21
-1018.954925682657
 31
0.0
  0
LINE
  5
2042E
330
1F
100
AcDbEntity
  8
0
  6
Continuous
100
AcDbLine
 10
871.398066917947
 20
-1019.600047106017
 30
0.0
 11
871.398066917947
 21
-1016.568051143631
 31
0.0
  0
LINE
  5
2042F
330
1F
100
AcDbEntity
  8
0
  6
Continuous
100
AcDbLine
 10
871.398066917947
 20
-1019.600047106017
 30
0.0
 11
875.0165468962142
 21
-1021.098870588191
 31
0.0
  0
LINE
  5
20430
330
1F
100
AcDbEntity
  8
0
  6
Continuous
100
AcDbLine
 10
871.398066917947
 20
-1016.568051143631
 30
0.0
 11
877.1604918017475
 21
-1018.954925682657
 31
0.0
  0
CIRCLE
  5
20765
330
1F
100
AcDbEntity
  8
0
  6
Continuous
 62
     7
100
AcDbCircle
 10
896.5605609179473
 20
-1111.682974881391
 30
0.0
 40
2.9999258795
  0
CIRCLE
  5
20766
330
1F
100
AcDbEntity
  8
0
  6
Continuous
 62
     7
100
AcDbCircle
 10
896.5605609179473
 20
-1111.682974881391
 30
0.0
 40
2.499956716699999
  0
CIRCLE
  5
20767
330
1F
100
AcDbEntity
  8
0
  6
Continuous
 62
     7
100
AcDbCircle
 10
896.5605609179473
 20
-1111.682974881391
 30
0.0
 40
0.75
  0
CIRCLE
  5
20768
330
1F
100
AcDbEntity
  8
0
  6
Continuous
 62
     7
100
AcDbCircle
 10
1005.560560917947
 20
-1111.682974881391
 30
0.0
 40
2.9999258795
  0
CIRCLE
  5
20769
330
1F
100
AcDbEntity
  8
0
  6
Continuous
 62
     7
100
AcDbCircle
 10
1005.560560917947
 20
-1111.682974881391
 30
0.0
 40
0.75
  0
CIRCLE
  5
2076A
330
1F
100
AcDbEntity
  8
0
  6
Continuous
 62
     7
100
AcDbCircle
 10
1005.560560917947
 20
-1111.682974881391
 30
0.0
 40
2.499956716699999
  0
LINE
  5
20773
330
1F
100
AcDbEntity
  8
0
  6
Continuous
 62
     7
100
AcDbLine
 10
1016.960560917947
 20
-995.2629044530674
 30
0.0
 11
1091.060560917947
 21
-995.2629044530667
 31
0.0
  0
LINE
  5
20775
330
1F
100
AcDbEntity
  8
0
  6
Continuous
 62
     7
100
AcDbLine
 10
811.0605609179467
 20
-995.2629044530677
 30
0.0
 11
885.1605609179468
 21
-995.262904453067
 31
0.0
  0
LINE
  5
20785
330
1F
100
AcDbEntity
  8
0
  6
Continuous
 62
     7
100
AcDbLine
 10
885.160560917947
 20
-1023.262904460967
 30
0.0
 11
811.0605609179469
 21
-1023.262904460968
 31
0.0
  0
LINE
  5
2078E
330
1F
100
AcDbEntity
  8
0
  6
Continuous
 62
     7
100
AcDbLine
 10
1014.560560917947
 20
-1140.382974881391
 30
0.0
 11
1014.560560917947
 21
-1104.682974881391
 31
0.0
  0
LINE
  5
2078F
330
1F
100
AcDbEntity
  8
0
  6
Continuous
 62
     7
100
AcDbLine
 10
997.5605609179469
 20
-1140.382974881391
 30
0.0
 11
997.5605609179467
 21
-1101.382974881391
 31
0.0
  0
LINE
  5
20790
330
1F
100
AcDbEntity
  8
0
  6
Continuous
 62
     7
100
AcDbLine
 10
904.5605609179473
 20
-1101.382974881391
 30
0.0
 11
997.5605609179467
 21
-1101.382974881391
 31
0.0
  0
LINE
  5
20791
330
1F
100
AcDbEntity
  8
0
  6
Continuous
 62
     7
100
AcDbLine
 10
904.5605609179473
 20
-1102.882974881391
 30
0.0
 11
997.5605609179465
 21
-1102.882974881391
 31
0.0
  0
LINE
  5
20792
330
1F
100
AcDbEntity
  8
0
  6
Continuous
 62
     7
100
AcDbLine
 10
887.5605609179471
 20
-1104.682974881391
 30
0.0
 11
904.5605609179473
 21
-1104.682974881391
 31
0.0
  0
LINE
  5
20793
330
1F
100
AcDbEntity
  8
0
  6
Continuous
 62
     7
100
AcDbLine
 10
1014.560560917947
 20
-1104.682974881391
 30
0.0
 11
997.5605609179469
 21
-1104.682974881391
 31
0.0
  0
LINE
  5
20794
330
1F
100
AcDbEntity
  8
0
  6
Continuous
 62
     7
100
AcDbLine
 10
885.160560917947
 20
-1105.182974881391
 30
0.0
 11
904.5605609179473
 21
-1105.182974881391
 31
0.0
  0
LINE
  5
20795
330
1F
100
AcDbEntity
  8
0
  6
Continuous
 62
     7
100
AcDbLine
 10
1016.960560917947
 20
-1105.182974881391
 30
0.0
 11
997.5605609179469
 21
-1105.182974881391
 31
0.0
  0
LINE
  5
20796
330
1F
100
AcDbEntity
  8
0
  6
Continuous
 62
     7
100
AcDbLine
 10
885.160560917947
 20
-1106.682974881391
 30
0.0
 11
904.5605609179473
 21
-1106.682974881391
 31
0.0
  0
LINE
  5
20797
330
1F
100
AcDbEntity
  8
0
  6
Continuous
 62
     7
100
AcDbLine
 10
1016.960560917947
 20
-1106.682974881391
 30
0.0
 11
997.5605609179469
 21
-1106.682974881391
 31
0.0
  0
LINE
  5
20798
330
1F
100
AcDbEntity
  8
0
  6
Continuous
 62
     7
100
AcDbLine
 10
1016.960560917946
 20
-1118.382974881391
 30
0.0
 11
1091.060560917947
 21
-1118.382974881391
 31
0.0
  0
LINE
  5
20799
330
1F
100
AcDbEntity
  8
0
  6
Continuous
 62
     7
100
AcDbLine
 10
811.0605609179469
 20
-1118.382974881391
 30
0.0
 11
885.160560917947
 21
-1118.382974881392
 31
0.0
  0
LINE
  5
2079A
330
1F
100
AcDbEntity
  8
0
  6
Continuous
 62
     7
100
AcDbLine
 10
885.160560917947
 20
-1138.882974881391
 30
0.0
 11
904.5605609179473
 21
-1138.882974881391
 31
0.0
  0
LINE
  5
2079B
330
1F
100
AcDbEntity
  8
0
  6
Continuous
 62
     7
100
AcDbLine
 10
1016.960560917947
 20
-1138.882974881391
 30
0.0
 11
997.5605609179469
 21
-1138.882974881391
 31
0.0
  0
LINE
  5
2079C
330
1F
100
AcDbEntity
  8
0
  6
Continuous
 62
     7
100
AcDbLine
 10
885.1605609179468
 20
-1140.382974881391
 30
0.0
 11
904.5605609179473
 21
-1140.382974881391
 31
0.0
  0
LINE
  5
2079D
330
1F
100
AcDbEntity
  8
0
  6
Continuous
 62
     7
100
AcDbLine
 10
1016.960560917947
 20
-1140.382974881391
 30
0.0
 11
997.5605609179469
 21
-1140.382974881391
 31
0.0
  0
LINE
  5
2079E
330
1F
100
AcDbEntity
  8
0
  6
Continuous
 62
     7
100
AcDbLine
 10
904.5605609179473
 20
-1140.382974881391
 30
0.0
 11
997.5605609179469
 21
-1140.382974881391
 31
0.0
  0
LINE
  5
2079F
330
1F
100
AcDbEntity
  8
0
  6
Continuous
 62
     7
100
AcDbLine
 10
811.060560917947
 20
-1146.382974881391
 30
0.0
 11
1091.060560917947
 21
-1146.38297488139
 31
0.0
  0
LINE
  5
207A0
330
1F
100
AcDbEntity
  8
0
  6
Continuous
 62
     7
100
AcDbLine
 10
904.5605609179473
 20
-1101.382974881391
 30
0.0
 11
904.5605609179473
 21
-1140.382974881391
 31
0.0
  0
LINE
  5
207A1
330
1F
100
AcDbEntity
  8
0
  6
Continuous
 62
     7
100
AcDbLine
 10
887.5605609179471
 20
-1140.382974881391
 30
0.0
 11
887.5605609179471
 21
-1104.682974881391
 31
0.0
  0
LINE
  5
207A2
330
1F
100
AcDbEntity
  8
0
  6
Continuous
 62
     7
100
AcDbLine
 10
757.6498844872826
 20
-1101.382974881391
 30
0.0
 11
759.1498844872826
 21
-1102.882974881391
 31
0.0
  0
LINE
  5
207A3
330
1F
100
AcDbEntity
  8
0
  6
Continuous
 62
     7
100
AcDbLine
 10
757.1498844872826
 20
-1105.182974881391
 30
0.0
 11
758.6498844872826
 21
-1106.682974881391
 31
0.0
  0
LINE
  5
207A4
330
1F
100
AcDbEntity
  8
0
  6
Continuous
 62
     7
100
AcDbLine
 10
759.1498844872826
 20
-1138.382974881391
 30
0.0
 11
757.1498844872824
 21
-1140.382974881391
 31
0.0
  0
LINE
  5
207A5
330
1F
100
AcDbEntity
  8
0
  6
Continuous
 62
     7
100
AcDbLine
 10
759.1498844872826
 20
-1102.882974881391
 30
0.0
 11
759.1498844872826
 21
-1138.382974881391
 31
0.0
  0
LINE
  5
207A6
330
1F
100
AcDbEntity
  8
0
  6
Continuous
 62
     7
100
AcDbLine
 10
758.6498844872826
 20
-1138.882974881391
 30
0.0
 11
758.6498844872826
 21
-1106.682974881391
 31
0.0
  0
LINE
  5
207A7
330
1F
100
AcDbEntity
  8
0
  6
Continuous
 62
     7
100
AcDbLine
 10
743.1498844912826
 20
-1144.882974877491
 30
0.0
 11
741.6498844872826
 21
-1146.382974881391
 31
0.0
  0
LINE
  5
207A8
330
1F
100
AcDbEntity
  8
0
  6
Continuous
 62
     7
100
AcDbLine
 10
736.6498844872826
 20
-1101.382974881391
 30
0.0
 11
737.1498844872826
 21
-1101.882974881391
 31
0.0
  0
LINE
  5
207A9
330
1F
100
AcDbEntity
  8
0
  6
Continuous
 62
     7
100
AcDbLine
 10
739.0256204185825
 20
-1104.682974881391
 30
0.0
 11
739.5256204185825
 21
-1105.182974881391
 31
0.0
  0
LINE
  5
207AA
330
1F
100
AcDbEntity
  8
0
  6
Continuous
 62
     7
100
AcDbLine
 10
743.1498844872826
 20
-1101.382974881391
 30
0.0
 11
757.6498844872826
 21
-1101.382974881391
 31
0.0
  0
LINE
  5
207AB
330
1F
100
AcDbEntity
  8
0
  6
Continuous
 62
     7
100
AcDbLine
 10
721.6498844872826
 20
-1101.382974881391
 30
0.0
 11
736.6498844872826
 21
-1101.382974881391
 31
0.0
  0
LINE
  5
207AC
330
1F
100
AcDbEntity
  8
0
  6
Continuous
 62
     7
100
AcDbLine
 10
700.6498844872826
 20
-1101.382974881391
 30
0.0
 11
715.1498844872826
 21
-1101.382974881391
 31
0.0
  0
LINE
  5
207AD
330
1F
100
AcDbEntity
  8
0
  6
Continuous
 62
     7
100
AcDbLine
 10
737.1498844872826
 20
-1101.882974881391
 30
0.0
 11
742.6498844872826
 21
-1101.882974881391
 31
0.0
  0
LINE
  5
207AE
330
1F
100
AcDbEntity
  8
0
  6
Continuous
 62
     7
100
AcDbLine
 10
715.6498844872826
 20
-1101.882974881391
 30
0.0
 11
721.1498844872826
 21
-1101.882974881391
 31
0.0
  0
LINE
  5
207AF
330
1F
100
AcDbEntity
  8
0
  6
Continuous
 62
     7
100
AcDbLine
 10
739.0256204185825
 20
-1104.682974881391
 30
0.0
 11
719.2741485559827
 21
-1104.682974881391
 31
0.0
  0
LINE
  5
207B0
330
1F
100
AcDbEntity
  8
0
  6
Continuous
 62
     7
100
AcDbLine
 10
757.1498844872826
 20
-1105.182974881391
 30
0.0
 11
701.1498844872826
 21
-1105.182974881391
 31
0.0
  0
LINE
  5
207B1
330
1F
100
AcDbEntity
  8
0
  6
Continuous
 62
     7
100
AcDbLine
 10
735.0498844872827
 20
-1145.882974881391
 30
0.0
 11
734.5498844872827
 21
-1146.382974881391
 31
0.0
  0
LINE
  5
207B2
330
1F
100
AcDbEntity
  8
0
  6
Continuous
 62
     7
100
AcDbLine
 10
744.8998844912826
 20
-1121.508070822591
 30
0.0
 11
744.8998844912826
 21
-1118.158101147291
 31
0.0
  0
LINE
  5
207B3
330
1F
100
AcDbEntity
  8
0
  6
Continuous
 62
     7
100
AcDbLine
 10
744.8998844912826
 20
-1139.782974881391
 30
0.0
 11
744.8998844912826
 21
-1137.65787894019
 31
0.0
  0
LINE
  5
207B4
330
1F
100
AcDbEntity
  8
0
  6
Continuous
 62
     7
100
AcDbLine
 10
744.8998844912826
 20
-1118.158101147291
 30
0.0
 11
743.3747582253827
 21
-1116.632974881391
 31
0.0
  0
LINE
  5
207B5
330
1F
100
AcDbEntity
  8
0
  6
Continuous
 62
     7
100
AcDbLine
 10
742.8777019505826
 20
-1117.832974881391
 30
0.0
 11
743.6998844912827
 21
-1118.65515742209
 31
0.0
  0
LINE
  5
207B6
330
1F
100
AcDbEntity
  8
0
  6
Continuous
 62
     7
100
AcDbLine
 10
742.6498844912826
 20
-1118.382974881391
 30
0.0
 11
743.1498844912826
 21
-1118.882974881512
 31
0.0
  0
LINE
  5
207B7
330
1F
100
AcDbEntity
  8
0
  6
Continuous
 62
     7
100
AcDbLine
 10
743.6998844912827
 20
-1121.011014547971
 30
0.0
 11
743.6998844912827
 21
-1118.65515742209
 31
0.0
  0
LINE
  5
207B8
330
1F
100
AcDbEntity
  8
0
  6
Continuous
 62
     7
100
AcDbLine
 10
743.6998844912827
 20
-1138.15493521491
 30
0.0
 11
743.6998844912827
 21
-1139.782974881391
 31
0.0
  0
LINE
  5
207B9
330
1F
100
AcDbEntity
  8
0
  6
Continuous
 62
     7
100
AcDbLine
 10
743.1498844912826
 20
-1138.382752674313
 30
0.0
 11
743.1498844912826
 21
-1144.882974877491
 31
0.0
  0
LINE
  5
207BA
330
1F
100
AcDbEntity
  8
0
  6
Continuous
 62
     7
100
AcDbLine
 10
743.1498844912826
 20
-1118.882974881512
 30
0.0
 11
743.1498844912826
 21
-1120.783197088607
 31
0.0
  0
LINE
  5
207BB
330
1F
100
AcDbEntity
  8
0
  6
Continuous
 62
     7
100
AcDbLine
 10
720.8998844872826
 20
-1145.882974881391
 30
0.0
 11
720.3998844872826
 21
-1146.382974881391
 31
0.0
  0
LINE
  5
207BC
330
1F
100
AcDbEntity
  8
0
  6
Continuous
 62
     7
100
AcDbLine
 10
739.3998844872826
 20
-1127.008070829391
 30
0.0
 11
744.8998844912826
 21
-1121.508070822591
 31
0.0
  0
LINE
  5
207BD
330
1F
100
AcDbEntity
  8
0
  6
Continuous
 62
     7
100
AcDbLine
 10
743.6998844912827
 20
-1121.011014547971
 30
0.0
 11
738.1998844872826
 21
-1126.511014554691
 31
0.0
  0
LINE
  5
207BE
330
1F
100
AcDbEntity
  8
0
  6
Continuous
 62
     7
100
AcDbLine
 10
739.3998844872826
 20
-1127.008070829391
 30
0.0
 11
739.3998844872826
 21
-1132.15787893349
 31
0.0
  0
LINE
  5
207BF
330
1F
100
AcDbEntity
  8
0
  6
Continuous
 62
     7
100
AcDbLine
 10
738.1998844872826
 20
-1132.654935208191
 30
0.0
 11
738.1998844872826
 21
-1126.511014554691
 31
0.0
  0
LINE
  5
207C0
330
1F
100
AcDbEntity
  8
0
  6
Continuous
 62
     7
100
AcDbLine
 10
737.6498844890825
 20
-1126.283197093667
 30
0.0
 11
737.6498844890825
 21
-1132.882752668803
 31
0.0
  0
LINE
  5
207C1
330
1F
100
AcDbEntity
  8
0
  6
Continuous
 62
     7
100
AcDbLine
 10
715.1498844872826
 20
-1101.382974881391
 30
0.0
 11
715.6498844872826
 21
-1101.882974881391
 31
0.0
  0
LINE
  5
207C2
330
1F
100
AcDbEntity
  8
0
  6
Continuous
 62
     7
100
AcDbLine
 10
714.9250107491825
 20
-1116.632974881391
 30
0.0
 11
743.3747582253827
 21
-1116.632974881391
 31
0.0
  0
LINE
  5
207C3
330
1F
100
AcDbEntity
  8
0
  6
Continuous
 62
     7
100
AcDbLine
 10
742.8777019505826
 20
-1117.832974881391
 30
0.0
 11
715.4220670240825
 21
-1117.832974881391
 31
0.0
  0
LINE
  5
207C4
330
1F
100
AcDbEntity
  8
0
  6
Continuous
 62
     7
100
AcDbLine
 10
715.6498844833826
 20
-1118.382974881391
 30
0.0
 11
742.6498844912826
 21
-1118.382974881391
 31
0.0
  0
LINE
  5
207C5
330
1F
100
AcDbEntity
  8
0
  6
Continuous
 62
     7
100
AcDbLine
 10
743.1498844912826
 20
-1120.783197088607
 30
0.0
 11
737.6498844890825
 21
-1126.283197093667
 31
0.0
  0
LINE
  5
207C6
330
1F
100
AcDbEntity
  8
0
  6
Continuous
 62
     7
100
AcDbLine
 10
744.8998844912826
 20
-1137.65787894019
 30
0.0
 11
739.3998844872826
 21
-1132.15787893349
 31
0.0
  0
LINE
  5
207C7
330
1F
100
AcDbEntity
  8
0
  6
Continuous
 62
     7
100
AcDbLine
 10
715.1498844833827
 20
-1138.38275267436
 30
0.0
 11
720.6498844854827
 21
-1132.882752668799
 31
0.0
  0
LINE
  5
207C8
330
1F
100
AcDbEntity
  8
0
  6
Continuous
 62
     7
100
AcDbLine
 10
738.1998844872826
 20
-1132.654935208191
 30
0.0
 11
743.6998844912827
 21
-1138.15493521491
 31
0.0
  0
LINE
  5
207C9
330
1F
100
AcDbEntity
  8
0
  6
Continuous
 62
     7
100
AcDbLine
 10
737.6498844890825
 20
-1132.882752668803
 30
0.0
 11
743.1498844912826
 21
-1138.382752674313
 31
0.0
  0
LINE
  5
207CA
330
1F
100
AcDbEntity
  8
0
  6
Continuous
 62
     7
100
AcDbLine
 10
714.5998844833825
 20
-1138.15493521481
 30
0.0
 11
720.0998844872827
 21
-1132.654935208191
 31
0.0
  0
LINE
  5
207CB
330
1F
100
AcDbEntity
  8
0
  6
Continuous
 62
     7
100
AcDbLine
 10
718.8998844872826
 20
-1132.15787893349
 30
0.0
 11
713.3998844833826
 21
-1137.65787894019
 31
0.0
  0
LINE
  5
207CC
330
1F
100
AcDbEntity
  8
0
  6
Continuous
 62
     7
100
AcDbLine
 10
742.6498844872826
 20
-1101.882974881391
 30
0.0
 11
743.1498844872826
 21
-1101.382974881391
 31
0.0
  0
LINE
  5
207CD
330
1F
100
AcDbEntity
  8
0
  6
Continuous
 62
     7
100
AcDbLine
 10
720.6498844854827
 20
-1126.283197093667
 30
0.0
 11
715.1498844833827
 21
-1120.783197088707
 31
0.0
  0
LINE
  5
207CE
330
1F
100
AcDbEntity
  8
0
  6
Continuous
 62
     7
100
AcDbLine
 10
720.0998844872827
 20
-1126.511014554691
 30
0.0
 11
714.5998844833825
 21
-1121.011014548071
 31
0.0
  0
LINE
  5
207CF
330
1F
100
AcDbEntity
  8
0
  6
Continuous
 62
     7
100
AcDbLine
 10
713.3998844833826
 20
-1121.508070822591
 30
0.0
 11
718.8998844872826
 21
-1127.008070829391
 31
0.0
  0
LINE
  5
207D0
330
1F
100
AcDbEntity
  8
0
  6
Continuous
 62
     7
100
AcDbLine
 10
720.6498844854827
 20
-1132.882752668799
 30
0.0
 11
720.6498844854827
 21
-1126.283197093667
 31
0.0
  0
LINE
  5
207D1
330
1F
100
AcDbEntity
  8
0
  6
Continuous
 62
     7
100
AcDbLine
 10
720.0998844872827
 20
-1126.511014554691
 30
0.0
 11
720.0998844872827
 21
-1132.654935208191
 31
0.0
  0
LINE
  5
207D2
330
1F
100
AcDbEntity
  8
0
  6
Continuous
 62
     7
100
AcDbLine
 10
737.8998844872826
 20
-1146.382974881391
 30
0.0
 11
737.3998844872826
 21
-1145.882974881391
 31
0.0
  0
LINE
  5
207D3
330
1F
100
AcDbEntity
  8
0
  6
Continuous
 62
     7
100
AcDbLine
 10
699.6498844872826
 20
-1111.382974881391
 30
0.0
 11
699.1498844872826
 21
-1110.882974881391
 31
0.0
  0
LINE
  5
207D4
330
1F
100
AcDbEntity
  8
0
  6
Continuous
 62
     7
100
AcDbLine
 10
718.8998844872826
 20
-1132.15787893349
 30
0.0
 11
718.8998844872826
 21
-1127.008070829391
 31
0.0
  0
LINE
  5
207D5
330
1F
100
AcDbEntity
  8
0
  6
Continuous
 62
     7
100
AcDbLine
 10
715.1498844833827
 20
-1118.88297488139
 30
0.0
 11
715.6498844833826
 21
-1118.382974881391
 31
0.0
  0
LINE
  5
207D6
330
1F
100
AcDbEntity
  8
0
  6
Continuous
 62
     7
100
AcDbLine
 10
714.5998844833825
 20
-1118.65515742209
 30
0.0
 11
715.4220670240825
 21
-1117.832974881391
 31
0.0
  0
LINE
  5
207D7
330
1F
100
AcDbEntity
  8
0
  6
Continuous
 62
     7
100
AcDbLine
 10
715.1498844833827
 20
-1120.783197088707
 30
0.0
 11
715.1498844833827
 21
-1118.88297488139
 31
0.0
  0
LINE
  5
207D8
330
1F
100
AcDbEntity
  8
0
  6
Continuous
 62
     7
100
AcDbLine
 10
715.1498844833827
 20
-1144.882974877491
 30
0.0
 11
715.1498844833827
 21
-1138.38275267436
 31
0.0
  0
LINE
  5
207D9
330
1F
100
AcDbEntity
  8
0
  6
Continuous
 62
     7
100
AcDbLine
 10
714.5998844833825
 20
-1138.15493521481
 30
0.0
 11
714.5998844833825
 21
-1139.782974881391
 31
0.0
  0
LINE
  5
207DA
330
1F
100
AcDbEntity
  8
0
  6
Continuous
 62
     7
100
AcDbLine
 10
714.5998844833825
 20
-1118.65515742209
 30
0.0
 11
714.5998844833825
 21
-1121.011014548071
 31
0.0
  0
LINE
  5
207DB
330
1F
100
AcDbEntity
  8
0
  6
Continuous
 62
     7
100
AcDbLine
 10
743.6998844912827
 20
-1139.782974881391
 30
0.0
 11
744.8998844912826
 21
-1139.782974881391
 31
0.0
  0
LINE
  5
207DC
330
1F
100
AcDbEntity
  8
0
  6
Continuous
 62
     7
100
AcDbLine
 10
713.3998844833826
 20
-1139.782974881391
 30
0.0
 11
714.5998844833825
 21
-1139.782974881391
 31
0.0
  0
LINE
  5
207DD
330
1F
100
AcDbEntity
  8
0
  6
Continuous
 62
     7
100
AcDbLine
 10
715.1498844833827
 20
-1140.38297488139
 30
0.0
 11
701.1498844872829
 21
-1140.38297488139
 31
0.0
  0
LINE
  5
207DE
330
1F
100
AcDbEntity
  8
0
  6
Continuous
 62
     7
100
AcDbLine
 10
757.1498844872824
 20
-1140.382974881391
 30
0.0
 11
743.1498844912826
 21
-1140.382974881391
 31
0.0
  0
LINE
  5
207DF
330
1F
100
AcDbEntity
  8
0
  6
Continuous
 62
     7
100
AcDbLine
 10
714.9250107491825
 20
-1116.632974881391
 30
0.0
 11
713.3998844833826
 21
-1118.158101147291
 31
0.0
  0
LINE
  5
207E0
330
1F
100
AcDbEntity
  8
0
  6
Continuous
 62
     7
100
AcDbLine
 10
713.3998844833826
 20
-1137.65787894019
 30
0.0
 11
713.3998844833826
 21
-1139.782974881391
 31
0.0
  0
LINE
  5
207E1
330
1F
100
AcDbEntity
  8
0
  6
Continuous
 62
     7
100
AcDbLine
 10
713.3998844833826
 20
-1118.158101147291
 30
0.0
 11
713.3998844833826
 21
-1121.508070822591
 31
0.0
  0
LINE
  5
207E2
330
1F
100
AcDbEntity
  8
0
  6
Continuous
 62
     7
100
AcDbLine
 10
723.7498844872825
 20
-1146.382974881391
 30
0.0
 11
723.2498844872825
 21
-1145.882974881391
 31
0.0
  0
LINE
  5
207E3
330
1F
100
AcDbEntity
  8
0
  6
Continuous
 62
     7
100
AcDbLine
 10
723.2498844872825
 20
-1145.882974881391
 30
0.0
 11
720.8998844872826
 21
-1145.882974881391
 31
0.0
  0
LINE
  5
207E4
330
1F
100
AcDbEntity
  8
0
  6
Continuous
 62
     7
100
AcDbLine
 10
737.3998844872826
 20
-1145.882974881391
 30
0.0
 11
735.0498844872827
 21
-1145.882974881391
 31
0.0
  0
LINE
  5
207E5
330
1F
100
AcDbEntity
  8
0
  6
Continuous
 62
     7
100
AcDbLine
 10
718.7741485559826
 20
-1105.182974881391
 30
0.0
 11
719.2741485559827
 21
-1104.682974881391
 31
0.0
  0
LINE
  5
207E6
330
1F
100
AcDbEntity
  8
0
  6
Continuous
 62
     7
100
AcDbLine
 10
721.1498844872826
 20
-1101.882974881391
 30
0.0
 11
721.6498844872826
 21
-1101.382974881391
 31
0.0
  0
LINE
  5
207E7
330
1F
100
AcDbEntity
  8
0
  6
Continuous
 62
     7
100
AcDbLine
 10
720.3998844872826
 20
-1146.382974881391
 30
0.0
 11
716.6498844872826
 21
-1146.382974881391
 31
0.0
  0
LINE
  5
207E8
330
1F
100
AcDbEntity
  8
0
  6
Continuous
 62
     7
100
AcDbLine
 10
734.5498844872827
 20
-1146.382974881391
 30
0.0
 11
723.7498844872825
 21
-1146.382974881391
 31
0.0
  0
LINE
  5
207E9
330
1F
100
AcDbEntity
  8
0
  6
Continuous
 62
     7
100
AcDbLine
 10
741.6498844872826
 20
-1146.382974881391
 30
0.0
 11
737.8998844872826
 21
-1146.382974881391
 31
0.0
  0
LINE
  5
207EA
330
1F
100
AcDbEntity
  8
0
  6
Continuous
 62
     7
100
AcDbLine
 10
716.6498844872826
 20
-1146.382974881391
 30
0.0
 11
715.1498844833827
 21
-1144.882974877491
 31
0.0
  0
LINE
  5
207EB
330
1F
100
AcDbEntity
  8
0
  6
Continuous
 62
     7
100
AcDbLine
 10
699.6498844872826
 20
-1138.882974881391
 30
0.0
 11
699.6498844872826
 21
-1106.682974881391
 31
0.0
  0
LINE
  5
207EC
330
1F
100
AcDbEntity
  8
0
  6
Continuous
 62
     7
100
AcDbLine
 10
701.1498844872829
 20
-1140.38297488139
 30
0.0
 11
699.6498844872826
 21
-1138.882974881391
 31
0.0
  0
LINE
  5
207ED
330
1F
100
AcDbEntity
  8
0
  6
Continuous
 62
     7
100
AcDbLine
 10
699.1498844872826
 20
-1110.882974881391
 30
0.0
 11
699.1498844872826
 21
-1102.882974881391
 31
0.0
  0
LINE
  5
207EE
330
1F
100
AcDbEntity
  8
0
  6
Continuous
 62
     7
100
AcDbLine
 10
699.6498844872826
 20
-1106.682974881391
 30
0.0
 11
701.1498844872826
 21
-1105.182974881391
 31
0.0
  0
LINE
  5
207EF
330
1F
100
AcDbEntity
  8
0
  6
Continuous
 62
     7
100
AcDbLine
 10
699.1498844872826
 20
-1102.882974881391
 30
0.0
 11
700.6498844872826
 21
-1101.382974881391
 31
0.0
  0
LINE
  5
207F0
330
1F
100
AcDbEntity
  8
0
 48
0.27
100
AcDbLine
 10
726.8404501718919
 20
-1106.882917178945
 30
0.0
 11
731.4593188026742
 21
-1106.882917178945
 31
0.0
  0
LINE
  5
207F1
330
1F
100
AcDbEntity
  8
0
 48
0.27
100
AcDbLine
 10
731.4593201386937
 20
-1114.883033919856
 30
0.0
 11
726.8404501718919
 21
-1114.883033919856
 31
0.0
  0
ARC
  5
207F2
330
1F
100
AcDbEntity
  8
0
 48
0.27
100
AcDbCircle
 10
729.1498844872826
 20
-1110.882974881391
 30
0.0
 40
4.000057702445608
100
AcDbArc
 50
48.59037799889628
 51
311.4096220031896
  0
LINE
  5
207F3
330
1F
100
AcDbEntity
  8
0
 48
0.27
100
AcDbLine
 10
726.8404501718919
 20
-1106.882917178945
 30
0.0
 11
724.5310158565002
 21
-1110.882974881391
 31
0.0
  0
LINE
  5
207F4
330
1F
100
AcDbEntity
  8
0
 48
0.27
100
AcDbLine
 10
724.5310158565002
 20
-1110.882974881391
 30
0.0
 11
726.8404501718919
 21
-1114.883033919856
 31
0.0
  0
LWPOLYLINE
  5
207F5
330
1F
100
AcDbEntity
  8
0
 48
0.27
100
AcDbPolyline
 90
       17
 70
     0
 43
0.0
 10
738.1017028431056
 20
-1110.882974881391
 10
738.1352516340625
 20
-1111.100015291031
 10
738.1681431032279
 20
-1111.162920442969
 10
738.2047139706851
 20
-1111.192462510758
 10
738.2386916239006
 20
-1111.192155226274
 10
738.2751850022263
 20
-1111.161950492714
 10
738.3065293606164
 20
-1111.102179643014
 10
738.3359164501439
 20
-1110.97210476421
 10
738.3408837714291
 20
-1110.882974881391
 10
738.3073363164917
 20
-1110.665935807769
 10
738.2744435113067
 20
-1110.603030655832
 10
738.2378726438496
 20
-1110.573488588042
 10
738.2038963266536
 20
-1110.573795872626
 10
738.1674016123083
 20
-1110.604000606186
 10
738.1360585899378
 20
-1110.663771455886
 10
738.1066701643908
 20
-1110.793846334591
 10
738.1017028431056
 20
-1110.882974881391
  0
LINE
  5
207F6
330
1F
100
AcDbEntity
  8
0
 48
0.27
100
AcDbLine
 10
738.8937688072497
 20
-1111.23251638164
 30
0.0
 11
738.906943297597
 21
-1110.882974881391
 31
0.0
  0
LINE
  5
207F7
330
1F
100
AcDbEntity
  8
0
 48
0.27
100
AcDbLine
 10
738.8547516876956
 20
-1111.56862553968
 30
0.0
 11
738.8937688072497
 21
-1111.23251638164
 31
0.0
  0
LINE
  5
207F8
330
1F
100
AcDbEntity
  8
0
 48
0.27
100
AcDbLine
 10
738.906943297597
 20
-1110.882974881391
 30
0.0
 11
738.8937688072497
 21
-1110.533433381141
 31
0.0
  0
LINE
  5
207F9
330
1F
100
AcDbEntity
  8
0
 48
0.27
100
AcDbLine
 10
738.7913909530111
 20
-1111.878384381105
 30
0.0
 11
738.8547516876956
 21
-1111.56862553968
 31
0.0
  0
LINE
  5
207FA
330
1F
100
AcDbEntity
  8
0
 48
0.27
100
AcDbLine
 10
738.8937688072497
 20
-1110.533433381141
 30
0.0
 11
738.8547516876956
 21
-1110.197325559121
 31
0.0
  0
LINE
  5
207FB
330
1F
100
AcDbEntity
  8
0
 48
0.27
100
AcDbLine
 10
738.7061208311147
 20
-1112.149891642148
 30
0.0
 11
738.7913909530111
 21
-1111.878384381105
 31
0.0
  0
LINE
  5
207FC
330
1F
100
AcDbEntity
  8
0
 48
0.27
100
AcDbLine
 10
737.946755285448
 20
-1112.521307793101
 30
0.0
 11
737.9486537694515
 21
-1112.520379259452
 31
0.0
  0
LINE
  5
207FD
330
1F
100
AcDbEntity
  8
0
 48
0.27
100
AcDbLine
 10
738.8547516876956
 20
-1110.197325559121
 30
0.0
 11
738.7913909530111
 21
-1109.887565381676
 31
0.0
  0
LINE
  5
207FE
330
1F
100
AcDbEntity
  8
0
 48
0.27
100
AcDbLine
 10
738.6022199144512
 20
-1112.372711673127
 30
0.0
 11
738.7061208311147
 21
-1112.149891642148
 31
0.0
  0
LINE
  5
207FF
330
1F
100
AcDbEntity
  8
0
 48
0.27
100
AcDbLine
 10
738.7913909530111
 20
-1109.887565381676
 30
0.0
 11
738.7061208311147
 21
-1109.616059456653
 31
0.0
  0
LINE
  5
20800
330
1F
100
AcDbEntity
  8
0
 48
0.27
100
AcDbLine
 10
735.0284981250702
 20
-1112.919545875651
 30
0.0
 11
735.2696242979799
 21
-1112.821141344092
 31
0.0
  0
LINE
  5
20801
330
1F
100
AcDbEntity
  8
0
 48
0.27
100
AcDbLine
 10
735.0284981250702
 20
-1108.846405223149
 30
0.0
 11
735.2696242979796
 21
-1108.944808418688
 31
0.0
  0
LINE
  5
20802
330
1F
100
AcDbEntity
  8
0
 48
0.27
100
AcDbLine
 10
738.4836802298727
 20
-1112.538280587475
 30
0.0
 11
738.6022199144512
 21
-1112.372711673127
 31
0.0
  0
LINE
  5
20803
330
1F
100
AcDbEntity
  8
0
 48
0.27
100
AcDbLine
 10
738.7061208311147
 20
-1109.616059456653
 30
0.0
 11
738.6022199144512
 21
-1109.393239425674
 31
0.0
  0
LINE
  5
20804
330
1F
100
AcDbEntity
  8
0
 48
0.27
100
AcDbLine
 10
735.2696242979799
 20
-1112.821141344092
 30
0.0
 11
735.4845511244779
 21
-1112.830269030688
 31
0.0
  0
LINE
  5
20805
330
1F
100
AcDbEntity
  8
0
 48
0.27
100
AcDbLine
 10
735.2696242979796
 20
-1108.944808418688
 30
0.0
 11
735.4845511244779
 21
-1108.935682068113
 31
0.0
  0
LINE
  5
20806
330
1F
100
AcDbEntity
  8
0
 48
0.27
100
AcDbLine
 10
737.1045645339632
 20
-1113.387339816288
 30
0.0
 11
738.3550576044594
 21
-1112.640238931492
 31
0.0
  0
LINE
  5
20807
330
1F
100
AcDbEntity
  8
0
 48
0.27
100
AcDbLine
 10
738.3550576044594
 20
-1112.640238931492
 30
0.0
 11
738.4836802298727
 21
-1112.538280587475
 31
0.0
  0
LINE
  5
20808
330
1F
100
AcDbEntity
  8
0
 48
0.27
100
AcDbLine
 10
738.6022199144512
 20
-1109.393239425674
 30
0.0
 11
738.4836802298727
 21
-1109.227670511326
 31
0.0
  0
LINE
  5
20809
330
1F
100
AcDbEntity
  8
0
 48
0.27
100
AcDbLine
 10
736.9139318898755
 20
-1113.436403804049
 30
0.0
 11
737.1045645339632
 21
-1113.387339816288
 31
0.0
  0
LINE
  5
2080A
330
1F
100
AcDbEntity
  8
0
 48
0.27
100
AcDbLine
 10
736.5530943429889
 20
-1113.408519736753
 30
0.0
 11
736.9139318898755
 21
-1113.436403804049
 31
0.0
  0
LINE
  5
2080B
330
1F
100
AcDbEntity
  8
0
 48
0.27
100
AcDbLine
 10
735.4845511244779
 20
-1112.830269030688
 30
0.0
 11
736.0385063121143
 21
-1113.195491394258
 31
0.0
  0
LINE
  5
2080C
330
1F
100
AcDbEntity
  8
0
 48
0.27
100
AcDbLine
 10
738.2212939752267
 20
-1112.674665487358
 30
0.0
 11
738.3550576044594
 21
-1112.640238931492
 31
0.0
  0
LINE
  5
2080D
330
1F
100
AcDbEntity
  8
0
 48
0.27
100
AcDbLine
 10
737.1045645339632
 20
-1108.378609946494
 30
0.0
 11
738.3550576044594
 21
-1109.125712167308
 31
0.0
  0
LINE
  5
2080E
330
1F
100
AcDbEntity
  8
0
 48
0.27
100
AcDbLine
 10
738.3550576044594
 20
-1109.125712167308
 30
0.0
 11
738.4836802298727
 21
-1109.227670511326
 31
0.0
  0
LINE
  5
2080F
330
1F
100
AcDbEntity
  8
0
 48
0.27
100
AcDbLine
 10
736.9139318898755
 20
-1108.329547294751
 30
0.0
 11
737.1045645339632
 21
-1108.378609946494
 31
0.0
  0
LINE
  5
20810
330
1F
100
AcDbEntity
  8
0
 48
0.27
100
AcDbLine
 10
736.5530943429889
 20
-1108.357430026127
 30
0.0
 11
736.9139318898755
 21
-1108.329547294751
 31
0.0
  0
LINE
  5
20811
330
1F
100
AcDbEntity
  8
0
 48
0.27
100
AcDbLine
 10
735.2937127333875
 20
-1112.685763803009
 30
0.0
 11
735.4337957357351
 21
-1112.796805745078
 31
0.0
  0
LINE
  5
20812
330
1F
100
AcDbEntity
  8
0
 48
0.27
100
AcDbLine
 10
736.0385063121143
 20
-1113.195491394258
 30
0.0
 11
736.3645432175758
 21
-1113.35999282883
 31
0.0
  0
LINE
  5
20813
330
1F
100
AcDbEntity
  8
0
 48
0.27
100
AcDbLine
 10
736.3645432175758
 20
-1113.35999282883
 30
0.0
 11
736.5530943429889
 21
-1113.408519736753
 31
0.0
  0
LINE
  5
20814
330
1F
100
AcDbEntity
  8
0
 48
0.27
100
AcDbLine
 10
735.4845511244779
 20
-1108.935682068113
 30
0.0
 11
736.0385063121143
 21
-1108.570459704542
 31
0.0
  0
LINE
  5
20815
330
1F
100
AcDbEntity
  8
0
 48
0.27
100
AcDbLine
 10
735.2937127333875
 20
-1109.080187295791
 30
0.0
 11
735.4337957357351
 21
-1108.969145353723
 31
0.0
  0
LINE
  5
20816
330
1F
100
AcDbEntity
  8
0
 48
0.27
100
AcDbLine
 10
736.7232979097675
 20
-1113.387339816288
 30
0.0
 11
736.9139318898755
 21
-1113.436403804049
 31
0.0
  0
LINE
  5
20817
330
1F
100
AcDbEntity
  8
0
 48
0.27
100
AcDbLine
 10
736.3645432175758
 20
-1108.405958269971
 30
0.0
 11
736.5530943429889
 21
-1108.357430026127
 31
0.0
  0
LINE
  5
20818
330
1F
100
AcDbEntity
  8
0
 48
0.27
100
AcDbLine
 10
736.0385063121143
 20
-1108.570459704542
 30
0.0
 11
736.3645432175758
 21
-1108.405958269971
 31
0.0
  0
LINE
  5
20819
330
1F
100
AcDbEntity
  8
0
 48
0.27
100
AcDbLine
 10
735.2937127333875
 20
-1112.685763803009
 30
0.0
 11
735.1646104768765
 21
-1112.505442559089
 31
0.0
  0
LINE
  5
2081A
330
1F
100
AcDbEntity
  8
0
 48
0.27
100
AcDbLine
 10
738.0875303460948
 20
-1112.640238931492
 30
0.0
 11
738.2212939752267
 21
-1112.674665487358
 31
0.0
  0
LINE
  5
2081B
330
1F
100
AcDbEntity
  8
0
 48
0.27
100
AcDbLine
 10
738.2212939752267
 20
-1109.091285611442
 30
0.0
 11
738.3550576044594
 21
-1109.125712167308
 31
0.0
  0
LINE
  5
2081C
330
1F
100
AcDbEntity
  8
0
 48
0.27
100
AcDbLine
 10
736.7232979097675
 20
-1108.378609946494
 30
0.0
 11
736.9139318898755
 21
-1108.329547294751
 31
0.0
  0
LINE
  5
2081D
330
1F
100
AcDbEntity
  8
0
 48
0.27
100
AcDbLine
 10
735.1646104768765
 20
-1109.260508539711
 30
0.0
 11
735.2937127333875
 21
-1109.080187295791
 31
0.0
  0
LINE
  5
2081E
330
1F
100
AcDbEntity
  8
0
 48
0.27
100
AcDbLine
 10
735.1646104768765
 20
-1112.505442559089
 30
0.0
 11
735.0514522797261
 21
-1112.262770611323
 31
0.0
  0
LINE
  5
2081F
330
1F
100
AcDbEntity
  8
0
 48
0.27
100
AcDbLine
 10
736.5399906616753
 20
-1113.242035648851
 30
0.0
 11
736.7232979097675
 21
-1113.387339816288
 31
0.0
  0
LINE
  5
20820
330
1F
100
AcDbEntity
  8
0
 48
0.27
100
AcDbLine
 10
735.0514522797261
 20
-1109.503180487477
 30
0.0
 11
735.1646104768765
 21
-1109.260508539711
 31
0.0
  0
LINE
  5
20821
330
1F
100
AcDbEntity
  8
0
 48
0.27
100
AcDbLine
 10
737.9589063846619
 20
-1112.538280587475
 30
0.0
 11
738.0875303460948
 21
-1112.640238931492
 31
0.0
  0
LINE
  5
20822
330
1F
100
AcDbEntity
  8
0
 48
0.27
100
AcDbLine
 10
736.5399906616753
 20
-1108.52391544995
 30
0.0
 11
736.7232979097675
 21
-1108.378609946494
 31
0.0
  0
LINE
  5
20823
330
1F
100
AcDbEntity
  8
0
 48
0.27
100
AcDbLine
 10
738.0875303460948
 20
-1109.125712167308
 30
0.0
 11
738.2212939752267
 21
-1109.091285611442
 31
0.0
  0
LINE
  5
20824
330
1F
100
AcDbEntity
  8
0
 48
0.27
100
AcDbLine
 10
735.0514522797261
 20
-1112.262770611323
 30
0.0
 11
734.9585855497775
 21
-1111.96707337739
 31
0.0
  0
LINE
  5
20825
330
1F
100
AcDbEntity
  8
0
 48
0.27
100
AcDbLine
 10
734.9585855497775
 20
-1109.79887772141
 30
0.0
 11
735.0514522797261
 21
-1109.503180487477
 31
0.0
  0
LINE
  5
20826
330
1F
100
AcDbEntity
  8
0
 48
0.27
100
AcDbLine
 10
736.5399906616753
 20
-1113.242035648851
 30
0.0
 11
736.3710536416788
 21
-1113.006073192092
 31
0.0
  0
LINE
  5
20827
330
1F
100
AcDbEntity
  8
0
 48
0.27
100
AcDbLine
 10
734.9585855497775
 20
-1111.96707337739
 30
0.0
 11
734.8895801318226
 21
-1111.629715040822
 31
0.0
  0
LINE
  5
20828
330
1F
100
AcDbEntity
  8
0
 48
0.27
100
AcDbLine
 10
737.9589063846619
 20
-1109.227670511326
 30
0.0
 11
738.0875303460948
 21
-1109.125712167308
 31
0.0
  0
LINE
  5
20829
330
1F
100
AcDbEntity
  8
0
 48
0.27
100
AcDbLine
 10
737.9589063846619
 20
-1112.538280587475
 30
0.0
 11
737.8403667000834
 21
-1112.372711673127
 31
0.0
  0
LINE
  5
2082A
330
1F
100
AcDbEntity
  8
0
 48
0.27
100
AcDbLine
 10
736.3710536416788
 20
-1108.759877906709
 30
0.0
 11
736.5399906616753
 21
-1108.52391544995
 31
0.0
  0
LINE
  5
2082B
330
1F
100
AcDbEntity
  8
0
 48
0.27
100
AcDbLine
 10
734.8895801318226
 20
-1110.136236057978
 30
0.0
 11
734.9585855497775
 21
-1109.79887772141
 31
0.0
  0
LINE
  5
2082C
330
1F
100
AcDbEntity
  8
0
 48
0.27
100
AcDbLine
 10
734.8895801318226
 20
-1111.629715040822
 30
0.0
 11
734.847085353022
 21
-1111.263660337005
 31
0.0
  0
LINE
  5
2082D
330
1F
100
AcDbEntity
  8
0
 48
0.27
100
AcDbLine
 10
734.847085353022
 20
-1110.502290761795
 30
0.0
 11
734.8895801318226
 21
-1110.136236057978
 31
0.0
  0
LINE
  5
2082E
330
1F
100
AcDbEntity
  8
0
 48
0.27
100
AcDbLine
 10
734.847085353022
 20
-1111.263660337005
 30
0.0
 11
734.8327378373574
 21
-1110.882974881391
 31
0.0
  0
LINE
  5
2082F
330
1F
100
AcDbEntity
  8
0
 48
0.27
100
AcDbLine
 10
734.8327378373574
 20
-1110.882974881391
 30
0.0
 11
734.847085353022
 21
-1110.502290761795
 31
0.0
  0
LINE
  5
20830
330
1F
100
AcDbEntity
  8
0
 48
0.27
100
AcDbLine
 10
736.3710536416788
 20
-1113.006073192092
 30
0.0
 11
736.2229785693075
 21
-1112.688521347748
 31
0.0
  0
LINE
  5
20831
330
1F
100
AcDbEntity
  8
0
 48
0.27
100
AcDbLine
 10
737.8403667000834
 20
-1109.393239425674
 30
0.0
 11
737.9589063846619
 21
-1109.227670511326
 31
0.0
  0
LINE
  5
20832
330
1F
100
AcDbEntity
  8
0
 48
0.27
100
AcDbLine
 10
737.8403667000834
 20
-1112.372711673127
 30
0.0
 11
737.73646578342
 21
-1112.149891642148
 31
0.0
  0
LINE
  5
20833
330
1F
100
AcDbEntity
  8
0
 48
0.27
100
AcDbLine
 10
736.2229785693075
 20
-1109.077428415032
 30
0.0
 11
736.3710536416788
 21
-1108.759877906709
 31
0.0
  0
LINE
  5
20834
330
1F
100
AcDbEntity
  8
0
 48
0.27
100
AcDbLine
 10
737.73646578342
 20
-1109.616059456653
 30
0.0
 11
737.8403667000834
 21
-1109.393239425674
 31
0.0
  0
LINE
  5
20835
330
1F
100
AcDbEntity
  8
0
 48
0.27
100
AcDbLine
 10
736.2229785693075
 20
-1112.688521347748
 30
0.0
 11
736.1014568887144
 21
-1112.301584655913
 31
0.0
  0
LINE
  5
20836
330
1F
100
AcDbEntity
  8
0
 48
0.27
100
AcDbLine
 10
737.73646578342
 20
-1112.149891642148
 30
0.0
 11
737.6511969975431
 21
-1111.878384381105
 31
0.0
  0
LINE
  5
20837
330
1F
100
AcDbEntity
  8
0
 48
0.27
100
AcDbLine
 10
736.1014568887144
 20
-1109.464366442987
 30
0.0
 11
736.2229785693075
 21
-1109.077428415032
 31
0.0
  0
LINE
  5
20838
330
1F
100
AcDbEntity
  8
0
 48
0.27
100
AcDbLine
 10
737.6511969975431
 20
-1109.887565381676
 30
0.0
 11
737.73646578342
 21
-1109.616059456653
 31
0.0
  0
LINE
  5
20839
330
1F
100
AcDbEntity
  8
0
 48
0.27
100
AcDbLine
 10
736.1014568887144
 20
-1112.301584655913
 30
0.0
 11
736.0111579886365
 21
-1111.860130343835
 31
0.0
  0
LINE
  5
2083A
330
1F
100
AcDbEntity
  8
0
 48
0.27
100
AcDbLine
 10
737.6511969975431
 20
-1111.878384381105
 30
0.0
 11
737.5878362628577
 21
-1111.56862553968
 31
0.0
  0
LINE
  5
2083B
330
1F
100
AcDbEntity
  8
0
 48
0.27
100
AcDbLine
 10
736.0111579886365
 20
-1109.905820754966
 30
0.0
 11
736.1014568887144
 21
-1109.464366442987
 31
0.0
  0
LINE
  5
2083C
330
1F
100
AcDbEntity
  8
0
 48
0.27
100
AcDbLine
 10
737.5878362628577
 20
-1110.197325559121
 30
0.0
 11
737.6511969975431
 21
-1109.887565381676
 31
0.0
  0
LINE
  5
2083D
330
1F
100
AcDbEntity
  8
0
 48
0.27
100
AcDbLine
 10
736.0111579886365
 20
-1111.860130343835
 30
0.0
 11
735.9555528484238
 21
-1111.38112452579
 31
0.0
  0
LINE
  5
2083E
330
1F
100
AcDbEntity
  8
0
 48
0.27
100
AcDbLine
 10
737.5878362628577
 20
-1111.56862553968
 30
0.0
 11
737.5488178072851
 21
-1111.23251638164
 31
0.0
  0
LINE
  5
2083F
330
1F
100
AcDbEntity
  8
0
 48
0.27
100
AcDbLine
 10
735.9555528484238
 20
-1110.38482657301
 30
0.0
 11
736.0111579886365
 21
-1109.905820754966
 31
0.0
  0
LINE
  5
20840
330
1F
100
AcDbEntity
  8
0
 48
0.27
100
AcDbLine
 10
737.5488178072851
 20
-1110.533433381141
 30
0.0
 11
737.5878362628577
 21
-1110.197325559121
 31
0.0
  0
LINE
  5
20841
330
1F
100
AcDbEntity
  8
0
 48
0.27
100
AcDbLine
 10
735.9555528484238
 20
-1111.38112452579
 30
0.0
 11
735.9367764274306
 21
-1110.882974881391
 31
0.0
  0
LINE
  5
20842
330
1F
100
AcDbEntity
  8
0
 48
0.27
100
AcDbLine
 10
737.5488178072851
 20
-1111.23251638164
 30
0.0
 11
737.5356433169376
 21
-1110.882974881391
 31
0.0
  0
LINE
  5
20843
330
1F
100
AcDbEntity
  8
0
 48
0.27
100
AcDbLine
 10
737.5356433169376
 20
-1110.882974881391
 30
0.0
 11
737.5488178072851
 21
-1110.533433381141
 31
0.0
  0
LINE
  5
20844
330
1F
100
AcDbEntity
  8
0
 48
0.27
100
AcDbLine
 10
735.9367764274306
 20
-1110.882974881391
 30
0.0
 11
735.9555528484238
 21
-1110.38482657301
 31
0.0
  0
LINE
  5
20845
330
1F
100
AcDbEntity
  8
0
 48
0.27
100
AcDbLine
 10
735.4337957357351
 20
-1112.796805745078
 30
0.0
 11
735.4845511244779
 21
-1112.830269030688
 31
0.0
  0
LINE
  5
20846
330
1F
100
AcDbEntity
  8
0
 48
0.27
100
AcDbLine
 10
735.4337957357351
 20
-1108.969145353723
 30
0.0
 11
735.4845511244779
 21
-1108.935682068113
 31
0.0
  0
LINE
  5
20847
330
1F
100
AcDbEntity
  8
0
 48
0.27
100
AcDbLine
 10
732.0366783835366
 20
-1113.88301916024
 30
0.0
 11
731.4593201386937
 21
-1114.883033919856
 31
0.0
  0
LINE
  5
20848
330
1F
100
AcDbEntity
  8
0
 48
0.27
100
AcDbLine
 10
730.4514095026575
 20
-1113.88301916024
 30
0.0
 11
733.465522068997
 21
-1113.88301916024
 31
0.0
  0
LINE
  5
20849
330
1F
100
AcDbEntity
  8
0
 48
0.27
100
AcDbLine
 10
733.5284218768561
 20
-1108.167623042188
 30
0.0
 11
733.465522068997
 21
-1107.882931938561
 31
0.0
  0
LINE
  5
2084A
330
1F
100
AcDbEntity
  8
0
 48
0.27
100
AcDbLine
 10
733.465522068997
 20
-1113.88301916024
 30
0.0
 11
733.5284218768561
 21
-1113.598328056613
 31
0.0
  0
LINE
  5
2084B
330
1F
100
AcDbEntity
  8
0
 48
0.27
100
AcDbLine
 10
730.4514095026575
 20
-1107.882931938561
 30
0.0
 11
733.465522068997
 21
-1107.882931938561
 31
0.0
  0
LINE
  5
2084C
330
1F
100
AcDbEntity
  8
0
 48
0.27
100
AcDbLine
 10
732.8026852832167
 20
-1113.88301916024
 30
0.0
 11
733.0266623071788
 21
-1113.825373917857
 31
0.0
  0
LINE
  5
2084D
330
1F
100
AcDbEntity
  8
0
 48
0.27
100
AcDbLine
 10
732.8026852832167
 20
-1107.882931938561
 30
0.0
 11
733.0266623071788
 21
-1107.940577180944
 31
0.0
  0
LINE
  5
2084E
330
1F
100
AcDbEntity
  8
0
 48
0.27
100
AcDbLine
 10
732.5787082592537
 20
-1113.825373917857
 30
0.0
 11
732.8026852832167
 21
-1113.88301916024
 31
0.0
  0
LINE
  5
2084F
330
1F
100
AcDbEntity
  8
0
 48
0.27
100
AcDbLine
 10
732.5787082592537
 20
-1107.940577180944
 30
0.0
 11
732.8026852832167
 21
-1107.882931938561
 31
0.0
  0
LINE
  5
20850
330
1F
100
AcDbEntity
  8
0
 48
0.27
100
AcDbLine
 10
732.3633392102024
 20
-1113.654654647553
 30
0.0
 11
732.5787082592537
 21
-1113.825373917857
 31
0.0
  0
LINE
  5
20851
330
1F
100
AcDbEntity
  8
0
 48
0.27
100
AcDbLine
 10
732.3633392102024
 20
-1108.111296451248
 30
0.0
 11
732.5787082592537
 21
-1107.940577180944
 31
0.0
  0
LINE
  5
20852
330
1F
100
AcDbEntity
  8
0
 48
0.27
100
AcDbLine
 10
729.7885727168782
 20
-1110.882974881391
 30
0.0
 11
730.4514095026575
 21
-1107.882931938561
 31
0.0
  0
LINE
  5
20853
330
1F
100
AcDbEntity
  8
0
 48
0.27
100
AcDbLine
 10
729.7885727168782
 20
-1110.882974881391
 30
0.0
 11
731.4770117116563
 21
-1110.882974881391
 31
0.0
  0
LINE
  5
20854
330
1F
100
AcDbEntity
  8
0
 48
0.27
100
AcDbLine
 10
730.4514095026575
 20
-1113.88301916024
 30
0.0
 11
729.7885727168782
 21
-1110.882974881391
 31
0.0
  0
LINE
  5
20855
330
1F
100
AcDbEntity
  8
0
 48
0.27
100
AcDbLine
 10
732.3633392102024
 20
-1113.654654647553
 30
0.0
 11
732.1648534423188
 21
-1113.377421205951
 31
0.0
  0
LINE
  5
20856
330
1F
100
AcDbEntity
  8
0
 48
0.27
100
AcDbLine
 10
732.1648534423188
 20
-1108.388529892849
 30
0.0
 11
732.3633392102024
 21
-1108.111296451248
 31
0.0
  0
LINE
  5
20857
330
1F
100
AcDbEntity
  8
0
 48
0.27
100
AcDbLine
 10
732.1648534423188
 20
-1113.377421205951
 30
0.0
 11
731.9908796279228
 21
-1113.004327014311
 31
0.0
  0
LINE
  5
20858
330
1F
100
AcDbEntity
  8
0
 48
0.27
100
AcDbLine
 10
731.9908796279228
 20
-1108.761624084489
 30
0.0
 11
732.1648534423188
 21
-1108.388529892849
 31
0.0
  0
LINE
  5
20859
330
1F
100
AcDbEntity
  8
0
 48
0.27
100
AcDbLine
 10
732.1398484974365
 20
-1113.88301916024
 30
0.0
 11
731.4770117116563
 21
-1110.882974881391
 31
0.0
  0
LINE
  5
2085A
330
1F
100
AcDbEntity
  8
0
 48
0.27
100
AcDbLine
 10
731.4770117116563
 20
-1110.882974881391
 30
0.0
 11
732.1398484974365
 21
-1107.882931938561
 31
0.0
  0
LINE
  5
2085B
330
1F
100
AcDbEntity
  8
0
 48
0.27
100
AcDbLine
 10
731.9908796279228
 20
-1113.004327014311
 30
0.0
 11
731.8481018737525
 21
-1112.549710236061
 31
0.0
  0
LINE
  5
2085C
330
1F
100
AcDbEntity
  8
0
 48
0.27
100
AcDbLine
 10
731.8481018737525
 20
-1109.216240862739
 30
0.0
 11
731.9908796279228
 21
-1108.761624084489
 31
0.0
  0
LINE
  5
2085D
330
1F
100
AcDbEntity
  8
0
 48
0.27
100
AcDbLine
 10
731.8481018737525
 20
-1112.549710236061
 30
0.0
 11
731.7420098848165
 21
-1112.031042000946
 31
0.0
  0
LINE
  5
2085E
330
1F
100
AcDbEntity
  8
0
 48
0.27
100
AcDbLine
 10
731.7420098848165
 20
-1109.734907761835
 30
0.0
 11
731.8481018737525
 21
-1109.216240862739
 31
0.0
  0
LINE
  5
2085F
330
1F
100
AcDbEntity
  8
0
 48
0.27
100
AcDbLine
 10
731.7420098848165
 20
-1112.031042000946
 30
0.0
 11
731.6766785210743
 21
-1111.468254387123
 31
0.0
  0
LINE
  5
20860
330
1F
100
AcDbEntity
  8
0
 48
0.27
100
AcDbLine
 10
731.6766785210743
 20
-1110.297695375757
 30
0.0
 11
731.7420098848165
 21
-1109.734907761835
 31
0.0
  0
LINE
  5
20861
330
1F
100
AcDbEntity
  8
0
 48
0.27
100
AcDbLine
 10
731.6766785210743
 20
-1111.468254387123
 30
0.0
 11
731.6546181636608
 21
-1110.882974881391
 31
0.0
  0
LINE
  5
20862
330
1F
100
AcDbEntity
  8
0
 48
0.27
100
AcDbLine
 10
731.6546181636608
 20
-1110.882974881391
 30
0.0
 11
731.6766785210743
 21
-1110.297695375757
 31
0.0
  0
LINE
  5
20863
330
1F
100
AcDbEntity
  8
0
 48
0.27
100
AcDbLine
 10
733.0266623071788
 20
-1113.825373917857
 30
0.0
 11
735.0284981250702
 21
-1112.919545875651
 31
0.0
  0
LINE
  5
20864
330
1F
100
AcDbEntity
  8
0
 48
0.27
100
AcDbLine
 10
733.0266623071788
 20
-1107.940577180944
 30
0.0
 11
735.0284981250702
 21
-1108.846405223149
 31
0.0
  0
LINE
  5
20865
330
1F
100
AcDbEntity
  8
0
 48
0.27
100
AcDbLine
 10
732.0366783835366
 20
-1107.882931938561
 30
0.0
 11
731.4593188026742
 21
-1106.882917178945
 31
0.0
  0
LINE
  5
20866
330
1F
100
AcDbEntity
  8
0
 62
     3
100
AcDbLine
 10
703.3832603365376
 20
-1130.971934630149
 30
0.0
 11
702.903437877876
 21
-1130.492112171488
 31
0.0
  0
LINE
  5
20867
330
1F
100
AcDbEntity
  8
0
 62
     3
100
AcDbLine
 10
703.9388442360413
 20
-1130.416350730645
 30
0.0
 11
703.4590217773796
 21
-1129.936528271984
 31
0.0
  0
CIRCLE
  5
20868
330
1F
100
AcDbEntity
  8
0
 62
     3
100
AcDbCircle
 10
702.5498844872827
 20
-1129.582974881391
 30
0.0
 40
2.75
  0
LINE
  5
20869
330
1F
100
AcDbEntity
  8
0
 62
     3
100
AcDbLine
 10
703.9388442360413
 20
-1130.416350730645
 30
0.0
 11
703.3832603365376
 21
-1130.971934630149
 31
0.0
  0
LINE
  5
2086A
330
1F
100
AcDbEntity
  8
0
 62
     3
100
AcDbLine
 10
701.6407471971852
 20
-1129.936528271984
 30
0.0
 11
701.1609247385231
 21
-1130.416350730646
 31
0.0
  0
LINE
  5
2086B
330
1F
100
AcDbEntity
  8
0
 62
     3
100
AcDbLine
 10
702.1963310966894
 20
-1130.492112171487
 30
0.0
 11
701.7165086380268
 21
-1130.971934630149
 31
0.0
  0
LINE
  5
2086C
330
1F
100
AcDbEntity
  8
0
 62
     3
100
AcDbLine
 10
701.7165086380268
 20
-1128.194015132631
 30
0.0
 11
702.1963310966892
 21
-1128.673837591294
 31
0.0
  0
LINE
  5
2086D
330
1F
100
AcDbEntity
  8
0
 62
     3
100
AcDbLine
 10
701.6407471971854
 20
-1129.229421490797
 30
0.0
 11
701.1609247385231
 21
-1128.749599032135
 31
0.0
  0
LINE
  5
2086E
330
1F
100
AcDbEntity
  8
0
 62
     3
100
AcDbLine
 10
703.3832603365376
 20
-1128.194015132631
 30
0.0
 11
703.9388442360413
 21
-1128.749599032135
 31
0.0
  0
LINE
  5
2086F
330
1F
100
AcDbEntity
  8
0
 62
     3
100
AcDbLine
 10
703.3832603365376
 20
-1128.194015132631
 30
0.0
 11
702.903437877876
 21
-1128.673837591293
 31
0.0
  0
LINE
  5
20870
330
1F
100
AcDbEntity
  8
0
 62
     3
100
AcDbLine
 10
703.9388442360413
 20
-1128.749599032135
 30
0.0
 11
703.4590217773796
 21
-1129.229421490798
 31
0.0
  0
LINE
  5
20871
330
1F
100
AcDbEntity
  8
0
 62
     3
100
AcDbLine
 10
701.1609247385231
 20
-1128.749599032135
 30
0.0
 11
701.7165086380268
 21
-1128.194015132631
 31
0.0
  0
LINE
  5
20872
330
1F
100
AcDbEntity
  8
0
 62
     3
100
AcDbLine
 10
701.7165086380268
 20
-1130.971934630149
 30
0.0
 11
701.1609247385231
 21
-1130.416350730646
 31
0.0
  0
LINE
  5
20873
330
1F
100
AcDbEntity
  8
0
 62
     3
100
AcDbLine
 10
756.5832603365377
 20
-1130.971934630149
 30
0.0
 11
756.1034378778758
 21
-1130.492112171487
 31
0.0
  0
LINE
  5
20874
330
1F
100
AcDbEntity
  8
0
 62
     3
100
AcDbLine
 10
757.1388442360414
 20
-1130.416350730645
 30
0.0
 11
756.6590217773797
 21
-1129.936528271984
 31
0.0
  0
CIRCLE
  5
20875
330
1F
100
AcDbEntity
  8
0
 62
     3
100
AcDbCircle
 10
755.7498844872825
 20
-1129.582974881391
 30
0.0
 40
2.75
  0
LINE
  5
20876
330
1F
100
AcDbEntity
  8
0
 62
     3
100
AcDbLine
 10
757.1388442360414
 20
-1130.416350730645
 30
0.0
 11
756.5832603365377
 21
-1130.971934630149
 31
0.0
  0
LINE
  5
20877
330
1F
100
AcDbEntity
  8
0
 62
     3
100
AcDbLine
 10
754.8407471971854
 20
-1129.936528271984
 30
0.0
 11
754.3609247385232
 21
-1130.416350730646
 31
0.0
  0
LINE
  5
20878
330
1F
100
AcDbEntity
  8
0
 62
     3
100
AcDbLine
 10
755.3963310966893
 20
-1130.492112171487
 30
0.0
 11
754.9165086380269
 21
-1130.971934630149
 31
0.0
  0
LINE
  5
20879
330
1F
100
AcDbEntity
  8
0
 62
     3
100
AcDbLine
 10
754.9165086380269
 20
-1128.194015132631
 30
0.0
 11
755.3963310903674
 21
-1128.673837591294
 31
0.0
  0
LINE
  5
2087A
330
1F
100
AcDbEntity
  8
0
 62
     3
100
AcDbLine
 10
754.8407471971856
 20
-1129.229421490798
 30
0.0
 11
754.3609247385232
 21
-1128.749599032135
 31
0.0
  0
LINE
  5
2087B
330
1F
100
AcDbEntity
  8
0
 62
     3
100
AcDbLine
 10
756.5832603365377
 20
-1128.194015132631
 30
0.0
 11
757.1388442360414
 21
-1128.749599032135
 31
0.0
  0
LINE
  5
2087C
330
1F
100
AcDbEntity
  8
0
 62
     3
100
AcDbLine
 10
756.5832603365377
 20
-1128.194015132631
 30
0.0
 11
756.1034378715541
 21
-1128.673837591293
 31
0.0
  0
LINE
  5
2087D
330
1F
100
AcDbEntity
  8
0
 62
     3
100
AcDbLine
 10
757.1388442360414
 20
-1128.749599032135
 30
0.0
 11
756.6590217773796
 21
-1129.229421490798
 31
0.0
  0
LINE
  5
2087E
330
1F
100
AcDbEntity
  8
0
 62
     3
100
AcDbLine
 10
754.3609247385232
 20
-1128.749599032135
 30
0.0
 11
754.9165086380269
 21
-1128.194015132631
 31
0.0
  0
LINE
  5
2087F
330
1F
100
AcDbEntity
  8
0
 62
     3
100
AcDbLine
 10
754.9165086380269
 20
-1130.971934630149
 30
0.0
 11
754.3609247385232
 21
-1130.416350730646
 31
0.0
  0
LINE
  5
20880
330
1F
100
AcDbEntity
  8
0
  6
Continuous
 62
     7
100
AcDbLine
 10
884.3605609179471
 20
-1130.332974881391
 30
0.0
 11
884.3605609179471
 21
-1129.582974881391
 31
0.0
  0
ARC
  5
20881
330
1F
100
AcDbEntity
  8
0
  6
Continuous
 62
     7
100
AcDbCircle
 10
886.3605609179471
 20
-1128.832974881391
 30
0.0
 40
2.0
100
AcDbArc
 50
126.8698976458518
 51
180.0
  0
ARC
  5
20882
330
1F
100
AcDbEntity
  8
0
  6
Continuous
 62
     7
100
AcDbCircle
 10
886.3605609179471
 20
-1130.332974881391
 30
0.0
 40
2.0
100
AcDbArc
 50
180.0
 51
233.1301023541481
  0
LINE
  5
20883
330
1F
100
AcDbEntity
  8
0
  6
Continuous
 62
     7
100
AcDbLine
 10
885.1605609179468
 20
-1140.382974881391
 30
0.0
 11
885.160560917947
 21
-1105.182974881391
 31
0.0
  0
LINE
  5
20884
330
1F
100
AcDbEntity
  8
0
  6
Continuous
 62
     7
100
AcDbLine
 10
1016.960560917947
 20
-1140.382974881391
 30
0.0
 11
1016.960560917947
 21
-1105.182974881391
 31
0.0
  0
LINE
  5
20885
330
1F
100
AcDbEntity
  8
0
  6
Continuous
 62
     7
100
AcDbLine
 10
884.3605609179471
 20
-1129.582974881391
 30
0.0
 11
884.3605609179471
 21
-1128.832974881391
 31
0.0
  0
LINE
  5
20886
330
1F
100
AcDbEntity
  8
0
  6
Continuous
 62
     7
100
AcDbLine
 10
1017.760560917947
 20
-1130.332974881391
 30
0.0
 11
1017.760560917947
 21
-1129.582974881391
 31
0.0
  0
ARC
  5
20887
330
1F
100
AcDbEntity
  8
0
  6
Continuous
 62
     7
100
AcDbCircle
 10
1015.760560917947
 20
-1128.832974881391
 30
0.0
 40
2.0
100
AcDbArc
 50
0.0
 51
53.13010235415337
  0
ARC
  5
20888
330
1F
100
AcDbEntity
  8
0
  6
Continuous
 62
     7
100
AcDbCircle
 10
1015.760560917947
 20
-1130.332974881391
 30
0.0
 40
2.0
100
AcDbArc
 50
306.8698976458467
 51
0.0
  0
LINE
  5
20889
330
1F
100
AcDbEntity
  8
0
  6
Continuous
 62
     7
100
AcDbLine
 10
1017.760560917947
 20
-1129.582974881391
 30
0.0
 11
1017.760560917947
 21
-1128.832974881391
 31
0.0
  0
LINE
  5
2088A
330
1F
100
AcDbEntity
  8
中心線
 48
0.25
100
AcDbLine
 10
739.8844394557714
 20
-1110.882974881391
 30
0.0
 11
723.516899155315
 21
-1110.882974881391
 31
0.0
  0
LINE
  5
2088B
330
1F
100
AcDbEntity
  8
0
  6
Continuous
 62
     7
100
AcDbLine
 10
835.5605609179461
 20
-1145.88297488139
 30
0.0
 11
835.5605609179461
 21
-1130.682974881391
 31
0.0
  0
LINE
  5
2088C
330
1F
100
AcDbEntity
  8
0
  6
Continuous
 62
     7
100
AcDbLine
 10
824.0605609179462
 20
-1130.382974881391
 30
0.0
 11
824.0605609179462
 21
-1118.782974881391
 31
0.0
  0
LINE
  5
2088D
330
1F
100
AcDbEntity
  8
0
  6
Continuous
 62
     7
100
AcDbLine
 10
838.0605609179461
 20
-1130.382974881391
 30
0.0
 11
838.0605609179461
 21
-1118.782974881391
 31
0.0
  0
LINE
  5
2088E
330
1F
100
AcDbEntity
  8
0
  6
Continuous
 62
     7
100
AcDbLine
 10
835.8605609179461
 20
-1130.382974881391
 30
0.0
 11
835.5605609179461
 21
-1130.682974881391
 31
0.0
  0
LINE
  5
2088F
330
1F
100
AcDbEntity
  8
0
  6
Continuous
 62
     7
100
AcDbLine
 10
826.2605609179463
 20
-1130.382974881391
 30
0.0
 11
826.5605609179461
 21
-1130.682974881391
 31
0.0
  0
LINE
  5
20890
330
1F
100
AcDbEntity
  8
0
  6
Continuous
 62
     7
100
AcDbLine
 10
835.5605609179461
 20
-1130.682974881391
 30
0.0
 11
826.5605609179461
 21
-1130.682974881391
 31
0.0
  0
LINE
  5
20891
330
1F
100
AcDbEntity
  8
0
  6
Continuous
 62
     7
100
AcDbLine
 10
838.0605609179461
 20
-1130.382974881391
 30
0.0
 11
824.0605609179462
 21
-1130.382974881391
 31
0.0
  0
LINE
  5
20892
330
1F
100
AcDbEntity
  8
0
  6
Continuous
 62
     7
100
AcDbLine
 10
838.2915010256219
 20
-1118.382974881391
 30
0.0
 11
838.0605609179461
 21
-1118.782974881391
 31
0.0
  0
LINE
  5
20893
330
1F
100
AcDbEntity
  8
0
  6
Continuous
 62
     7
100
AcDbLine
 10
824.0605609179462
 20
-1118.782974881391
 30
0.0
 11
823.8296208102703
 21
-1118.382974881391
 31
0.0
  0
LINE
  5
20894
330
1F
100
AcDbEntity
  8
0
  6
Continuous
 62
     7
100
AcDbLine
 10
838.0605609179461
 20
-1118.782974881391
 30
0.0
 11
824.0605609179462
 21
-1118.782974881391
 31
0.0
  0
LINE
  5
20895
330
1F
100
AcDbEntity
  8
0
  6
Continuous
 62
     7
100
AcDbLine
 10
826.5605609179459
 20
-1145.882974881392
 30
0.0
 11
826.5605609179461
 21
-1130.682974881391
 31
0.0
  0
LINE
  5
20896
330
1F
100
AcDbEntity
  8
0
  6
Continuous
 62
     7
100
AcDbLine
 10
824.0605609179462
 20
-1130.382974881391
 30
0.0
 11
824.0605609179462
 21
-1118.782974881391
 31
0.0
  0
LINE
  5
20897
330
1F
100
AcDbEntity
  8
0
  6
Continuous
 62
     7
100
AcDbLine
 10
826.2605609179463
 20
-1130.382974881391
 30
0.0
 11
826.5605609179461
 21
-1130.682974881391
 31
0.0
  0
LINE
  5
20898
330
1F
100
AcDbEntity
  8
0
  6
Continuous
 62
     7
100
AcDbLine
 10
823.8296208102703
 20
-1118.382974881391
 30
0.0
 11
824.0605609179462
 21
-1118.782974881391
 31
0.0
  0
LINE
  5
20899
330
1F
100
AcDbEntity
  8
0
  6
Continuous
 62
     7
100
AcDbLine
 10
835.5605609179473
 20
-1145.882974881391
 30
0.0
 11
826.5605609179473
 21
-1145.882974881391
 31
0.0
  0
LINE
  5
2089A
330
1F
100
AcDbEntity
  8
0
  6
Continuous
 62
     7
100
AcDbLine
 10
836.0605609179472
 20
-1146.382974881391
 30
0.0
 11
835.5605609179471
 21
-1145.882974881391
 31
0.0
  0
LINE
  5
2089B
330
1F
100
AcDbEntity
  8
0
  6
Continuous
 62
     7
100
AcDbLine
 10
826.0605609179471
 20
-1146.382974881391
 30
0.0
 11
826.5605609179473
 21
-1145.882974881391
 31
0.0
  0
LINE
  5
2089C
330
1F
100
AcDbEntity
  8
中心線
 48
0.2
100
AcDbLine
 10
831.0605609179473
 20
-1116.200436733754
 30
0.0
 11
831.0605609179471
 21
-1148.188009148999
 31
0.0
  0
LINE
  5
2089D
330
1F
100
AcDbEntity
  8
中心線
 48
0.3
100
AcDbLine
 10
883.3968342195687
 20
-1129.582974881391
 30
0.0
 11
887.2164866474232
 21
-1129.582974881391
 31
0.0
  0
LINE
  5
2089E
330
1F
100
AcDbEntity
  8
中心線
 48
0.3
100
AcDbLine
 10
1014.79883682818
 20
-1129.582974881391
 30
0.0
 11
1018.618489256034
 21
-1129.582974881391
 31
0.0
  0
LINE
  5
2089F
330
1F
100
AcDbEntity
  8
中心線
 48
0.2
100
AcDbLine
 10
951.0605609179473
 20
-1140.382974881391
 30
0.0
 11
951.0605609179471
 21
-1148.188009149
 31
0.0
  0
LINE
  5
208A0
330
1F
100
AcDbEntity
  8
虛線
 48
0.2
100
AcDbLine
 10
875.5605609179474
 20
-1145.882974881391
 30
0.0
 11
866.5605609179474
 21
-1145.882974881391
 31
0.0
  0
LINE
  5
208A1
330
1F
100
AcDbEntity
  8
虛線
 48
0.2
100
AcDbLine
 10
876.0605609179473
 20
-1146.382974881391
 30
0.0
 11
875.560560917947
 21
-1145.882974881391
 31
0.0
  0
LINE
  5
208A2
330
1F
100
AcDbEntity
  8
虛線
 48
0.2
100
AcDbLine
 10
866.0605609179471
 20
-1146.382974881391
 30
0.0
 11
866.5605609179474
 21
-1145.882974881391
 31
0.0
  0
LINE
  5
208A3
330
1F
100
AcDbEntity
  8
虛線
 48
0.2
100
AcDbLine
 10
915.5605609179463
 20
-1145.882974881391
 30
0.0
 11
915.560560917946
 21
-1140.382974881391
 31
0.0
  0
LINE
  5
208A4
330
1F
100
AcDbEntity
  8
虛線
 48
0.2
100
AcDbLine
 10
906.5605609179458
 20
-1145.88297488139
 30
0.0
 11
906.5605609179462
 21
-1140.382974881391
 31
0.0
  0
LINE
  5
208A5
330
1F
100
AcDbEntity
  8
虛線
 48
0.2
100
AcDbLine
 10
915.5605609179463
 20
-1145.882974881391
 30
0.0
 11
906.5605609179458
 21
-1145.88297488139
 31
0.0
  0
LINE
  5
208A6
330
1F
100
AcDbEntity
  8
虛線
 48
0.2
100
AcDbLine
 10
916.0605609179473
 20
-1146.38297488139
 30
0.0
 11
915.560560917947
 21
-1145.882974881391
 31
0.0
  0
LINE
  5
208A7
330
1F
100
AcDbEntity
  8
虛線
 48
0.2
100
AcDbLine
 10
906.0605609179471
 20
-1146.38297488139
 30
0.0
 11
906.5605609179472
 21
-1145.882974881391
 31
0.0
  0
LINE
  5
208A8
330
1F
100
AcDbEntity
  8
虛線
 48
0.2
100
AcDbLine
 10
955.5605609179462
 20
-1145.88297488139
 30
0.0
 11
955.5605609179462
 21
-1140.382974881391
 31
0.0
  0
LINE
  5
208A9
330
1F
100
AcDbEntity
  8
虛線
 48
0.2
100
AcDbLine
 10
946.560560917946
 20
-1145.882974881392
 30
0.0
 11
946.5605609179464
 21
-1140.382974881391
 31
0.0
  0
LINE
  5
208AA
330
1F
100
AcDbEntity
  8
虛線
 48
0.2
100
AcDbLine
 10
955.5605609179472
 20
-1145.882974881391
 30
0.0
 11
946.5605609179473
 21
-1145.882974881391
 31
0.0
  0
LINE
  5
208AB
330
1F
100
AcDbEntity
  8
虛線
 48
0.2
100
AcDbLine
 10
956.0605609179473
 20
-1146.382974881391
 30
0.0
 11
955.5605609179471
 21
-1145.882974881391
 31
0.0
  0
LINE
  5
208AC
330
1F
100
AcDbEntity
  8
虛線
 48
0.2
100
AcDbLine
 10
946.060560917947
 20
-1146.382974881391
 30
0.0
 11
946.5605609179473
 21
-1145.882974881391
 31
0.0
  0
LINE
  5
208AD
330
1F
100
AcDbEntity
  8
中心線
 48
0.2
100
AcDbLine
 10
911.0605609179472
 20
-1140.382974881391
 30
0.0
 11
911.060560917947
 21
-1148.188009149
 31
0.0
  0
LINE
  5
208AE
330
1F
100
AcDbEntity
  8
中心線
 48
0.2
100
AcDbLine
 10
729.1498844872826
 20
-1099.608141676132
 30
0.0
 11
729.1498844872835
 21
-1148.936205302206
 31
0.0
  0
LINE
  5
208AF
330
1F
100
AcDbEntity
  8
中心線
 48
0.2
100
AcDbLine
 10
709.1498844872826
 20
-1100.182974881391
 30
0.0
 11
709.1498844872835
 21
-1118.095965374145
 31
0.0
  0
LINE
  5
208B0
330
1F
100
AcDbEntity
  8
虛線
 48
0.2
100
AcDbLine
 10
713.1498844872826
 20
-1101.582974881391
 30
0.0
 11
713.1498844872826
 21
-1111.682974881391
 31
0.0
  0
LINE
  5
208B1
330
1F
100
AcDbEntity
  8
虛線
 48
0.2
100
AcDbLine
 10
705.1498844872826
 20
-1111.682974881391
 30
0.0
 11
713.1498844872826
 21
-1111.682974881391
 31
0.0
  0
LINE
  5
208B2
330
1F
100
AcDbEntity
  8
虛線
 48
0.2
100
AcDbLine
 10
705.7498844872839
 20
-1115.682974881391
 30
0.0
 11
712.5498844872831
 21
-1115.682974881391
 31
0.0
  0
LINE
  5
208B3
330
1F
100
AcDbEntity
  8
虛線
 48
0.2
100
AcDbLine
 10
712.5498844872841
 20
-1115.682974881391
 30
0.0
 11
709.1498844872845
 21
-1117.645965374144
 31
0.0
  0
LINE
  5
208B4
330
1F
100
AcDbEntity
  8
虛線
 48
0.2
100
AcDbLine
 10
705.7498844872839
 20
-1115.682974881391
 30
0.0
 11
709.1498844872845
 21
-1117.645965374144
 31
0.0
  0
LINE
  5
208B5
330
1F
100
AcDbEntity
  8
虛線
 48
0.2
100
AcDbLine
 10
705.1498844872826
 20
-1101.582974881393
 30
0.0
 11
705.1498844872826
 21
-1111.682974881391
 31
0.0
  0
LINE
  5
208B6
330
1F
100
AcDbEntity
  8
虛線
 48
0.2
100
AcDbLine
 10
705.749884487283
 20
-1102.182974881391
 30
0.0
 11
712.5498844872831
 21
-1102.182974881391
 31
0.0
  0
LINE
  5
208B7
330
1F
100
AcDbEntity
  8
虛線
 48
0.2
100
AcDbLine
 10
712.5498844872831
 20
-1102.18297488139
 30
0.0
 11
713.3498844872833
 21
-1101.382974881391
 31
0.0
  0
LINE
  5
208B8
330
1F
100
AcDbEntity
  8
虛線
 48
0.3
100
AcDbLine
 10
705.749884487283
 20
-1102.182974881391
 30
0.0
 11
704.9498844872828
 21
-1101.382974881391
 31
0.0
  0
LINE
  5
208B9
330
1F
100
AcDbEntity
  8
虛線
 48
0.2
100
AcDbLine
 10
712.5498844872822
 20
-1102.182974881391
 30
0.0
 11
712.5498844872831
 21
-1115.682974881391
 31
0.0
  0
LINE
  5
208BA
330
1F
100
AcDbEntity
  8
虛線
 48
0.2
100
AcDbLine
 10
705.749884487283
 20
-1102.182974881391
 30
0.0
 11
705.7498844872839
 21
-1115.682974881391
 31
0.0
  0
LINE
  5
208BB
330
1F
100
AcDbEntity
  8
虛線
 48
0.2
100
AcDbLine
 10
732.549884487284
 20
-1102.482974881391
 30
0.0
 11
732.5498844872831
 21
-1116.632974881391
 31
0.0
  0
LINE
  5
208BC
330
1F
100
AcDbEntity
  8
虛線
 48
0.2
100
AcDbLine
 10
725.7498844872839
 20
-1102.482974881391
 30
0.0
 11
725.7498844872839
 21
-1116.632974881391
 31
0.0
  0
LINE
  5
208BD
330
1F
100
AcDbEntity
  8
中心線
 48
0.2
100
AcDbLine
 10
749.1498844872844
 20
-1100.182974881391
 30
0.0
 11
749.1498844872835
 21
-1118.095965374145
 31
0.0
  0
LINE
  5
208BE
330
1F
100
AcDbEntity
  8
虛線
 48
0.2
100
AcDbLine
 10
745.1498844872844
 20
-1101.582974881391
 30
0.0
 11
745.1498844872844
 21
-1111.682974881391
 31
0.0
  0
LINE
  5
208BF
330
1F
100
AcDbEntity
  8
虛線
 48
0.2
100
AcDbLine
 10
753.1498844872844
 20
-1111.682974881391
 30
0.0
 11
745.1498844872844
 21
-1111.682974881391
 31
0.0
  0
LINE
  5
208C0
330
1F
100
AcDbEntity
  8
虛線
 48
0.2
100
AcDbLine
 10
752.5498844872831
 20
-1115.682974881391
 30
0.0
 11
745.7498844872839
 21
-1115.682974881391
 31
0.0
  0
LINE
  5
208C1
330
1F
100
AcDbEntity
  8
虛線
 48
0.2
100
AcDbLine
 10
745.749884487283
 20
-1115.682974881391
 30
0.0
 11
749.1498844872826
 21
-1117.645965374144
 31
0.0
  0
LINE
  5
208C2
330
1F
100
AcDbEntity
  8
虛線
 48
0.2
100
AcDbLine
 10
752.5498844872831
 20
-1115.682974881391
 30
0.0
 11
749.1498844872826
 21
-1117.645965374144
 31
0.0
  0
LINE
  5
208C3
330
1F
100
AcDbEntity
  8
虛線
 48
0.2
100
AcDbLine
 10
753.1498844872844
 20
-1101.582974881393
 30
0.0
 11
753.1498844872844
 21
-1111.682974881391
 31
0.0
  0
LINE
  5
208C4
330
1F
100
AcDbEntity
  8
虛線
 48
0.2
100
AcDbLine
 10
752.549884487284
 20
-1102.182974881391
 30
0.0
 11
745.7498844872839
 21
-1102.182974881391
 31
0.0
  0
LINE
  5
208C5
330
1F
100
AcDbEntity
  8
虛線
 48
0.2
100
AcDbLine
 10
745.7498844872839
 20
-1102.18297488139
 30
0.0
 11
744.9498844872837
 21
-1101.382974881391
 31
0.0
  0
LINE
  5
208C6
330
1F
100
AcDbEntity
  8
虛線
 48
0.2
100
AcDbLine
 10
752.549884487284
 20
-1102.182974881391
 30
0.0
 11
753.3498844872842
 21
-1101.382974881391
 31
0.0
  0
LINE
  5
208C7
330
1F
100
AcDbEntity
  8
虛線
 48
0.2
100
AcDbLine
 10
745.7498844872848
 20
-1102.182974881391
 30
0.0
 11
745.7498844872839
 21
-1115.682974881391
 31
0.0
  0
LINE
  5
208C8
330
1F
100
AcDbEntity
  8
虛線
 48
0.2
100
AcDbLine
 10
752.549884487284
 20
-1102.182974881391
 30
0.0
 11
752.5498844872831
 21
-1115.682974881391
 31
0.0
  0
LINE
  5
208C9
330
1F
100
AcDbEntity
  8
虛線
 48
0.2
100
AcDbLine
 10
733.1498844872835
 20
-1101.582974881391
 30
0.0
 11
733.1498844872826
 21
-1111.682974881391
 31
0.0
  0
LINE
  5
208CA
330
1F
100
AcDbEntity
  8
虛線
 48
0.2
100
AcDbLine
 10
725.1498844872835
 20
-1111.682974881391
 30
0.0
 11
733.1498844872826
 21
-1111.682974881391
 31
0.0
  0
LINE
  5
208CB
330
1F
100
AcDbEntity
  8
虛線
 48
0.2
100
AcDbLine
 10
725.1498844872835
 20
-1101.582974881393
 30
0.0
 11
725.1498844872835
 21
-1111.682974881391
 31
0.0
  0
LINE
  5
208CC
330
1F
100
AcDbEntity
  8
虛線
 48
0.2
100
AcDbLine
 10
725.749884487283
 20
-1102.18297488139
 30
0.0
 11
732.549884487284
 21
-1102.182974881391
 31
0.0
  0
LINE
  5
208CD
330
1F
100
AcDbEntity
  8
虛線
 48
0.2
100
AcDbLine
 10
732.549884487284
 20
-1102.18297488139
 30
0.0
 11
733.3498844872852
 21
-1101.382974881391
 31
0.0
  0
LINE
  5
208CE
330
1F
100
AcDbEntity
  8
虛線
 48
0.2
100
AcDbLine
 10
725.749884487283
 20
-1102.18297488139
 30
0.0
 11
724.9498844872837
 21
-1101.382974881391
 31
0.0
  0
LINE
  5
208E5
330
1F
100
AcDbEntity
  8
中心線
 48
0.2
100
AcDbLine
 10
921.060560917947
 20
-1100.182974881391
 30
0.0
 11
921.0605609179479
 21
-1118.095965374145
 31
0.0
  0
LINE
  5
208E6
330
1F
100
AcDbEntity
  8
虛線
 48
0.2
100
AcDbLine
 10
925.0605609179469
 20
-1101.582974881391
 30
0.0
 11
925.0605609179469
 21
-1111.682974881391
 31
0.0
  0
LINE
  5
208E7
330
1F
100
AcDbEntity
  8
虛線
 48
0.2
100
AcDbLine
 10
917.0605609179469
 20
-1111.682974881391
 30
0.0
 11
925.0605609179469
 21
-1111.682974881391
 31
0.0
  0
LINE
  5
208E8
330
1F
100
AcDbEntity
  8
虛線
 48
0.2
100
AcDbLine
 10
917.6605609179482
 20
-1115.682974881391
 30
0.0
 11
924.4605609179474
 21
-1115.682974881391
 31
0.0
  0
LINE
  5
208E9
330
1F
100
AcDbEntity
  8
虛線
 48
0.2
100
AcDbLine
 10
924.4605609179485
 20
-1115.682974881391
 30
0.0
 11
921.0605609179488
 21
-1117.645965374144
 31
0.0
  0
LINE
  5
208EA
330
1F
100
AcDbEntity
  8
虛線
 48
0.2
100
AcDbLine
 10
917.6605609179482
 20
-1115.682974881391
 30
0.0
 11
921.0605609179488
 21
-1117.645965374144
 31
0.0
  0
LINE
  5
208EB
330
1F
100
AcDbEntity
  8
虛線
 48
0.2
100
AcDbLine
 10
917.0605609179469
 20
-1101.582974881393
 30
0.0
 11
917.0605609179469
 21
-1111.682974881391
 31
0.0
  0
LINE
  5
208EC
330
1F
100
AcDbEntity
  8
虛線
 48
0.2
100
AcDbLine
 10
917.6605609179473
 20
-1102.182974881391
 30
0.0
 11
924.4605609179474
 21
-1102.182974881391
 31
0.0
  0
LINE
  5
208ED
330
1F
100
AcDbEntity
  8
虛線
 48
0.2
100
AcDbLine
 10
924.4605609179474
 20
-1102.18297488139
 30
0.0
 11
925.2605609179477
 21
-1101.382974881391
 31
0.0
  0
LINE
  5
208EE
330
1F
100
AcDbEntity
  8
虛線
 48
0.2
100
AcDbLine
 10
917.6605609179473
 20
-1102.182974881391
 30
0.0
 11
916.8605609179472
 21
-1101.382974881391
 31
0.0
  0
LINE
  5
208EF
330
1F
100
AcDbEntity
  8
虛線
 48
0.2
100
AcDbLine
 10
924.4605609179465
 20
-1102.182974881391
 30
0.0
 11
924.4605609179474
 21
-1115.682974881391
 31
0.0
  0
LINE
  5
208F0
330
1F
100
AcDbEntity
  8
虛線
 48
0.2
100
AcDbLine
 10
917.6605609179473
 20
-1102.182974881391
 30
0.0
 11
917.6605609179482
 21
-1115.682974881391
 31
0.0
  0
LINE
  5
208F1
330
1F
100
AcDbEntity
  8
虛線
 48
0.2
100
AcDbLine
 10
985.0605609179469
 20
-1101.582974881391
 30
0.0
 11
985.0605609179469
 21
-1111.682974881391
 31
0.0
  0
LINE
  5
208F2
330
1F
100
AcDbEntity
  8
虛線
 48
0.2
100
AcDbLine
 10
977.0605609179469
 20
-1111.682974881391
 30
0.0
 11
985.0605609179469
 21
-1111.682974881391
 31
0.0
  0
LINE
  5
208F3
330
1F
100
AcDbEntity
  8
虛線
 48
0.2
100
AcDbLine
 10
977.6605609179481
 20
-1115.682974881391
 30
0.0
 11
984.4605609179476
 21
-1115.682974881391
 31
0.0
  0
LINE
  5
208F4
330
1F
100
AcDbEntity
  8
虛線
 48
0.2
100
AcDbLine
 10
984.4605609179485
 20
-1115.682974881391
 30
0.0
 11
981.0605609179487
 21
-1117.645965374144
 31
0.0
  0
LINE
  5
208F5
330
1F
100
AcDbEntity
  8
虛線
 48
0.2
100
AcDbLine
 10
977.6605609179481
 20
-1115.682974881391
 30
0.0
 11
981.0605609179487
 21
-1117.645965374144
 31
0.0
  0
LINE
  5
208F6
330
1F
100
AcDbEntity
  8
虛線
 48
0.2
100
AcDbLine
 10
977.0605609179469
 20
-1101.582974881393
 30
0.0
 11
977.0605609179469
 21
-1111.682974881391
 31
0.0
  0
LINE
  5
208F7
330
1F
100
AcDbEntity
  8
虛線
 48
0.2
100
AcDbLine
 10
977.6605609179473
 20
-1102.182974881391
 30
0.0
 11
984.4605609179476
 21
-1102.182974881391
 31
0.0
  0
LINE
  5
208F8
330
1F
100
AcDbEntity
  8
虛線
 48
0.2
100
AcDbLine
 10
984.4605609179476
 20
-1102.18297488139
 30
0.0
 11
985.2605609179477
 21
-1101.382974881391
 31
0.0
  0
LINE
  5
208F9
330
1F
100
AcDbEntity
  8
虛線
 48
0.2
100
AcDbLine
 10
977.6605609179473
 20
-1102.182974881391
 30
0.0
 11
976.8605609179472
 21
-1101.382974881391
 31
0.0
  0
LINE
  5
208FA
330
1F
100
AcDbEntity
  8
虛線
 48
0.2
100
AcDbLine
 10
984.4605609179465
 20
-1102.182974881391
 30
0.0
 11
984.4605609179476
 21
-1115.682974881391
 31
0.0
  0
LINE
  5
208FB
330
1F
100
AcDbEntity
  8
虛線
 48
0.2
100
AcDbLine
 10
977.6605609179473
 20
-1102.182974881391
 30
0.0
 11
977.6605609179481
 21
-1115.682974881391
 31
0.0
  0
LINE
  5
208FC
330
1F
100
AcDbEntity
  8
中心線
 48
0.25
100
AcDbLine
 10
870.1605626769639
 20
-1110.882974881391
 30
0.0
 11
885.4650307915006
 21
-1110.882974881391
 31
0.0
  0
ARC
  5
208FD
330
1F
100
AcDbEntity
  8
0
 48
0.27
100
AcDbCircle
 10
884.352177917947
 20
-1112.882955550291
 30
0.0
 40
2.954110999999976
100
AcDbArc
 50
137.3885930045051
 51
222.1075788515991
  0
ARC
  5
208FE
330
1F
100
AcDbEntity
  8
0
 48
0.27
100
AcDbCircle
 10
884.3521789179469
 20
-1108.882955550291
 30
0.0
 40
2.954111999999976
100
AcDbArc
 50
137.3885980021923
 51
222.611401999896
  0
LWPOLYLINE
  5
208FF
330
1F
100
AcDbEntity
  8
0
 48
0.27
100
AcDbPolyline
 90
       31
 70
     0
 43
0.0
 10
874.0693499179467
 20
-1110.882955550291
 10
874.0365319179471
 20
-1110.672700550291
 10
873.992384917947
 20
-1110.56721355029
 10
873.929351917947
 20
-1110.469434550291
 10
873.8498759179472
 20
-1110.385321550291
 10
873.758384917947
 20
-1110.319448550291
 10
873.6604649179469
 20
-1110.274167550291
 10
873.527828917947
 20
-1110.245226550291
 10
873.4048199179467
 20
-1110.247885550291
 10
873.2978959179471
 20
-1110.273391550291
 10
873.1816909179467
 20
-1110.329159550291
 10
873.0711209179469
 20
-1110.418648550291
 10
872.982890917947
 20
-1110.533198550291
 10
872.926256917947
 20
-1110.653037550291
 10
872.8984059179472
 20
-1110.756693550291
 10
872.886784917947
 20
-1110.882955550291
 10
872.9196029179473
 20
-1111.093210550291
 10
872.9637509179472
 20
-1111.198698550291
 10
873.0267829179473
 20
-1111.296476550291
 10
873.1062589179471
 20
-1111.380589550291
 10
873.1977499179473
 20
-1111.446462550291
 10
873.2956699179474
 20
-1111.491743550291
 10
873.4283059179468
 20
-1111.520685550291
 10
873.5513149179471
 20
-1111.518025550291
 10
873.6582389179472
 20
-1111.492520550291
 10
873.774443917947
 20
-1111.436752550291
 10
873.8850139179474
 20
-1111.347262550291
 10
873.9732439179467
 20
-1111.232713550291
 10
874.0298779179472
 20
-1111.112874550291
 10
874.0577299179474
 20
-1111.009217550291
 10
874.0693499179467
 20
-1110.882955550291
  0
ARC
  5
20900
330
1F
100
AcDbEntity
  8
0
 48
0.27
100
AcDbCircle
 10
877.649726917947
 20
-1110.882955550291
 30
0.0
 40
3.999999999999968
100
AcDbArc
 50
90.0
 51
131.4096219996085
  0
ARC
  5
20901
330
1F
100
AcDbEntity
  8
0
 48
0.27
100
AcDbCircle
 10
877.649726917947
 20
-1110.882955550291
 30
0.0
 40
3.999999999999968
100
AcDbArc
 50
228.5903779972859
 51
270.0
  0
LINE
  5
20902
330
1F
100
AcDbEntity
  8
0
 48
0.27
100
AcDbLine
 10
885.160560917947
 20
-1106.882955550291
 30
0.0
 11
877.649726917947
 21
-1106.882955550291
 31
0.0
  0
LINE
  5
20903
330
1F
100
AcDbEntity
  8
0
 48
0.27
100
AcDbLine
 10
877.649726917947
 20
-1114.882955550291
 30
0.0
 11
885.160560917947
 21
-1114.882955550291
 31
0.0
  0
LINE
  5
20904
330
1F
100
AcDbEntity
  8
0
 48
0.27
100
AcDbLine
 10
881.3980669179469
 20
-1106.882955550291
 30
0.0
 11
881.3980669179469
 21
-1114.882955550291
 31
0.0
  0
LINE
  5
20905
330
1F
100
AcDbEntity
  8
0
 48
0.27
100
AcDbLine
 10
874.1222899179472
 20
-1107.882955550291
 30
0.0
 11
878.022065917947
 21
-1107.882955550291
 31
0.0
  0
LINE
  5
20906
330
1F
100
AcDbEntity
  8
0
 48
0.27
100
AcDbLine
 10
873.8758969179469
 20
-1113.421028550291
 30
0.0
 11
874.1222899179472
 21
-1113.882955550291
 31
0.0
  0
LINE
  5
20907
330
1F
100
AcDbEntity
  8
0
 48
0.27
100
AcDbLine
 10
874.1222899179472
 20
-1107.882955550291
 30
0.0
 11
873.8758969179469
 21
-1108.344882550291
 31
0.0
  0
LINE
  5
20908
330
1F
100
AcDbEntity
  8
0
 48
0.27
100
AcDbLine
 10
878.922907917947
 20
-1110.882955550291
 30
0.0
 11
879.6222719179469
 21
-1110.882955550291
 31
0.0
  0
LINE
  5
20909
330
1F
100
AcDbEntity
  8
0
 48
0.27
100
AcDbLine
 10
878.022065917947
 20
-1107.882955550291
 30
0.0
 11
879.6222719179469
 21
-1110.882955550291
 31
0.0
  0
LINE
  5
2090A
330
1F
100
AcDbEntity
  8
0
 48
0.27
100
AcDbLine
 10
878.022065917947
 20
-1113.882955550291
 30
0.0
 11
874.1222899179472
 21
-1113.882955550291
 31
0.0
  0
LINE
  5
2090B
330
1F
100
AcDbEntity
  8
0
 48
0.27
100
AcDbLine
 10
879.6222719179469
 20
-1110.882955550291
 30
0.0
 11
878.022065917947
 21
-1113.882955550291
 31
0.0
  0
LINE
  5
2090C
330
1F
100
AcDbEntity
  8
0
 48
0.27
100
AcDbLine
 10
874.2433689179467
 20
-1108.353421550291
 30
0.0
 11
874.6618359179471
 21
-1108.111317550291
 31
0.0
  0
LINE
  5
2090D
330
1F
100
AcDbEntity
  8
0
 48
0.27
100
AcDbLine
 10
874.2433689179467
 20
-1113.412490550291
 30
0.0
 11
874.6618359179471
 21
-1113.654594550291
 31
0.0
  0
LINE
  5
2090E
330
1F
100
AcDbEntity
  8
0
 48
0.27
100
AcDbLine
 10
874.6618359179471
 20
-1108.111317550291
 30
0.0
 11
875.1817759179473
 21
-1107.940599550291
 31
0.0
  0
LINE
  5
2090F
330
1F
100
AcDbEntity
  8
0
 48
0.27
100
AcDbLine
 10
874.6618359179471
 20
-1113.654594550291
 30
0.0
 11
875.1817759179473
 21
-1113.825311550291
 31
0.0
  0
LINE
  5
20910
330
1F
100
AcDbEntity
  8
0
 48
0.27
100
AcDbLine
 10
875.1817759179473
 20
-1107.940599550291
 30
0.0
 11
875.7224959179472
 21
-1107.882955550291
 31
0.0
  0
LINE
  5
20911
330
1F
100
AcDbEntity
  8
0
 48
0.27
100
AcDbLine
 10
875.1817759179473
 20
-1113.825311550291
 30
0.0
 11
875.7224959179472
 21
-1113.882955550291
 31
0.0
  0
LINE
  5
20912
330
1F
100
AcDbEntity
  8
0
 48
0.27
100
AcDbLine
 10
875.7224959179472
 20
-1107.882955550291
 30
0.0
 11
876.2632159179473
 21
-1107.940599550291
 31
0.0
  0
LINE
  5
20913
330
1F
100
AcDbEntity
  8
0
 48
0.27
100
AcDbLine
 10
875.7224959179472
 20
-1113.882955550291
 30
0.0
 11
876.2632159179473
 21
-1113.825311550291
 31
0.0
  0
LINE
  5
20914
330
1F
100
AcDbEntity
  8
0
 48
0.27
100
AcDbLine
 10
876.2632159179473
 20
-1107.940599550291
 30
0.0
 11
876.7831559179469
 21
-1108.111317550291
 31
0.0
  0
LINE
  5
20915
330
1F
100
AcDbEntity
  8
0
 48
0.27
100
AcDbLine
 10
876.2632159179473
 20
-1113.825311550291
 30
0.0
 11
876.7831559179469
 21
-1113.654594550291
 31
0.0
  0
LINE
  5
20916
330
1F
100
AcDbEntity
  8
0
 48
0.27
100
AcDbLine
 10
876.7831559179469
 20
-1108.111317550291
 30
0.0
 11
877.2623359179467
 21
-1108.388546550291
 31
0.0
  0
LINE
  5
20917
330
1F
100
AcDbEntity
  8
0
 48
0.27
100
AcDbLine
 10
876.7831559179469
 20
-1113.654594550291
 30
0.0
 11
877.2623359179467
 21
-1113.377364550291
 31
0.0
  0
LINE
  5
20918
330
1F
100
AcDbEntity
  8
0
 48
0.27
100
AcDbLine
 10
877.2623359179467
 20
-1108.388546550291
 30
0.0
 11
877.6823399179473
 21
-1108.761635550291
 31
0.0
  0
LINE
  5
20919
330
1F
100
AcDbEntity
  8
0
 48
0.27
100
AcDbLine
 10
877.2623359179467
 20
-1113.377364550291
 30
0.0
 11
877.6823399179473
 21
-1113.004276550291
 31
0.0
  0
LINE
  5
2091A
330
1F
100
AcDbEntity
  8
0
 48
0.27
100
AcDbLine
 10
877.3227019179474
 20
-1107.882955550291
 30
0.0
 11
878.922907917947
 21
-1110.882955550291
 31
0.0
  0
LINE
  5
2091B
330
1F
100
AcDbEntity
  8
0
 48
0.27
100
AcDbLine
 10
878.922907917947
 20
-1110.882955550291
 30
0.0
 11
877.3227019179474
 21
-1113.882955550291
 31
0.0
  0
LINE
  5
2091C
330
1F
100
AcDbEntity
  8
0
 48
0.27
100
AcDbLine
 10
877.6823399179473
 20
-1108.761635550291
 30
0.0
 11
878.0270289179467
 21
-1109.216245550291
 31
0.0
  0
LINE
  5
2091D
330
1F
100
AcDbEntity
  8
0
 48
0.27
100
AcDbLine
 10
878.0270289179467
 20
-1112.549666550291
 30
0.0
 11
877.6823399179473
 21
-1113.004276550291
 31
0.0
  0
LINE
  5
2091E
330
1F
100
AcDbEntity
  8
0
 48
0.27
100
AcDbLine
 10
878.0270289179467
 20
-1109.216245550291
 30
0.0
 11
878.2831559179468
 21
-1109.73490555029
 31
0.0
  0
LINE
  5
2091F
330
1F
100
AcDbEntity
  8
0
 48
0.27
100
AcDbLine
 10
878.2831559179468
 20
-1112.03100655029
 30
0.0
 11
878.0270289179467
 21
-1112.549666550291
 31
0.0
  0
LINE
  5
20920
330
1F
100
AcDbEntity
  8
0
 48
0.27
100
AcDbLine
 10
878.2831559179468
 20
-1109.73490555029
 30
0.0
 11
878.4408779179473
 21
-1110.297684550291
 31
0.0
  0
LINE
  5
20921
330
1F
100
AcDbEntity
  8
0
 48
0.27
100
AcDbLine
 10
878.4408779179473
 20
-1111.468226550291
 30
0.0
 11
878.2831559179468
 21
-1112.03100655029
 31
0.0
  0
LINE
  5
20922
330
1F
100
AcDbEntity
  8
0
 48
0.27
100
AcDbLine
 10
878.4408779179473
 20
-1110.297684550291
 30
0.0
 11
878.494133917947
 21
-1110.882955550291
 31
0.0
  0
LINE
  5
20923
330
1F
100
AcDbEntity
  8
0
 48
0.27
100
AcDbLine
 10
878.494133917947
 20
-1110.882955550291
 30
0.0
 11
878.4408779179473
 21
-1111.468226550291
 31
0.0
  0
LINE
  5
20924
330
1F
100
AcDbEntity
  8
0
 48
0.27
100
AcDbLine
 10
872.8185989179472
 20
-1109.242728550291
 30
0.0
 11
872.821569917947
 21
-1109.244343550291
 31
0.0
  0
LINE
  5
20925
330
1F
100
AcDbEntity
  8
0
 48
0.27
100
AcDbLine
 10
872.8185989179472
 20
-1112.52318355029
 30
0.0
 11
872.821569917947
 21
-1112.521567550291
 31
0.0
  0
LINE
  5
20926
330
1F
100
AcDbEntity
  8
0
 48
0.27
100
AcDbLine
 10
871.7058889179467
 20
-1110.384813550291
 30
0.0
 11
871.660560917947
 21
-1110.882955550291
 31
0.0
  0
LINE
  5
20927
330
1F
100
AcDbEntity
  8
0
 48
0.27
100
AcDbLine
 10
871.8401309179469
 20
-1109.905815550291
 30
0.0
 11
871.7058889179467
 21
-1110.384813550291
 31
0.0
  0
LINE
  5
20928
330
1F
100
AcDbEntity
  8
0
 48
0.27
100
AcDbLine
 10
871.660560917947
 20
-1110.882955550291
 30
0.0
 11
871.7058889179467
 21
-1111.381097550291
 31
0.0
  0
LINE
  5
20929
330
1F
100
AcDbEntity
  8
0
 48
0.27
100
AcDbLine
 10
872.0581279179471
 20
-1109.464367550291
 30
0.0
 11
871.8401309179469
 21
-1109.905815550291
 31
0.0
  0
LINE
  5
2092A
330
1F
100
AcDbEntity
  8
0
 48
0.27
100
AcDbLine
 10
871.7058889179467
 20
-1111.381097550291
 30
0.0
 11
871.8401309179469
 21
-1111.860096550291
 31
0.0
  0
LINE
  5
2092B
330
1F
100
AcDbEntity
  8
0
 48
0.27
100
AcDbLine
 10
872.3515039179472
 20
-1109.077435550291
 30
0.0
 11
872.0581279179471
 21
-1109.464367550291
 31
0.0
  0
LINE
  5
2092C
330
1F
100
AcDbEntity
  8
0
 48
0.27
100
AcDbLine
 10
871.8401309179469
 20
-1111.860096550291
 30
0.0
 11
872.0581279179471
 21
-1112.301543550291
 31
0.0
  0
LINE
  5
2092D
330
1F
100
AcDbEntity
  8
0
 48
0.27
100
AcDbLine
 10
872.3515039179472
 20
-1109.077435550291
 30
0.0
 11
872.708981917947
 21
-1108.759888550291
 31
0.0
  0
LINE
  5
2092E
330
1F
100
AcDbEntity
  8
0
 48
0.27
100
AcDbLine
 10
872.0581279179471
 20
-1112.301543550291
 30
0.0
 11
872.3515039179472
 21
-1112.688475550291
 31
0.0
  0
LINE
  5
2092F
330
1F
100
AcDbEntity
  8
0
 48
0.27
100
AcDbLine
 10
871.854591917947
 20
-1110.53341955029
 30
0.0
 11
871.8227859179471
 21
-1110.882955550291
 31
0.0
  0
LINE
  5
20930
330
1F
100
AcDbEntity
  8
0
 48
0.27
100
AcDbLine
 10
871.9487869179472
 20
-1110.197315550291
 30
0.0
 11
871.854591917947
 21
-1110.53341955029
 31
0.0
  0
LINE
  5
20931
330
1F
100
AcDbEntity
  8
0
 48
0.27
100
AcDbLine
 10
871.8227859179471
 20
-1110.882955550291
 30
0.0
 11
871.854591917947
 21
-1111.232491550291
 31
0.0
  0
LINE
  5
20932
330
1F
100
AcDbEntity
  8
0
 48
0.27
100
AcDbLine
 10
872.1017509179471
 20
-1109.887560550291
 30
0.0
 11
871.9487869179472
 21
-1110.197315550291
 31
0.0
  0
LINE
  5
20933
330
1F
100
AcDbEntity
  8
0
 48
0.27
100
AcDbLine
 10
871.854591917947
 20
-1111.232491550291
 30
0.0
 11
871.9487869179472
 21
-1111.568595550291
 31
0.0
  0
LINE
  5
20934
330
1F
100
AcDbEntity
  8
0
 48
0.27
100
AcDbLine
 10
872.708981917947
 20
-1108.759888550291
 30
0.0
 11
873.1168269179468
 21
-1108.523929550291
 31
0.0
  0
LINE
  5
20935
330
1F
100
AcDbEntity
  8
0
 48
0.27
100
AcDbLine
 10
872.3515039179472
 20
-1112.688475550291
 30
0.0
 11
872.708981917947
 21
-1113.006022550291
 31
0.0
  0
LINE
  5
20936
330
1F
100
AcDbEntity
  8
0
 48
0.27
100
AcDbLine
 10
872.3076069179471
 20
-1109.616058550291
 30
0.0
 11
872.1017509179471
 21
-1109.887560550291
 31
0.0
  0
LINE
  5
20937
330
1F
100
AcDbEntity
  8
0
 48
0.27
100
AcDbLine
 10
871.9487869179472
 20
-1111.568595550291
 30
0.0
 11
872.1017509179471
 21
-1111.878350550291
 31
0.0
  0
LINE
  5
20938
330
1F
100
AcDbEntity
  8
0
 48
0.27
100
AcDbLine
 10
873.1168269179468
 20
-1108.523929550291
 30
0.0
 11
873.5593639179468
 21
-1108.378627550291
 31
0.0
  0
LINE
  5
20939
330
1F
100
AcDbEntity
  8
0
 48
0.27
100
AcDbLine
 10
872.708981917947
 20
-1113.006022550291
 30
0.0
 11
873.1168269179468
 21
-1113.241981550291
 31
0.0
  0
LINE
  5
2093A
330
1F
100
AcDbEntity
  8
0
 48
0.27
100
AcDbLine
 10
872.3076069179471
 20
-1109.616058550291
 30
0.0
 11
872.5584419179469
 21
-1109.393241550291
 31
0.0
  0
LINE
  5
2093B
330
1F
100
AcDbEntity
  8
0
 48
0.27
100
AcDbLine
 10
872.1017509179471
 20
-1111.878350550291
 30
0.0
 11
872.3076069179471
 21
-1112.149853550291
 31
0.0
  0
LINE
  5
2093C
330
1F
100
AcDbEntity
  8
0
 48
0.27
100
AcDbLine
 10
873.5593639179468
 20
-1108.378627550291
 30
0.0
 11
874.0195869179467
 21
-1108.329564550291
 31
0.0
  0
LINE
  5
2093D
330
1F
100
AcDbEntity
  8
0
 48
0.27
100
AcDbLine
 10
873.1168269179468
 20
-1113.241981550291
 30
0.0
 11
873.5593639179468
 21
-1113.387284550291
 31
0.0
  0
LINE
  5
2093E
330
1F
100
AcDbEntity
  8
0
 48
0.27
100
AcDbLine
 10
872.5584419179469
 20
-1109.393241550291
 30
0.0
 11
872.8446189179473
 21
-1109.227674550291
 31
0.0
  0
LINE
  5
2093F
330
1F
100
AcDbEntity
  8
0
 48
0.27
100
AcDbLine
 10
872.3076069179471
 20
-1112.149853550291
 30
0.0
 11
872.5584419179469
 21
-1112.372669550291
 31
0.0
  0
LINE
  5
20940
330
1F
100
AcDbEntity
  8
0
 48
0.27
100
AcDbLine
 10
874.6242459179473
 20
-1108.40597455029
 30
0.0
 11
875.0619499179473
 21
-1108.549690550291
 31
0.0
  0
LINE
  5
20941
330
1F
100
AcDbEntity
  8
0
 48
0.27
100
AcDbLine
 10
872.8446189179473
 20
-1109.227674550291
 30
0.0
 11
873.1551379179471
 21
-1109.12571855029
 31
0.0
  0
LINE
  5
20942
330
1F
100
AcDbEntity
  8
0
 48
0.27
100
AcDbLine
 10
872.5584419179469
 20
-1112.372669550291
 30
0.0
 11
872.8446189179473
 21
-1112.538237550291
 31
0.0
  0
LINE
  5
20943
330
1F
100
AcDbEntity
  8
0
 48
0.27
100
AcDbLine
 10
874.4798099179467
 20
-1108.378627550291
 30
0.0
 11
874.6242459179473
 21
-1108.40597455029
 31
0.0
  0
LINE
  5
20944
330
1F
100
AcDbEntity
  8
0
 48
0.27
100
AcDbLine
 10
874.0195869179467
 20
-1108.329564550291
 30
0.0
 11
874.4798099179467
 21
-1108.378627550291
 31
0.0
  0
LINE
  5
20945
330
1F
100
AcDbEntity
  8
0
 48
0.27
100
AcDbLine
 10
873.5593639179468
 20
-1113.387284550291
 30
0.0
 11
874.0195869179467
 21
-1113.436346550291
 31
0.0
  0
LINE
  5
20946
330
1F
100
AcDbEntity
  8
0
 48
0.27
100
AcDbLine
 10
875.0619499179473
 20
-1108.549690550291
 30
0.0
 11
875.465340917947
 21
-1108.783072550291
 31
0.0
  0
LINE
  5
20947
330
1F
100
AcDbEntity
  8
0
 48
0.27
100
AcDbLine
 10
874.6242459179473
 20
-1113.359936550291
 30
0.0
 11
875.0619499179473
 21
-1113.21622055029
 31
0.0
  0
LINE
  5
20948
330
1F
100
AcDbEntity
  8
0
 48
0.27
100
AcDbLine
 10
875.465340917947
 20
-1108.783072550291
 30
0.0
 11
875.8189159179471
 21
-1109.097151550291
 31
0.0
  0
LINE
  5
20949
330
1F
100
AcDbEntity
  8
0
 48
0.27
100
AcDbLine
 10
875.0619499179473
 20
-1113.21622055029
 30
0.0
 11
875.465340917947
 21
-1112.982838550291
 31
0.0
  0
LINE
  5
2094A
330
1F
100
AcDbEntity
  8
0
 48
0.27
100
AcDbLine
 10
873.1551379179471
 20
-1109.12571855029
 30
0.0
 11
873.4780679179474
 21
-1109.091292550291
 31
0.0
  0
LINE
  5
2094B
330
1F
100
AcDbEntity
  8
0
 48
0.27
100
AcDbLine
 10
872.8446189179473
 20
-1112.538237550291
 30
0.0
 11
873.1551379179471
 21
-1112.640193550291
 31
0.0
  0
LINE
  5
2094C
330
1F
100
AcDbEntity
  8
0
 48
0.27
100
AcDbLine
 10
874.4798099179467
 20
-1108.378627550291
 30
0.0
 11
874.9223469179467
 21
-1108.523929550291
 31
0.0
  0
LINE
  5
2094D
330
1F
100
AcDbEntity
  8
0
 48
0.27
100
AcDbLine
 10
874.4798099179467
 20
-1113.387284550291
 30
0.0
 11
874.6242459179473
 21
-1113.359936550291
 31
0.0
  0
LINE
  5
2094E
330
1F
100
AcDbEntity
  8
0
 48
0.27
100
AcDbLine
 10
874.0195869179467
 20
-1113.436346550291
 30
0.0
 11
874.4798099179467
 21
-1113.387284550291
 31
0.0
  0
LINE
  5
2094F
330
1F
100
AcDbEntity
  8
0
 48
0.27
100
AcDbLine
 10
875.8189159179471
 20
-1109.097151550291
 30
0.0
 11
876.1090869179467
 21
-1109.479858550291
 31
0.0
  0
LINE
  5
20950
330
1F
100
AcDbEntity
  8
0
 48
0.27
100
AcDbLine
 10
875.465340917947
 20
-1112.982838550291
 30
0.0
 11
875.8189159179471
 21
-1112.668759550291
 31
0.0
  0
LINE
  5
20951
330
1F
100
AcDbEntity
  8
0
 48
0.27
100
AcDbLine
 10
873.4780679179474
 20
-1109.091292550291
 30
0.0
 11
873.8009969179472
 21
-1109.12571855029
 31
0.0
  0
LINE
  5
20952
330
1F
100
AcDbEntity
  8
0
 48
0.27
100
AcDbLine
 10
873.1551379179471
 20
-1112.640193550291
 30
0.0
 11
873.4780679179474
 21
-1112.674619550291
 31
0.0
  0
LINE
  5
20953
330
1F
100
AcDbEntity
  8
0
 48
0.27
100
AcDbLine
 10
874.9223469179467
 20
-1108.523929550291
 30
0.0
 11
875.3301909179469
 21
-1108.759888550291
 31
0.0
  0
LINE
  5
20954
330
1F
100
AcDbEntity
  8
0
 48
0.27
100
AcDbLine
 10
874.4798099179467
 20
-1113.387284550291
 30
0.0
 11
874.9223469179467
 21
-1113.241981550291
 31
0.0
  0
LINE
  5
20955
330
1F
100
AcDbEntity
  8
0
 48
0.27
100
AcDbLine
 10
876.1090869179467
 20
-1109.479858550291
 30
0.0
 11
876.3247039179471
 21
-1109.916485550291
 31
0.0
  0
LINE
  5
20956
330
1F
100
AcDbEntity
  8
0
 48
0.27
100
AcDbLine
 10
876.1090869179467
 20
-1112.286052550291
 30
0.0
 11
875.8189159179471
 21
-1112.668759550291
 31
0.0
  0
LINE
  5
20957
330
1F
100
AcDbEntity
  8
0
 48
0.27
100
AcDbLine
 10
876.3247039179471
 20
-1109.916485550291
 30
0.0
 11
876.457479917947
 21
-1110.390253550291
 31
0.0
  0
LINE
  5
20958
330
1F
100
AcDbEntity
  8
0
 48
0.27
100
AcDbLine
 10
876.3247039179471
 20
-1111.849425550291
 30
0.0
 11
876.1090869179467
 21
-1112.286052550291
 31
0.0
  0
LINE
  5
20959
330
1F
100
AcDbEntity
  8
0
 48
0.27
100
AcDbLine
 10
875.3301909179469
 20
-1108.759888550291
 30
0.0
 11
875.6876699179471
 21
-1109.077435550291
 31
0.0
  0
LINE
  5
2095A
330
1F
100
AcDbEntity
  8
0
 48
0.27
100
AcDbLine
 10
874.9223469179467
 20
-1113.241981550291
 30
0.0
 11
875.3301909179469
 21
-1113.006022550291
 31
0.0
  0
LINE
  5
2095B
330
1F
100
AcDbEntity
  8
0
 48
0.27
100
AcDbLine
 10
876.457479917947
 20
-1110.390253550291
 30
0.0
 11
876.502312917947
 21
-1110.882955550291
 31
0.0
  0
LINE
  5
2095C
330
1F
100
AcDbEntity
  8
0
 48
0.27
100
AcDbLine
 10
876.457479917947
 20
-1111.375657550291
 30
0.0
 11
876.3247039179471
 21
-1111.849425550291
 31
0.0
  0
LINE
  5
2095D
330
1F
100
AcDbEntity
  8
0
 48
0.27
100
AcDbLine
 10
873.8009969179472
 20
-1109.12571855029
 30
0.0
 11
874.111515917947
 21
-1109.227674550291
 31
0.0
  0
LINE
  5
2095E
330
1F
100
AcDbEntity
  8
0
 48
0.27
100
AcDbLine
 10
873.4780679179474
 20
-1112.674619550291
 30
0.0
 11
873.8009969179472
 21
-1112.640193550291
 31
0.0
  0
LINE
  5
2095F
330
1F
100
AcDbEntity
  8
0
 48
0.27
100
AcDbLine
 10
876.502312917947
 20
-1110.882955550291
 30
0.0
 11
876.457479917947
 21
-1111.375657550291
 31
0.0
  0
LINE
  5
20960
330
1F
100
AcDbEntity
  8
0
 48
0.27
100
AcDbLine
 10
875.6876699179471
 20
-1109.077435550291
 30
0.0
 11
875.981044917947
 21
-1109.464367550291
 31
0.0
  0
LINE
  5
20961
330
1F
100
AcDbEntity
  8
0
 48
0.27
100
AcDbLine
 10
875.3301909179469
 20
-1113.006022550291
 30
0.0
 11
875.6876699179471
 21
-1112.688475550291
 31
0.0
  0
LINE
  5
20962
330
1F
100
AcDbEntity
  8
0
 48
0.27
100
AcDbLine
 10
874.111515917947
 20
-1109.227674550291
 30
0.0
 11
874.3976929179469
 21
-1109.393241550291
 31
0.0
  0
LINE
  5
20963
330
1F
100
AcDbEntity
  8
0
 48
0.27
100
AcDbLine
 10
873.8009969179472
 20
-1112.640193550291
 30
0.0
 11
874.111515917947
 21
-1112.538237550291
 31
0.0
  0
LINE
  5
20964
330
1F
100
AcDbEntity
  8
0
 48
0.27
100
AcDbLine
 10
875.981044917947
 20
-1109.464367550291
 30
0.0
 11
876.1990419179472
 21
-1109.905815550291
 31
0.0
  0
LINE
  5
20965
330
1F
100
AcDbEntity
  8
0
 48
0.27
100
AcDbLine
 10
875.981044917947
 20
-1112.301543550291
 30
0.0
 11
875.6876699179471
 21
-1112.688475550291
 31
0.0
  0
LINE
  5
20966
330
1F
100
AcDbEntity
  8
0
 48
0.27
100
AcDbLine
 10
876.1990419179472
 20
-1109.905815550291
 30
0.0
 11
876.3332849179466
 21
-1110.384813550291
 31
0.0
  0
LINE
  5
20967
330
1F
100
AcDbEntity
  8
0
 48
0.27
100
AcDbLine
 10
876.1990419179472
 20
-1111.860096550291
 30
0.0
 11
875.981044917947
 21
-1112.301543550291
 31
0.0
  0
LINE
  5
20968
330
1F
100
AcDbEntity
  8
0
 48
0.27
100
AcDbLine
 10
874.3976929179469
 20
-1109.393241550291
 30
0.0
 11
874.6485279179466
 21
-1109.616058550291
 31
0.0
  0
LINE
  5
20969
330
1F
100
AcDbEntity
  8
0
 48
0.27
100
AcDbLine
 10
874.111515917947
 20
-1112.538237550291
 30
0.0
 11
874.3976929179469
 21
-1112.372669550291
 31
0.0
  0
LINE
  5
2096A
330
1F
100
AcDbEntity
  8
0
 48
0.27
100
AcDbLine
 10
876.3332849179466
 20
-1110.384813550291
 30
0.0
 11
876.3786129179468
 21
-1110.882955550291
 31
0.0
  0
LINE
  5
2096B
330
1F
100
AcDbEntity
  8
0
 48
0.27
100
AcDbLine
 10
876.3332849179466
 20
-1111.381097550291
 30
0.0
 11
876.1990419179472
 21
-1111.860096550291
 31
0.0
  0
LINE
  5
2096C
330
1F
100
AcDbEntity
  8
0
 48
0.27
100
AcDbLine
 10
876.3786129179468
 20
-1110.882955550291
 30
0.0
 11
876.3332849179466
 21
-1111.381097550291
 31
0.0
  0
LINE
  5
2096D
330
1F
100
AcDbEntity
  8
0
 48
0.27
100
AcDbLine
 10
874.6485279179466
 20
-1109.616058550291
 30
0.0
 11
874.8543839179472
 21
-1109.887560550291
 31
0.0
  0
LINE
  5
2096E
330
1F
100
AcDbEntity
  8
0
 48
0.27
100
AcDbLine
 10
874.3976929179469
 20
-1112.372669550291
 30
0.0
 11
874.6485279179466
 21
-1112.149853550291
 31
0.0
  0
LINE
  5
2096F
330
1F
100
AcDbEntity
  8
0
 48
0.27
100
AcDbLine
 10
874.8543839179472
 20
-1109.887560550291
 30
0.0
 11
875.0073479179471
 21
-1110.197315550291
 31
0.0
  0
LINE
  5
20970
330
1F
100
AcDbEntity
  8
0
 48
0.27
100
AcDbLine
 10
874.8543839179472
 20
-1111.878350550291
 30
0.0
 11
874.6485279179466
 21
-1112.149853550291
 31
0.0
  0
LINE
  5
20971
330
1F
100
AcDbEntity
  8
0
 48
0.27
100
AcDbLine
 10
875.0073479179471
 20
-1110.197315550291
 30
0.0
 11
875.1015429179467
 21
-1110.53341955029
 31
0.0
  0
LINE
  5
20972
330
1F
100
AcDbEntity
  8
0
 48
0.27
100
AcDbLine
 10
875.0073479179471
 20
-1111.568595550291
 30
0.0
 11
874.8543839179472
 21
-1111.878350550291
 31
0.0
  0
LINE
  5
20973
330
1F
100
AcDbEntity
  8
0
 48
0.27
100
AcDbLine
 10
875.1015429179467
 20
-1110.53341955029
 30
0.0
 11
875.1333489179467
 21
-1110.882955550291
 31
0.0
  0
LINE
  5
20974
330
1F
100
AcDbEntity
  8
0
 48
0.27
100
AcDbLine
 10
875.1015429179467
 20
-1111.232491550291
 30
0.0
 11
875.0073479179471
 21
-1111.568595550291
 31
0.0
  0
LINE
  5
20975
330
1F
100
AcDbEntity
  8
0
 48
0.27
100
AcDbLine
 10
875.1333489179467
 20
-1110.882955550291
 30
0.0
 11
875.1015429179467
 21
-1111.232491550291
 31
0.0
  0
LINE
  5
20976
330
1F
100
AcDbEntity
  8
0
 48
0.27
100
AcDbLine
 10
885.160560917947
 20
-1106.882955550291
 30
0.0
 11
885.160560917947
 21
-1114.882955550291
 31
0.0
  0
LINE
  5
20977
330
1F
100
AcDbEntity
  8
虛線
 48
0.2
100
AcDbLine
 10
733.6498844872817
 20
-1145.88297488139
 30
0.0
 11
733.6498844872817
 21
-1130.682974881391
 31
0.0
  0
LINE
  5
20978
330
1F
100
AcDbEntity
  8
虛線
 48
0.2
100
AcDbLine
 10
722.1498844872817
 20
-1130.382974881391
 30
0.0
 11
722.1498844872817
 21
-1118.782974881391
 31
0.0
  0
LINE
  5
20979
330
1F
100
AcDbEntity
  8
虛線
 48
0.2
100
AcDbLine
 10
736.1498844872817
 20
-1130.382974881391
 30
0.0
 11
736.1498844872817
 21
-1118.782974881391
 31
0.0
  0
LINE
  5
2097A
330
1F
100
AcDbEntity
  8
虛線
 48
0.2
100
AcDbLine
 10
733.9498844872816
 20
-1130.382974881391
 30
0.0
 11
733.6498844872817
 21
-1130.682974881391
 31
0.0
  0
LINE
  5
2097B
330
1F
100
AcDbEntity
  8
虛線
 48
0.2
100
AcDbLine
 10
724.3498844872817
 20
-1130.382974881391
 30
0.0
 11
724.6498844872817
 21
-1130.682974881391
 31
0.0
  0
LINE
  5
2097C
330
1F
100
AcDbEntity
  8
虛線
 48
0.2
100
AcDbLine
 10
733.6498844872817
 20
-1130.682974881391
 30
0.0
 11
724.6498844872817
 21
-1130.682974881391
 31
0.0
  0
LINE
  5
2097D
330
1F
100
AcDbEntity
  8
虛線
 48
0.2
100
AcDbLine
 10
736.1498844872817
 20
-1130.382974881391
 30
0.0
 11
722.1498844872817
 21
-1130.382974881391
 31
0.0
  0
LINE
  5
2097E
330
1F
100
AcDbEntity
  8
虛線
 48
0.2
100
AcDbLine
 10
736.3808245949574
 20
-1118.382974881391
 30
0.0
 11
736.1498844872817
 21
-1118.782974881391
 31
0.0
  0
LINE
  5
2097F
330
1F
100
AcDbEntity
  8
虛線
 48
0.2
100
AcDbLine
 10
722.1498844872817
 20
-1118.782974881391
 30
0.0
 11
721.9189443796058
 21
-1118.382974881391
 31
0.0
  0
LINE
  5
20980
330
1F
100
AcDbEntity
  8
虛線
 48
0.2
100
AcDbLine
 10
736.1498844872817
 20
-1118.782974881391
 30
0.0
 11
722.1498844872817
 21
-1118.782974881391
 31
0.0
  0
LINE
  5
20981
330
1F
100
AcDbEntity
  8
虛線
 48
0.2
100
AcDbLine
 10
724.6498844872817
 20
-1145.882974881392
 30
0.0
 11
724.6498844872817
 21
-1130.682974881391
 31
0.0
  0
LINE
  5
20982
330
1F
100
AcDbEntity
  8
虛線
 48
0.2
100
AcDbLine
 10
722.1498844872817
 20
-1130.382974881391
 30
0.0
 11
722.1498844872817
 21
-1118.782974881391
 31
0.0
  0
LINE
  5
20983
330
1F
100
AcDbEntity
  8
虛線
 48
0.2
100
AcDbLine
 10
724.3498844872817
 20
-1130.382974881391
 30
0.0
 11
724.6498844872817
 21
-1130.682974881391
 31
0.0
  0
LINE
  5
20984
330
1F
100
AcDbEntity
  8
虛線
 48
0.2
100
AcDbLine
 10
721.9189443796058
 20
-1118.382974881391
 30
0.0
 11
722.1498844872817
 21
-1118.782974881391
 31
0.0
  0
LINE
  5
20985
330
1F
100
AcDbEntity
  8
虛線
 48
0.2
100
AcDbLine
 10
733.6498844872826
 20
-1145.882974881391
 30
0.0
 11
724.6498844872826
 21
-1145.882974881391
 31
0.0
  0
LINE
  5
20986
330
1F
100
AcDbEntity
  8
虛線
 48
0.2
100
AcDbLine
 10
734.1498844872829
 20
-1146.382974881391
 30
0.0
 11
733.6498844872826
 21
-1145.882974881391
 31
0.0
  0
LINE
  5
20987
330
1F
100
AcDbEntity
  8
虛線
 48
0.2
100
AcDbLine
 10
724.1498844872826
 20
-1146.38297488139
 30
0.0
 11
724.6498844872826
 21
-1145.882974881391
 31
0.0
  0
CIRCLE
  5
20988
330
1F
100
AcDbEntity
  8
0
 48
0.27
100
AcDbCircle
 10
831.0605609179477
 20
-1009.262904456967
 30
0.0
 40
4.499999999998863
  0
CIRCLE
  5
20989
330
1F
100
AcDbEntity
  8
0
 48
0.27
100
AcDbCircle
 10
831.0605609179477
 20
-1009.262904456967
 30
0.0
 40
6.999999999998863
  0
LINE
  5
2098A
330
1F
100
AcDbEntity
  8
0
  6
Continuous
 62
     7
100
AcDbLine
 10
1091.060560917947
 20
-1023.262904460969
 30
0.0
 11
1016.960560917946
 21
-1023.262904460968
 31
0.0
  0
LINE
  5
20991
330
1F
100
AcDbEntity
  8
0
  6
Continuous
 62
     7
100
AcDbLine
 10
811.0605609179469
 20
-1118.382974881391
 30
0.0
 11
811.060560917947
 21
-1146.382974881391
 31
0.0
  0
LINE
  5
20992
330
1F
100
AcDbEntity
  8
0
 62
     7
100
AcDbLine
 10
849.6030251227988
 20
-1118.382974881391
 30
0.0
 11
847.6676076298339
 21
-1123.759335855589
 31
0.0
  0
LINE
  5
20993
330
1F
100
AcDbEntity
  8
0
 62
     7
100
AcDbLine
 10
847.6676076298339
 20
-1123.759335855589
 30
0.0
 11
850.1704362308895
 21
-1129.736460269292
 31
0.0
  0
LINE
  5
20994
330
1F
100
AcDbEntity
  8
0
 62
     7
100
AcDbLine
 10
850.1704362308895
 20
-1129.736460269292
 30
0.0
 11
847.6343815624243
 21
-1136.604542706985
 31
0.0
  0
LINE
  5
20995
330
1F
100
AcDbEntity
  8
0
 62
     7
100
AcDbLine
 10
847.6343815624243
 20
-1136.604542706985
 30
0.0
 11
850.1704362308895
 21
-1142.164422448184
 31
0.0
  0
LINE
  5
20996
330
1F
100
AcDbEntity
  8
0
 62
     7
100
AcDbLine
 10
850.1704362308895
 20
-1142.164422448184
 30
0.0
 11
848.2558051033331
 21
-1146.38297488139
 31
0.0
  0
LINE
  5
20997
330
1F
100
AcDbEntity
  8
0
  6
Continuous
 62
     7
100
AcDbLine
 10
811.0605609179467
 20
-995.2629044530674
 30
0.0
 11
811.0605609179469
 21
-1023.262904460968
 31
0.0
  0
ARC
  5
20998
330
1F
100
AcDbEntity
  8
0
 62
     3
100
AcDbCircle
 10
702.5498844872826
 20
-1130.845665562081
 30
0.0
 40
0.5
100
AcDbArc
 50
44.99999999997236
 51
134.9999999999908
  0
ARC
  5
20999
330
1F
100
AcDbEntity
  8
0
 62
     3
100
AcDbCircle
 10
701.287193806592
 20
-1129.582974881391
 30
0.0
 40
0.5
100
AcDbArc
 50
314.9999999999908
 51
44.99999999999539
  0
ARC
  5
2099A
330
1F
100
AcDbEntity
  8
0
 62
     3
100
AcDbCircle
 10
702.5498844872826
 20
-1128.3202842007
 30
0.0
 40
0.5
100
AcDbArc
 50
224.9999999999954
 51
315.0000000000276
  0
ARC
  5
2099B
330
1F
100
AcDbEntity
  8
0
 62
     3
100
AcDbCircle
 10
703.8125751679729
 20
-1129.582974881391
 30
0.0
 40
0.5
100
AcDbArc
 50
135.0000000000276
 51
224.9999999999954
  0
ARC
  5
2099C
330
1F
100
AcDbEntity
  8
0
 62
     3
100
AcDbCircle
 10
757.012575167973
 20
-1129.582974881391
 30
0.0
 40
0.5
100
AcDbArc
 50
135.0000000000276
 51
224.9999999999954
  0
ARC
  5
2099D
330
1F
100
AcDbEntity
  8
0
 62
     3
100
AcDbCircle
 10
755.7498844809607
 20
-1128.3202842007
 30
0.0
 40
0.5
100
AcDbArc
 50
224.9999999999908
 51
315.0000000000276
  0
ARC
  5
2099E
330
1F
100
AcDbEntity
  8
0
 62
     3
100
AcDbCircle
 10
754.4871938065924
 20
-1129.582974881391
 30
0.0
 40
0.5
100
AcDbArc
 50
314.9999999999908
 51
44.99999999999539
  0
ARC
  5
2099F
330
1F
100
AcDbEntity
  8
0
 62
     3
100
AcDbCircle
 10
755.7498844872825
 20
-1130.845665562081
 30
0.0
 40
0.5
100
AcDbArc
 50
44.99999999999078
 51
134.9999999999908
  0
LINE
  5
209AA
330
1F
100
AcDbEntity
  8
中心線
 48
0.5
100
AcDbLine
 10
831.0605609179477
 20
-1017.318973539358
 30
0.0
 11
831.0605609179477
 21
-1001.206835374577
 31
0.0
  0
LINE
  5
209AB
330
1F
100
AcDbEntity
  8
中心線
 48
0.5
100
AcDbLine
 10
823.004491835557
 20
-1009.262904456967
 30
0.0
 11
839.1166300003384
 21
-1009.262904456967
 31
0.0
  0
LINE
  5
209DB
330
1F
100
AcDbEntity
  8
中心線
 48
0.2
100
AcDbLine
 10
991.0605609179473
 20
-1140.382974881392
 30
0.0
 11
991.0605609179471
 21
-1148.188009149001
 31
0.0
  0
LINE
  5
209DC
330
1F
100
AcDbEntity
  8
中心線
 48
0.2
100
AcDbLine
 10
1071.060560917947
 20
-1140.382974881394
 30
0.0
 11
1071.060560917947
 21
-1148.188009149002
 31
0.0
  0
LINE
  5
209DD
330
1F
100
AcDbEntity
  8
中心線
 48
0.2
100
AcDbLine
 10
1071.060560917947
 20
-1116.200436733748
 30
0.0
 11
1071.060560917947
 21
-1148.188009148993
 31
0.0
  0
LINE
  5
209DE
330
1F
100
AcDbEntity
  8
虛線
 48
0.3
100
AcDbLine
 10
1075.560560917946
 20
-1145.882974881383
 30
0.0
 11
1075.560560917946
 21
-1130.682974881384
 31
0.0
  0
LINE
  5
209DF
330
1F
100
AcDbEntity
  8
虛線
 48
0.3
100
AcDbLine
 10
1078.060560917946
 20
-1130.382974881384
 30
0.0
 11
1078.060560917946
 21
-1118.782974881384
 31
0.0
  0
LINE
  5
209E0
330
1F
100
AcDbEntity
  8
虛線
 48
0.3
100
AcDbLine
 10
1075.860560917946
 20
-1130.382974881384
 30
0.0
 11
1075.560560917946
 21
-1130.682974881384
 31
0.0
  0
LINE
  5
209E1
330
1F
100
AcDbEntity
  8
虛線
 48
0.3
100
AcDbLine
 10
1066.260560917946
 20
-1130.382974881384
 30
0.0
 11
1066.560560917946
 21
-1130.682974881384
 31
0.0
  0
LINE
  5
209E2
330
1F
100
AcDbEntity
  8
虛線
 48
0.3
100
AcDbLine
 10
1075.560560917946
 20
-1130.682974881384
 30
0.0
 11
1066.560560917946
 21
-1130.682974881384
 31
0.0
  0
LINE
  5
209E3
330
1F
100
AcDbEntity
  8
虛線
 48
0.3
100
AcDbLine
 10
1078.060560917946
 20
-1130.382974881384
 30
0.0
 11
1064.060560917946
 21
-1130.382974881384
 31
0.0
  0
LINE
  5
209E4
330
1F
100
AcDbEntity
  8
虛線
 48
0.3
100
AcDbLine
 10
1078.291501025621
 20
-1118.382974881384
 30
0.0
 11
1078.060560917946
 21
-1118.782974881384
 31
0.0
  0
LINE
  5
209E5
330
1F
100
AcDbEntity
  8
虛線
 48
0.3
100
AcDbLine
 10
1078.060560917946
 20
-1118.782974881384
 30
0.0
 11
1064.060560917946
 21
-1118.782974881384
 31
0.0
  0
LINE
  5
209E6
330
1F
100
AcDbEntity
  8
虛線
 48
0.3
100
AcDbLine
 10
1066.560560917946
 20
-1145.882974881385
 30
0.0
 11
1066.560560917946
 21
-1130.682974881384
 31
0.0
  0
LINE
  5
209E7
330
1F
100
AcDbEntity
  8
虛線
 48
0.3
100
AcDbLine
 10
1064.060560917946
 20
-1130.382974881384
 30
0.0
 11
1064.060560917946
 21
-1118.782974881384
 31
0.0
  0
LINE
  5
209E8
330
1F
100
AcDbEntity
  8
虛線
 48
0.3
100
AcDbLine
 10
1066.260560917946
 20
-1130.382974881384
 30
0.0
 11
1066.560560917946
 21
-1130.682974881384
 31
0.0
  0
LINE
  5
209E9
330
1F
100
AcDbEntity
  8
虛線
 48
0.3
100
AcDbLine
 10
1063.82962081027
 20
-1118.382974881384
 30
0.0
 11
1064.060560917946
 21
-1118.782974881384
 31
0.0
  0
LINE
  5
209EA
330
1F
100
AcDbEntity
  8
虛線
 48
0.3
100
AcDbLine
 10
1075.560560917947
 20
-1145.882974881384
 30
0.0
 11
1066.560560917947
 21
-1145.882974881384
 31
0.0
  0
LINE
  5
209EB
330
1F
100
AcDbEntity
  8
虛線
 48
0.3
100
AcDbLine
 10
1076.060560917947
 20
-1146.382974881384
 30
0.0
 11
1075.560560917947
 21
-1145.882974881384
 31
0.0
  0
LINE
  5
209EC
330
1F
100
AcDbEntity
  8
虛線
 48
0.3
100
AcDbLine
 10
1066.060560917947
 20
-1146.382974881384
 30
0.0
 11
1066.560560917947
 21
-1145.882974881384
 31
0.0
  0
LINE
  5
209ED
330
1F
100
AcDbEntity
  8
中心線
 48
0.2
100
AcDbLine
 10
991.0605609179473
 20
-1140.382974881394
 30
0.0
 11
991.0605609179471
 21
-1148.188009149002
 31
0.0
  0
LINE
  5
209EE
330
1F
100
AcDbEntity
  8
中心線
 48
0.2
100
AcDbLine
 10
991.0605609179471
 20
-1140.382974881391
 30
0.0
 11
991.0605609179471
 21
-1148.188009148993
 31
0.0
  0
LINE
  5
209EF
330
1F
100
AcDbEntity
  8
虛線
 48
0.3
100
AcDbLine
 10
995.560560917946
 20
-1145.882974881383
 30
0.0
 11
995.560560917946
 21
-1140.382974881391
 31
0.0
  0
LINE
  5
209F0
330
1F
100
AcDbEntity
  8
虛線
 48
0.3
100
AcDbLine
 10
986.5605609179461
 20
-1145.882974881385
 30
0.0
 11
986.5605609179459
 21
-1140.38297488139
 31
0.0
  0
LINE
  5
209F1
330
1F
100
AcDbEntity
  8
虛線
 48
0.3
100
AcDbLine
 10
995.5605609179471
 20
-1145.882974881384
 30
0.0
 11
986.5605609179471
 21
-1145.882974881384
 31
0.0
  0
LINE
  5
209F2
330
1F
100
AcDbEntity
  8
虛線
 48
0.3
100
AcDbLine
 10
996.0605609179474
 20
-1146.382974881384
 30
0.0
 11
995.5605609179471
 21
-1145.882974881384
 31
0.0
  0
LINE
  5
209F3
330
1F
100
AcDbEntity
  8
虛線
 48
0.3
100
AcDbLine
 10
986.060560917947
 20
-1146.382974881384
 30
0.0
 11
986.5605609179471
 21
-1145.882974881384
 31
0.0
  0
CIRCLE
  5
209F4
330
1F
100
AcDbEntity
  8
0
 48
0.27
100
AcDbCircle
 10
1031.060560917947
 20
-1009.262904456967
 30
0.0
 40
4.499999999998863
  0
CIRCLE
  5
209F5
330
1F
100
AcDbEntity
  8
0
 48
0.27
100
AcDbCircle
 10
1031.060560917947
 20
-1009.262904456967
 30
0.0
 40
6.999999999998863
  0
LINE
  5
209F6
330
1F
100
AcDbEntity
  8
中心線
 48
0.5
100
AcDbLine
 10
1031.060560917947
 20
-1017.318973539358
 30
0.0
 11
1031.060560917947
 21
-1001.206835374577
 31
0.0
  0
LINE
  5
209F7
330
1F
100
AcDbEntity
  8
中心線
 48
0.5
100
AcDbLine
 10
1023.004491835557
 20
-1009.262904456967
 30
0.0
 11
1039.116630000338
 21
-1009.262904456967
 31
0.0
  0
LINE
  5
209F8
330
1F
100
AcDbEntity
  8
0
  6
Continuous
 62
     7
100
AcDbLine
 10
1091.060560917947
 20
-1118.882974881512
 30
0.0
 11
1016.960560917946
 21
-1118.882974881511
 31
0.0
  0
LINE
  5
209F9
330
1F
100
AcDbEntity
  8
0
  6
Continuous
 62
     7
100
AcDbLine
 10
1091.060560917947
 20
-1120.783197088607
 30
0.0
 11
1016.960560917946
 21
-1120.783197088607
 31
0.0
  0
LINE
  5
209FA
330
1F
100
AcDbEntity
  8
0
  6
Continuous
 62
     7
100
AcDbLine
 10
1091.060560917947
 20
-1126.283197093667
 30
0.0
 11
1016.960560917946
 21
-1126.283197093667
 31
0.0
  0
LINE
  5
209FB
330
1F
100
AcDbEntity
  8
0
  6
Continuous
 62
     7
100
AcDbLine
 10
1091.060560917947
 20
-1132.882752668803
 30
0.0
 11
1016.960560917946
 21
-1132.882752668803
 31
0.0
  0
LINE
  5
209FC
330
1F
100
AcDbEntity
  8
0
  6
Continuous
 62
     7
100
AcDbLine
 10
1091.060560917947
 20
-1138.382752674313
 30
0.0
 11
1016.960560917946
 21
-1138.382752674313
 31
0.0
  0
LINE
  5
209FD
330
1F
100
AcDbEntity
  8
0
  6
Continuous
 62
     7
100
AcDbLine
 10
1091.060560917947
 20
-1144.88297487749
 30
0.0
 11
848.9365947211638
 21
-1144.882974877491
 31
0.0
  0
LINE
  5
209FE
330
1F
100
AcDbEntity
  8
0
  6
Continuous
 62
     7
100
AcDbLine
 10
885.160560917947
 20
-1118.882974881512
 30
0.0
 11
849.4230318613048
 21
-1118.882974881512
 31
0.0
  0
LINE
  5
209FF
330
1F
100
AcDbEntity
  8
0
  6
Continuous
 62
     7
100
AcDbLine
 10
885.1605609179468
 20
-1120.783197088607
 30
0.0
 11
848.7389774762323
 21
-1120.783197088607
 31
0.0
  0
LINE
  5
20A00
330
1F
100
AcDbEntity
  8
0
  6
Continuous
 62
     7
100
AcDbLine
 10
885.160560917947
 20
-1126.283197093667
 30
0.0
 11
848.7244355715905
 21
-1126.283197093667
 31
0.0
  0
LINE
  5
20A01
330
1F
100
AcDbEntity
  8
0
  6
Continuous
 62
     7
100
AcDbLine
 10
885.160560917947
 20
-1132.882752668803
 30
0.0
 11
849.0086607862115
 21
-1132.882752668803
 31
0.0
  0
LINE
  5
20A02
330
1F
100
AcDbEntity
  8
0
  6
Continuous
 62
     7
100
AcDbLine
 10
885.160560917947
 20
-1138.382752674313
 30
0.0
 11
848.4454850213243
 21
-1138.382752674313
 31
0.0
  0
LINE
  5
20A03
330
1F
100
AcDbEntity
  8
0
  6
Continuous
 62
     7
100
AcDbLine
 10
1091.060560917947
 20
-1118.382974881391
 30
0.0
 11
1091.060560917947
 21
-1146.38297488139
 31
0.0
  0
LINE
  5
20A04
330
1F
100
AcDbEntity
  8
虛線
 48
0.2
100
AcDbLine
 10
875.5605609179463
 20
-1145.882974881391
 30
0.0
 11
875.5605609179463
 21
-1130.682974881391
 31
0.0
  0
LINE
  5
20A05
330
1F
100
AcDbEntity
  8
虛線
 48
0.2
100
AcDbLine
 10
866.5605609179461
 20
-1145.882974881393
 30
0.0
 11
866.5605609179463
 21
-1130.682974881392
 31
0.0
  0
LINE
  5
20A06
330
1F
100
AcDbEntity
  8
虛線
 48
0.2
100
AcDbLine
 10
864.0605609179461
 20
-1130.382974881391
 30
0.0
 11
864.0605609179461
 21
-1118.782974881391
 31
0.0
  0
LINE
  5
20A07
330
1F
100
AcDbEntity
  8
虛線
 48
0.2
100
AcDbLine
 10
878.060560917946
 20
-1130.382974881391
 30
0.0
 11
878.060560917946
 21
-1118.782974881391
 31
0.0
  0
LINE
  5
20A08
330
1F
100
AcDbEntity
  8
虛線
 48
0.2
100
AcDbLine
 10
875.8605609179459
 20
-1130.382974881391
 30
0.0
 11
875.5605609179461
 21
-1130.682974881391
 31
0.0
  0
LINE
  5
20A09
330
1F
100
AcDbEntity
  8
虛線
 48
0.2
100
AcDbLine
 10
866.2605609179461
 20
-1130.382974881391
 30
0.0
 11
866.5605609179461
 21
-1130.682974881391
 31
0.0
  0
LINE
  5
20A0A
330
1F
100
AcDbEntity
  8
虛線
 48
0.2
100
AcDbLine
 10
875.5605609179463
 20
-1130.682974881391
 30
0.0
 11
866.5605609179461
 21
-1130.682974881391
 31
0.0
  0
LINE
  5
20A0B
330
1F
100
AcDbEntity
  8
虛線
 48
0.2
100
AcDbLine
 10
878.060560917946
 20
-1130.382974881391
 30
0.0
 11
864.0605609179461
 21
-1130.382974881391
 31
0.0
  0
LINE
  5
20A0C
330
1F
100
AcDbEntity
  8
虛線
 48
0.2
100
AcDbLine
 10
878.2915010256218
 20
-1118.382974881391
 30
0.0
 11
878.060560917946
 21
-1118.782974881391
 31
0.0
  0
LINE
  5
20A0D
330
1F
100
AcDbEntity
  8
虛線
 48
0.2
100
AcDbLine
 10
864.0605609179461
 20
-1118.782974881391
 30
0.0
 11
863.8296208102701
 21
-1118.382974881391
 31
0.0
  0
LINE
  5
20A0E
330
1F
100
AcDbEntity
  8
虛線
 48
0.2
100
AcDbLine
 10
878.060560917946
 20
-1118.782974881391
 30
0.0
 11
864.0605609179461
 21
-1118.782974881391
 31
0.0
  0
LINE
  5
20A0F
330
1F
100
AcDbEntity
  8
虛線
 48
0.2
100
AcDbLine
 10
864.0605609179461
 20
-1130.382974881391
 30
0.0
 11
864.0605609179461
 21
-1118.782974881391
 31
0.0
  0
LINE
  5
20A10
330
1F
100
AcDbEntity
  8
虛線
 48
0.2
100
AcDbLine
 10
866.2605609179461
 20
-1130.382974881391
 30
0.0
 11
866.5605609179461
 21
-1130.682974881391
 31
0.0
  0
LINE
  5
20A11
330
1F
100
AcDbEntity
  8
虛線
 48
0.2
100
AcDbLine
 10
863.8296208102701
 20
-1118.382974881391
 30
0.0
 11
864.0605609179461
 21
-1118.782974881391
 31
0.0
  0
LINE
  5
20A12
330
1F
100
AcDbEntity
  8
中心線
 48
0.2
100
AcDbLine
 10
871.0605609179475
 20
-1116.200436733754
 30
0.0
 11
871.0605609179474
 21
-1148.188009148999
 31
0.0
  0
LINE
  5
20A13
330
1F
100
AcDbEntity
  8
中心線
 48
0.2
100
AcDbLine
 10
1031.060560917947
 20
-1140.382974881394
 30
0.0
 11
1031.060560917947
 21
-1148.188009149002
 31
0.0
  0
LINE
  5
20A14
330
1F
100
AcDbEntity
  8
中心線
 48
0.2
100
AcDbLine
 10
1031.060560917947
 20
-1116.200436733748
 30
0.0
 11
1031.060560917947
 21
-1148.188009148993
 31
0.0
  0
LINE
  5
20A15
330
1F
100
AcDbEntity
  8
虛線
 48
0.3
100
AcDbLine
 10
1035.560560917946
 20
-1145.882974881383
 30
0.0
 11
1035.560560917946
 21
-1130.682974881384
 31
0.0
  0
LINE
  5
20A16
330
1F
100
AcDbEntity
  8
虛線
 48
0.3
100
AcDbLine
 10
1038.060560917946
 20
-1130.382974881384
 30
0.0
 11
1038.060560917946
 21
-1118.782974881384
 31
0.0
  0
LINE
  5
20A17
330
1F
100
AcDbEntity
  8
虛線
 48
0.3
100
AcDbLine
 10
1035.860560917946
 20
-1130.382974881384
 30
0.0
 11
1035.560560917946
 21
-1130.682974881384
 31
0.0
  0
LINE
  5
20A18
330
1F
100
AcDbEntity
  8
虛線
 48
0.3
100
AcDbLine
 10
1026.260560917946
 20
-1130.382974881384
 30
0.0
 11
1026.560560917946
 21
-1130.682974881384
 31
0.0
  0
LINE
  5
20A19
330
1F
100
AcDbEntity
  8
虛線
 48
0.3
100
AcDbLine
 10
1035.560560917946
 20
-1130.682974881384
 30
0.0
 11
1026.560560917946
 21
-1130.682974881384
 31
0.0
  0
LINE
  5
20A1A
330
1F
100
AcDbEntity
  8
虛線
 48
0.3
100
AcDbLine
 10
1038.060560917946
 20
-1130.382974881384
 30
0.0
 11
1024.060560917946
 21
-1130.382974881384
 31
0.0
  0
LINE
  5
20A1B
330
1F
100
AcDbEntity
  8
虛線
 48
0.3
100
AcDbLine
 10
1038.291501025621
 20
-1118.382974881384
 30
0.0
 11
1038.060560917946
 21
-1118.782974881384
 31
0.0
  0
LINE
  5
20A1C
330
1F
100
AcDbEntity
  8
虛線
 48
0.3
100
AcDbLine
 10
1038.060560917946
 20
-1118.782974881384
 30
0.0
 11
1024.060560917946
 21
-1118.782974881384
 31
0.0
  0
LINE
  5
20A1D
330
1F
100
AcDbEntity
  8
虛線
 48
0.3
100
AcDbLine
 10
1026.560560917946
 20
-1145.882974881385
 30
0.0
 11
1026.560560917946
 21
-1130.682974881384
 31
0.0
  0
LINE
  5
20A1E
330
1F
100
AcDbEntity
  8
虛線
 48
0.3
100
AcDbLine
 10
1024.060560917946
 20
-1130.382974881384
 30
0.0
 11
1024.060560917946
 21
-1118.782974881384
 31
0.0
  0
LINE
  5
20A1F
330
1F
100
AcDbEntity
  8
虛線
 48
0.3
100
AcDbLine
 10
1026.260560917946
 20
-1130.382974881384
 30
0.0
 11
1026.560560917946
 21
-1130.682974881384
 31
0.0
  0
LINE
  5
20A20
330
1F
100
AcDbEntity
  8
虛線
 48
0.3
100
AcDbLine
 10
1023.82962081027
 20
-1118.382974881384
 30
0.0
 11
1024.060560917946
 21
-1118.782974881384
 31
0.0
  0
LINE
  5
20A21
330
1F
100
AcDbEntity
  8
虛線
 48
0.3
100
AcDbLine
 10
1035.560560917947
 20
-1145.882974881384
 30
0.0
 11
1026.560560917947
 21
-1145.882974881384
 31
0.0
  0
LINE
  5
20A22
330
1F
100
AcDbEntity
  8
虛線
 48
0.3
100
AcDbLine
 10
1036.060560917947
 20
-1146.382974881384
 30
0.0
 11
1035.560560917947
 21
-1145.882974881384
 31
0.0
  0
LINE
  5
20A23
330
1F
100
AcDbEntity
  8
虛線
 48
0.3
100
AcDbLine
 10
1026.060560917947
 20
-1146.382974881384
 30
0.0
 11
1026.560560917947
 21
-1145.882974881384
 31
0.0
  0
LINE
  5
20A24
330
1F
100
AcDbEntity
  8
中心線
 48
0.2
100
AcDbLine
 10
981.060560917947
 20
-1100.182974881391
 30
0.0
 11
981.0605609179479
 21
-1118.095965374145
 31
0.0
  0
LINE
  5
20A25
330
1F
100
AcDbEntity
  8
0
 48
0.27
100
AcDbLine
 10
1091.060560917947
 20
-1023.262904460969
 30
0.0
 11
1091.060560917947
 21
-995.2629044530667
 31
0.0
  0
CIRCLE
  5
20A26
330
1F
100
AcDbEntity
  8
0
 48
0.27
100
AcDbCircle
 10
1071.060560917947
 20
-1009.262904456967
 30
0.0
 40
4.499999999998863
  0
CIRCLE
  5
20A27
330
1F
100
AcDbEntity
  8
0
 48
0.27
100
AcDbCircle
 10
1071.060560917947
 20
-1009.262904456967
 30
0.0
 40
6.999999999998863
  0
LINE
  5
20A28
330
1F
100
AcDbEntity
  8
中心線
 48
0.5
100
AcDbLine
 10
1071.060560917947
 20
-1017.318973539358
 30
0.0
 11
1071.060560917947
 21
-1001.206835374577
 31
0.0
  0
LINE
  5
20A29
330
1F
100
AcDbEntity
  8
中心線
 48
0.5
100
AcDbLine
 10
1063.004491835557
 20
-1009.262904456967
 30
0.0
 11
1079.116630000338
 21
-1009.262904456967
 31
0.0
  0
ARC
  5
20A2A
330
1F
100
AcDbEntity
  8
0
 48
0.27
100
AcDbCircle
 10
871.0605609179475
 20
-1009.262904456967
 30
0.0
 40
4.499999999998863
100
AcDbArc
 50
35.03060981876603
 51
293.4896718441824
  0
ARC
  5
20A2B
330
1F
100
AcDbEntity
  8
0
 48
0.27
100
AcDbCircle
 10
871.0605609179475
 20
-1009.262904456967
 30
0.0
 40
6.999999999998863
100
AcDbArc
 50
33.78475395280856
 51
273.7085652527994
  0
LINE
  5
20A2C
330
1F
100
AcDbEntity
  8
中心線
 48
0.5
100
AcDbLine
 10
871.0605609179475
 20
-1017.318973539358
 30
0.0
 11
871.0605609179475
 21
-1001.206835374577
 31
0.0
  0
LINE
  5
20A2D
330
1F
100
AcDbEntity
  8
中心線
 48
0.5
100
AcDbLine
 10
863.0044918355569
 20
-1009.262904456967
 30
0.0
 11
873.7995080954616
 21
-1009.262904456967
 31
0.0
  0
LINE
  5
20A2E
330
1F
100
AcDbEntity
  8
中心線
 48
0.27
100
AcDbLine
 10
1001.960560917947
 20
-1111.682974881391
 30
0.0
 11
1009.160560917947
 21
-1111.682974881391
 31
0.0
  0
LINE
  5
20A2F
330
1F
100
AcDbEntity
  8
中心線
 48
0.27
100
AcDbLine
 10
1005.560560917947
 20
-1115.282974881391
 30
0.0
 11
1005.560560917947
 21
-1108.082974881391
 31
0.0
  0
LINE
  5
20A30
330
1F
100
AcDbEntity
  8
中心線
 48
0.27
100
AcDbLine
 10
892.9605609179473
 20
-1111.682974881391
 30
0.0
 11
900.160560917947
 21
-1111.682974881391
 31
0.0
  0
LINE
  5
20A31
330
1F
100
AcDbEntity
  8
中心線
 48
0.27
100
AcDbLine
 10
896.5605609179473
 20
-1115.282974881391
 30
0.0
 11
896.5605609179473
 21
-1108.082974881391
 31
0.0
  0
LINE
  5
20A32
330
1F
100
AcDbEntity
  8
中心線
 48
0.5
100
AcDbLine
 10
951.0605609179471
 20
-974.2629044569673
 30
0.0
 11
951.0605609179471
 21
-1044.262904456967
 31
0.0
  0
LINE
  5
20A33
330
1F
100
AcDbEntity
  8
中心線
 48
0.5
100
AcDbLine
 10
1002.560560917947
 20
-1009.262904456967
 30
0.0
 11
899.560560917947
 21
-1009.262904456967
 31
0.0
  0
ENDSEC
  0
SECTION
  2
OBJECTS
  0
DICTIONARY
  5
C
330
0
100
AcDbDictionary
281
     1
  3
ACAD_COLOR
350
1EAD
  3
ACAD_GROUP
350
D
  3
ACAD_LAYOUT
350
1A
  3
ACAD_MATERIAL
350
1EAC
  3
ACAD_MLINESTYLE
350
17
  3
ACAD_PLOTSETTINGS
350
19
  3
ACAD_PLOTSTYLENAME
350
E
  3
ACAD_TABLESTYLE
350
1EAE
  3
ACDBHEADERROUNDTRIPXREC
350
20A5D
  3
AcDbVariableDictionary
350
4E
  0
DICTIONARY
  5
B56
330
2
100
AcDbDictionary
280
     1
281
     1
  3
ACAD_LAYERFILTERS
360
1B22B
  3
ACAD_LAYERSTATES
360
B57
  0
DICTIONARY
  5
37F6
330
1F
100
AcDbDictionary
280
     1
281
     1
  3
ACAD_SORTENTS
360
37F7
  0
DICTIONARY
  5
1E1CD
330
1E1CC
100
AcDbDictionary
280
     1
281
     1
  0
DICTIONARY
  5
1ECC2
330
1EC49
100
AcDbDictionary
280
     1
281
     1
  3
ACAD_SORTENTS
360
1ECC3
  0
DICTIONARY
  5
1EAD
102
{ACAD_REACTORS
330
C
102
}
330
C
100
AcDbDictionary
281
     1
  0
DICTIONARY
  5
D
102
{ACAD_REACTORS
330
C
102
}
330
C
100
AcDbDictionary
281
     1
  3
*A1
350
BFA
  3
*A10
350
C03
  3
*A11
350
C04
  3
*A12
350
C05
  3
*A13
350
C06
  3
*A14
350
F10
  3
*A15
350
F11
  3
*A16
350
F12
  3
*A17
350
F13
  3
*A18
350
F14
  3
*A19
350
F15
  3
*A2
350
BFB
  3
*A20
350
F16
  3
*A21
350
F17
  3
*A22
350
F18
  3
*A23
350
F19
  3
*A24
350
F1A
  3
*A25
350
F1B
  3
*A26
350
F1C
  3
*A27
350
F1D
  3
*A28
350
10A0
  3
*A29
350
10A1
  3
*A3
350
BFC
  3
*A30
350
10A2
  3
*A31
350
10A3
  3
*A32
350
10A4
  3
*A33
350
10A5
  3
*A34
350
10A6
  3
*A35
350
10A7
  3
*A36
350
10A8
  3
*A37
350
10A9
  3
*A38
350
10AA
  3
*A39
350
10AB
  3
*A4
350
BFD
  3
*A40
350
10AC
  3
*A5
350
BFE
  3
*A6
350
BFF
  3
*A7
350
C00
  3
*A8
350
C01
  3
*A9
350
C02
  0
DICTIONARY
  5
1A
102
{ACAD_REACTORS
330
C
102
}
330
C
100
AcDbDictionary
281
     1
  3
Model
350
22
  3
配置1
350
1E
  3
配置2
350
26
  0
DICTIONARY
  5
1EAC
102
{ACAD_REACTORS
330
C
102
}
330
C
100
AcDbDictionary
281
     1
  0
DICTIONARY
  5
17
102
{ACAD_REACTORS
330
C
102
}
330
C
100
AcDbDictionary
281
     1
  3
Standard
350
18
  0
DICTIONARY
  5
19
102
{ACAD_REACTORS
330
C
102
}
330
C
100
AcDbDictionary
281
     1
  3
LANSRO
350
1AB
  0
ACDBDICTIONARYWDFLT
  5
E
102
{ACAD_REACTORS
330
C
102
}
330
C
100
AcDbDictionary
281
     1
  3
Normal
350
F
100
AcDbDictionaryWithDefault
340
F
  0
DICTIONARY
  5
1EAE
102
{ACAD_REACTORS
330
C
102
}
330
C
100
AcDbDictionary
281
     1
  3
Standard
350
1EAF
  0
DICTIONARY
  5
20A5D
102
{ACAD_REACTORS
330
C
102
}
330
C
100
AcDbDictionary
281
     1
  3
COLORDICT
350
20A5F
  3
MATERIALDICT
350
20A5E
  0
DICTIONARY
  5
4E
102
{ACAD_REACTORS
330
C
102
}
330
C
100
AcDbDictionary
281
     1
  3
CTABLESTYLE
350
1EB7
  3
DIMASSOC
350
A766
  3
PROJECTNAME
350
A767
  3
SORTENTS
350
4F
  0
DICTIONARY
  5
1B22B
102
{ACAD_REACTORS
330
B56
102
}
330
B56
100
AcDbDictionary
281
     1
  0
DICTIONARY
  5
B57
102
{ACAD_REACTORS
330
B56
102
}
330
B56
100
AcDbDictionary
281
     1
  0
SORTENTSTABLE
  5
37F7
102
{ACAD_REACTORS
330
37F6
102
}
330
37F6
100
AcDbSortentsTable
330
1F
  0
SORTENTSTABLE
  5
1ECC3
102
{ACAD_REACTORS
330
1ECC2
102
}
330
1ECC2
100
AcDbSortentsTable
330
1EC49
  0
GROUP
  5
BFA
102
{ACAD_REACTORS
330
D
102
}
330
D
100
AcDbGroup
300

 70
     1
 71
     1
  0
GROUP
  5
C03
102
{ACAD_REACTORS
330
D
102
}
330
D
100
AcDbGroup
300

 70
     1
 71
     1
  0
GROUP
  5
C04
102
{ACAD_REACTORS
330
D
102
}
330
D
100
AcDbGroup
300

 70
     1
 71
     1
  0
GROUP
  5
C05
102
{ACAD_REACTORS
330
D
102
}
330
D
100
AcDbGroup
300

 70
     1
 71
     1
  0
GROUP
  5
C06
102
{ACAD_REACTORS
330
D
102
}
330
D
100
AcDbGroup
300

 70
     1
 71
     1
  0
GROUP
  5
F10
102
{ACAD_REACTORS
330
D
102
}
330
D
100
AcDbGroup
300

 70
     1
 71
     1
  0
GROUP
  5
F11
102
{ACAD_REACTORS
330
D
102
}
330
D
100
AcDbGroup
300

 70
     1
 71
     1
  0
GROUP
  5
F12
102
{ACAD_REACTORS
330
D
102
}
330
D
100
AcDbGroup
300

 70
     1
 71
     1
  0
GROUP
  5
F13
102
{ACAD_REACTORS
330
D
102
}
330
D
100
AcDbGroup
300

 70
     1
 71
     1
  0
GROUP
  5
F14
102
{ACAD_REACTORS
330
D
102
}
330
D
100
AcDbGroup
300

 70
     1
 71
     1
  0
GROUP
  5
F15
102
{ACAD_REACTORS
330
D
102
}
330
D
100
AcDbGroup
300

 70
     1
 71
     1
  0
GROUP
  5
BFB
102
{ACAD_REACTORS
330
D
102
}
330
D
100
AcDbGroup
300

 70
     1
 71
     1
  0
GROUP
  5
F16
102
{ACAD_REACTORS
330
D
102
}
330
D
100
AcDbGroup
300

 70
     1
 71
     1
  0
GROUP
  5
F17
102
{ACAD_REACTORS
330
D
102
}
330
D
100
AcDbGroup
300

 70
     1
 71
     1
  0
GROUP
  5
F18
102
{ACAD_REACTORS
330
D
102
}
330
D
100
AcDbGroup
300

 70
     1
 71
     1
  0
GROUP
  5
F19
102
{ACAD_REACTORS
330
D
102
}
330
D
100
AcDbGroup
300

 70
     1
 71
     1
  0
GROUP
  5
F1A
102
{ACAD_REACTORS
330
D
102
}
330
D
100
AcDbGroup
300

 70
     1
 71
     1
  0
GROUP
  5
F1B
102
{ACAD_REACTORS
330
D
102
}
330
D
100
AcDbGroup
300

 70
     1
 71
     1
  0
GROUP
  5
F1C
102
{ACAD_REACTORS
330
D
102
}
330
D
100
AcDbGroup
300

 70
     1
 71
     1
  0
GROUP
  5
F1D
102
{ACAD_REACTORS
330
D
102
}
330
D
100
AcDbGroup
300

 70
     1
 71
     1
  0
GROUP
  5
10A0
102
{ACAD_REACTORS
330
D
102
}
330
D
100
AcDbGroup
300

 70
     1
 71
     1
  0
GROUP
  5
10A1
102
{ACAD_REACTORS
330
D
102
}
330
D
100
AcDbGroup
300

 70
     1
 71
     1
  0
GROUP
  5
BFC
102
{ACAD_REACTORS
330
D
102
}
330
D
100
AcDbGroup
300

 70
     1
 71
     1
  0
GROUP
  5
10A2
102
{ACAD_REACTORS
330
D
102
}
330
D
100
AcDbGroup
300

 70
     1
 71
     1
  0
GROUP
  5
10A3
102
{ACAD_REACTORS
330
D
102
}
330
D
100
AcDbGroup
300

 70
     1
 71
     1
  0
GROUP
  5
10A4
102
{ACAD_REACTORS
330
D
102
}
330
D
100
AcDbGroup
300

 70
     1
 71
     1
  0
GROUP
  5
10A5
102
{ACAD_REACTORS
330
D
102
}
330
D
100
AcDbGroup
300

 70
     1
 71
     1
  0
GROUP
  5
10A6
102
{ACAD_REACTORS
330
D
102
}
330
D
100
AcDbGroup
300

 70
     1
 71
     1
  0
GROUP
  5
10A7
102
{ACAD_REACTORS
330
D
102
}
330
D
100
AcDbGroup
300

 70
     1
 71
     1
  0
GROUP
  5
10A8
102
{ACAD_REACTORS
330
D
102
}
330
D
100
AcDbGroup
300

 70
     1
 71
     1
  0
GROUP
  5
10A9
102
{ACAD_REACTORS
330
D
102
}
330
D
100
AcDbGroup
300

 70
     1
 71
     1
  0
GROUP
  5
10AA
102
{ACAD_REACTORS
330
D
102
}
330
D
100
AcDbGroup
300

 70
     1
 71
     1
  0
GROUP
  5
10AB
102
{ACAD_REACTORS
330
D
102
}
330
D
100
AcDbGroup
300

 70
     1
 71
     1
  0
GROUP
  5
BFD
102
{ACAD_REACTORS
330
D
102
}
330
D
100
AcDbGroup
300

 70
     1
 71
     1
  0
GROUP
  5
10AC
102
{ACAD_REACTORS
330
D
102
}
330
D
100
AcDbGroup
300

 70
     1
 71
     1
  0
GROUP
  5
BFE
102
{ACAD_REACTORS
330
D
102
}
330
D
100
AcDbGroup
300

 70
     1
 71
     1
  0
GROUP
  5
BFF
102
{ACAD_REACTORS
330
D
102
}
330
D
100
AcDbGroup
300

 70
     1
 71
     1
  0
GROUP
  5
C00
102
{ACAD_REACTORS
330
D
102
}
330
D
100
AcDbGroup
300

 70
     1
 71
     1
  0
GROUP
  5
C01
102
{ACAD_REACTORS
330
D
102
}
330
D
100
AcDbGroup
300

 70
     1
 71
     1
  0
GROUP
  5
C02
102
{ACAD_REACTORS
330
D
102
}
330
D
100
AcDbGroup
300

 70
     1
 71
     1
  0
LAYOUT
  5
22
102
{ACAD_XDICTIONARY
360
20A62
102
}
102
{ACAD_REACTORS
330
1A
102
}
330
1A
100
AcDbPlotSettings
  1

  2
HP LaserJet 5100 Series
  4
A4
  6

 40
5.027083396911621
 41
5.408084392547607
 42
5.70440673828125
 43
5.365753173828125
 44
209.8886566162109
 45
297.0530090332031
 46
3.33
 47
0.0
 48
-114.3921822345449
 49
-1517.123039014255
140
420.207817765455
141
-1157.636773708224
142
1.0
143
1.867407947496965
 70
 11956
 72
     1
 73
     1
 74
     4
  7
aclt.ctb
 75
     0
147
0.5355016301287456
148
114.3921822345449
149
1517.123039014255
100
AcDbLayout
  1
Model
 70
     1
 71
     0
 10
0.0
 20
0.0
 11
12.0
 21
9.0
 12
0.0
 22
0.0
 32
0.0
 14
0.0
 24
0.0
 34
0.0
 15
0.0
 25
0.0
 35
0.0
146
0.0
 13
0.0
 23
0.0
 33
0.0
 16
1.0
 26
0.0
 36
0.0
 17
0.0
 27
1.0
 37
0.0
 76
     0
330
1F
  0
LAYOUT
  5
1E
102
{ACAD_XDICTIONARY
360
20A60
102
}
102
{ACAD_REACTORS
330
1A
102
}
330
1A
100
AcDbPlotSettings
  1

  2
C:\Program Files\AutoCAD LT 2000i\plotters\DWF Classic.pc3
  4

  6

 40
0.0
 41
0.0
 42
0.0
 43
0.0
 44
0.0
 45
0.0
 46
0.0
 47
0.0
 48
0.0
 49
0.0
140
0.0
141
0.0
142
1.0
143
1.0
 70
   688
 72
     0
 73
     0
 74
     5
  7
aclt.ctb
 75
    16
147
1.0
148
0.0
149
0.0
100
AcDbLayout
  1
配置1
 70
     1
 71
     1
 10
0.0
 20
0.0
 11
420.0
 21
297.0
 12
0.0
 22
0.0
 32
0.0
 14
1.000000000000000E+20
 24
1.000000000000000E+20
 34
1.000000000000000E+20
 15
-1.000000000000000E+20
 25
-1.000000000000000E+20
 35
-1.000000000000000E+20
146
0.0
 13
0.0
 23
0.0
 33
0.0
 16
1.0
 26
0.0
 36
0.0
 17
0.0
 27
1.0
 37
0.0
 76
     0
330
1B
  0
LAYOUT
  5
26
102
{ACAD_XDICTIONARY
360
20A64
102
}
102
{ACAD_REACTORS
330
1A
102
}
330
1A
100
AcDbPlotSettings
  1

  2
C:\Program Files\AutoCAD LT 2000i\plotters\DWF Classic.pc3
  4

  6

 40
0.0
 41
0.0
 42
0.0
 43
0.0
 44
0.0
 45
0.0
 46
0.0
 47
0.0
 48
0.0
 49
0.0
140
0.0
141
0.0
142
1.0
143
1.0
 70
   688
 72
     0
 73
     0
 74
     5
  7
aclt.ctb
 75
    16
147
1.0
148
0.0
149
0.0
100
AcDbLayout
  1
配置2
 70
     1
 71
     2
 10
0.0
 20
0.0
 11
12.0
 21
9.0
 12
0.0
 22
0.0
 32
0.0
 14
0.0
 24
0.0
 34
0.0
 15
0.0
 25
0.0
 35
0.0
146
0.0
 13
0.0
 23
0.0
 33
0.0
 16
1.0
 26
0.0
 36
0.0
 17
0.0
 27
1.0
 37
0.0
 76
     0
330
23
  0
MLINESTYLE
  5
18
102
{ACAD_REACTORS
330
17
102
}
330
17
100
AcDbMlineStyle
  2
STANDARD
 70
     0
  3

 62
   256
 51
90.0
 52
90.0
 71
     2
 49
0.5
 62
   256
  6
BYLAYER
 49
-0.5
 62
   256
  6
BYLAYER
  0
PLOTSETTINGS
  5
1AB
102
{ACAD_XDICTIONARY
360
20A66
102
}
102
{ACAD_REACTORS
330
19
102
}
330
19
100
AcDbPlotSettings
  1
LANSRO
  2
\\1260\HP2200
  4
A4
  6

 40
6.043083190917968
 41
6.762742042541503
 42
7.736419677734375
 43
5.027069091796875
 44
209.9733276367187
 45
296.9683227539062
 46
5.15
 47
0.0
 48
0.0
 49
0.0
140
0.0
141
0.0
142
1.0
143
0.8829829263240881
 70
  1716
 72
     1
 73
     1
 74
     0
  7
AAA.ctb
 75
     0
147
1.132524729739748
148
-132.297014905803
149
-71.78507365635891
  0
ACDBPLACEHOLDER
  5
F
102
{ACAD_REACTORS
330
E
102
}
330
E
  0
ACAD_PROXY_OBJECT
  5
1EAF
102
{ACAD_REACTORS
330
1EAE
102
}
330
1EAE
100
AcDbProxyObject
 90
      499
 91
      505
 95
   983063
 70
     0
 93
     1841
310
4214DD185B99185C9928000000000000F83F0000000000003E0FC00000000000004901028000000C1008070000C3001FDFF8000000C1003FBFF000000182007F7FE00000030400FEFFC00000060801FDFF8000000C1003FBFF000000182000000000000000C2020B0000001820100E000186003FBFF000000182007F7FE000
310
00030400FEFFC00000060801FDFF8000000C1003FBFF000000182007F7FE0000003040000000000000012404160000003040201C00030C007F7FE00000030400FEFFC00000060801FDFF8000000C1003FBFF000000182007F7FE00000030400FEFFC000000608000
340
11
340
11
340
11
 94
        0
1001
ACAD
1000
AcRTDxfName
1000
TABLESTYLE
1000
AcRTDxfName
1000
TABLESTYLE
1000
AcRTDxfName
1000
TABLESTYLE
1000
AcRTDxfName
1000
TABLESTYLE
1000
AcRTDxfName
1000
TABLESTYLE
1000
AcRTDxfName
1000
TABLESTYLE
1000
AcRTDxfName
1000
TABLESTYLE
1000
AcRTDxfName
1000
TABLESTYLE
1000
AcRTDxfName
1000
TABLESTYLE
1000
AcRTDxfName
1000
TABLESTYLE
  0
XRECORD
  5
20A5F
102
{ACAD_REACTORS
330
20A5D
102
}
330
20A5D
100
AcDbXrecord
280
     1
340
1EAD
  0
XRECORD
  5
20A5E
102
{ACAD_REACTORS
330
20A5D
102
}
330
20A5D
100
AcDbXrecord
280
     1
340
1EAC
  0
DICTIONARYVAR
  5
1EB7
102
{ACAD_REACTORS
330
4E
102
}
330
4E
100
DictionaryVariables
280
     0
  1
STANDARD
  0
DICTIONARYVAR
  5
A766
102
{ACAD_REACTORS
330
4E
102
}
330
4E
100
DictionaryVariables
280
     0
  1
1
  0
DICTIONARYVAR
  5
A767
102
{ACAD_REACTORS
330
4E
102
}
330
4E
100
DictionaryVariables
280
     0
  1

  0
DICTIONARYVAR
  5
4F
102
{ACAD_REACTORS
330
4E
102
}
330
4E
100
DictionaryVariables
280
     0
  1
96
  0
DICTIONARY
  5
20A62
330
22
100
AcDbDictionary
280
     1
281
     1
  3
ACAD_XREC_ROUNDTRIP
360
20A63
  0
DICTIONARY
  5
20A60
330
1E
100
AcDbDictionary
280
     1
281
     1
  3
ACAD_XREC_ROUNDTRIP
360
20A61
  0
DICTIONARY
  5
20A64
330
26
100
AcDbDictionary
280
     1
281
     1
  3
ACAD_XREC_ROUNDTRIP
360
20A65
  0
DICTIONARY
  5
20A66
330
1AB
100
AcDbDictionary
280
     1
281
     1
  3
ACAD_XREC_ROUNDTRIP
360
20A67
  0
XRECORD
  5
20A63
102
{ACAD_REACTORS
330
20A62
102
}
330
20A62
100
AcDbXrecord
280
     1
102
SHADEPLOT
 70
     0
102
SHADEPLOTRESLEVEL
 70
     2
102
SHADEPLOTCUSTOMDPI
 70
   300
  0
XRECORD
  5
20A61
102
{ACAD_REACTORS
330
20A60
102
}
330
20A60
100
AcDbXrecord
280
     1
102
SHADEPLOT
 70
     0
102
SHADEPLOTRESLEVEL
 70
     2
102
SHADEPLOTCUSTOMDPI
 70
   300
  0
XRECORD
  5
20A65
102
{ACAD_REACTORS
330
20A64
102
}
330
20A64
100
AcDbXrecord
280
     1
102
SHADEPLOT
 70
     0
102
SHADEPLOTRESLEVEL
 70
     2
102
SHADEPLOTCUSTOMDPI
 70
   300
  0
XRECORD
  5
20A67
102
{ACAD_REACTORS
330
20A66
102
}
330
20A66
100
AcDbXrecord
280
     1
102
SHADEPLOT
 70
     0
102
SHADEPLOTRESLEVEL
 70
     2
102
SHADEPLOTCUSTOMDPI
 70
   300
  0
ENDSEC
  0
EOF
