  0
SECTION
  2
HEADER
  9
$ACADVER
  1
AC1014
  9
$ACADMAINTVER
 70
     9
  9
$DWGCODEPAGE
  3
ANSI_1252
  9
$INSBASE
 10
0.0
 20
0.0
 30
0.0
  9
$EXTMIN
 10
-67.91637909986512
 20
116.888108523253
 30
-0.0000000000000142
  9
$EXTMAX
 10
46.10047548813794
 20
168.4461402941378
 30
0.0000000000000142
  9
$LIMMIN
 10
0.0
 20
0.0
  9
$LIMMAX
 10
0.0
 20
0.0
  9
$ORTHOMODE
 70
     1
  9
$REGENMODE
 70
     1
  9
$FILLMODE
 70
     1
  9
$QTEXTMODE
 70
     0
  9
$MIRRTEXT
 70
     1
  9
$DRAGMODE
 70
     2
  9
$LTSCALE
 40
1.0
  9
$OSMODE
 70
    37
  9
$ATTMODE
 70
     1
  9
$TEXTSIZE
 40
0.0
  9
$TRACEWID
 40
0.05
  9
$TEXTSTYLE
  7
STANDARD
  9
$CLAYER
  8
0
  9
$CELTYPE
  6
DASHED
  9
$CECOLOR
 62
     7
  9
$CELTSCALE
 40
1.0
  9
$DELOBJ
 70
     1
  9
$DISPSILH
 70
     0
  9
$DIMSCALE
 40
1.0
  9
$DIMASZ
 40
0.18
  9
$DIMEXO
 40
0.0625
  9
$DIMDLI
 40
0.38
  9
$DIMRND
 40
0.0
  9
$DIMDLE
 40
0.0
  9
$DIMEXE
 40
0.25
  9
$DIMTP
 40
0.05
  9
$DIMTM
 40
-0.05
  9
$DIMTXT
 40
2.5
  9
$DIMCEN
 40
0.09
  9
$DIMTSZ
 40
0.0
  9
$DIMTOL
 70
     0
  9
$DIMLIM
 70
     0
  9
$DIMTIH
 70
     1
  9
$DIMTOH
 70
     1
  9
$DIMSE1
 70
     0
  9
$DIMSE2
 70
     0
  9
$DIMTAD
 70
     0
  9
$DIMZIN
 70
     0
  9
$DIMBLK
  1

  9
$DIMASO
 70
     1
  9
$DIMSHO
 70
     1
  9
$DIMPOST
  1

  9
$DIMAPOST
  1

  9
$DIMALT
 70
     0
  9
$DIMALTD
 70
     2
  9
$DIMALTF
 40
25.4
  9
$DIMLFAC
 40
1.0
  9
$DIMTOFL
 70
     0
  9
$DIMTVP
 40
0.0
  9
$DIMTIX
 70
     0
  9
$DIMSOXD
 70
     0
  9
$DIMSAH
 70
     0
  9
$DIMBLK1
  1

  9
$DIMBLK2
  1

  9
$DIMSTYLE
  2
STANDARD
  9
$DIMCLRD
 70
     0
  9
$DIMCLRE
 70
     0
  9
$DIMCLRT
 70
    15
  9
$DIMTFAC
 40
0.7000000000000001
  9
$DIMGAP
 40
0.09
  9
$DIMJUST
 70
     0
  9
$DIMSD1
 70
     0
  9
$DIMSD2
 70
     0
  9
$DIMTOLJ
 70
     1
  9
$DIMTZIN
 70
     0
  9
$DIMALTZ
 70
     0
  9
$DIMALTTZ
 70
     0
  9
$DIMFIT
 70
     3
  9
$DIMUPT
 70
     0
  9
$DIMUNIT
 70
     2
  9
$DIMDEC
 70
     4
  9
$DIMTDEC
 70
     4
  9
$DIMALTU
 70
     2
  9
$DIMALTTD
 70
     2
  9
$DIMTXSTY
  7
STANDARD
  9
$DIMAUNIT
 70
     0
  9
$LUNITS
 70
     2
  9
$LUPREC
 70
    10
  9
$SKETCHINC
 40
0.1
  9
$FILLETRAD
 40
0.0
  9
$AUNITS
 70
     0
  9
$AUPREC
 70
     0
  9
$MENU
  1
acad
  9
$ELEVATION
 40
0.0
  9
$PELEVATION
 40
0.0
  9
$THICKNESS
 40
0.0
  9
$LIMCHECK
 70
     0
  9
$BLIPMODE
 70
     0
  9
$CHAMFERA
 40
0.0
  9
$CHAMFERB
 40
0.0
  9
$CHAMFERC
 40
0.0
  9
$CHAMFERD
 40
0.0
  9
$SKPOLY
 70
     0
  9
$TDCREATE
 40
2444972.083333333
  9
$TDUPDATE
 40
2452443.352430011
  9
$TDINDWG
 40
0.0080815278
  9
$TDUSRTIMER
 40
0.0080815278
  9
$USRTIMER
 70
     1
  9
$ANGBASE
 50
0.0
  9
$ANGDIR
 70
     0
  9
$PDMODE
 70
     2
  9
$PDSIZE
 40
0.0
  9
$PLINEWID
 40
0.0
  9
$COORDS
 70
     1
  9
$SPLFRAME
 70
     0
  9
$SPLINETYPE
 70
     6
  9
$SPLINESEGS
 70
     8
  9
$ATTDIA
 70
     0
  9
$ATTREQ
 70
     1
  9
$HANDLING
 70
-16383
  9
$HANDSEED
  5
1BD
  9
$SURFTAB1
 70
     6
  9
$SURFTAB2
 70
     6
  9
$SURFTYPE
 70
     6
  9
$SURFU
 70
     6
  9
$SURFV
 70
     6
  9
$UCSNAME
  2

  9
$UCSORG
 10
0.0
 20
0.0
 30
0.0
  9
$UCSXDIR
 10
1.0
 20
0.0
 30
0.0
  9
$UCSYDIR
 10
0.0
 20
1.0
 30
0.0
  9
$PUCSNAME
  2

  9
$PUCSORG
 10
0.0
 20
0.0
 30
0.0
  9
$PUCSXDIR
 10
1.0
 20
0.0
 30
0.0
  9
$PUCSYDIR
 10
0.0
 20
1.0
 30
0.0
  9
$USERI1
 70
     0
  9
$USERI2
 70
     0
  9
$USERI3
 70
     0
  9
$USERI4
 70
     0
  9
$USERI5
 70
     0
  9
$USERR1
 40
0.0
  9
$USERR2
 40
0.0
  9
$USERR3
 40
0.0
  9
$USERR4
 40
0.0
  9
$USERR5
 40
0.0
  9
$WORLDVIEW
 70
     1
  9
$SHADEDGE
 70
     3
  9
$SHADEDIF
 70
    70
  9
$TILEMODE
 70
     1
  9
$MAXACTVP
 70
    16
  9
$PINSBASE
 10
0.0
 20
0.0
 30
0.0
  9
$PLIMCHECK
 70
     0
  9
$PEXTMIN
 10
1.000000000000000E+20
 20
1.000000000000000E+20
 30
1.000000000000000E+20
  9
$PEXTMAX
 10
-1.000000000000000E+20
 20
-1.000000000000000E+20
 30
-1.000000000000000E+20
  9
$PLIMMIN
 10
0.0
 20
0.0
  9
$PLIMMAX
 10
12.0
 20
9.0
  9
$UNITMODE
 70
     0
  9
$VISRETAIN
 70
     0
  9
$PLINEGEN
 70
     1
  9
$PSLTSCALE
 70
     0
  9
$TREEDEPTH
 70
  3020
  9
$PICKSTYLE
 70
     1
  9
$CMLSTYLE
  2
STANDARD
  9
$CMLJUST
 70
     0
  9
$CMLSCALE
 40
1.0
  9
$PROXYGRAPHICS
 70
     1
  9
$MEASUREMENT
 70
     0
  0
ENDSEC
  0
SECTION
  2
CLASSES
  0
CLASS
  1
LWPOLYLINE
  2
AcDbPolyline
  3
AutoCAD 2000
 90
        0
280
     0
281
     1
  0
CLASS
  1
IMAGE
  2
AcDbRasterImage
  3
ISM
 90
      127
280
     0
281
     1
  0
CLASS
  1
OLE2FRAME
  2
AcDbOle2Frame
  3
AutoCAD 2000
 90
        0
280
     0
281
     1
  0
CLASS
  1
HATCH
  2
AcDbHatch
  3
AutoCAD 2000
 90
        0
280
     0
281
     1
  0
CLASS
  1
DICTIONARYVAR
  2
AcDbDictionaryVar
  3
AutoCAD 2000
 90
        0
280
     0
281
     0
  0
CLASS
  1
RASTERVARIABLES
  2
AcDbRasterVariables
  3
ISM
 90
        0
280
     0
281
     0
  0
CLASS
  1
IMAGEDEF
  2
AcDbRasterImageDef
  3
ISM
 90
        0
280
     0
281
     0
  0
CLASS
  1
IMAGEDEF_REACTOR
  2
AcDbRasterImageDefReactor
  3
ISM
 90
        1
280
     0
281
     0
  0
CLASS
  1
IDBUFFER
  2
AcDbIdBuffer
  3
AutoCAD 2000
 90
        0
280
     0
281
     0
  0
CLASS
  1
SPATIAL_FILTER
  2
AcDbSpatialFilter
  3
AutoCAD 2000
 90
        0
280
     0
281
     0
  0
CLASS
  1
XRECORD
  2
AcDbXrecord
  3
AutoCAD 2000
 90
        0
280
     0
281
     0
  0
CLASS
  1
SORTENTSTABLE
  2
AcDbSortentsTable
  3
AutoCAD 2000
 90
        0
280
     0
281
     0
  0
CLASS
  1
LAYER_INDEX
  2
AcDbLayerIndex
  3
AutoCAD 2000
 90
        0
280
     0
281
     0
  0
CLASS
  1
SPATIAL_INDEX
  2
AcDbSpatialIndex
  3
AutoCAD 2000
 90
        0
280
     0
281
     0
  0
CLASS
  1
OBJECT_PTR
  2
CAseDLPNTableRecord
  3
"ASE-LPNTableRecord"
 90
        0
280
     0
281
     0
  0
CLASS
  1
ACDBDICTIONARYWDFLT
  2
AcDbDictionaryWithDefault
  3
AutoCAD 2000
 90
        0
280
     0
281
     0
  0
CLASS
  1
ACDBPLACEHOLDER
  2
AcDbPlaceHolder
  3
AutoCAD 2000
 90
        0
280
     0
281
     0
  0
CLASS
  1
LAYOUT
  2
AcDbLayout
  3
AutoCAD 2000
 90
        0
280
     0
281
     0
  0
CLASS
  1
LONG_TRANSACTION
  2
AcDbLongTransaction
  3
AutoCAD 2000
 90
        0
280
     0
281
     0
  0
CLASS
  1
LWPOLYLINE
  2
AcDbPolyline
  3
AutoCAD 2000
 90
        0
280
     0
281
     1
  0
CLASS
  1
HATCH
  2
AcDbHatch
  3
AutoCAD 2000
 90
        0
280
     0
281
     1
  0
CLASS
  1
XRECORD
  2
AcDbXrecord
  3
AutoCAD 2000
 90
        0
280
     0
281
     0
  0
ENDSEC
  0
SECTION
  2
TABLES
  0
TABLE
  2
VPORT
  5
7
330
0
100
AcDbSymbolTable
 70
     2
  0
VPORT
  5
198
330
7
100
AcDbSymbolTableRecord
100
AcDbViewportTableRecord
  2
*ACTIVE
 70
     0
 10
0.0
 20
0.0
 11
1.0
 21
1.0
 12
-10.91032745164173
 22
142.6624777676777
 13
0.0
 23
0.0
 14
1.0
 24
1.0
 15
0.0
 25
0.0
 16
0.0
 26
0.0
 36
1.0
 17
0.0
 27
0.0
 37
0.0
 40
66.8854622799169
 41
1.714285714285714
 42
50.0
 43
0.0
 44
0.0
 50
0.0
 51
0.0
 71
     0
 72
   100
 73
     1
 74
     1
 75
     0
 76
     0
 77
     0
 78
     0
  0
ENDTAB
  0
TABLE
  2
LTYPE
  5
4
330
0
100
AcDbSymbolTable
 70
     4
  0
LTYPE
  5
11
330
4
100
AcDbSymbolTableRecord
100
AcDbLinetypeTableRecord
  2
BYBLOCK
 70
     0
  3

 72
    65
 73
     0
 40
0.0
  0
LTYPE
  5
12
330
4
100
AcDbSymbolTableRecord
100
AcDbLinetypeTableRecord
  2
BYLAYER
 70
     0
  3

 72
    65
 73
     0
 40
0.0
  0
LTYPE
  5
13
330
4
100
AcDbSymbolTableRecord
100
AcDbLinetypeTableRecord
  2
CONTINUOUS
 70
     0
  3
Solid line
 72
    65
 73
     0
 40
0.0
  0
LTYPE
  5
1D
330
4
100
AcDbSymbolTableRecord
100
AcDbLinetypeTableRecord
  2
DASHED
 70
     0
  3
_ _ _ _ _ _ _ _ _ _ _ _ _ _ _ _
 72
    65
 73
     2
 40
0.2
 49
0.1
 74
     0
 49
-0.1
 74
     0
  0
LTYPE
  5
1E
330
4
100
AcDbSymbolTableRecord
100
AcDbLinetypeTableRecord
  2
CENTER
 70
     0
  3
___ _ ___ _ ___ _ ___ _ ___ _ ___ _ ___ _ ___ _
 72
    65
 73
     4
 40
0.95
 49
0.625
 74
     0
 49
-0.125
 74
     0
 49
0.075
 74
     0
 49
-0.125
 74
     0
  0
LTYPE
  5
1F
330
4
100
AcDbSymbolTableRecord
100
AcDbLinetypeTableRecord
  2
PHANTOM
 70
     0
  3
______  __  __  ______  __  __  ______  __  __  
 72
    65
 73
     6
 40
1.024999999999999
 49
0.625
 74
     0
 49
-0.125
 74
     0
 49
0.075
 74
     0
 49
-0.125
 74
     0
 49
0.075
 74
     0
 49
-0.125
 74
     0
  0
ENDTAB
  0
TABLE
  2
LAYER
  5
2
330
0
100
AcDbSymbolTable
 70
    10
  0
LAYER
  5
14
330
2
100
AcDbSymbolTableRecord
100
AcDbLayerTableRecord
  2
0
 70
     0
 62
     7
  6
CONTINUOUS
  0
LAYER
  5
21
330
2
100
AcDbSymbolTableRecord
100
AcDbLayerTableRecord
  2
CK_LEVEL_1
 70
     0
 62
     7
  6
CONTINUOUS
  0
LAYER
  5
22
330
2
100
AcDbSymbolTableRecord
100
AcDbLayerTableRecord
  2
ES
 70
     0
 62
     7
  6
CONTINUOUS
  0
LAYER
  5
23
330
2
100
AcDbSymbolTableRecord
100
AcDbLayerTableRecord
  2
CK_LEVEL_3
 70
     0
 62
     7
  6
CONTINUOUS
  0
LAYER
  5
24
330
2
100
AcDbSymbolTableRecord
100
AcDbLayerTableRecord
  2
CK_LEVEL_4
 70
     0
 62
     7
  6
CONTINUOUS
  0
LAYER
  5
25
330
2
100
AcDbSymbolTableRecord
100
AcDbLayerTableRecord
  2
CK_LEVEL_5
 70
     0
 62
     7
  6
CONTINUOUS
  0
LAYER
  5
26
330
2
100
AcDbSymbolTableRecord
100
AcDbLayerTableRecord
  2
CK_LEVEL_6
 70
     0
 62
     7
  6
CONTINUOUS
  0
LAYER
  5
27
330
2
100
AcDbSymbolTableRecord
100
AcDbLayerTableRecord
  2
CK_LEVEL_7
 70
     0
 62
     7
  6
CONTINUOUS
  0
LAYER
  5
28
330
2
100
AcDbSymbolTableRecord
100
AcDbLayerTableRecord
  2
CK_LEVEL_8
 70
     0
 62
     7
  6
CONTINUOUS
  0
LAYER
  5
29
330
2
100
AcDbSymbolTableRecord
100
AcDbLayerTableRecord
  2
MGW9
 70
     0
 62
     7
  6
CONTINUOUS
  0
ENDTAB
  0
TABLE
  2
STYLE
  5
3
330
0
100
AcDbSymbolTable
 70
     1
  0
STYLE
  5
17
330
3
100
AcDbSymbolTableRecord
100
AcDbTextStyleTableRecord
  2
STANDARD
 70
     0
 40
0.0
 41
1.0
 50
0.0
 71
     0
 42
0.0
  3
txt
  4

  0
ENDTAB
  0
TABLE
  2
VIEW
  5
5
330
0
100
AcDbSymbolTable
 70
     0
  0
ENDTAB
  0
TABLE
  2
UCS
  5
6
330
0
100
AcDbSymbolTable
 70
     1
  0
UCS
  5
20
330
6
100
AcDbSymbolTableRecord
100
AcDbUCSTableRecord
  2
CK_VIEW_1
 70
     0
 10
0.0
 20
0.0
 30
1.0
 11
1.0
 21
0.0
 31
0.0
 12
0.0
 22
1.0
 32
0.0
  0
ENDTAB
  0
TABLE
  2
APPID
  5
8
330
0
100
AcDbSymbolTable
 70
     1
  0
APPID
  5
16
330
8
100
AcDbSymbolTableRecord
100
AcDbRegAppTableRecord
  2
ACAD
 70
     0
  0
ENDTAB
  0
TABLE
  2
DIMSTYLE
  5
9
330
0
100
AcDbSymbolTable
 70
     1
  0
DIMSTYLE
105
18
330
9
100
AcDbSymbolTableRecord
100
AcDbDimStyleTableRecord
  2
STANDARD
 70
     0
  3

  4

  5

  6

  7

 40
1.0
 41
0.18
 42
0.0625
 43
0.38
 44
0.18
 45
0.0
 46
0.0
 47
0.0
 48
0.0
140
0.18
141
0.09
142
0.0
143
25.4
144
1.0
145
0.0
146
1.0
147
0.09
 71
     0
 72
     0
 73
     1
 74
     1
 75
     0
 76
     0
 77
     0
 78
     0
170
     0
171
     2
172
     0
173
     0
174
     0
175
     0
176
     0
177
     0
178
     0
270
     2
271
     4
272
     4
273
     2
274
     2
340
17
275
     0
280
     0
281
     0
282
     0
283
     1
284
     0
285
     0
286
     0
287
     0
288
     0
  0
ENDTAB
  0
TABLE
  2
BLOCK_RECORD
  5
1
330
0
100
AcDbSymbolTable
 70
     0
  0
BLOCK_RECORD
  5
A
102
{ACAD_XDICTIONARY
360
1B9
102
}
330
1
100
AcDbSymbolTableRecord
100
AcDbBlockTableRecord
  2
*MODEL_SPACE
  0
BLOCK_RECORD
  5
B
102
{ACAD_XDICTIONARY
360
1BB
102
}
330
1
100
AcDbSymbolTableRecord
100
AcDbBlockTableRecord
  2
*PAPER_SPACE
  0
ENDTAB
  0
ENDSEC
  0
SECTION
  2
BLOCKS
  0
BLOCK
  5
D
330
A
100
AcDbEntity
  8
0
100
AcDbBlockBegin
  2
*MODEL_SPACE
 70
     0
 10
0.0
 20
0.0
 30
0.0
  3
*MODEL_SPACE
  1

  0
ENDBLK
  5
E
330
A
100
AcDbEntity
  8
0
100
AcDbBlockEnd
  0
BLOCK
  5
F
330
B
100
AcDbEntity
 67
     1
  8
0
100
AcDbBlockBegin
  2
*PAPER_SPACE
 70
     0
 10
0.0
 20
0.0
 30
0.0
  3
*PAPER_SPACE
  1

  0
ENDBLK
  5
10
330
B
100
AcDbEntity
 67
     1
  8
0
100
AcDbBlockEnd
  0
ENDSEC
  0
SECTION
  2
ENTITIES
  0
ARC
  5
2A
330
A
100
AcDbEntity
  8
MGW9
  6
CONTINUOUS
 62
     4
100
AcDbCircle
 10
-50.0495245118621
 20
121.4191455257885
 30
0.0000000000000142
 40
0.15
100
AcDbArc
 50
359.9999999999943
 51
418.851437227483
  0
ARC
  5
2B
330
A
100
AcDbEntity
  8
MGW9
  6
CONTINUOUS
 62
     4
100
AcDbCircle
 10
-50.46804431840342
 20
121.8461402941378
 30
0.0000000000000142
 40
0.15
100
AcDbArc
 50
30.00000000000488
 51
89.99999999999472
  0
ARC
  5
2C
330
A
100
AcDbEntity
  8
MGW9
  6
CONTINUOUS
 62
     4
100
AcDbCircle
 10
-50.46804431840342
 20
123.0461402941378
 30
0.0000000000000142
 40
0.15
100
AcDbArc
 50
270.0
 51
330.000000000002
  0
ARC
  5
2D
330
A
100
AcDbEntity
  8
MGW9
  6
CONTINUOUS
 62
     4
100
AcDbCircle
 10
-50.04952451186206
 20
123.4731350624871
 30
0.0000000000000142
 40
0.15
100
AcDbArc
 50
301.1485627725122
 51
360.0000000000056
  0
ARC
  5
2E
330
A
100
AcDbEntity
  8
MGW9
  6
CONTINUOUS
 62
     4
100
AcDbCircle
 10
-49.42881383386207
 20
122.4461402941378
 30
0.0000000000000142
 40
1.05
100
AcDbArc
 50
121.14856277251
 51
150.0000000000007
  0
ARC
  5
2F
330
A
100
AcDbEntity
  8
MGW9
  6
CONTINUOUS
 62
     4
100
AcDbCircle
 10
-49.42881383386207
 20
122.4461402941378
 30
0.0000000000000142
 40
1.05
100
AcDbArc
 50
209.999999999998
 51
238.851437227488
  0
ARC
  5
30
330
A
100
AcDbEntity
  8
MGW9
  6
CONTINUOUS
 62
     4
100
AcDbCircle
 10
-67.74952451186212
 20
121.4191455257885
 30
0.0000000000000142
 40
0.15
100
AcDbArc
 50
121.1485627725169
 51
180.0000000000057
  0
ARC
  5
31
330
A
100
AcDbEntity
  8
MGW9
  6
CONTINUOUS
 62
     4
100
AcDbCircle
 10
-67.33100470532079
 20
121.8461402941378
 30
0.0000000000000142
 40
0.15
100
AcDbArc
 50
90.0000000000057
 51
149.9999999999951
  0
ARC
  5
32
330
A
100
AcDbEntity
  8
MGW9
  6
CONTINUOUS
 62
     4
100
AcDbCircle
 10
-67.33100470532079
 20
123.0461402941378
 30
0.0000000000000142
 40
0.15
100
AcDbArc
 50
209.9999999999979
 51
270.0
  0
ARC
  5
33
330
A
100
AcDbEntity
  8
MGW9
  6
CONTINUOUS
 62
     4
100
AcDbCircle
 10
-67.74952451186216
 20
123.4731350624871
 30
0.0000000000000142
 40
0.15
100
AcDbArc
 50
179.9999999999942
 51
238.8514372274877
  0
ARC
  5
34
330
A
100
AcDbEntity
  8
MGW9
  6
CONTINUOUS
 62
     4
100
AcDbCircle
 10
-68.37023518986214
 20
122.4461402941378
 30
0.0000000000000142
 40
1.05
100
AcDbArc
 50
29.99999999999902
 51
58.85143722748957
  0
ARC
  5
35
330
A
100
AcDbEntity
  8
MGW9
  6
CONTINUOUS
 62
     4
100
AcDbCircle
 10
-68.37023518986214
 20
122.4461402941378
 30
0.0000000000000142
 40
1.05
100
AcDbArc
 50
301.1485627725115
 51
330.000000000002
  0
LINE
  5
73
330
A
100
AcDbEntity
  8
MGW9
  6
CONTINUOUS
 62
     4
100
AcDbLine
 10
25.35047548813793
 20
121.5296251551467
 30
0.0
 11
-33.89952451186207
 21
121.5296251551467
 31
0.0
  0
LINE
  5
74
330
A
100
AcDbEntity
  8
MGW9
  6
CONTINUOUS
 62
     4
100
AcDbLine
 10
25.35047548813793
 20
123.362655433129
 30
0.0
 11
-33.89952451186207
 21
123.362655433129
 31
0.0
  0
LINE
  5
75
330
A
100
AcDbEntity
  8
MGW9
  6
CONTINUOUS
 62
     4
100
AcDbLine
 10
25.35047548813793
 20
123.8461402941378
 30
0.0
 11
-33.89952451186207
 21
123.8461402941378
 31
0.0
  0
LINE
  5
76
330
A
100
AcDbEntity
  8
MGW9
  6
CONTINUOUS
 62
     4
100
AcDbLine
 10
25.35047548813793
 20
124.4461402941378
 30
0.0
 11
-33.89952451186207
 21
124.4461402941378
 31
0.0
  0
CIRCLE
  5
7F
330
A
100
AcDbEntity
  8
MGW9
  6
CONTINUOUS
 62
     4
100
AcDbCircle
 10
36.10047548813793
 20
159.4461402941378
 30
0.0
 40
1.75
  0
CIRCLE
  5
80
330
A
100
AcDbEntity
  8
MGW9
  6
CONTINUOUS
 62
     4
100
AcDbCircle
 10
36.10047548813793
 20
159.4461402941378
 30
0.0
 40
3.0
  0
LINE
  5
81
330
A
100
AcDbEntity
  8
MGW9
  6
CENTER
 62
   252
100
AcDbLine
 10
36.10047548813793
 20
155.6961402941378
 30
0.0
 11
36.10047548813793
 21
163.1961402941378
 31
0.0
  0
LINE
  5
82
330
A
100
AcDbEntity
  8
MGW9
  6
CENTER
 62
   252
100
AcDbLine
 10
32.35047548813793
 20
159.4461402941378
 30
0.0
 11
39.85047548813793
 21
159.4461402941378
 31
0.0
  0
CIRCLE
  5
83
330
A
100
AcDbEntity
  8
MGW9
  6
CONTINUOUS
 62
     4
100
AcDbCircle
 10
-23.89952451186207
 20
159.4461402941378
 30
0.0
 40
1.75
  0
CIRCLE
  5
84
330
A
100
AcDbEntity
  8
MGW9
  6
CONTINUOUS
 62
     4
100
AcDbCircle
 10
-23.89952451186207
 20
159.4461402941378
 30
0.0
 40
3.0
  0
LINE
  5
85
330
A
100
AcDbEntity
  8
MGW9
  6
CENTER
 62
   252
100
AcDbLine
 10
-23.89952451186207
 20
155.6961402941378
 30
0.0
 11
-23.89952451186207
 21
163.1961402941378
 31
0.0
  0
LINE
  5
86
330
A
100
AcDbEntity
  8
MGW9
  6
CENTER
 62
   252
100
AcDbLine
 10
-27.64952451186207
 20
159.4461402941378
 30
0.0
 11
-20.14952451186207
 21
159.4461402941378
 31
0.0
  0
LINE
  5
8F
330
A
100
AcDbEntity
  8
MGW9
  6
CONTINUOUS
 62
     4
100
AcDbLine
 10
25.35047548813793
 20
150.4461402941378
 30
0.0
 11
-33.89952451186205
 21
150.4461402941378
 31
0.0
  0
LINE
  5
90
330
A
100
AcDbEntity
  8
MGW9
  6
CONTINUOUS
 62
     4
100
AcDbLine
 10
25.35047548813792
 20
168.4461402941378
 30
0.0
 11
-33.89952451186207
 21
168.4461402941378
 31
0.0
  0
LINE
  5
AA
330
A
100
AcDbEntity
  8
MGW9
  6
CONTINUOUS
 62
     4
100
AcDbLine
 10
46.10047548813793
 20
168.4461402941378
 30
0.0
 11
46.10047548813793
 21
150.4461402941378
 31
0.0
  0
LINE
  5
AB
330
A
100
AcDbEntity
  8
MGW9
  6
CONTINUOUS
 62
     4
100
AcDbLine
 10
-33.89952451186207
 20
124.4461402941378
 30
0.0
 11
-33.89952451186207
 21
117.4461402941378
 31
0.0
  0
LINE
  5
AC
330
A
100
AcDbEntity
  8
MGW9
  6
CONTINUOUS
 62
     4
100
AcDbLine
 10
46.10047548813793
 20
168.4461402941378
 30
0.0
 11
25.35047548813792
 21
168.4461402941378
 31
0.0
  0
LINE
  5
AD
330
A
100
AcDbEntity
  8
MGW9
  6
CONTINUOUS
 62
     4
100
AcDbLine
 10
46.10047548813793
 20
150.4461402941378
 30
0.0
 11
25.35047548813793
 21
150.4461402941378
 31
0.0
  0
LINE
  5
AE
330
A
100
AcDbEntity
  8
MGW9
  6
CONTINUOUS
 62
     4
100
AcDbLine
 10
46.10047548813793
 20
117.4461402941378
 30
0.0
 11
46.10047548813793
 21
124.4461402941378
 31
0.0
  0
LINE
  5
B1
330
A
100
AcDbEntity
  8
MGW9
  6
DASHED
 62
   252
100
AcDbLine
 10
-26.89952451186205
 20
119.9461402941378
 30
0.0
 11
-20.89952451186205
 21
119.9461402941378
 31
0.0
  0
LINE
  5
B2
330
A
100
AcDbEntity
  8
MGW9
  6
CONTINUOUS
 62
     4
100
AcDbLine
 10
46.10047548813793
 20
117.4461402941378
 30
0.0
 11
-33.89952451186207
 21
117.4461402941378
 31
0.0
  0
LINE
  5
B3
330
A
100
AcDbEntity
  8
MGW9
  6
CONTINUOUS
 62
     4
100
AcDbLine
 10
46.10047548813794
 20
118.2461402941378
 30
0.0
 11
-33.89952451186207
 21
118.2461402941378
 31
0.0
  0
LINE
  5
B4
330
A
100
AcDbEntity
  8
MGW9
  6
CONTINUOUS
 62
     4
100
AcDbLine
 10
46.10047548813793
 20
121.5296251551467
 30
0.0
 11
25.35047548813793
 21
121.5296251551467
 31
0.0
  0
LINE
  5
B5
330
A
100
AcDbEntity
  8
MGW9
  6
CONTINUOUS
 62
     4
100
AcDbLine
 10
46.10047548813793
 20
123.362655433129
 30
0.0
 11
25.35047548813793
 21
123.362655433129
 31
0.0
  0
LINE
  5
B6
330
A
100
AcDbEntity
  8
MGW9
  6
CONTINUOUS
 62
     4
100
AcDbLine
 10
46.10047548813793
 20
123.8461402941378
 30
0.0
 11
25.35047548813793
 21
123.8461402941378
 31
0.0
  0
LINE
  5
B7
330
A
100
AcDbEntity
  8
MGW9
  6
CONTINUOUS
 62
     4
100
AcDbLine
 10
46.10047548813793
 20
124.4461402941378
 30
0.0
 11
25.35047548813793
 21
124.4461402941378
 31
0.0
  0
LINE
  5
B8
330
A
100
AcDbEntity
  8
MGW9
  6
DASHED
 62
   252
100
AcDbLine
 10
-20.78405445802414
 20
124.4461402941378
 30
0.0
 11
-20.89952451186205
 21
124.2461402941378
 31
0.0
  0
LINE
  5
B9
330
A
100
AcDbEntity
  8
MGW9
  6
DASHED
 62
   252
100
AcDbLine
 10
-27.01499456569996
 20
124.4461402941378
 30
0.0
 11
-26.89952451186205
 21
124.2461402941378
 31
0.0
  0
LINE
  5
BA
330
A
100
AcDbEntity
  8
MGW9
  6
DASHED
 62
   252
100
AcDbLine
 10
-26.89952451186205
 20
124.2461402941378
 30
0.0
 11
-20.89952451186205
 21
124.2461402941378
 31
0.0
  0
LINE
  5
BB
330
A
100
AcDbEntity
  8
MGW9
  6
DASHED
 62
   252
100
AcDbLine
 10
-26.89952451186205
 20
124.2461402941378
 30
0.0
 11
-26.89952451186205
 21
119.9461402941378
 31
0.0
  0
LINE
  5
BC
330
A
100
AcDbEntity
  8
MGW9
  6
DASHED
 62
   252
100
AcDbLine
 10
-20.89952451186205
 20
124.2461402941378
 30
0.0
 11
-20.89952451186205
 21
119.9461402941378
 31
0.0
  0
LINE
  5
BD
330
A
100
AcDbEntity
  8
MGW9
  6
DASHED
 62
   252
100
AcDbLine
 10
-21.84952451186206
 20
117.4461402941378
 30
0.0
 11
-22.14952451186205
 21
117.7461402941378
 31
0.0
  0
LINE
  5
BE
330
A
100
AcDbEntity
  8
MGW9
  6
DASHED
 62
   252
100
AcDbLine
 10
-22.14952451186205
 20
119.9461402941378
 30
0.0
 11
-22.14952451186205
 21
117.7461402941378
 31
0.0
  0
LINE
  5
BF
330
A
100
AcDbEntity
  8
MGW9
  6
DASHED
 62
   252
100
AcDbLine
 10
-25.94952451186205
 20
117.4461402941378
 30
0.0
 11
-25.64952451186205
 21
117.7461402941378
 31
0.0
  0
LINE
  5
C0
330
A
100
AcDbEntity
  8
MGW9
  6
DASHED
 62
   252
100
AcDbLine
 10
-25.64952451186205
 20
117.7461402941378
 30
0.0
 11
-22.14952451186205
 21
117.7461402941378
 31
0.0
  0
LINE
  5
C1
330
A
100
AcDbEntity
  8
MGW9
  6
DASHED
 62
   252
100
AcDbLine
 10
-25.64952451186205
 20
119.9461402941378
 30
0.0
 11
-25.64952451186205
 21
117.7461402941378
 31
0.0
  0
LINE
  5
C2
330
A
100
AcDbEntity
  8
MGW9
  6
CENTER
 62
   252
100
AcDbLine
 10
-23.89952451186207
 20
116.888108523253
 30
0.0
 11
-23.89952451186207
 21
125.0041720650226
 31
0.0
  0
LINE
  5
C3
330
A
100
AcDbEntity
  8
MGW9
  6
CONTINUOUS
 62
     4
100
AcDbLine
 10
-33.89952451186207
 20
168.4461402941378
 30
0.0
 11
-33.89952451186207
 21
150.4461402941378
 31
0.0
  0
LINE
  5
EB
330
A
100
AcDbEntity
  8
ES
  6
CENTER
 62
   252
100
AcDbLine
 10
-58.89952451186211
 20
123.8211597162534
 30
0.0
 11
-58.89952451186211
 21
125.742872522268
 31
0.0
  0
LINE
  5
F1
330
A
100
AcDbEntity
  8
MGW9
  6
CENTER
 62
   252
100
AcDbLine
 10
-58.89952451186208
 20
116.9461402941378
 30
0.0
 11
-58.89952451186208
 21
124.9461402941378
 31
0.0
  0
LINE
  5
F2
330
A
100
AcDbEntity
  8
MGW9
  6
CONTINUOUS
 62
     4
100
AcDbLine
 10
-49.89952451186211
 20
121.4435165967744
 30
0.0
 11
-49.89952451186214
 21
117.9461402941378
 31
0.0
  0
LINE
  5
F3
330
A
100
AcDbEntity
  8
MGW9
  6
CONTINUOUS
 62
     4
100
AcDbLine
 10
-49.89952451186211
 20
124.1461402941378
 30
0.0
 11
-49.8995245118621
 21
123.4731350624871
 31
0.0000000000000142
  0
LINE
  5
F4
330
A
100
AcDbEntity
  8
MGW9
  6
CONTINUOUS
 62
     4
100
AcDbLine
 10
-50.39952451186214
 20
117.4461402941378
 30
0.0
 11
-52.69952451186206
 21
117.4461402941378
 31
0.0
  0
LINE
  5
F5
330
A
100
AcDbEntity
  8
MGW9
  6
CONTINUOUS
 62
     4
100
AcDbLine
 10
-53.49952451186211
 20
117.4461402941378
 30
0.0
 11
-67.39952451186209
 21
117.4461402941378
 31
0.0
  0
LINE
  5
F6
330
A
100
AcDbEntity
  8
MGW9
  6
CONTINUOUS
 62
     4
100
AcDbLine
 10
-67.5995245118621
 20
124.4461402941378
 30
0.0
 11
-50.19952451186212
 21
124.4461402941378
 31
0.0
  0
LINE
  5
F7
330
A
100
AcDbEntity
  8
MGW9
  6
CONTINUOUS
 62
     4
100
AcDbLine
 10
-67.89952451186211
 20
121.4191455257885
 30
0.0
 11
-67.89952451186211
 21
117.9461402941378
 31
0.0
  0
LINE
  5
F8
330
A
100
AcDbEntity
  8
MGW9
  6
DASHED
 62
   252
100
AcDbLine
 10
-60.64952451186211
 20
120.0461402941378
 30
0.0
 11
-60.64952451186211
 21
117.7461402941378
 31
0.0
  0
LINE
  5
F9
330
A
100
AcDbEntity
  8
MGW9
  6
DASHED
 62
   252
100
AcDbLine
 10
-60.64952451186211
 20
117.7461402941378
 30
0.0
 11
-57.14952451186211
 21
117.7461402941378
 31
0.0
  0
LINE
  5
FA
330
A
100
AcDbEntity
  8
MGW9
  6
DASHED
 62
   252
100
AcDbLine
 10
-60.94952451186212
 20
117.4461402941378
 30
0.0
 11
-60.64952451186211
 21
117.7461402941378
 31
0.0
  0
LINE
  5
FB
330
A
100
AcDbEntity
  8
MGW9
  6
DASHED
 62
   252
100
AcDbLine
 10
-57.14952451186213
 20
120.0461402941378
 30
0.0
 11
-57.14952451186211
 21
117.7461402941378
 31
0.0
  0
LINE
  5
FC
330
A
100
AcDbEntity
  8
MGW9
  6
DASHED
 62
   252
100
AcDbLine
 10
-56.84952451186212
 20
117.4461402941378
 30
0.0
 11
-57.14952451186211
 21
117.7461402941378
 31
0.0
  0
LINE
  5
FD
330
A
100
AcDbEntity
  8
MGW9
  6
DASHED
 62
   252
100
AcDbLine
 10
-61.89952451186214
 20
120.0461402941378
 30
0.0
 11
-55.89952451186211
 21
120.0461402941378
 31
0.0
  0
LINE
  5
FE
330
A
100
AcDbEntity
  8
MGW9
  6
DASHED
 62
   252
100
AcDbLine
 10
-55.89952451186211
 20
124.2461402941378
 30
0.0
 11
-55.89952451186211
 21
120.0461402941378
 31
0.0
  0
LINE
  5
FF
330
A
100
AcDbEntity
  8
MGW9
  6
DASHED
 62
   252
100
AcDbLine
 10
-61.89952451186211
 20
124.2461402941378
 30
0.0
 11
-61.89952451186214
 21
120.0461402941378
 31
0.0
  0
LINE
  5
104
330
A
100
AcDbEntity
  8
MGW9
  6
CONTINUOUS
 62
     4
100
AcDbLine
 10
-67.89952451186216
 20
123.4731350624871
 30
0.0
 11
-67.89952451186211
 21
124.1461402941378
 31
0.0
  0
LINE
  5
10A
330
A
100
AcDbEntity
  8
MGW9
  6
CONTINUOUS
 62
     4
100
AcDbLine
 10
-50.74952451186208
 20
121.9961402941378
 30
0.0
 11
-50.47259331897224
 21
121.9961402941378
 31
0.0
  0
LINE
  5
10B
330
A
100
AcDbEntity
  8
MGW9
  6
CONTINUOUS
 62
     4
100
AcDbLine
 10
-50.74952451186208
 20
122.8961402941378
 30
0.0
 11
-50.47259331897224
 21
122.8961402941378
 31
0.0
  0
ARC
  5
10C
330
A
100
AcDbEntity
  8
MGW9
  6
CONTINUOUS
 62
     4
100
AcDbCircle
 10
-50.74952451186215
 20
122.4461402941378
 30
0.0
 40
0.4499999999999993
100
AcDbArc
 50
90.0
 51
270.0
  0
ARC
  5
10D
330
A
100
AcDbEntity
  8
MGW9
  6
CONTINUOUS
 62
     4
100
AcDbCircle
 10
-67.04952451186215
 20
122.4461402941378
 30
0.0000000000000142
 40
0.4499999999999993
100
AcDbArc
 50
270.0
 51
450.0
  0
LINE
  5
10E
330
A
100
AcDbEntity
  8
MGW9
  6
CONTINUOUS
 62
     4
100
AcDbLine
 10
-67.04952451186212
 20
122.8961402941378
 30
0.0
 11
-67.33100470532079
 21
122.8961402941378
 31
0.0
  0
LINE
  5
10F
330
A
100
AcDbEntity
  8
MGW9
  6
CONTINUOUS
 62
     4
100
AcDbLine
 10
-67.04952451186212
 20
121.9961402941378
 30
0.0
 11
-67.33100470532081
 21
121.9961402941378
 31
0.0
  0
LINE
  5
110
330
A
100
AcDbEntity
  8
MGW9
  6
CONTINUOUS
 62
     4
100
AcDbLine
 10
-67.89952451186211
 20
124.1461402941378
 30
0.0
 11
-67.5995245118621
 21
124.4461402941378
 31
0.0
  0
LINE
  5
111
330
A
100
AcDbEntity
  8
MGW9
  6
CONTINUOUS
 62
     4
100
AcDbLine
 10
-50.19952451186212
 20
124.4461402941378
 30
0.0
 11
-49.89952451186211
 21
124.1461402941378
 31
0.0
  0
LINE
  5
11E
330
A
100
AcDbEntity
  8
MGW9
  6
CONTINUOUS
 62
     4
100
AcDbLine
 10
-67.89952451186211
 20
117.9461402941378
 30
0.0
 11
-67.39952451186209
 21
117.4461402941378
 31
0.0
  0
LINE
  5
11F
330
A
100
AcDbEntity
  8
MGW9
  6
CONTINUOUS
 62
     4
100
AcDbLine
 10
-49.89952451186214
 20
117.9461402941378
 30
0.0
 11
-50.39952451186214
 21
117.4461402941378
 31
0.0
  0
LINE
  5
120
330
A
100
AcDbEntity
  8
MGW9
  6
DASHED
 62
   252
100
AcDbLine
 10
-61.89952451186211
 20
124.2461402941378
 30
0.0
 11
-55.89952451186211
 21
124.2461402941378
 31
0.0
  0
LINE
  5
121
330
A
100
AcDbEntity
  8
MGW9
  6
DASHED
 62
   252
100
AcDbLine
 10
-62.01499456570006
 20
124.4461402941378
 30
0.0
 11
-61.89952451186211
 21
124.2461402941378
 31
0.0
  0
LINE
  5
122
330
A
100
AcDbEntity
  8
MGW9
  6
DASHED
 62
   252
100
AcDbLine
 10
-55.78405445802419
 20
124.4461402941378
 30
0.0
 11
-55.89952451186211
 21
124.2461402941378
 31
0.0
  0
ARC
  5
123
330
A
100
AcDbEntity
  8
MGW9
  6
CONTINUOUS
 62
     4
100
AcDbCircle
 10
-53.09952451186214
 20
117.1461402941378
 30
-0.0000000000000142
 40
0.5
100
AcDbArc
 50
36.86989764584565
 51
143.1301023541543
  0
LINE
  5
153
330
A
100
AcDbEntity
  8
MGW9
  6
CENTER
 62
   252
100
AcDbLine
 10
2.350475488137931
 20
159.4461402941378
 30
0.0
 11
9.850475488137931
 21
159.4461402941378
 31
0.0
  0
CIRCLE
  5
154
330
A
100
AcDbEntity
  8
MGW9
  6
CONTINUOUS
 62
     4
100
AcDbCircle
 10
6.100475488137931
 20
159.4461402941378
 30
0.0
 40
3.0
  0
CIRCLE
  5
155
330
A
100
AcDbEntity
  8
MGW9
  6
CONTINUOUS
 62
     4
100
AcDbCircle
 10
6.100475488137931
 20
159.4461402941378
 30
0.0
 40
1.75
  0
LINE
  5
156
330
A
100
AcDbEntity
  8
MGW9
  6
CENTER
 62
   252
100
AcDbLine
 10
6.100475488137931
 20
155.6961402941378
 30
0.0
 11
6.100475488137931
 21
163.1961402941378
 31
0.0
  0
LINE
  5
168
330
A
100
AcDbEntity
  8
MGW9
  6
DASHED
 62
   252
100
AcDbLine
 10
4.350475488137945
 20
117.7461402941378
 30
0.0
 11
7.850475488137945
 21
117.7461402941378
 31
0.0
  0
LINE
  5
169
330
A
100
AcDbEntity
  8
MGW9
  6
DASHED
 62
   252
100
AcDbLine
 10
3.100475488137945
 20
124.2461402941378
 30
0.0
 11
9.100475488137945
 21
124.2461402941378
 31
0.0
  0
LINE
  5
16A
330
A
100
AcDbEntity
  8
MGW9
  6
DASHED
 62
   252
100
AcDbLine
 10
3.100475488137945
 20
119.9461402941378
 30
0.0
 11
9.100475488137945
 21
119.9461402941378
 31
0.0
  0
LINE
  5
16B
330
A
100
AcDbEntity
  8
MGW9
  6
CENTER
 62
   252
100
AcDbLine
 10
6.100475488137931
 20
116.888108523253
 30
0.0
 11
6.100475488137931
 21
125.0041720650226
 31
0.0
  0
LINE
  5
16C
330
A
100
AcDbEntity
  8
MGW9
  6
DASHED
 62
   252
100
AcDbLine
 10
3.100475488137945
 20
124.2461402941378
 30
0.0
 11
3.100475488137945
 21
119.9461402941378
 31
0.0
  0
LINE
  5
16D
330
A
100
AcDbEntity
  8
MGW9
  6
DASHED
 62
   252
100
AcDbLine
 10
4.350475488137945
 20
119.9461402941378
 30
0.0
 11
4.350475488137945
 21
117.7461402941378
 31
0.0
  0
LINE
  5
16E
330
A
100
AcDbEntity
  8
MGW9
  6
DASHED
 62
   252
100
AcDbLine
 10
4.050475488137948
 20
117.4461402941378
 30
0.0
 11
4.350475488137945
 21
117.7461402941378
 31
0.0
  0
LINE
  5
16F
330
A
100
AcDbEntity
  8
MGW9
  6
DASHED
 62
   252
100
AcDbLine
 10
2.985005434300042
 20
124.4461402941378
 30
0.0
 11
3.100475488137945
 21
124.2461402941378
 31
0.0
  0
LINE
  5
170
330
A
100
AcDbEntity
  8
MGW9
  6
DASHED
 62
   252
100
AcDbLine
 10
9.100475488137945
 20
124.2461402941378
 30
0.0
 11
9.100475488137945
 21
119.9461402941378
 31
0.0
  0
LINE
  5
171
330
A
100
AcDbEntity
  8
MGW9
  6
DASHED
 62
   252
100
AcDbLine
 10
7.850475488137945
 20
119.9461402941378
 30
0.0
 11
7.850475488137945
 21
117.7461402941378
 31
0.0
  0
LINE
  5
172
330
A
100
AcDbEntity
  8
MGW9
  6
DASHED
 62
   252
100
AcDbLine
 10
8.150475488137935
 20
117.4461402941378
 30
0.0
 11
7.850475488137945
 21
117.7461402941378
 31
0.0
  0
LINE
  5
173
330
A
100
AcDbEntity
  8
MGW9
  6
DASHED
 62
   252
100
AcDbLine
 10
9.215945541975855
 20
124.4461402941378
 30
0.0
 11
9.100475488137945
 21
124.2461402941378
 31
0.0
  0
LINE
  5
185
330
A
100
AcDbEntity
  8
MGW9
  6
DASHED
 62
   252
100
AcDbLine
 10
34.35047548813794
 20
117.7461402941378
 30
0.0
 11
37.85047548813794
 21
117.7461402941378
 31
0.0
  0
LINE
  5
186
330
A
100
AcDbEntity
  8
MGW9
  6
DASHED
 62
   252
100
AcDbLine
 10
33.10047548813794
 20
124.2461402941378
 30
0.0
 11
39.10047548813794
 21
124.2461402941378
 31
0.0
  0
LINE
  5
187
330
A
100
AcDbEntity
  8
MGW9
  6
DASHED
 62
   252
100
AcDbLine
 10
33.10047548813794
 20
119.9461402941378
 30
0.0
 11
39.10047548813794
 21
119.9461402941378
 31
0.0
  0
LINE
  5
188
330
A
100
AcDbEntity
  8
MGW9
  6
CENTER
 62
   252
100
AcDbLine
 10
36.10047548813793
 20
116.888108523253
 30
0.0
 11
36.10047548813793
 21
125.0041720650226
 31
0.0
  0
LINE
  5
189
330
A
100
AcDbEntity
  8
MGW9
  6
DASHED
 62
   252
100
AcDbLine
 10
33.10047548813794
 20
124.2461402941378
 30
0.0
 11
33.10047548813794
 21
119.9461402941378
 31
0.0
  0
LINE
  5
18A
330
A
100
AcDbEntity
  8
MGW9
  6
DASHED
 62
   252
100
AcDbLine
 10
34.35047548813794
 20
119.9461402941378
 30
0.0
 11
34.35047548813794
 21
117.7461402941378
 31
0.0
  0
LINE
  5
18B
330
A
100
AcDbEntity
  8
MGW9
  6
DASHED
 62
   252
100
AcDbLine
 10
34.05047548813795
 20
117.4461402941378
 30
0.0
 11
34.35047548813794
 21
117.7461402941378
 31
0.0
  0
LINE
  5
18C
330
A
100
AcDbEntity
  8
MGW9
  6
DASHED
 62
   252
100
AcDbLine
 10
32.98500543430004
 20
124.4461402941378
 30
0.0
 11
33.10047548813794
 21
124.2461402941378
 31
0.0
  0
LINE
  5
18D
330
A
100
AcDbEntity
  8
MGW9
  6
DASHED
 62
   252
100
AcDbLine
 10
39.10047548813794
 20
124.2461402941378
 30
0.0
 11
39.10047548813794
 21
119.9461402941378
 31
0.0
  0
LINE
  5
18E
330
A
100
AcDbEntity
  8
MGW9
  6
DASHED
 62
   252
100
AcDbLine
 10
37.85047548813794
 20
119.9461402941378
 30
0.0
 11
37.85047548813794
 21
117.7461402941378
 31
0.0
  0
LINE
  5
18F
330
A
100
AcDbEntity
  8
MGW9
  6
DASHED
 62
   252
100
AcDbLine
 10
38.15047548813793
 20
117.4461402941378
 30
0.0
 11
37.85047548813794
 21
117.7461402941378
 31
0.0
  0
LINE
  5
190
330
A
100
AcDbEntity
  8
MGW9
  6
DASHED
 62
   252
100
AcDbLine
 10
39.21594554197585
 20
124.4461402941378
 30
0.0
 11
39.10047548813794
 21
124.2461402941378
 31
0.0
  0
ENDSEC
  0
SECTION
  2
OBJECTS
  0
DICTIONARY
  5
19
330
0
100
AcDbDictionary
  3
ACAD_GROUP
350
1A
  3
ACAD_LAYOUT
350
13D
  3
ACAD_MLINESTYLE
350
1B
  3
ACAD_PLOTSETTINGS
350
13E
  3
ACAD_PLOTSTYLENAME
350
13B
  3
ACDBHEADERROUNDTRIPXREC
350
199
  0
DICTIONARY
  5
1B9
330
A
100
AcDbDictionary
280
     1
  3
ACAD_LAYOUTSELFREF
360
1BA
  0
DICTIONARY
  5
1BB
330
B
100
AcDbDictionary
280
     1
  3
ACAD_LAYOUTSELFREF
360
1BC
  0
DICTIONARY
  5
1A
102
{ACAD_REACTORS
330
19
102
}
330
19
100
AcDbDictionary
  0
DICTIONARY
  5
13D
102
{ACAD_REACTORS
330
19
102
}
330
19
100
AcDbDictionary
  0
DICTIONARY
  5
1B
102
{ACAD_REACTORS
330
19
102
}
330
19
100
AcDbDictionary
  3
STANDARD
350
1C
  0
DICTIONARY
  5
13E
102
{ACAD_REACTORS
330
19
102
}
330
19
100
AcDbDictionary
  0
ACDBDICTIONARYWDFLT
  5
13B
102
{ACAD_REACTORS
330
19
102
}
330
19
100
AcDbDictionary
281
     1
  3
Normal
350
13C
100
AcDbDictionaryWithDefault
340
13C
  0
DICTIONARY
  5
199
102
{ACAD_REACTORS
330
19
102
}
330
19
100
AcDbDictionary
  3
CEPSNTYPE
350
1A3
  3
FINGERPRINTGUID
350
1A4
  3
HYPERLINKBASE
350
19C
  3
INSUNITS
350
1A2
  3
LAYOUTDICT
350
19E
  3
LWETCUNION
350
1A1
  3
PLOTSETDICT
350
19F
  3
PLOTSTYLNAMDICT
350
1A0
  3
PSVPSCALE
350
1A6
  3
PUCSBASE
350
1A9
  3
PUCSORGBACK
350
1AF
  3
PUCSORGBOTTOM
350
1AB
  3
PUCSORGFRONT
350
1AE
  3
PUCSORGLEFT
350
1AC
  3
PUCSORGRIGHT
350
1AD
  3
PUCSORGTOP
350
1AA
  3
PUCSORTHOREF
350
1A7
  3
PUCSORTHOVIEW
350
1A8
  3
STYLESHEET
350
19D
  3
TSTACKALIGN
350
19A
  3
TSTACKSIZE
350
19B
  3
UCSBASE
350
1B2
  3
UCSORGBACK
350
1B8
  3
UCSORGBOTTOM
350
1B4
  3
UCSORGFRONT
350
1B7
  3
UCSORGLEFT
350
1B5
  3
UCSORGRIGHT
350
1B6
  3
UCSORGTOP
350
1B3
  3
UCSORTHOREF
350
1B0
  3
UCSORTHOVIEW
350
1B1
  3
VERSIONGUID
350
1A5
  0
XRECORD
  5
1BA
102
{ACAD_REACTORS
330
1B9
102
}
330
1B9
100
AcDbXrecord
340
A
  0
XRECORD
  5
1BC
102
{ACAD_REACTORS
330
1BB
102
}
330
1BB
100
AcDbXrecord
340
B
  0
MLINESTYLE
  5
1C
102
{ACAD_REACTORS
330
1B
102
}
330
1B
100
AcDbMlineStyle
  2
STANDARD
 70
     0
  3

 62
     0
 51
90.00000000000019
 52
90.00000000000019
 71
     2
 49
0.5
 62
   256
  6
BYLAYER
 49
-0.5
 62
   256
  6
BYLAYER
  0
ACDBPLACEHOLDER
  5
13C
102
{ACAD_REACTORS
330
13B
102
}
330
13B
100
AcDbPlaceHolder
280
     0
  0
XRECORD
  5
1A3
102
{ACAD_REACTORS
330
199
102
}
330
199
100
AcDbXrecord
 90
        0
  0
XRECORD
  5
1A4
102
{ACAD_REACTORS
330
199
102
}
330
199
100
AcDbXrecord
  1
{2F04B08E-26A7-11D6-8687-00A024540C4A}
  0
XRECORD
  5
19C
102
{ACAD_REACTORS
330
199
102
}
330
199
100
AcDbXrecord
  1

  0
XRECORD
  5
1A2
102
{ACAD_REACTORS
330
199
102
}
330
199
100
AcDbXrecord
 90
        0
  0
XRECORD
  5
19E
102
{ACAD_REACTORS
330
199
102
}
330
199
100
AcDbXrecord
340
13D
  0
XRECORD
  5
1A1
102
{ACAD_REACTORS
330
199
102
}
330
199
100
AcDbXrecord
 90
    14877
  0
XRECORD
  5
19F
102
{ACAD_REACTORS
330
199
102
}
330
199
100
AcDbXrecord
340
13E
  0
XRECORD
  5
1A0
102
{ACAD_REACTORS
330
199
102
}
330
199
100
AcDbXrecord
340
13B
  0
XRECORD
  5
1A6
102
{ACAD_REACTORS
330
199
102
}
330
199
100
AcDbXrecord
 40
0.0
  0
XRECORD
  5
1A9
102
{ACAD_REACTORS
330
199
102
}
330
199
100
AcDbXrecord
340
0
  0
XRECORD
  5
1AF
102
{ACAD_REACTORS
330
199
102
}
330
199
100
AcDbXrecord
 10
0.0
 20
0.0
 30
0.0
  0
XRECORD
  5
1AB
102
{ACAD_REACTORS
330
199
102
}
330
199
100
AcDbXrecord
 10
0.0
 20
0.0
 30
0.0
  0
XRECORD
  5
1AE
102
{ACAD_REACTORS
330
199
102
}
330
199
100
AcDbXrecord
 10
0.0
 20
0.0
 30
0.0
  0
XRECORD
  5
1AC
102
{ACAD_REACTORS
330
199
102
}
330
199
100
AcDbXrecord
 10
0.0
 20
0.0
 30
0.0
  0
XRECORD
  5
1AD
102
{ACAD_REACTORS
330
199
102
}
330
199
100
AcDbXrecord
 10
0.0
 20
0.0
 30
0.0
  0
XRECORD
  5
1AA
102
{ACAD_REACTORS
330
199
102
}
330
199
100
AcDbXrecord
 10
0.0
 20
0.0
 30
0.0
  0
XRECORD
  5
1A7
102
{ACAD_REACTORS
330
199
102
}
330
199
100
AcDbXrecord
340
0
  0
XRECORD
  5
1A8
102
{ACAD_REACTORS
330
199
102
}
330
199
100
AcDbXrecord
 70
     0
  0
XRECORD
  5
19D
102
{ACAD_REACTORS
330
199
102
}
330
199
100
AcDbXrecord
  1

  0
XRECORD
  5
19A
102
{ACAD_REACTORS
330
199
102
}
330
199
100
AcDbXrecord
 90
        1
  0
XRECORD
  5
19B
102
{ACAD_REACTORS
330
199
102
}
330
199
100
AcDbXrecord
 90
       70
  0
XRECORD
  5
1B2
102
{ACAD_REACTORS
330
199
102
}
330
199
100
AcDbXrecord
340
0
  0
XRECORD
  5
1B8
102
{ACAD_REACTORS
330
199
102
}
330
199
100
AcDbXrecord
 10
0.0
 20
0.0
 30
0.0
  0
XRECORD
  5
1B4
102
{ACAD_REACTORS
330
199
102
}
330
199
100
AcDbXrecord
 10
0.0
 20
0.0
 30
0.0
  0
XRECORD
  5
1B7
102
{ACAD_REACTORS
330
199
102
}
330
199
100
AcDbXrecord
 10
0.0
 20
0.0
 30
0.0
  0
XRECORD
  5
1B5
102
{ACAD_REACTORS
330
199
102
}
330
199
100
AcDbXrecord
 10
0.0
 20
0.0
 30
0.0
  0
XRECORD
  5
1B6
102
{ACAD_REACTORS
330
199
102
}
330
199
100
AcDbXrecord
 10
0.0
 20
0.0
 30
0.0
  0
XRECORD
  5
1B3
102
{ACAD_REACTORS
330
199
102
}
330
199
100
AcDbXrecord
 10
0.0
 20
0.0
 30
0.0
  0
XRECORD
  5
1B0
102
{ACAD_REACTORS
330
199
102
}
330
199
100
AcDbXrecord
340
0
  0
XRECORD
  5
1B1
102
{ACAD_REACTORS
330
199
102
}
330
199
100
AcDbXrecord
 70
     0
  0
XRECORD
  5
1A5
102
{ACAD_REACTORS
330
199
102
}
330
199
100
AcDbXrecord
  1
{C384AA9D-7F65-11D6-86EB-00A024540C4A}
  0
ENDSEC
  0
EOF
