  0
SECTION
  2
HEADER
  9
$ACADVER
  1
AC1015
  9
$ACADMAINTVER
 70
    10
  9
$DWGCODEPAGE
  3
ANSI_1252
  9
$INSBASE
 10
0.0
 20
0.0
 30
0.0
  9
$EXTMIN
 10
-78.14094621049079
 20
113.4667038447934
 30
-0.0004999999999882
  9
$EXTMAX
 10
36.85905378950937
 20
162.9702054077186
 30
0.0000000000000568
  9
$LIMMIN
 10
0.0
 20
0.0
  9
$LIMMAX
 10
0.0
 20
0.0
  9
$ORTHOMODE
 70
     0
  9
$REGENMODE
 70
     1
  9
$FILLMODE
 70
     1
  9
$QTEXTMODE
 70
     0
  9
$MIRRTEXT
 70
     1
  9
$LTSCALE
 40
1.0
  9
$ATTMODE
 70
     1
  9
$TEXTSIZE
 40
0.0
  9
$TRACEWID
 40
0.05
  9
$TEXTSTYLE
  7
STANDARD
  9
$CLAYER
  8
0
  9
$CELTYPE
  6
CONTINUOUS
  9
$CECOLOR
 62
    15
  9
$CELTSCALE
 40
1.0
  9
$DISPSILH
 70
     0
  9
$DIMSCALE
 40
1.0
  9
$DIMASZ
 40
0.18
  9
$DIMEXO
 40
0.0625
  9
$DIMDLI
 40
0.38
  9
$DIMRND
 40
0.0
  9
$DIMDLE
 40
0.0
  9
$DIMEXE
 40
0.25
  9
$DIMTP
 40
0.05
  9
$DIMTM
 40
-0.05
  9
$DIMTXT
 40
2.5
  9
$DIMCEN
 40
0.09
  9
$DIMTSZ
 40
0.0
  9
$DIMTOL
 70
     0
  9
$DIMLIM
 70
     0
  9
$DIMTIH
 70
     1
  9
$DIMTOH
 70
     1
  9
$DIMSE1
 70
     0
  9
$DIMSE2
 70
     0
  9
$DIMTAD
 70
     0
  9
$DIMZIN
 70
     0
  9
$DIMBLK
  1

  9
$DIMASO
 70
     1
  9
$DIMSHO
 70
     1
  9
$DIMPOST
  1

  9
$DIMAPOST
  1

  9
$DIMALT
 70
     0
  9
$DIMALTD
 70
     2
  9
$DIMALTF
 40
25.4
  9
$DIMLFAC
 40
1.0
  9
$DIMTOFL
 70
     0
  9
$DIMTVP
 40
0.0
  9
$DIMTIX
 70
     0
  9
$DIMSOXD
 70
     0
  9
$DIMSAH
 70
     0
  9
$DIMBLK1
  1

  9
$DIMBLK2
  1

  9
$DIMSTYLE
  2
STANDARD
  9
$DIMCLRD
 70
     0
  9
$DIMCLRE
 70
     0
  9
$DIMCLRT
 70
    15
  9
$DIMTFAC
 40
0.7000000000000001
  9
$DIMGAP
 40
0.09
  9
$DIMJUST
 70
     0
  9
$DIMSD1
 70
     0
  9
$DIMSD2
 70
     0
  9
$DIMTOLJ
 70
     1
  9
$DIMTZIN
 70
     0
  9
$DIMALTZ
 70
     0
  9
$DIMALTTZ
 70
     0
  9
$DIMUPT
 70
     0
  9
$DIMDEC
 70
     4
  9
$DIMTDEC
 70
     4
  9
$DIMALTU
 70
     2
  9
$DIMALTTD
 70
     2
  9
$DIMTXSTY
  7
STANDARD
  9
$DIMAUNIT
 70
     0
  9
$DIMADEC
 70
     0
  9
$DIMALTRND
 40
0.0
  9
$DIMAZIN
 70
     0
  9
$DIMDSEP
 70
    46
  9
$DIMATFIT
 70
     3
  9
$DIMFRAC
 70
     0
  9
$DIMLDRBLK
  1

  9
$DIMLUNIT
 70
     2
  9
$DIMLWD
 70
    -2
  9
$DIMLWE
 70
    -2
  9
$DIMTMOVE
 70
     0
  9
$LUNITS
 70
     2
  9
$LUPREC
 70
    10
  9
$SKETCHINC
 40
0.1
  9
$FILLETRAD
 40
0.0
  9
$AUNITS
 70
     0
  9
$AUPREC
 70
     0
  9
$MENU
  1
acad
  9
$ELEVATION
 40
0.0
  9
$PELEVATION
 40
0.0
  9
$THICKNESS
 40
0.0
  9
$LIMCHECK
 70
     0
  9
$CHAMFERA
 40
0.0
  9
$CHAMFERB
 40
0.0
  9
$CHAMFERC
 40
0.0
  9
$CHAMFERD
 40
0.0
  9
$SKPOLY
 70
     0
  9
$TDCREATE
 40
2444972.041666666
  9
$TDUCREATE
 40
2444972.000000000
  9
$TDUPDATE
 40
2452327.408106806
  9
$TDUUPDATE
 40
2452327.366440139
  9
$TDINDWG
 40
0.0008319792
  9
$TDUSRTIMER
 40
0.0008319792
  9
$USRTIMER
 70
     1
  9
$ANGBASE
 50
0.0
  9
$ANGDIR
 70
     0
  9
$PDMODE
 70
     2
  9
$PDSIZE
 40
0.0
  9
$PLINEWID
 40
0.0
  9
$SPLFRAME
 70
     0
  9
$SPLINETYPE
 70
     6
  9
$SPLINESEGS
 70
     8
  9
$HANDSEED
  5
14A
  9
$SURFTAB1
 70
     6
  9
$SURFTAB2
 70
     6
  9
$SURFTYPE
 70
     6
  9
$SURFU
 70
     6
  9
$SURFV
 70
     6
  9
$UCSBASE
  2

  9
$UCSNAME
  2

  9
$UCSORG
 10
0.0
 20
0.0
 30
0.0
  9
$UCSXDIR
 10
1.0
 20
0.0
 30
0.0
  9
$UCSYDIR
 10
0.0
 20
1.0
 30
0.0
  9
$UCSORTHOREF
  2

  9
$UCSORTHOVIEW
 70
     0
  9
$UCSORGTOP
 10
0.0
 20
0.0
 30
0.0
  9
$UCSORGBOTTOM
 10
0.0
 20
0.0
 30
0.0
  9
$UCSORGLEFT
 10
0.0
 20
0.0
 30
0.0
  9
$UCSORGRIGHT
 10
0.0
 20
0.0
 30
0.0
  9
$UCSORGFRONT
 10
0.0
 20
0.0
 30
0.0
  9
$UCSORGBACK
 10
0.0
 20
0.0
 30
0.0
  9
$PUCSBASE
  2

  9
$PUCSNAME
  2

  9
$PUCSORG
 10
0.0
 20
0.0
 30
0.0
  9
$PUCSXDIR
 10
1.0
 20
0.0
 30
0.0
  9
$PUCSYDIR
 10
0.0
 20
1.0
 30
0.0
  9
$PUCSORTHOREF
  2

  9
$PUCSORTHOVIEW
 70
     0
  9
$PUCSORGTOP
 10
0.0
 20
0.0
 30
0.0
  9
$PUCSORGBOTTOM
 10
0.0
 20
0.0
 30
0.0
  9
$PUCSORGLEFT
 10
0.0
 20
0.0
 30
0.0
  9
$PUCSORGRIGHT
 10
0.0
 20
0.0
 30
0.0
  9
$PUCSORGFRONT
 10
0.0
 20
0.0
 30
0.0
  9
$PUCSORGBACK
 10
0.0
 20
0.0
 30
0.0
  9
$USERI1
 70
     0
  9
$USERI2
 70
     0
  9
$USERI3
 70
     0
  9
$USERI4
 70
     0
  9
$USERI5
 70
     0
  9
$USERR1
 40
0.0
  9
$USERR2
 40
0.0
  9
$USERR3
 40
0.0
  9
$USERR4
 40
0.0
  9
$USERR5
 40
0.0
  9
$WORLDVIEW
 70
     1
  9
$SHADEDGE
 70
     3
  9
$SHADEDIF
 70
    70
  9
$TILEMODE
 70
     1
  9
$MAXACTVP
 70
    16
  9
$PINSBASE
 10
0.0
 20
0.0
 30
0.0
  9
$PLIMCHECK
 70
     0
  9
$PEXTMIN
 10
1.000000000000000E+20
 20
1.000000000000000E+20
 30
1.000000000000000E+20
  9
$PEXTMAX
 10
-1.000000000000000E+20
 20
-1.000000000000000E+20
 30
-1.000000000000000E+20
  9
$PLIMMIN
 10
0.0
 20
0.0
  9
$PLIMMAX
 10
12.0
 20
9.0
  9
$UNITMODE
 70
     0
  9
$VISRETAIN
 70
     0
  9
$PLINEGEN
 70
     1
  9
$PSLTSCALE
 70
     0
  9
$TREEDEPTH
 70
  3020
  9
$CMLSTYLE
  2
STANDARD
  9
$CMLJUST
 70
     0
  9
$CMLSCALE
 40
1.0
  9
$PROXYGRAPHICS
 70
     1
  9
$MEASUREMENT
 70
     0
  9
$CELWEIGHT
370
    -1
  9
$ENDCAPS
280
     0
  9
$JOINSTYLE
280
     0
  9
$LWDISPLAY
290
     0
  9
$INSUNITS
 70
     0
  9
$HYPERLINKBASE
  1

  9
$STYLESHEET
  1

  9
$XEDIT
290
     1
  9
$CEPSNTYPE
380
     0
  9
$PSTYLEMODE
290
     1
  9
$FINGERPRINTGUID
  2
{2F04B08C-26A7-11D6-8687-00A024540C4A}
  9
$VERSIONGUID
  2
{2F04B094-26A7-11D6-8687-00A024540C4A}
  9
$EXTNAMES
290
     1
  9
$PSVPSCALE
 40
0.0
  9
$OLESTARTUP
290
     0
  0
ENDSEC
  0
SECTION
  2
CLASSES
  0
CLASS
  1
LWPOLYLINE
  2
AcDbPolyline
  3
AutoCAD 2000
 90
    32768
280
     0
281
     1
  0
CLASS
  1
IMAGE
  2
AcDbRasterImage
  3
ISM
 90
    32895
280
     0
281
     1
  0
CLASS
  1
OLE2FRAME
  2
AcDbOle2Frame
  3
AutoCAD 2000
 90
    32768
280
     0
281
     1
  0
CLASS
  1
HATCH
  2
AcDbHatch
  3
AutoCAD 2000
 90
    32768
280
     0
281
     1
  0
CLASS
  1
DICTIONARYVAR
  2
AcDbDictionaryVar
  3
AutoCAD 2000
 90
    32768
280
     0
281
     0
  0
CLASS
  1
RASTERVARIABLES
  2
AcDbRasterVariables
  3
ISM
 90
    32768
280
     0
281
     0
  0
CLASS
  1
IMAGEDEF
  2
AcDbRasterImageDef
  3
ISM
 90
    32768
280
     0
281
     0
  0
CLASS
  1
IMAGEDEF_REACTOR
  2
AcDbRasterImageDefReactor
  3
ISM
 90
    32769
280
     0
281
     0
  0
CLASS
  1
IDBUFFER
  2
AcDbIdBuffer
  3
AutoCAD 2000
 90
    32768
280
     0
281
     0
  0
CLASS
  1
SPATIAL_FILTER
  2
AcDbSpatialFilter
  3
AutoCAD 2000
 90
    32768
280
     0
281
     0
  0
CLASS
  1
XRECORD
  2
AcDbXrecord
  3
AutoCAD 2000
 90
    32768
280
     0
281
     0
  0
CLASS
  1
SORTENTSTABLE
  2
AcDbSortentsTable
  3
AutoCAD 2000
 90
    32768
280
     0
281
     0
  0
CLASS
  1
LAYER_INDEX
  2
AcDbLayerIndex
  3
AutoCAD 2000
 90
    32768
280
     0
281
     0
  0
CLASS
  1
SPATIAL_INDEX
  2
AcDbSpatialIndex
  3
AutoCAD 2000
 90
    32768
280
     0
281
     0
  0
CLASS
  1
OBJECT_PTR
  2
CAseDLPNTableRecord
  3
"ASE-LPNTableRecord"
 90
    32768
280
     0
281
     0
  0
CLASS
  1
ACDBDICTIONARYWDFLT
  2
AcDbDictionaryWithDefault
  3
AutoCAD 2000
 90
        0
280
     0
281
     0
  0
CLASS
  1
ACDBPLACEHOLDER
  2
AcDbPlaceHolder
  3
AutoCAD 2000
 90
        0
280
     0
281
     0
  0
CLASS
  1
LAYOUT
  2
AcDbLayout
  3
AutoCAD 2000
 90
        0
280
     0
281
     0
  0
ENDSEC
  0
SECTION
  2
TABLES
  0
TABLE
  2
VPORT
  5
7
330
0
100
AcDbSymbolTable
 70
     2
  0
VPORT
  5
149
330
7
100
AcDbSymbolTableRecord
100
AcDbViewportTableRecord
  2
*Active
 70
     0
 10
0.0
 20
0.0
 11
1.0
 21
1.0
 12
-9.184780078210366
 22
119.0348857412508
 13
0.0
 23
0.0
 14
1.0
 24
1.0
 15
0.0
 25
0.0
 16
0.0
 26
0.0
 36
1.0
 17
0.0
 27
0.0
 37
0.0
 40
105.3792877358784
 41
1.672360248447205
 42
50.0
 43
0.0
 44
0.0
 50
0.0
 51
0.0
 71
     0
 72
   100
 73
     1
 74
     1
 75
     0
 76
     0
 77
     0
 78
     0
281
     0
 65
     1
110
0.0
120
0.0
130
0.0
111
1.0
121
0.0
131
0.0
112
0.0
122
1.0
132
0.0
 79
     0
146
0.0
  0
ENDTAB
  0
TABLE
  2
LTYPE
  5
4
330
0
100
AcDbSymbolTable
 70
     4
  0
LTYPE
  5
11
330
4
100
AcDbSymbolTableRecord
100
AcDbLinetypeTableRecord
  2
BYBLOCK
 70
     0
  3

 72
    65
 73
     0
 40
0.0
  0
LTYPE
  5
12
330
4
100
AcDbSymbolTableRecord
100
AcDbLinetypeTableRecord
  2
BYLAYER
 70
     0
  3

 72
    65
 73
     0
 40
0.0
  0
LTYPE
  5
13
330
4
100
AcDbSymbolTableRecord
100
AcDbLinetypeTableRecord
  2
CONTINUOUS
 70
     0
  3
Solid line
 72
    65
 73
     0
 40
0.0
  0
LTYPE
  5
1D
330
4
100
AcDbSymbolTableRecord
100
AcDbLinetypeTableRecord
  2
DASHED
 70
     0
  3
_ _ _ _ _ _ _ _ _ _ _ _ _ _ _ _
 72
    65
 73
     2
 40
0.2
 49
0.1
 74
     0
 49
-0.1
 74
     0
  0
LTYPE
  5
1E
330
4
100
AcDbSymbolTableRecord
100
AcDbLinetypeTableRecord
  2
CENTER
 70
     0
  3
___ _ ___ _ ___ _ ___ _ ___ _ ___ _ ___ _ ___ _
 72
    65
 73
     4
 40
0.95
 49
0.625
 74
     0
 49
-0.125
 74
     0
 49
0.075
 74
     0
 49
-0.125
 74
     0
  0
LTYPE
  5
1F
330
4
100
AcDbSymbolTableRecord
100
AcDbLinetypeTableRecord
  2
PHANTOM
 70
     0
  3
______  __  __  ______  __  __  ______  __  __  
 72
    65
 73
     6
 40
1.024999999999999
 49
0.625
 74
     0
 49
-0.125
 74
     0
 49
0.075
 74
     0
 49
-0.125
 74
     0
 49
0.075
 74
     0
 49
-0.125
 74
     0
  0
ENDTAB
  0
TABLE
  2
LAYER
  5
2
330
0
100
AcDbSymbolTable
 70
    10
  0
LAYER
  5
14
330
2
100
AcDbSymbolTableRecord
100
AcDbLayerTableRecord
  2
0
 70
     0
 62
     7
  6
CONTINUOUS
370
    -3
390
13E
  0
LAYER
  5
21
330
2
100
AcDbSymbolTableRecord
100
AcDbLayerTableRecord
  2
CK_LEVEL_1
 70
     0
 62
     7
  6
CONTINUOUS
370
    -3
390
13E
  0
LAYER
  5
22
330
2
100
AcDbSymbolTableRecord
100
AcDbLayerTableRecord
  2
ES
 70
     0
 62
     7
  6
CONTINUOUS
370
    -3
390
13E
  0
LAYER
  5
23
330
2
100
AcDbSymbolTableRecord
100
AcDbLayerTableRecord
  2
CK_LEVEL_3
 70
     0
 62
     7
  6
CONTINUOUS
370
    -3
390
13E
  0
LAYER
  5
24
330
2
100
AcDbSymbolTableRecord
100
AcDbLayerTableRecord
  2
CK_LEVEL_4
 70
     0
 62
     7
  6
CONTINUOUS
370
    -3
390
13E
  0
LAYER
  5
25
330
2
100
AcDbSymbolTableRecord
100
AcDbLayerTableRecord
  2
CK_LEVEL_5
 70
     0
 62
     7
  6
CONTINUOUS
370
    -3
390
13E
  0
LAYER
  5
26
330
2
100
AcDbSymbolTableRecord
100
AcDbLayerTableRecord
  2
CK_LEVEL_6
 70
     0
 62
     7
  6
CONTINUOUS
370
    -3
390
13E
  0
LAYER
  5
27
330
2
100
AcDbSymbolTableRecord
100
AcDbLayerTableRecord
  2
CK_LEVEL_7
 70
     0
 62
     7
  6
CONTINUOUS
370
    -3
390
13E
  0
LAYER
  5
28
330
2
100
AcDbSymbolTableRecord
100
AcDbLayerTableRecord
  2
CK_LEVEL_8
 70
     0
 62
     7
  6
CONTINUOUS
370
    -3
390
13E
  0
LAYER
  5
29
330
2
100
AcDbSymbolTableRecord
100
AcDbLayerTableRecord
  2
MGW7
 70
     0
 62
     7
  6
CONTINUOUS
370
    -3
390
13E
  0
ENDTAB
  0
TABLE
  2
STYLE
  5
3
330
0
100
AcDbSymbolTable
 70
     1
  0
STYLE
  5
17
330
3
100
AcDbSymbolTableRecord
100
AcDbTextStyleTableRecord
  2
STANDARD
 70
     0
 40
0.0
 41
1.0
 50
0.0
 71
     0
 42
0.0
  3
txt
  4

  0
ENDTAB
  0
TABLE
  2
VIEW
  5
5
330
0
100
AcDbSymbolTable
 70
     0
  0
ENDTAB
  0
TABLE
  2
UCS
  5
6
330
0
100
AcDbSymbolTable
 70
     1
  0
UCS
  5
20
330
6
100
AcDbSymbolTableRecord
100
AcDbUCSTableRecord
  2
CK_VIEW_1
 70
     0
 10
0.0
 20
0.0
 30
1.0
 11
1.0
 21
0.0
 31
0.0
 12
0.0
 22
1.0
 32
0.0
 79
     0
146
0.0
  0
ENDTAB
  0
TABLE
  2
APPID
  5
8
330
0
100
AcDbSymbolTable
 70
     1
  0
APPID
  5
16
330
8
100
AcDbSymbolTableRecord
100
AcDbRegAppTableRecord
  2
ACAD
 70
     0
  0
ENDTAB
  0
TABLE
  2
DIMSTYLE
  5
9
330
0
100
AcDbSymbolTable
 70
     1
100
AcDbDimStyleTable
 71
     0
  0
DIMSTYLE
105
18
330
9
100
AcDbSymbolTableRecord
100
AcDbDimStyleTableRecord
  2
STANDARD
 70
     0
289
     0
340
17
  0
ENDTAB
  0
TABLE
  2
BLOCK_RECORD
  5
1
330
0
100
AcDbSymbolTable
 70
     0
  0
BLOCK_RECORD
  5
A
330
1
100
AcDbSymbolTableRecord
100
AcDbBlockTableRecord
  2
*MODEL_SPACE
340
141
  0
BLOCK_RECORD
  5
B
330
1
100
AcDbSymbolTableRecord
100
AcDbBlockTableRecord
  2
*PAPER_SPACE
340
142
  0
ENDTAB
  0
ENDSEC
  0
SECTION
  2
BLOCKS
  0
BLOCK
  5
D
330
A
100
AcDbEntity
  8
0
100
AcDbBlockBegin
  2
*MODEL_SPACE
 70
     0
 10
0.0
 20
0.0
 30
0.0
  3
*MODEL_SPACE
  1

  0
ENDBLK
  5
E
330
A
100
AcDbEntity
  8
0
100
AcDbBlockEnd
  0
BLOCK
  5
F
330
B
100
AcDbEntity
 67
     1
  8
0
100
AcDbBlockBegin
  2
*PAPER_SPACE
 70
     0
 10
0.0
 20
0.0
 30
0.0
  3
*PAPER_SPACE
  1

  0
ENDBLK
  5
10
330
B
100
AcDbEntity
 67
     1
  8
0
100
AcDbBlockEnd
  0
ENDSEC
  0
SECTION
  2
ENTITIES
  0
CIRCLE
  5
2A
330
A
100
AcDbEntity
  8
ES
  6
Continuous
 62
     4
100
AcDbCircle
 10
-65.64094621049076
 20
121.1202054077185
 30
0.0000000000000568
 40
0.45
  0
LINE
  5
2B
330
A
100
AcDbEntity
  8
ES
  6
CENTER
 62
   252
100
AcDbLine
 10
-65.64094621049072
 20
118.3928913865435
 30
0.0
 11
-65.64094621049072
 21
123.4184088957231
 31
0.0
  0
ARC
  5
2C
330
A
100
AcDbEntity
  8
ES
  6
Continuous
 62
     4
100
AcDbCircle
 10
-72.79094621049079
 20
116.877385084691
 30
0.0
 40
0.4
100
AcDbArc
 50
119.9999999999965
 51
180.0
  0
ARC
  5
2D
330
A
100
AcDbEntity
  8
ES
  6
Continuous
 62
     4
100
AcDbCircle
 10
-72.79094621049077
 20
116.877385084691
 30
0.0
 40
0.4
100
AcDbArc
 50
119.9999999999979
 51
180.0
  0
ARC
  5
2E
330
A
100
AcDbEntity
  8
ES
  6
Continuous
 62
     4
100
AcDbCircle
 10
-72.79094621049075
 20
118.2630257307461
 30
0.0
 40
0.4
100
AcDbArc
 50
180.0
 51
240.000000000002
  0
ARC
  5
2F
330
A
100
AcDbEntity
  8
ES
  6
Continuous
 62
     4
100
AcDbCircle
 10
-73.19094621049076
 20
117.5702054077185
 30
0.0
 40
0.4
100
AcDbArc
 50
299.999999999999
 51
419.9999999999969
  0
LINE
  5
30
330
A
100
AcDbEntity
  8
ES
  6
Continuous
 62
     4
100
AcDbLine
 10
-73.19094621049076
 20
118.2630257307461
 30
0.0
 11
-73.19094621049076
 21
119.0980228670237
 31
0.0
  0
LINE
  5
31
330
A
100
AcDbEntity
  8
ES
  6
Continuous
 62
     4
100
AcDbLine
 10
-57.49094621049069
 20
119.1869894510986
 30
0.0
 11
-57.49094621049069
 21
115.9702054077185
 31
0.0
  0
LINE
  5
32
330
A
100
AcDbEntity
  8
ES
  6
Continuous
 62
     4
100
AcDbLine
 10
-73.79094621049076
 20
115.9702054077185
 30
0.0
 11
-73.79094621049076
 21
119.1869894510986
 31
0.0
  0
LINE
  5
33
330
A
100
AcDbEntity
  8
ES
  6
Continuous
 62
     4
100
AcDbLine
 10
-73.09187245416751
 20
120.3202054077185
 30
0.0
 11
-58.19001996681393
 21
120.3202054077185
 31
0.0
  0
LINE
  5
34
330
A
100
AcDbEntity
  8
ES
  6
Continuous
 62
     4
100
AcDbLine
 10
-58.09094621049069
 20
119.0980228670236
 30
0.0
 11
-58.09094621049069
 21
118.2630257307461
 31
0.0
  0
LINE
  5
35
330
A
100
AcDbEntity
  8
ES
  6
Continuous
 62
     4
100
AcDbLine
 10
-58.71312875118555
 20
119.7202054077185
 30
0.0
 11
-58.09094621049069
 21
119.0980228670236
 31
0.0
  0
LINE
  5
36
330
A
100
AcDbEntity
  8
ES
  6
Continuous
 62
     4
100
AcDbLine
 10
-72.56876366979603
 20
119.7202054077185
 30
0.0
 11
-73.19094621049076
 21
119.0980228670237
 31
0.0
  0
LINE
  5
37
330
A
100
AcDbEntity
  8
ES
  6
Continuous
 62
     4
100
AcDbLine
 10
-73.19094621049076
 20
115.9702054077185
 30
0.0
 11
-73.19094621049076
 21
116.877385084691
 31
0.0
  0
LINE
  5
38
330
A
100
AcDbEntity
  8
ES
  6
Continuous
 62
     4
100
AcDbLine
 10
-72.56876366979603
 20
119.7202054077185
 30
0.0
 11
-58.71312875118555
 21
119.7202054077185
 31
0.0
  0
LINE
  5
39
330
A
100
AcDbEntity
  8
ES
  6
Continuous
 62
     4
100
AcDbLine
 10
-58.59094621049068
 20
116.816141946892
 30
0.0
 11
-58.59094621049068
 21
115.9702054077185
 31
0.0
  0
ARC
  5
3A
330
A
100
AcDbEntity
  8
ES
  6
Continuous
 62
     4
100
AcDbCircle
 10
-58.74094621049066
 20
116.816141946892
 30
0.0
 40
0.150000000000001
100
AcDbArc
 50
0.0
 51
60.44665895138187
  0
ARC
  5
3B
330
A
100
AcDbEntity
  8
ES
  6
Continuous
 62
     4
100
AcDbCircle
 10
-58.2773066004906
 20
117.6338450177185
 30
0.0
 40
0.7899999999999925
100
AcDbArc
 50
213.122105038428
 51
240.4466589513821
  0
ARC
  5
3C
330
A
100
AcDbEntity
  8
ES
  6
Continuous
 62
     4
100
AcDbCircle
 10
-59.06456408761859
 20
117.1202054077185
 30
0.0
 40
0.1499999999999915
100
AcDbArc
 50
33.12210503842805
 51
90.0
  0
LINE
  5
3D
330
A
100
AcDbEntity
  8
ES
  6
Continuous
 62
     4
100
AcDbLine
 10
-59.39094621049068
 20
117.2702054077185
 30
0.0
 11
-59.06456408761866
 21
117.2702054077185
 31
0.0
  0
ARC
  5
3E
330
A
100
AcDbEntity
  8
ES
  6
Continuous
 62
     4
100
AcDbCircle
 10
-59.39094621049064
 20
117.5702054077185
 30
0.0
 40
0.2999999999999971
100
AcDbArc
 50
90.0
 51
270.0
  0
LINE
  5
3F
330
A
100
AcDbEntity
  8
ES
  6
Continuous
 62
     4
100
AcDbLine
 10
-59.06456408761866
 20
117.8702054077185
 30
0.0
 11
-59.39094621049065
 21
117.8702054077185
 31
0.0
  0
ARC
  5
40
330
A
100
AcDbEntity
  8
ES
  6
Continuous
 62
     4
100
AcDbCircle
 10
-59.06456408761862
 20
118.0202054077185
 30
0.0
 40
0.1499999999999968
100
AcDbArc
 50
270.0
 51
326.8778949615719
  0
ARC
  5
41
330
A
100
AcDbEntity
  8
ES
  6
Continuous
 62
     4
100
AcDbCircle
 10
-58.27730660049063
 20
117.5065657977185
 30
0.0
 40
0.7900000000000056
100
AcDbArc
 50
119.5533410486181
 51
146.8778949615719
  0
ARC
  5
42
330
A
100
AcDbEntity
  8
ES
  6
Continuous
 62
     4
100
AcDbCircle
 10
-58.74094621049064
 20
118.324268868545
 30
0.0
 40
0.1499999999999915
100
AcDbArc
 50
299.5533410486173
 51
360.0
  0
LINE
  5
43
330
A
100
AcDbEntity
  8
ES
  6
Continuous
 62
     4
100
AcDbLine
 10
-58.59094621049066
 20
118.890916085837
 30
0.0
 11
-58.59094621049071
 21
118.3242688685451
 31
0.0
  0
LINE
  5
44
330
A
100
AcDbEntity
  8
ES
  6
Continuous
 62
     4
100
AcDbLine
 10
-72.36165688860946
 20
119.2202054077185
 30
0.0
 11
-58.92023553237212
 21
119.2202054077185
 31
0.0
  0
LINE
  5
45
330
A
100
AcDbEntity
  8
ES
  6
Continuous
 62
     4
100
AcDbLine
 10
-72.69094621049074
 20
118.3242688685451
 30
0.0
 11
-72.69094621049079
 21
118.8909160858372
 31
0.0
  0
ARC
  5
46
330
A
100
AcDbEntity
  8
ES
  6
Continuous
 62
     4
100
AcDbCircle
 10
-72.54094621049081
 20
118.324268868545
 30
0.0
 40
0.150000000000001
100
AcDbArc
 50
180.0
 51
240.4466589513829
  0
ARC
  5
47
330
A
100
AcDbEntity
  8
ES
  6
Continuous
 62
     4
100
AcDbCircle
 10
-73.00458582049081
 20
117.5065657977185
 30
0.0
 40
0.7899999999999925
100
AcDbArc
 50
33.12210503842805
 51
60.44665895138187
  0
ARC
  5
48
330
A
100
AcDbEntity
  8
ES
  6
Continuous
 62
     4
100
AcDbCircle
 10
-72.21732833336282
 20
118.0202054077185
 30
0.0
 40
0.1499999999999915
100
AcDbArc
 50
213.122105038428
 51
270.0
  0
LINE
  5
49
330
A
100
AcDbEntity
  8
ES
  6
Continuous
 62
     4
100
AcDbLine
 10
-71.89094621049079
 20
117.8702054077185
 30
0.0
 11
-72.21732833336279
 21
117.8702054077185
 31
0.0
  0
ARC
  5
4A
330
A
100
AcDbEntity
  8
ES
  6
Continuous
 62
     4
100
AcDbCircle
 10
-71.89094621049081
 20
117.5702054077185
 30
0.0
 40
0.2999999999999971
100
AcDbArc
 50
270.0
 51
450.0
  0
LINE
  5
4B
330
A
100
AcDbEntity
  8
ES
  6
Continuous
 62
     4
100
AcDbLine
 10
-72.21732833336279
 20
117.2702054077185
 30
0.0
 11
-71.89094621049076
 21
117.2702054077185
 31
0.0
  0
ARC
  5
4C
330
A
100
AcDbEntity
  8
ES
  6
Continuous
 62
     4
100
AcDbCircle
 10
-72.21732833336286
 20
117.1202054077185
 30
0.0
 40
0.1499999999999968
100
AcDbArc
 50
90.0
 51
146.8778949615719
  0
ARC
  5
4D
330
A
100
AcDbEntity
  8
ES
  6
Continuous
 62
     4
100
AcDbCircle
 10
-73.00458582049085
 20
117.6338450177185
 30
0.0
 40
0.7900000000000056
100
AcDbArc
 50
299.5533410486181
 51
326.8778949615719
  0
ARC
  5
4E
330
A
100
AcDbEntity
  8
ES
  6
Continuous
 62
     4
100
AcDbCircle
 10
-72.54094621049079
 20
116.816141946892
 30
0.0
 40
0.1499999999999915
100
AcDbArc
 50
119.5533410486181
 51
180.0
  0
LINE
  5
4F
330
A
100
AcDbEntity
  8
ES
  6
Continuous
 62
     4
100
AcDbLine
 10
-72.69094621049076
 20
115.9702054077185
 30
0.0
 11
-72.69094621049076
 21
116.816141946892
 31
0.0
  0
ARC
  5
50
330
A
100
AcDbEntity
  8
MGW7
  6
Continuous
 62
     4
100
AcDbCircle
 10
-52.94094621049078
 20
118.1702054077185
 30
0.0000000000000284
 40
0.4
100
AcDbArc
 50
120.0000000000005
 51
239.9999999999995
  0
LINE
  5
51
330
A
100
AcDbEntity
  8
MGW7
  6
CENTER
 62
   252
100
AcDbLine
 10
-56.14094621049071
 20
123.4702054077185
 30
0.0
 11
-56.14094621049076
 21
117.9985175712315
 31
0.0
  0
LINE
  5
52
330
A
100
AcDbEntity
  8
MGW7
  6
DASHED
 62
   252
100
AcDbLine
 10
-73.64094621049074
 20
122.6702054077185
 30
0.0
 11
-76.64094621049071
 21
122.6702054077185
 31
0.0
  0
LINE
  5
53
330
A
100
AcDbEntity
  8
MGW7
  6
DASHED
 62
   252
100
AcDbLine
 10
-73.34094621049081
 20
122.9702054077185
 30
0.0
 11
-73.64094621049074
 21
122.6702054077185
 31
0.0
  0
LINE
  5
54
330
A
100
AcDbEntity
  8
MGW7
  6
DASHED
 62
   252
100
AcDbLine
 10
-76.39094621049077
 20
119.1702054077185
 30
0.0
 11
-75.14094621049077
 21
118.4485175712315
 31
0.0
  0
LINE
  5
55
330
A
100
AcDbEntity
  8
MGW7
  6
DASHED
 62
   252
100
AcDbLine
 10
-73.89094621049074
 20
119.1702054077185
 30
0.0
 11
-75.14094621049077
 21
118.4485175712315
 31
0.0
  0
LINE
  5
56
330
A
100
AcDbEntity
  8
MGW7
  6
DASHED
 62
   252
100
AcDbLine
 10
-73.89094621049074
 20
119.1702054077185
 30
0.0
 11
-76.39094621049077
 21
119.1702054077185
 31
0.0
  0
LINE
  5
57
330
A
100
AcDbEntity
  8
MGW7
  6
DASHED
 62
   252
100
AcDbLine
 10
-76.39094621049071
 20
122.6702054077185
 30
0.0
 11
-76.39094621049077
 21
119.1702054077185
 31
0.0
  0
LINE
  5
58
330
A
100
AcDbEntity
  8
MGW7
  6
DASHED
 62
   252
100
AcDbLine
 10
-73.89094621049074
 20
122.6702054077185
 30
0.0
 11
-73.89094621049074
 21
119.1702054077185
 31
0.0
  0
LINE
  5
59
330
A
100
AcDbEntity
  8
MGW7
  6
DASHED
 62
   252
100
AcDbLine
 10
-73.64094621049074
 20
119.9702054077185
 30
0.0
 11
-76.64094621049077
 21
119.9702054077185
 31
0.0
  0
LINE
  5
5A
330
A
100
AcDbEntity
  8
MGW7
  6
DASHED
 62
   252
100
AcDbLine
 10
-76.64094621049071
 20
122.6702054077185
 30
0.0
 11
-76.64094621049077
 21
119.9702054077185
 31
0.0
  0
LINE
  5
5B
330
A
100
AcDbEntity
  8
MGW7
  6
DASHED
 62
   252
100
AcDbLine
 10
-73.64094621049074
 20
122.6702054077185
 30
0.0
 11
-73.64094621049074
 21
119.9702054077185
 31
0.0
  0
LINE
  5
5C
330
A
100
AcDbEntity
  8
MGW7
  6
CENTER
 62
   252
100
AcDbLine
 10
-75.14094621049079
 20
123.4702054077185
 30
0.0
 11
-75.14094621049071
 21
117.9985175712315
 31
0.0
  0
LINE
  5
5D
330
A
100
AcDbEntity
  8
MGW7
  6
Continuous
 62
   252
100
AcDbLine
 10
-75.14094621049082
 20
122.9702054077185
 30
0.0
 11
-75.14094621049077
 21
122.9702054077185
 31
-0.0004999999999882
  0
LINE
  5
5E
330
A
100
AcDbEntity
  8
MGW7
  6
Continuous
 62
     4
100
AcDbLine
 10
-53.14094621049076
 20
117.8237952462048
 30
0.0
 11
-53.14094621049076
 21
116.3702054077185
 31
0.0
  0
LINE
  5
5F
330
A
100
AcDbEntity
  8
MGW7
  6
Continuous
 62
     4
100
AcDbLine
 10
-77.74094621049079
 20
122.9702054077185
 30
0.0
 11
-78.14094621049076
 21
122.5702054077185
 31
0.0
  0
LINE
  5
60
330
A
100
AcDbEntity
  8
MGW7
  6
DASHED
 62
   252
100
AcDbLine
 10
-76.94094621049078
 20
122.9702054077185
 30
0.0
 11
-76.64094621049071
 21
122.6702054077185
 31
0.0
  0
LINE
  5
61
330
A
100
AcDbEntity
  8
MGW7
  6
Continuous
 62
     4
100
AcDbLine
 10
-78.14094621049079
 20
116.3702054077185
 30
0.0
 11
-77.64094621049079
 21
115.8702054077185
 31
0.0
  0
LINE
  5
62
330
A
100
AcDbEntity
  8
MGW7
  6
Continuous
 62
     4
100
AcDbLine
 10
-53.14094621049076
 20
116.3702054077185
 30
0.0
 11
-53.64094621049073
 21
115.8702054077185
 31
0.0
  0
LINE
  5
63
330
A
100
AcDbEntity
  8
MGW7
  6
Continuous
 62
     4
100
AcDbLine
 10
-53.54094621049077
 20
122.9702054077185
 30
0.0
 11
-53.14094621049074
 21
122.5702054077185
 31
0.0
  0
LINE
  5
64
330
A
100
AcDbEntity
  8
MGW7
  6
Continuous
 62
     4
100
AcDbLine
 10
-53.64094621049073
 20
115.8702054077185
 30
0.0
 11
-58.64094621049076
 21
115.8702054077185
 31
0.0
  0
LINE
  5
65
330
A
100
AcDbEntity
  8
MGW7
  6
Continuous
 62
     4
100
AcDbLine
 10
-72.64094621049077
 20
115.8702054077185
 30
0.0
 11
-77.64094621049079
 21
115.8702054077185
 31
0.0
  0
LINE
  5
66
330
A
100
AcDbEntity
  8
MGW7
  6
Continuous
 62
     4
100
AcDbLine
 10
-78.14094621049076
 20
122.5702054077185
 30
0.0
 11
-78.14094621049079
 21
116.3702054077185
 31
0.0
  0
LINE
  5
67
330
A
100
AcDbEntity
  8
MGW7
  6
Continuous
 62
     4
100
AcDbLine
 10
-53.14094621049074
 20
122.5702054077185
 30
0.0
 11
-53.14094621049076
 21
118.5166155692323
 31
0.0
  0
LINE
  5
68
330
A
100
AcDbEntity
  8
MGW7
  6
Continuous
 62
     4
100
AcDbLine
 10
-53.54094621049077
 20
122.9702054077185
 30
0.0
 11
-77.74094621049079
 21
122.9702054077185
 31
0.0
  0
LINE
  5
69
330
A
100
AcDbEntity
  8
ES
  6
Continuous
 62
     4
100
AcDbLine
 10
-54.24094621049072
 20
122.6702054077185
 30
0.0
 11
-77.04094621049073
 21
122.6702054077185
 31
0.0
  0
LINE
  5
6A
330
A
100
AcDbEntity
  8
ES
  6
Continuous
 62
     4
100
AcDbLine
 10
-77.84094621049071
 20
121.8702054077185
 30
0.0
 11
-77.84094621049068
 21
116.4702054077185
 31
0.0
  0
LINE
  5
6B
330
A
100
AcDbEntity
  8
ES
  6
Continuous
 62
     4
100
AcDbLine
 10
-72.69094621049076
 20
115.9702054077185
 30
0.0
 11
-77.34094621049068
 21
115.9702054077185
 31
0.0
  0
LINE
  5
6C
330
A
100
AcDbEntity
  8
ES
  6
Continuous
 62
     4
100
AcDbLine
 10
-77.84094621049071
 20
121.8702054077185
 30
0.0
 11
-77.04094621049073
 21
122.6702054077185
 31
0.0
  0
LINE
  5
6D
330
A
100
AcDbEntity
  8
ES
  6
Continuous
 62
     4
100
AcDbLine
 10
-77.34094621049068
 20
115.9702054077185
 30
0.0
 11
-77.84094621049068
 21
116.4702054077185
 31
0.0
  0
LINE
  5
6E
330
A
100
AcDbEntity
  8
ES
  6
Continuous
 62
     4
100
AcDbLine
 10
-53.44094621049074
 20
121.8702054077185
 30
0.0
 11
-53.44094621049077
 21
116.4702054077185
 31
0.0
  0
LINE
  5
6F
330
A
100
AcDbEntity
  8
ES
  6
Continuous
 62
     4
100
AcDbLine
 10
-58.59094621049068
 20
115.9702054077185
 30
0.0
 11
-53.94094621049077
 21
115.9702054077185
 31
0.0
  0
LINE
  5
70
330
A
100
AcDbEntity
  8
ES
  6
Continuous
 62
     4
100
AcDbLine
 10
-53.44094621049074
 20
121.8702054077185
 30
0.0
 11
-54.24094621049072
 21
122.6702054077185
 31
0.0
  0
LINE
  5
71
330
A
100
AcDbEntity
  8
ES
  6
Continuous
 62
     4
100
AcDbLine
 10
-53.94094621049077
 20
115.9702054077185
 30
0.0
 11
-53.44094621049077
 21
116.4702054077185
 31
0.0
  0
LINE
  5
72
330
A
100
AcDbEntity
  8
ES
  6
Continuous
 62
     4
100
AcDbLine
 10
-72.36165688860946
 20
119.2202054077185
 30
0.0
 11
-72.69094621049079
 21
118.8909160858372
 31
0.0
  0
LINE
  5
73
330
A
100
AcDbEntity
  8
ES
  6
Continuous
 62
     4
100
AcDbLine
 10
-58.92023553237212
 20
119.2202054077185
 30
0.0
 11
-58.59094621049066
 21
118.890916085837
 31
0.0
  0
CIRCLE
  5
74
330
A
100
AcDbEntity
  8
ES
  6
Continuous
 62
     4
100
AcDbCircle
 10
-74.44094621049072
 20
120.3702054077185
 30
0.0
 40
1.35
  0
CIRCLE
  5
75
330
A
100
AcDbEntity
  8
ES
  6
Continuous
 62
     4
100
AcDbCircle
 10
-56.84094621049073
 20
120.3702054077185
 30
0.0
 40
1.35
  0
ARC
  5
76
330
A
100
AcDbEntity
  8
ES
  6
Continuous
 62
     4
100
AcDbCircle
 10
-58.09094621049069
 20
117.5702054077185
 30
0.0
 40
0.4
100
AcDbArc
 50
120.0000000000034
 51
240.0000000000013
  0
ARC
  5
77
330
A
100
AcDbEntity
  8
ES
  6
Continuous
 62
     4
100
AcDbCircle
 10
-58.49094621049069
 20
118.2630257307461
 30
0.0
 40
0.4
100
AcDbArc
 50
299.9999999999975
 51
360.0
  0
ARC
  5
78
330
A
100
AcDbEntity
  8
ES
  6
Continuous
 62
     4
100
AcDbCircle
 10
-58.49094621049068
 20
116.877385084691
 30
0.0
 40
0.4
100
AcDbArc
 50
0.0
 51
60.00000000000244
  0
LINE
  5
79
330
A
100
AcDbEntity
  8
ES
  6
Continuous
 62
     4
100
AcDbLine
 10
-58.09094621049069
 20
116.877385084691
 30
0.0
 11
-58.09094621049069
 21
115.9702054077185
 31
0.0
  0
LINE
  5
7A
330
A
100
AcDbEntity
  8
ES
  6
CENTER
 62
   252
100
AcDbLine
 10
-66.31785555721883
 20
121.1202054077185
 30
0.0
 11
-64.91907778197412
 21
121.1202054077185
 31
0.0
  0
LINE
  5
7B
330
A
100
AcDbEntity
  8
MGW7
  6
Continuous
 62
     4
100
AcDbLine
 10
-58.94094621049062
 20
119.1702054077185
 30
0.0
 11
-72.34094621049063
 21
119.1702054077185
 31
0.0
  0
LINE
  5
7C
330
A
100
AcDbEntity
  8
MGW7
  6
CENTER
 62
   252
100
AcDbLine
 10
-65.64094621049062
 20
113.4667038447934
 30
0.0
 11
-65.64094621049062
 21
119.6737069706436
 31
0.0
  0
LINE
  5
7D
330
A
100
AcDbEntity
  8
MGW7
  6
Continuous
 62
     4
100
AcDbLine
 10
-59.04094621049063
 20
113.9702054077185
 30
0.0
 11
-60.74094621049063
 21
113.9702054077185
 31
0.0
  0
LINE
  5
7E
330
A
100
AcDbEntity
  8
MGW7
  6
Continuous
 62
     4
100
AcDbLine
 10
-61.54094621049062
 20
113.9702054077185
 30
0.0
 11
-72.24094621049061
 21
113.9702054077185
 31
0.0
  0
LINE
  5
7F
330
A
100
AcDbEntity
  8
MGW7
  6
Continuous
 62
     4
100
AcDbLine
 10
-72.64094621049077
 20
114.3702054077187
 30
0.0
 11
-72.24094621049061
 21
113.9702054077185
 31
0.0
  0
LINE
  5
80
330
A
100
AcDbEntity
  8
MGW7
  6
Continuous
 62
     4
100
AcDbLine
 10
-59.04094621049063
 20
113.9702054077185
 30
0.0
 11
-58.64094621049076
 21
114.3702054077184
 31
0.0
  0
ARC
  5
81
330
A
100
AcDbEntity
  8
MGW7
  6
Continuous
 62
     4
100
AcDbCircle
 10
-61.14094621049062
 20
113.6702054077185
 30
0.0000000000000142
 40
0.5
100
AcDbArc
 50
36.86989764584386
 51
143.1301023541561
  0
LINE
  5
82
330
A
100
AcDbEntity
  8
MGW7
  6
DASHED
 62
   252
100
AcDbLine
 10
-68.64094621049061
 20
118.9702054077185
 30
0.0
 11
-68.64094621049061
 21
115.9702054077185
 31
0.0
  0
LINE
  5
83
330
A
100
AcDbEntity
  8
MGW7
  6
DASHED
 62
   252
100
AcDbLine
 10
-68.64094621049061
 20
115.9702054077185
 30
0.0
 11
-62.64094621049061
 21
115.9702054077185
 31
0.0
  0
LINE
  5
84
330
A
100
AcDbEntity
  8
MGW7
  6
DASHED
 62
   252
100
AcDbLine
 10
-67.39094621049061
 20
115.9702054077185
 30
0.0
 11
-67.39094621049061
 21
114.2702054077185
 31
0.0
  0
LINE
  5
85
330
A
100
AcDbEntity
  8
MGW7
  6
DASHED
 62
   252
100
AcDbLine
 10
-63.89094621049061
 20
115.9702054077185
 30
0.0
 11
-63.89094621049061
 21
114.2702054077185
 31
0.0
  0
LINE
  5
86
330
A
100
AcDbEntity
  8
MGW7
  6
DASHED
 62
   252
100
AcDbLine
 10
-62.64094621049061
 20
118.9702054077185
 30
0.0
 11
-62.64094621049061
 21
115.9702054077185
 31
0.0
  0
LINE
  5
87
330
A
100
AcDbEntity
  8
MGW7
  6
DASHED
 62
   252
100
AcDbLine
 10
-63.89094621049061
 20
114.2702054077185
 30
0.0
 11
-63.59094621049061
 21
113.9702054077185
 31
0.0
  0
LINE
  5
88
330
A
100
AcDbEntity
  8
MGW7
  6
DASHED
 62
   252
100
AcDbLine
 10
-67.39094621049061
 20
114.2702054077185
 30
0.0
 11
-67.69094621049061
 21
113.9702054077185
 31
0.0
  0
LINE
  5
89
330
A
100
AcDbEntity
  8
MGW7
  6
DASHED
 62
   252
100
AcDbLine
 10
-63.89094621049061
 20
114.2702054077185
 30
0.0
 11
-67.39094621049061
 21
114.2702054077185
 31
0.0
  0
LINE
  5
8A
330
A
100
AcDbEntity
  8
MGW7
  6
DASHED
 62
   252
100
AcDbLine
 10
-62.64094621049061
 20
118.9702054077185
 30
0.0
 11
-68.64094621049061
 21
118.9702054077185
 31
0.0
  0
LINE
  5
8B
330
A
100
AcDbEntity
  8
MGW7
  6
DASHED
 62
   252
100
AcDbLine
 10
-68.75641626432853
 20
119.1702054077185
 30
0.0
 11
-68.64094621049061
 21
118.9702054077185
 31
0.0
  0
LINE
  5
8C
330
A
100
AcDbEntity
  8
MGW7
  6
DASHED
 62
   252
100
AcDbLine
 10
-62.52547615665268
 20
119.1702054077185
 30
0.0
 11
-62.64094621049061
 21
118.9702054077185
 31
0.0
  0
LINE
  5
8D
330
A
100
AcDbEntity
  8
MGW7
  6
Continuous
 62
     4
100
AcDbLine
 10
-58.94094621049062
 20
119.1702054077185
 30
0.0
 11
-58.64094621049076
 21
118.8702054077187
 31
0.0
  0
LINE
  5
8E
330
A
100
AcDbEntity
  8
MGW7
  6
Continuous
 62
     4
100
AcDbLine
 10
-72.34094621049061
 20
119.1702054077185
 30
0.0
 11
-72.64094621049079
 21
118.8702054077183
 31
0.0
  0
LINE
  5
8F
330
A
100
AcDbEntity
  8
MGW7
  6
Continuous
 62
     4
100
AcDbLine
 10
-43.14094621049062
 20
119.1702054077185
 30
0.0
 11
-43.14094621049062
 21
113.9702054077185
 31
0.0
  0
LINE
  5
90
330
A
100
AcDbEntity
  8
MGW7
  6
CENTER
 62
   252
100
AcDbLine
 10
-33.14094621049062
 20
113.4667038447934
 30
0.0
 11
-33.14094621049062
 21
119.6737069706436
 31
0.0
  0
LINE
  5
91
330
A
100
AcDbEntity
  8
MGW7
  6
DASHED
 62
   252
100
AcDbLine
 10
-36.14094621049061
 20
118.9702054077185
 30
0.0
 11
-36.14094621049061
 21
115.9702054077185
 31
0.0
  0
LINE
  5
92
330
A
100
AcDbEntity
  8
MGW7
  6
DASHED
 62
   252
100
AcDbLine
 10
-36.14094621049061
 20
115.9702054077185
 30
0.0
 11
-30.14094621049061
 21
115.9702054077185
 31
0.0
  0
LINE
  5
93
330
A
100
AcDbEntity
  8
MGW7
  6
DASHED
 62
   252
100
AcDbLine
 10
-34.89094621049061
 20
115.9702054077185
 30
0.0
 11
-34.89094621049061
 21
114.2702054077185
 31
0.0
  0
LINE
  5
94
330
A
100
AcDbEntity
  8
MGW7
  6
DASHED
 62
   252
100
AcDbLine
 10
-31.39094621049061
 20
115.9702054077185
 30
0.0
 11
-31.39094621049061
 21
114.2702054077185
 31
0.0
  0
LINE
  5
95
330
A
100
AcDbEntity
  8
MGW7
  6
DASHED
 62
   252
100
AcDbLine
 10
-30.14094621049061
 20
118.9702054077185
 30
0.0
 11
-30.14094621049061
 21
115.9702054077185
 31
0.0
  0
LINE
  5
96
330
A
100
AcDbEntity
  8
MGW7
  6
DASHED
 62
   252
100
AcDbLine
 10
-31.39094621049061
 20
114.2702054077185
 30
0.0
 11
-31.09094621049061
 21
113.9702054077185
 31
0.0
  0
LINE
  5
97
330
A
100
AcDbEntity
  8
MGW7
  6
DASHED
 62
   252
100
AcDbLine
 10
-34.89094621049061
 20
114.2702054077185
 30
0.0
 11
-35.19094621049061
 21
113.9702054077185
 31
0.0
  0
LINE
  5
98
330
A
100
AcDbEntity
  8
MGW7
  6
DASHED
 62
   252
100
AcDbLine
 10
-31.39094621049061
 20
114.2702054077185
 30
0.0
 11
-34.89094621049061
 21
114.2702054077185
 31
0.0
  0
LINE
  5
99
330
A
100
AcDbEntity
  8
MGW7
  6
DASHED
 62
   252
100
AcDbLine
 10
-30.14094621049061
 20
118.9702054077185
 30
0.0
 11
-36.14094621049061
 21
118.9702054077185
 31
0.0
  0
LINE
  5
9A
330
A
100
AcDbEntity
  8
MGW7
  6
DASHED
 62
   252
100
AcDbLine
 10
-36.25641626432853
 20
119.1702054077185
 30
0.0
 11
-36.14094621049061
 21
118.9702054077185
 31
0.0
  0
LINE
  5
9B
330
A
100
AcDbEntity
  8
MGW7
  6
DASHED
 62
   252
100
AcDbLine
 10
-30.02547615665268
 20
119.1702054077185
 30
0.0
 11
-30.14094621049061
 21
118.9702054077185
 31
0.0
  0
LINE
  5
9C
330
A
100
AcDbEntity
  8
MGW7
  6
Continuous
 62
     4
100
AcDbLine
 10
36.85905378950937
 20
119.1702054077185
 30
0.0
 11
17.25905378950938
 21
119.1702054077185
 31
0.0
  0
LINE
  5
9D
330
A
100
AcDbEntity
  8
MGW7
  6
Continuous
 62
     4
100
AcDbLine
 10
36.85905378950937
 20
118.5702054077185
 30
0.0
 11
17.25905378950938
 21
118.5702054077185
 31
0.0
  0
LINE
  5
9E
330
A
100
AcDbEntity
  8
MGW7
  6
Continuous
 62
     4
100
AcDbLine
 10
36.85905378950937
 20
118.1886712515612
 30
0.0
 11
17.25905378950938
 21
118.1886712515612
 31
0.0
  0
LINE
  5
9F
330
A
100
AcDbEntity
  8
MGW7
  6
Continuous
 62
     4
100
AcDbLine
 10
36.85905378950937
 20
116.9517395638759
 30
0.0
 11
17.25905378950938
 21
116.9517395638759
 31
0.0
  0
LINE
  5
A0
330
A
100
AcDbEntity
  8
MGW7
  6
Continuous
 62
     4
100
AcDbLine
 10
36.85905378950937
 20
114.6702054077185
 30
0.0
 11
-43.14094621049064
 21
114.6702054077185
 31
0.0
  0
LINE
  5
A1
330
A
100
AcDbEntity
  8
MGW7
  6
Continuous
 62
     4
100
AcDbLine
 10
36.85905378950937
 20
113.9702054077185
 30
0.0
 11
-43.14094621049062
 21
113.9702054077185
 31
0.0
  0
LINE
  5
A2
330
A
100
AcDbEntity
  8
MGW7
  6
Continuous
 62
     4
100
AcDbLine
 10
36.85905378950937
 20
119.1702054077185
 30
0.0
 11
36.85905378950937
 21
113.9702054077185
 31
0.0
  0
LINE
  5
A3
330
A
100
AcDbEntity
  8
MGW7
  6
Continuous
 62
     4
100
AcDbLine
 10
-58.64094621049076
 20
118.8702054077187
 30
0.0
 11
-58.64094621049076
 21
118.3415926723522
 31
0.0
  0
LINE
  5
A4
330
A
100
AcDbEntity
  8
MGW7
  6
Continuous
 62
     4
100
AcDbLine
 10
-58.64094621049076
 20
116.7988181430849
 30
0.0
 11
-58.64094621049076
 21
114.3702054077184
 31
0.0
  0
LINE
  5
A5
330
A
100
AcDbEntity
  8
MGW7
  6
Continuous
 62
     4
100
AcDbLine
 10
-59.39094621049078
 20
117.9202054077185
 30
0.0
 11
-59.05672946389663
 21
117.9202054077185
 31
0.0
  0
ARC
  5
A6
330
A
100
AcDbEntity
  8
MGW7
  6
Continuous
 62
     4
100
AcDbCircle
 10
-59.39094621049079
 20
117.5702054077185
 30
0.0000000000000355
 40
0.3500000000000001
100
AcDbArc
 50
90.0
 51
270.0
  0
LINE
  5
A7
330
A
100
AcDbEntity
  8
MGW7
  6
Continuous
 62
     4
100
AcDbLine
 10
-59.39094621049078
 20
117.2202054077185
 30
0.0
 11
-59.05672946389663
 21
117.2202054077185
 31
0.0
  0
LINE
  5
A8
330
A
100
AcDbEntity
  8
MGW7
  6
Continuous
 62
     4
100
AcDbLine
 10
-72.64094621049077
 20
116.816141946892
 30
0.0
 11
-72.64094621049077
 21
114.3702054077187
 31
0.0
  0
LINE
  5
A9
330
A
100
AcDbEntity
  8
MGW7
  6
Continuous
 62
     4
100
AcDbLine
 10
-72.64094621049079
 20
118.8702054077183
 30
0.0
 11
-72.64094621049074
 21
118.3242688685451
 31
0.0
  0
LINE
  5
AA
330
A
100
AcDbEntity
  8
MGW7
  6
Continuous
 62
     4
100
AcDbLine
 10
-71.89094621049079
 20
117.9202054077185
 30
0.0
 11
-72.21732833336279
 21
117.9202054077185
 31
0.0
  0
LINE
  5
AB
330
A
100
AcDbEntity
  8
MGW7
  6
Continuous
 62
     4
100
AcDbLine
 10
-71.89094621049076
 20
117.2202054077185
 30
0.0
 11
-72.21732833336279
 21
117.2202054077186
 31
0.0
  0
ARC
  5
AC
330
A
100
AcDbEntity
  8
MGW7
  6
Continuous
 62
     4
100
AcDbCircle
 10
-71.89094621049081
 20
117.5702054077185
 30
0.0000000000000213
 40
0.3500000000000001
100
AcDbArc
 50
270.0
 51
450.0
  0
LINE
  5
AD
330
A
100
AcDbEntity
  8
MGW7
  6
Continuous
 62
     4
100
AcDbLine
 10
36.85905378950937
 20
143.4702054077185
 30
0.0
 11
17.25905378950938
 21
143.4702054077185
 31
0.0
  0
LINE
  5
AE
330
A
100
AcDbEntity
  8
MGW7
  6
Continuous
 62
     4
100
AcDbLine
 10
-43.1409462104906
 20
143.4702054077185
 30
0.0
 11
-43.1409462104906
 21
157.4702054077185
 31
0.0
  0
LINE
  5
AF
330
A
100
AcDbEntity
  8
MGW7
  6
Continuous
 62
     4
100
AcDbLine
 10
36.85905378950937
 20
143.4702054077185
 30
0.0
 11
36.85905378950937
 21
157.4702054077185
 31
0.0
  0
LINE
  5
B0
330
A
100
AcDbEntity
  8
MGW7
  6
Continuous
 62
     4
100
AcDbLine
 10
36.85905378950937
 20
157.4702054077185
 30
0.0
 11
17.25905378950937
 21
157.4702054077185
 31
0.0
  0
LINE
  5
B1
330
A
100
AcDbEntity
  8
MGW7
  6
Continuous
 62
     4
100
AcDbLine
 10
12.25905378950936
 20
162.9702054077186
 30
0.0
 11
12.25905378950938
 21
137.9702054077186
 31
0.0
  0
LINE
  5
B2
330
A
100
AcDbEntity
  8
MGW7
  6
Continuous
 62
     4
100
AcDbLine
 10
-18.54094621049063
 20
162.9702054077186
 30
0.0
 11
-18.54094621049061
 21
137.9702054077186
 31
0.0
  0
LINE
  5
B3
330
A
100
AcDbEntity
  8
MGW7
  6
Continuous
 62
     4
100
AcDbLine
 10
12.25905378950938
 20
137.9702054077186
 30
0.0
 11
-18.54094621049061
 21
137.9702054077186
 31
0.0
  0
LINE
  5
B4
330
A
100
AcDbEntity
  8
MGW7
  6
Continuous
 62
     4
100
AcDbLine
 10
12.25905378950936
 20
162.9702054077186
 30
0.0
 11
-18.54094621049063
 21
162.9702054077186
 31
0.0
  0
ARC
  5
B5
330
A
100
AcDbEntity
  8
MGW7
  6
Continuous
 62
   252
100
AcDbCircle
 10
-12.64094621049062
 20
140.9702054077186
 30
0.0000000000000142
 40
1.5
100
AcDbArc
 50
349.9999999999998
 51
640.0000000000001
  0
CIRCLE
  5
B6
330
A
100
AcDbEntity
  8
MGW7
  6
Continuous
 62
     4
100
AcDbCircle
 10
-12.64094621049062
 20
140.9702054077186
 30
0.0000000000000142
 40
1.25
  0
ARC
  5
B7
330
A
100
AcDbEntity
  8
MGW7
  6
Continuous
 62
   252
100
AcDbCircle
 10
-12.64094621049062
 20
159.9702054077186
 30
0.0000000000000142
 40
1.5
100
AcDbArc
 50
349.9999999999998
 51
640.0000000000001
  0
CIRCLE
  5
B8
330
A
100
AcDbEntity
  8
MGW7
  6
Continuous
 62
     4
100
AcDbCircle
 10
-12.64094621049062
 20
159.9702054077186
 30
0.0000000000000142
 40
1.25
  0
ARC
  5
B9
330
A
100
AcDbEntity
  8
MGW7
  6
Continuous
 62
   252
100
AcDbCircle
 10
6.359053789509374
 20
159.9702054077186
 30
0.0000000000000142
 40
1.5
100
AcDbArc
 50
349.9999999999998
 51
640.0000000000001
  0
CIRCLE
  5
BA
330
A
100
AcDbEntity
  8
MGW7
  6
Continuous
 62
     4
100
AcDbCircle
 10
6.359053789509374
 20
159.9702054077186
 30
0.0000000000000142
 40
1.25
  0
ARC
  5
BB
330
A
100
AcDbEntity
  8
MGW7
  6
Continuous
 62
   252
100
AcDbCircle
 10
6.359053789509374
 20
140.9702054077186
 30
0.0000000000000142
 40
1.5
100
AcDbArc
 50
349.9999999999998
 51
640.0000000000001
  0
CIRCLE
  5
BC
330
A
100
AcDbEntity
  8
MGW7
  6
Continuous
 62
     4
100
AcDbCircle
 10
6.359053789509374
 20
140.9702054077186
 30
0.0000000000000142
 40
1.25
  0
LINE
  5
BD
330
A
100
AcDbEntity
  8
MGW7
  6
CENTER
 62
   252
100
AcDbLine
 10
19.38405378950937
 20
150.4702054077186
 30
0.0
 11
-25.66594621049062
 21
150.4702054077186
 31
0.0
  0
LINE
  5
BE
330
A
100
AcDbEntity
  8
MGW7
  6
CENTER
 62
   252
100
AcDbLine
 10
-12.64094621049062
 20
139.1702054077186
 30
0.0
 11
-12.64094621049062
 21
142.7702054077186
 31
0.0
  0
LINE
  5
BF
330
A
100
AcDbEntity
  8
MGW7
  6
CENTER
 62
   252
100
AcDbLine
 10
-10.84094621049061
 20
140.9702054077186
 30
0.0
 11
-14.44094621049063
 21
140.9702054077186
 31
0.0
  0
LINE
  5
C0
330
A
100
AcDbEntity
  8
MGW7
  6
CENTER
 62
   252
100
AcDbLine
 10
6.359053789509374
 20
139.1702054077186
 30
0.0
 11
6.359053789509374
 21
142.7702054077186
 31
0.0
  0
LINE
  5
C1
330
A
100
AcDbEntity
  8
MGW7
  6
CENTER
 62
   252
100
AcDbLine
 10
6.359053789509374
 20
158.1702054077186
 30
0.0
 11
6.359053789509374
 21
161.7702054077185
 31
0.0
  0
LINE
  5
C2
330
A
100
AcDbEntity
  8
MGW7
  6
CENTER
 62
   252
100
AcDbLine
 10
8.159053789509385
 20
159.9702054077186
 30
0.0
 11
4.559053789509363
 21
159.9702054077186
 31
0.0
  0
LINE
  5
C3
330
A
100
AcDbEntity
  8
MGW7
  6
CENTER
 62
   252
100
AcDbLine
 10
-12.64094621049062
 20
158.1702054077186
 30
0.0
 11
-12.64094621049063
 21
161.7702054077185
 31
0.0
  0
LINE
  5
C4
330
A
100
AcDbEntity
  8
MGW7
  6
CENTER
 62
   252
100
AcDbLine
 10
-10.84094621049061
 20
159.9702054077186
 30
0.0
 11
-14.44094621049063
 21
159.9702054077186
 31
0.0
  0
LINE
  5
C5
330
A
100
AcDbEntity
  8
MGW7
  6
CENTER
 62
   252
100
AcDbLine
 10
8.159053789509385
 20
140.9702054077186
 30
0.0
 11
4.559053789509363
 21
140.9702054077186
 31
0.0
  0
LINE
  5
C6
330
A
100
AcDbEntity
  8
MGW7
  6
CENTER
 62
   252
100
AcDbLine
 10
-33.14094621049062
 20
154.2202054077185
 30
0.0
 11
-33.14094621049062
 21
146.7202054077185
 31
0.0
  0
LINE
  5
C7
330
A
100
AcDbEntity
  8
MGW7
  6
CENTER
 62
   252
100
AcDbLine
 10
-36.89094621049062
 20
150.4702054077186
 30
0.0
 11
-29.39094621049062
 21
150.4702054077186
 31
0.0
  0
CIRCLE
  5
C8
330
A
100
AcDbEntity
  8
MGW7
  6
Continuous
 62
     4
100
AcDbCircle
 10
-33.14094621049062
 20
150.4702054077186
 30
0.0000000000000142
 40
3.0
  0
CIRCLE
  5
C9
330
A
100
AcDbEntity
  8
MGW7
  6
Continuous
 62
     4
100
AcDbCircle
 10
-33.14094621049062
 20
150.4702054077186
 30
0.0000000000000142
 40
1.75
  0
LINE
  5
CA
330
A
100
AcDbEntity
  8
MGW7
  6
CENTER
 62
   252
100
AcDbLine
 10
-3.140946210490625
 20
113.4667038447934
 30
0.0
 11
-3.140946210490625
 21
119.6737069706436
 31
0.0
  0
LINE
  5
CB
330
A
100
AcDbEntity
  8
MGW7
  6
CENTER
 62
   252
100
AcDbLine
 10
26.85905378950937
 20
113.4667038447934
 30
0.0
 11
26.85905378950937
 21
119.6737069706436
 31
0.0
  0
LINE
  5
CC
330
A
100
AcDbEntity
  8
MGW7
  6
Continuous
 62
     4
100
AcDbLine
 10
-22.34094621049063
 20
162.7702054077186
 30
0.0
 11
-22.34094621049061
 21
138.1702054077185
 31
0.0
  0
LINE
  5
CD
330
A
100
AcDbEntity
  8
MGW7
  6
Continuous
 62
     4
100
AcDbLine
 10
16.05905378950936
 20
162.7702054077186
 30
0.0
 11
16.05905378950938
 21
138.1702054077185
 31
0.0
  0
LINE
  5
CE
330
A
100
AcDbEntity
  8
MGW7
  6
Continuous
 62
     4
100
AcDbLine
 10
-23.54094621049063
 20
162.6702054077186
 30
0.0
 11
-23.54094621049061
 21
138.2702054077185
 31
0.0
  0
LINE
  5
CF
330
A
100
AcDbEntity
  8
MGW7
  6
Continuous
 62
     4
100
AcDbLine
 10
17.25905378950936
 20
162.6702054077186
 30
0.0
 11
17.25905378950938
 21
138.2702054077185
 31
0.0
  0
LINE
  5
D0
330
A
100
AcDbEntity
  8
MGW7
  6
Continuous
 62
     4
100
AcDbLine
 10
-23.54094621049061
 20
157.4702054077185
 30
0.0
 11
-43.1409462104906
 21
157.4702054077185
 31
0.0
  0
LINE
  5
D1
330
A
100
AcDbEntity
  8
MGW7
  6
Continuous
 62
     4
100
AcDbLine
 10
-23.5409462104906
 20
143.4702054077185
 30
0.0
 11
-43.14094621049059
 21
143.4702054077185
 31
0.0
  0
LINE
  5
D2
330
A
100
AcDbEntity
  8
MGW7
  6
Continuous
 62
     4
100
AcDbLine
 10
-18.54094621049061
 20
138.1702054077185
 30
0.0
 11
-22.34094621049061
 21
138.1702054077185
 31
0.0
  0
LINE
  5
D3
330
A
100
AcDbEntity
  8
MGW7
  6
Continuous
 62
     4
100
AcDbLine
 10
-22.34094621049061
 20
138.2702054077185
 30
0.0
 11
-23.54094621049061
 21
138.2702054077185
 31
0.0
  0
LINE
  5
D4
330
A
100
AcDbEntity
  8
MGW7
  6
Continuous
 62
     4
100
AcDbLine
 10
-18.54094621049061
 20
162.7702054077186
 30
0.0
 11
-22.34094621049063
 21
162.7702054077186
 31
0.0
  0
LINE
  5
D5
330
A
100
AcDbEntity
  8
MGW7
  6
Continuous
 62
     4
100
AcDbLine
 10
-22.34094621049061
 20
162.6702054077186
 30
0.0
 11
-23.54094621049063
 21
162.6702054077186
 31
0.0
  0
LINE
  5
D6
330
A
100
AcDbEntity
  8
MGW7
  6
Continuous
 62
     4
100
AcDbLine
 10
12.25905378950935
 20
138.1702054077185
 30
0.0
 11
16.05905378950938
 21
138.1702054077185
 31
0.0
  0
LINE
  5
D7
330
A
100
AcDbEntity
  8
MGW7
  6
Continuous
 62
     4
100
AcDbLine
 10
16.05905378950934
 20
138.2702054077185
 30
0.0
 11
17.25905378950938
 21
138.2702054077185
 31
0.0
  0
LINE
  5
D8
330
A
100
AcDbEntity
  8
MGW7
  6
Continuous
 62
     4
100
AcDbLine
 10
12.25905378950935
 20
162.7702054077186
 30
0.0
 11
16.05905378950936
 21
162.7702054077186
 31
0.0
  0
LINE
  5
D9
330
A
100
AcDbEntity
  8
MGW7
  6
Continuous
 62
     4
100
AcDbLine
 10
16.05905378950934
 20
162.6702054077186
 30
0.0
 11
17.25905378950936
 21
162.6702054077186
 31
0.0
  0
LINE
  5
DA
330
A
100
AcDbEntity
  8
MGW7
  6
CENTER
 62
   252
100
AcDbLine
 10
26.85905378950937
 20
154.2202054077185
 30
0.0
 11
26.85905378950937
 21
146.7202054077185
 31
0.0
  0
LINE
  5
DB
330
A
100
AcDbEntity
  8
MGW7
  6
CENTER
 62
   252
100
AcDbLine
 10
23.10905378950937
 20
150.4702054077186
 30
0.0
 11
30.60905378950938
 21
150.4702054077186
 31
0.0
  0
CIRCLE
  5
DC
330
A
100
AcDbEntity
  8
MGW7
  6
Continuous
 62
     4
100
AcDbCircle
 10
26.85905378950937
 20
150.4702054077186
 30
0.0000000000000142
 40
3.0
  0
CIRCLE
  5
DD
330
A
100
AcDbEntity
  8
MGW7
  6
Continuous
 62
     4
100
AcDbCircle
 10
26.85905378950937
 20
150.4702054077186
 30
0.0000000000000142
 40
1.75
  0
LINE
  5
DE
330
A
100
AcDbEntity
  8
MGW7
  6
Continuous
 62
     4
100
AcDbLine
 10
-23.54094621049061
 20
115.8702054077185
 30
0.0
 11
-23.54094621049061
 21
122.6702054077185
 31
0.0
  0
LINE
  5
DF
330
A
100
AcDbEntity
  8
MGW7
  6
Continuous
 62
     4
100
AcDbLine
 10
-22.34094621049061
 20
115.8702054077185
 30
0.0
 11
-22.34094621049061
 21
122.7702054077185
 31
0.0
  0
LINE
  5
E0
330
A
100
AcDbEntity
  8
MGW7
  6
Continuous
 62
     4
100
AcDbLine
 10
-18.54094621049061
 20
115.8702054077185
 30
0.0
 11
-18.54094621049061
 21
122.9702054077185
 31
0.0
  0
LINE
  5
E1
330
A
100
AcDbEntity
  8
MGW7
  6
Continuous
 62
     4
100
AcDbLine
 10
12.25905378950938
 20
115.8702054077185
 30
0.0
 11
12.25905378950938
 21
122.9702054077185
 31
0.0
  0
LINE
  5
E2
330
A
100
AcDbEntity
  8
MGW7
  6
Continuous
 62
     4
100
AcDbLine
 10
16.05905378950938
 20
115.8702054077185
 30
0.0
 11
16.05905378950938
 21
122.7702054077185
 31
0.0
  0
LINE
  5
E3
330
A
100
AcDbEntity
  8
MGW7
  6
Continuous
 62
     4
100
AcDbLine
 10
17.25905378950938
 20
115.8702054077185
 30
0.0
 11
17.25905378950938
 21
122.6702054077185
 31
0.0
  0
LINE
  5
E4
330
A
100
AcDbEntity
  8
MGW7
  6
Continuous
 62
     4
100
AcDbLine
 10
12.25905378950938
 20
122.9702054077185
 30
0.0
 11
-18.54094621049061
 21
122.9702054077185
 31
0.0
  0
LINE
  5
E5
330
A
100
AcDbEntity
  8
MGW7
  6
Continuous
 62
     4
100
AcDbLine
 10
17.25905378950938
 20
115.8702054077185
 30
0.0
 11
-23.54094621049061
 21
115.8702054077185
 31
0.0
  0
LINE
  5
E6
330
A
100
AcDbEntity
  8
MGW7
  6
Continuous
 62
     4
100
AcDbLine
 10
-23.5409462104906
 20
119.1702054077185
 30
0.0
 11
-43.14094621049062
 21
119.1702054077185
 31
0.0
  0
LINE
  5
E7
330
A
100
AcDbEntity
  8
MGW7
  6
Continuous
 62
     4
100
AcDbLine
 10
-23.5409462104906
 20
118.5702054077185
 30
0.0
 11
-43.14094621049064
 21
118.5702054077185
 31
0.0
  0
LINE
  5
E8
330
A
100
AcDbEntity
  8
MGW7
  6
Continuous
 62
     4
100
AcDbLine
 10
-23.5409462104906
 20
118.1886712515612
 30
0.0
 11
-43.14094621049064
 21
118.1886712515612
 31
0.0
  0
LINE
  5
E9
330
A
100
AcDbEntity
  8
MGW7
  6
Continuous
 62
     4
100
AcDbLine
 10
-23.5409462104906
 20
116.9517395638759
 30
0.0
 11
-43.14094621049062
 21
116.9517395638759
 31
0.0
  0
LINE
  5
EA
330
A
100
AcDbEntity
  8
MGW7
  6
Continuous
 62
     4
100
AcDbLine
 10
-18.54094621049061
 20
122.7702054077185
 30
0.0
 11
-22.34094621049061
 21
122.7702054077185
 31
0.0
  0
LINE
  5
EB
330
A
100
AcDbEntity
  8
MGW7
  6
Continuous
 62
     4
100
AcDbLine
 10
-22.34094621049061
 20
122.6702054077185
 30
0.0
 11
-23.54094621049061
 21
122.6702054077185
 31
0.0
  0
LINE
  5
EC
330
A
100
AcDbEntity
  8
MGW7
  6
Continuous
 62
     4
100
AcDbLine
 10
12.25905378950938
 20
122.7702054077185
 30
0.0
 11
16.05905378950938
 21
122.7702054077185
 31
0.0
  0
LINE
  5
ED
330
A
100
AcDbEntity
  8
MGW7
  6
Continuous
 62
     4
100
AcDbLine
 10
16.05905378950937
 20
122.6702054077185
 30
0.0
 11
17.25905378950938
 21
122.6702054077185
 31
0.0
  0
LINE
  5
EE
330
A
100
AcDbEntity
  8
MGW7
  6
DASHED
 62
   252
100
AcDbLine
 10
-14.44094621049055
 20
122.9702054077185
 30
0.0
 11
-14.14094621049048
 21
122.6702054077185
 31
0.0
  0
LINE
  5
EF
330
A
100
AcDbEntity
  8
MGW7
  6
Continuous
 62
   252
100
AcDbLine
 10
-12.64094621049059
 20
122.9702054077185
 30
0.0
 11
-12.64094621049054
 21
122.9702054077185
 31
-0.0004999999999882
  0
LINE
  5
F0
330
A
100
AcDbEntity
  8
MGW7
  6
CENTER
 62
   252
100
AcDbLine
 10
-12.64094621049056
 20
123.4702054077185
 30
0.0
 11
-12.64094621049048
 21
117.9985175712315
 31
0.0
  0
LINE
  5
F1
330
A
100
AcDbEntity
  8
MGW7
  6
DASHED
 62
   252
100
AcDbLine
 10
-11.14094621049051
 20
122.6702054077185
 30
0.0
 11
-11.14094621049051
 21
119.9702054077185
 31
0.0
  0
LINE
  5
F2
330
A
100
AcDbEntity
  8
MGW7
  6
DASHED
 62
   252
100
AcDbLine
 10
-14.14094621049048
 20
122.6702054077185
 30
0.0
 11
-14.14094621049054
 21
119.9702054077185
 31
0.0
  0
LINE
  5
F3
330
A
100
AcDbEntity
  8
MGW7
  6
DASHED
 62
   252
100
AcDbLine
 10
-11.14094621049051
 20
119.9702054077185
 30
0.0
 11
-14.14094621049054
 21
119.9702054077185
 31
0.0
  0
LINE
  5
F4
330
A
100
AcDbEntity
  8
MGW7
  6
DASHED
 62
   252
100
AcDbLine
 10
-11.39094621049051
 20
122.6702054077185
 30
0.0
 11
-11.39094621049051
 21
119.1702054077185
 31
0.0
  0
LINE
  5
F5
330
A
100
AcDbEntity
  8
MGW7
  6
DASHED
 62
   252
100
AcDbLine
 10
-13.89094621049048
 20
122.6702054077185
 30
0.0
 11
-13.89094621049054
 21
119.1702054077185
 31
0.0
  0
LINE
  5
F6
330
A
100
AcDbEntity
  8
MGW7
  6
DASHED
 62
   252
100
AcDbLine
 10
-11.39094621049051
 20
119.1702054077185
 30
0.0
 11
-13.89094621049054
 21
119.1702054077185
 31
0.0
  0
LINE
  5
F7
330
A
100
AcDbEntity
  8
MGW7
  6
DASHED
 62
   252
100
AcDbLine
 10
-11.39094621049051
 20
119.1702054077185
 30
0.0
 11
-12.64094621049054
 21
118.4485175712315
 31
0.0
  0
LINE
  5
F8
330
A
100
AcDbEntity
  8
MGW7
  6
DASHED
 62
   252
100
AcDbLine
 10
-13.89094621049054
 20
119.1702054077185
 30
0.0
 11
-12.64094621049054
 21
118.4485175712315
 31
0.0
  0
LINE
  5
F9
330
A
100
AcDbEntity
  8
MGW7
  6
DASHED
 62
   252
100
AcDbLine
 10
-10.84094621049058
 20
122.9702054077185
 30
0.0
 11
-11.14094621049051
 21
122.6702054077185
 31
0.0
  0
LINE
  5
FA
330
A
100
AcDbEntity
  8
MGW7
  6
DASHED
 62
   252
100
AcDbLine
 10
-11.14094621049051
 20
122.6702054077185
 30
0.0
 11
-14.14094621049048
 21
122.6702054077185
 31
0.0
  0
LINE
  5
FB
330
A
100
AcDbEntity
  8
MGW7
  6
CENTER
 62
   252
100
AcDbLine
 10
6.359053789509431
 20
123.4702054077185
 30
0.0
 11
6.359053789509516
 21
117.9985175712315
 31
0.0
  0
LINE
  5
FC
330
A
100
AcDbEntity
  8
ES
  6
Continuous
 62
     4
100
AcDbLine
 10
-74.03464500922287
 20
121.059349321461
 30
0.0
 11
-74.44094621049074
 21
120.6530481201932
 31
0.0
  0
LINE
  5
FD
330
A
100
AcDbEntity
  8
ES
  6
Continuous
 62
     4
100
AcDbLine
 10
-73.75180229674824
 20
120.7765066089864
 30
0.0
 11
-74.15810349801612
 21
120.3702054077185
 31
0.0
  0
LINE
  5
FE
330
A
100
AcDbEntity
  8
ES
  6
Continuous
 62
     4
100
AcDbLine
 10
-74.84724741175859
 20
121.059349321461
 30
0.0
 11
-74.44094621049074
 21
120.6530481201932
 31
0.0
  0
LINE
  5
FF
330
A
100
AcDbEntity
  8
ES
  6
Continuous
 62
     4
100
AcDbLine
 10
-75.13009012423322
 20
120.7765066089864
 30
0.0
 11
-74.72378892296538
 21
120.3702054077185
 31
0.0
  0
LINE
  5
100
330
A
100
AcDbEntity
  8
ES
  6
Continuous
 62
     4
100
AcDbLine
 10
-74.15810349801612
 20
120.3702054077185
 30
0.0
 11
-73.75180229674824
 21
119.9639042064507
 31
0.0
  0
LINE
  5
101
330
A
100
AcDbEntity
  8
ES
  6
Continuous
 62
     4
100
AcDbLine
 10
-74.44094621049072
 20
120.0873626952439
 30
0.0
 11
-74.03464500922289
 21
119.6810614939761
 31
0.0
  0
LINE
  5
102
330
A
100
AcDbEntity
  8
ES
  6
Continuous
 62
     4
100
AcDbLine
 10
-74.44094621049072
 20
120.0873626952439
 30
0.0
 11
-74.84724741175857
 21
119.6810614939761
 31
0.0
  0
LINE
  5
103
330
A
100
AcDbEntity
  8
ES
  6
Continuous
 62
     4
100
AcDbLine
 10
-74.72378892296538
 20
120.3702054077185
 30
0.0
 11
-75.13009012423321
 21
119.9639042064507
 31
0.0
  0
CIRCLE
  5
104
330
A
100
AcDbEntity
  8
ES
  6
Continuous
 62
     4
100
AcDbCircle
 10
-74.44094621049072
 20
120.3702054077185
 30
0.0
 40
1.25
  0
ARC
  5
105
330
A
100
AcDbEntity
  8
ES
  6
Continuous
 62
     4
100
AcDbCircle
 10
-74.44094621049072
 20
120.3702054077185
 30
0.0
 40
0.8
100
AcDbArc
 50
300.5224878140681
 51
329.47751218593
  0
ARC
  5
106
330
A
100
AcDbEntity
  8
ES
  6
Continuous
 62
     4
100
AcDbCircle
 10
-74.44094621049072
 20
120.3702054077185
 30
0.0
 40
0.8
100
AcDbArc
 50
210.5224878140688
 51
239.47751218593
  0
ARC
  5
107
330
A
100
AcDbEntity
  8
ES
  6
Continuous
 62
     4
100
AcDbCircle
 10
-74.44094621049072
 20
120.3702054077185
 30
0.0
 40
0.8
100
AcDbArc
 50
30.52248781406993
 51
59.47751218593077
  0
ARC
  5
108
330
A
100
AcDbEntity
  8
ES
  6
Continuous
 62
     4
100
AcDbCircle
 10
-74.44094621049072
 20
120.3702054077185
 30
0.0
 40
0.8
100
AcDbArc
 50
120.5224878140706
 51
149.4775121859318
  0
LINE
  5
109
330
A
100
AcDbEntity
  8
ES
  6
Continuous
 62
     4
100
AcDbLine
 10
-56.43464500922288
 20
121.059349321461
 30
0.0
 11
-56.84094621049074
 21
120.6530481201932
 31
0.0
  0
LINE
  5
10A
330
A
100
AcDbEntity
  8
ES
  6
Continuous
 62
     4
100
AcDbLine
 10
-56.15180229674824
 20
120.7765066089864
 30
0.0
 11
-56.55810349801612
 21
120.3702054077185
 31
0.0
  0
LINE
  5
10B
330
A
100
AcDbEntity
  8
ES
  6
Continuous
 62
     4
100
AcDbLine
 10
-57.24724741175859
 20
121.059349321461
 30
0.0
 11
-56.84094621049074
 21
120.6530481201932
 31
0.0
  0
LINE
  5
10C
330
A
100
AcDbEntity
  8
ES
  6
Continuous
 62
     4
100
AcDbLine
 10
-57.53009012423323
 20
120.7765066089864
 30
0.0
 11
-57.12378892296539
 21
120.3702054077185
 31
0.0
  0
LINE
  5
10D
330
A
100
AcDbEntity
  8
ES
  6
Continuous
 62
     4
100
AcDbLine
 10
-56.55810349801612
 20
120.3702054077185
 30
0.0
 11
-56.15180229674824
 21
119.9639042064507
 31
0.0
  0
LINE
  5
10E
330
A
100
AcDbEntity
  8
ES
  6
Continuous
 62
     4
100
AcDbLine
 10
-56.84094621049073
 20
120.0873626952439
 30
0.0
 11
-56.43464500922289
 21
119.6810614939761
 31
0.0
  0
LINE
  5
10F
330
A
100
AcDbEntity
  8
ES
  6
Continuous
 62
     4
100
AcDbLine
 10
-56.84094621049073
 20
120.0873626952439
 30
0.0
 11
-57.24724741175858
 21
119.6810614939761
 31
0.0
  0
LINE
  5
110
330
A
100
AcDbEntity
  8
ES
  6
Continuous
 62
     4
100
AcDbLine
 10
-57.12378892296539
 20
120.3702054077185
 30
0.0
 11
-57.53009012423321
 21
119.9639042064507
 31
0.0
  0
CIRCLE
  5
111
330
A
100
AcDbEntity
  8
ES
  6
Continuous
 62
     4
100
AcDbCircle
 10
-56.84094621049073
 20
120.3702054077185
 30
0.0
 40
1.25
  0
ARC
  5
112
330
A
100
AcDbEntity
  8
ES
  6
Continuous
 62
     4
100
AcDbCircle
 10
-56.84094621049073
 20
120.3702054077185
 30
0.0
 40
0.8
100
AcDbArc
 50
300.5224878140684
 51
329.47751218593
  0
ARC
  5
113
330
A
100
AcDbEntity
  8
ES
  6
Continuous
 62
     4
100
AcDbCircle
 10
-56.84094621049073
 20
120.3702054077185
 30
0.0
 40
0.8
100
AcDbArc
 50
210.5224878140688
 51
239.4775121859297
  0
ARC
  5
114
330
A
100
AcDbEntity
  8
ES
  6
Continuous
 62
     4
100
AcDbCircle
 10
-56.84094621049073
 20
120.3702054077185
 30
0.0
 40
0.8
100
AcDbArc
 50
30.52248781406993
 51
59.47751218593041
  0
ARC
  5
115
330
A
100
AcDbEntity
  8
ES
  6
Continuous
 62
     4
100
AcDbCircle
 10
-56.84094621049073
 20
120.3702054077185
 30
0.0
 40
0.8
100
AcDbArc
 50
120.5224878140706
 51
149.477512185932
  0
LINE
  5
116
330
A
100
AcDbEntity
  8
MGW7
  6
Continuous
 62
     4
100
AcDbLine
 10
17.35905378950938
 20
120.1202054077185
 30
0.0
 11
17.35905378950938
 21
120.6202054077185
 31
0.0
  0
ARC
  5
117
330
A
100
AcDbEntity
  8
MGW7
  6
Continuous
 62
     4
100
AcDbCircle
 10
16.35905378950938
 20
120.6202054077185
 30
0.0
 40
1.0
100
AcDbArc
 50
0.0
 51
25.84193276316681
  0
ARC
  5
118
330
A
100
AcDbEntity
  8
MGW7
  6
Continuous
 62
     4
100
AcDbCircle
 10
16.35905378950938
 20
120.1202054077185
 30
0.0
 40
1.0
100
AcDbArc
 50
334.1580672368331
 51
360.0
  0
LINE
  5
119
330
A
100
AcDbEntity
  8
MGW7
  6
Continuous
 62
     4
100
AcDbLine
 10
17.35905378950938
 20
141.4202054077186
 30
0.0
 11
17.35905378950938
 21
141.9202054077186
 31
0.0
  0
ARC
  5
11A
330
A
100
AcDbEntity
  8
MGW7
  6
Continuous
 62
     4
100
AcDbCircle
 10
16.35905378950938
 20
141.9202054077186
 30
0.0
 40
1.0
100
AcDbArc
 50
0.0
 51
25.84193276316681
  0
ARC
  5
11B
330
A
100
AcDbEntity
  8
MGW7
  6
Continuous
 62
     4
100
AcDbCircle
 10
16.35905378950938
 20
141.4202054077186
 30
0.0
 40
1.0
100
AcDbArc
 50
334.1580672368331
 51
360.0
  0
LINE
  5
11C
330
A
100
AcDbEntity
  8
MGW7
  6
Continuous
 62
     4
100
AcDbLine
 10
17.35905378950938
 20
159.5202054077185
 30
0.0
 11
17.35905378950938
 21
159.0202054077185
 31
0.0
  0
ARC
  5
11D
330
A
100
AcDbEntity
  8
MGW7
  6
Continuous
 62
     4
100
AcDbCircle
 10
16.35905378950938
 20
159.0202054077185
 30
0.0
 40
1.0
100
AcDbArc
 50
334.1580672368331
 51
360.0
  0
ARC
  5
11E
330
A
100
AcDbEntity
  8
MGW7
  6
Continuous
 62
     4
100
AcDbCircle
 10
16.35905378950938
 20
159.5202054077185
 30
0.0
 40
1.0
100
AcDbArc
 50
0.0
 51
25.84193276316681
  0
LINE
  5
11F
330
A
100
AcDbEntity
  8
MGW7
  6
Continuous
 62
     4
100
AcDbLine
 10
-23.64094621049064
 20
120.1202054077185
 30
0.0
 11
-23.64094621049064
 21
120.6202054077185
 31
0.0
  0
ARC
  5
120
330
A
100
AcDbEntity
  8
MGW7
  6
Continuous
 62
     4
100
AcDbCircle
 10
-22.64094621049064
 20
120.6202054077185
 30
0.0
 40
1.0
100
AcDbArc
 50
154.1580672368331
 51
180.0
  0
ARC
  5
121
330
A
100
AcDbEntity
  8
MGW7
  6
Continuous
 62
     4
100
AcDbCircle
 10
-22.64094621049064
 20
120.1202054077185
 30
0.0
 40
1.0
100
AcDbArc
 50
180.0
 51
205.8419327631668
  0
LINE
  5
122
330
A
100
AcDbEntity
  8
MGW7
  6
Continuous
 62
     4
100
AcDbLine
 10
-23.64094621049064
 20
141.4202054077186
 30
0.0
 11
-23.64094621049064
 21
141.9202054077186
 31
0.0
  0
ARC
  5
123
330
A
100
AcDbEntity
  8
MGW7
  6
Continuous
 62
     4
100
AcDbCircle
 10
-22.64094621049064
 20
141.9202054077186
 30
0.0
 40
1.0
100
AcDbArc
 50
154.1580672368331
 51
180.0
  0
ARC
  5
124
330
A
100
AcDbEntity
  8
MGW7
  6
Continuous
 62
     4
100
AcDbCircle
 10
-22.64094621049064
 20
141.4202054077186
 30
0.0
 40
1.0
100
AcDbArc
 50
180.0
 51
205.8419327631668
  0
LINE
  5
125
330
A
100
AcDbEntity
  8
MGW7
  6
Continuous
 62
     4
100
AcDbLine
 10
-23.64094621049064
 20
159.5202054077185
 30
0.0
 11
-23.64094621049064
 21
159.0202054077185
 31
0.0
  0
ARC
  5
126
330
A
100
AcDbEntity
  8
MGW7
  6
Continuous
 62
     4
100
AcDbCircle
 10
-22.64094621049064
 20
159.0202054077185
 30
0.0
 40
1.0
100
AcDbArc
 50
180.0
 51
205.8419327631668
  0
ARC
  5
127
330
A
100
AcDbEntity
  8
MGW7
  6
Continuous
 62
     4
100
AcDbCircle
 10
-22.64094621049064
 20
159.5202054077185
 30
0.0
 40
1.0
100
AcDbArc
 50
154.1580672368331
 51
180.0
  0
ARC
  5
128
330
A
100
AcDbEntity
  8
MGW7
  6
Continuous
 62
     4
100
AcDbCircle
 10
-73.00458582049083
 20
117.5702054077185
 30
0.0
 40
0.8
100
AcDbArc
 50
301.0078241343951
 51
330.0000000000009
  0
ARC
  5
129
330
A
100
AcDbEntity
  8
MGW7
  6
Continuous
 62
     4
100
AcDbCircle
 10
-73.00458582049083
 20
117.5702054077185
 30
0.0
 40
0.8
100
AcDbArc
 50
29.99999999999832
 51
58.99217586560443
  0
ARC
  5
12A
330
A
100
AcDbEntity
  8
MGW7
  6
Continuous
 62
     4
100
AcDbCircle
 10
-72.54094621049074
 20
118.3415926723522
 30
0.0
 40
0.1
100
AcDbArc
 50
180.0000000000162
 51
238.9921758655983
  0
ARC
  5
12B
330
A
100
AcDbEntity
  8
MGW7
  6
Continuous
 62
     4
100
AcDbCircle
 10
-72.22516295708482
 20
118.0202054077185
 30
0.0
 40
0.1
100
AcDbArc
 50
209.9999999999895
 51
270.0
  0
ARC
  5
12C
330
A
100
AcDbEntity
  8
MGW7
  6
Continuous
 62
     4
100
AcDbCircle
 10
-72.22516295708482
 20
117.1202054077186
 30
0.0
 40
0.1
100
AcDbArc
 50
89.99999999999186
 51
149.9999999999991
  0
ARC
  5
12D
330
A
100
AcDbEntity
  8
MGW7
  6
Continuous
 62
     4
100
AcDbCircle
 10
-72.54094621049077
 20
116.7988181430849
 30
0.0
 40
0.1
100
AcDbArc
 50
121.0078241343861
 51
180.0000000000081
  0
ARC
  5
12E
330
A
100
AcDbEntity
  8
MGW7
  6
Continuous
 62
     4
100
AcDbCircle
 10
-58.27730660049062
 20
117.5702054077185
 30
0.0
 40
0.8
100
AcDbArc
 50
209.9999999999983
 51
238.9921758656051
  0
ARC
  5
12F
330
A
100
AcDbEntity
  8
MGW7
  6
Continuous
 62
     4
100
AcDbCircle
 10
-58.27730660049062
 20
117.5702054077185
 30
0.0
 40
0.8
100
AcDbArc
 50
121.0078241343955
 51
150.0000000000019
  0
ARC
  5
130
330
A
100
AcDbEntity
  8
MGW7
  6
Continuous
 62
     4
100
AcDbCircle
 10
-58.74094621049071
 20
118.3415926723522
 30
0.0
 40
0.1
100
AcDbArc
 50
301.0078241344014
 51
359.9999999999837
  0
ARC
  5
131
330
A
100
AcDbEntity
  8
MGW7
  6
Continuous
 62
     4
100
AcDbCircle
 10
-59.05672946389663
 20
118.0202054077185
 30
0.0
 40
0.1
100
AcDbArc
 50
270.0
 51
330.0000000000102
  0
ARC
  5
132
330
A
100
AcDbEntity
  8
MGW7
  6
Continuous
 62
     4
100
AcDbCircle
 10
-59.05672946389663
 20
117.1202054077186
 30
0.0
 40
0.1
100
AcDbArc
 50
30.00000000000084
 51
90.00000000000815
  0
ARC
  5
133
330
A
100
AcDbEntity
  8
MGW7
  6
Continuous
 62
     4
100
AcDbCircle
 10
-58.74094621049067
 20
116.7988181430849
 30
0.0
 40
0.1
100
AcDbArc
 50
359.9999999999918
 51
418.9921758656135
  0
ENDSEC
  0
SECTION
  2
OBJECTS
  0
DICTIONARY
  5
19
330
0
100
AcDbDictionary
281
     1
  3
ACAD_GROUP
350
1A
  3
ACAD_LAYOUT
350
13F
  3
ACAD_MLINESTYLE
350
1B
  3
ACAD_PLOTSETTINGS
350
140
  3
ACAD_PLOTSTYLENAME
350
13D
  0
DICTIONARY
  5
1A
102
{ACAD_REACTORS
330
19
102
}
330
19
100
AcDbDictionary
281
     1
  0
DICTIONARY
  5
13F
102
{ACAD_REACTORS
330
19
102
}
330
19
100
AcDbDictionary
281
     1
  3
Layout1
350
142
  3
Model
350
141
  0
DICTIONARY
  5
1B
102
{ACAD_REACTORS
330
19
102
}
330
19
100
AcDbDictionary
281
     1
  3
STANDARD
350
1C
  0
DICTIONARY
  5
140
102
{ACAD_REACTORS
330
19
102
}
330
19
100
AcDbDictionary
281
     1
  0
ACDBDICTIONARYWDFLT
  5
13D
102
{ACAD_REACTORS
330
19
102
}
330
19
100
AcDbDictionary
281
     1
  3
Normal
350
13E
100
AcDbDictionaryWithDefault
340
13E
  0
LAYOUT
  5
142
102
{ACAD_REACTORS
330
13F
102
}
330
13F
100
AcDbPlotSettings
  1

  2
HPLJ2100_Technik_S3
  4

  6

 40
0.0
 41
0.0
 42
0.0
 43
0.0
 44
0.0
 45
0.0
 46
0.0
 47
0.0
 48
0.0
 49
0.0
140
0.0
141
0.0
142
1.0
143
1.0
 70
   688
 72
     0
 73
     0
 74
     5
  7

 75
    16
147
1.0
148
0.0
149
0.0
100
AcDbLayout
  1
Layout1
 70
     0
 71
     1
 10
0.0
 20
0.0
 11
12.0
 21
9.0
 12
0.0
 22
0.0
 32
0.0
 14
1.000000000000000E+20
 24
1.000000000000000E+20
 34
1.000000000000000E+20
 15
-1.000000000000000E+20
 25
-1.000000000000000E+20
 35
-1.000000000000000E+20
146
0.0
 13
0.0
 23
0.0
 33
0.0
 16
1.0
 26
0.0
 36
0.0
 17
0.0
 27
1.0
 37
0.0
 76
     0
330
B
  0
LAYOUT
  5
141
102
{ACAD_REACTORS
330
13F
102
}
330
13F
100
AcDbPlotSettings
  1

  2
HPLJ2100_Technik_S3
  4

  6

 40
0.0
 41
0.0
 42
0.0
 43
0.0
 44
0.0
 45
0.0
 46
0.0
 47
0.0
 48
0.0
 49
0.0
140
0.0
141
0.0
142
1.0
143
1.0
 70
  1712
 72
     0
 73
     0
 74
     0
  7

 75
     0
147
1.0
148
0.0
149
0.0
100
AcDbLayout
  1
Model
 70
     1
 71
     0
 10
0.0
 20
0.0
 11
12.0
 21
9.0
 12
0.0
 22
0.0
 32
0.0
 14
0.0
 24
0.0
 34
0.0
 15
0.0
 25
0.0
 35
0.0
146
0.0
 13
0.0
 23
0.0
 33
0.0
 16
1.0
 26
0.0
 36
0.0
 17
0.0
 27
1.0
 37
0.0
 76
     0
330
A
  0
MLINESTYLE
  5
1C
102
{ACAD_REACTORS
330
1B
102
}
330
1B
100
AcDbMlineStyle
  2
STANDARD
 70
     0
  3

 62
     0
 51
90.00000000000019
 52
90.00000000000019
 71
     2
 49
0.5
 62
   256
  6
BYLAYER
 49
-0.5
 62
   256
  6
BYLAYER
  0
ACDBPLACEHOLDER
  5
13E
102
{ACAD_REACTORS
330
13D
102
}
330
13D
  0
ENDSEC
  0
EOF
