  0
SECTION
  2
HEADER
  9
$ACADVER
  1
AC1015
  9
$ACADMAINTVER
 70
    10
  9
$DWGCODEPAGE
  3
ANSI_1252
  9
$INSBASE
 10
0.0
 20
0.0
 30
0.0
  9
$EXTMIN
 10
-81.69615416534293
 20
111.4631223776766
 30
-0.0000000000000323
  9
$EXTMAX
 10
78.30384583465712
 20
181.4326589080603
 30
0.0000000000000104
  9
$LIMMIN
 10
0.0
 20
0.0
  9
$LIMMAX
 10
0.0
 20
0.0
  9
$ORTHOMODE
 70
     0
  9
$REGENMODE
 70
     1
  9
$FILLMODE
 70
     1
  9
$QTEXTMODE
 70
     0
  9
$MIRRTEXT
 70
     1
  9
$LTSCALE
 40
1.0
  9
$ATTMODE
 70
     1
  9
$TEXTSIZE
 40
0.0
  9
$TRACEWID
 40
0.05
  9
$TEXTSTYLE
  7
STANDARD
  9
$CLAYER
  8
0
  9
$CELTYPE
  6
CONTINUOUS
  9
$CECOLOR
 62
    15
  9
$CELTSCALE
 40
1.0
  9
$DISPSILH
 70
     0
  9
$DIMSCALE
 40
1.0
  9
$DIMASZ
 40
0.18
  9
$DIMEXO
 40
0.0625
  9
$DIMDLI
 40
0.38
  9
$DIMRND
 40
0.0
  9
$DIMDLE
 40
0.0
  9
$DIMEXE
 40
0.25
  9
$DIMTP
 40
0.05
  9
$DIMTM
 40
-0.05
  9
$DIMTXT
 40
2.5
  9
$DIMCEN
 40
0.09
  9
$DIMTSZ
 40
0.0
  9
$DIMTOL
 70
     0
  9
$DIMLIM
 70
     0
  9
$DIMTIH
 70
     1
  9
$DIMTOH
 70
     1
  9
$DIMSE1
 70
     0
  9
$DIMSE2
 70
     0
  9
$DIMTAD
 70
     0
  9
$DIMZIN
 70
     0
  9
$DIMBLK
  1

  9
$DIMASO
 70
     1
  9
$DIMSHO
 70
     1
  9
$DIMPOST
  1

  9
$DIMAPOST
  1

  9
$DIMALT
 70
     0
  9
$DIMALTD
 70
     2
  9
$DIMALTF
 40
25.4
  9
$DIMLFAC
 40
1.0
  9
$DIMTOFL
 70
     0
  9
$DIMTVP
 40
0.0
  9
$DIMTIX
 70
     0
  9
$DIMSOXD
 70
     0
  9
$DIMSAH
 70
     0
  9
$DIMBLK1
  1

  9
$DIMBLK2
  1

  9
$DIMSTYLE
  2
STANDARD
  9
$DIMCLRD
 70
     0
  9
$DIMCLRE
 70
     0
  9
$DIMCLRT
 70
    15
  9
$DIMTFAC
 40
0.7000000000000001
  9
$DIMGAP
 40
0.09
  9
$DIMJUST
 70
     0
  9
$DIMSD1
 70
     0
  9
$DIMSD2
 70
     0
  9
$DIMTOLJ
 70
     1
  9
$DIMTZIN
 70
     0
  9
$DIMALTZ
 70
     0
  9
$DIMALTTZ
 70
     0
  9
$DIMUPT
 70
     0
  9
$DIMDEC
 70
     4
  9
$DIMTDEC
 70
     4
  9
$DIMALTU
 70
     2
  9
$DIMALTTD
 70
     2
  9
$DIMTXSTY
  7
STANDARD
  9
$DIMAUNIT
 70
     0
  9
$DIMADEC
 70
     0
  9
$DIMALTRND
 40
0.0
  9
$DIMAZIN
 70
     0
  9
$DIMDSEP
 70
    46
  9
$DIMATFIT
 70
     3
  9
$DIMFRAC
 70
     0
  9
$DIMLDRBLK
  1

  9
$DIMLUNIT
 70
     2
  9
$DIMLWD
 70
    -2
  9
$DIMLWE
 70
    -2
  9
$DIMTMOVE
 70
     0
  9
$LUNITS
 70
     2
  9
$LUPREC
 70
    10
  9
$SKETCHINC
 40
0.1
  9
$FILLETRAD
 40
0.0
  9
$AUNITS
 70
     0
  9
$AUPREC
 70
     0
  9
$MENU
  1
acad
  9
$ELEVATION
 40
0.0
  9
$PELEVATION
 40
0.0
  9
$THICKNESS
 40
0.0
  9
$LIMCHECK
 70
     0
  9
$CHAMFERA
 40
0.0
  9
$CHAMFERB
 40
0.0
  9
$CHAMFERC
 40
0.0
  9
$CHAMFERD
 40
0.0
  9
$SKPOLY
 70
     0
  9
$TDCREATE
 40
2444972.041666666
  9
$TDUCREATE
 40
2444972.000000000
  9
$TDUPDATE
 40
2452327.408200115
  9
$TDUUPDATE
 40
2452327.366533449
  9
$TDINDWG
 40
0.0010334259
  9
$TDUSRTIMER
 40
0.0010334259
  9
$USRTIMER
 70
     1
  9
$ANGBASE
 50
0.0
  9
$ANGDIR
 70
     0
  9
$PDMODE
 70
     2
  9
$PDSIZE
 40
0.0
  9
$PLINEWID
 40
0.0
  9
$SPLFRAME
 70
     0
  9
$SPLINETYPE
 70
     6
  9
$SPLINESEGS
 70
     8
  9
$HANDSEED
  5
143
  9
$SURFTAB1
 70
     6
  9
$SURFTAB2
 70
     6
  9
$SURFTYPE
 70
     6
  9
$SURFU
 70
     6
  9
$SURFV
 70
     6
  9
$UCSBASE
  2

  9
$UCSNAME
  2

  9
$UCSORG
 10
0.0
 20
0.0
 30
0.0
  9
$UCSXDIR
 10
1.0
 20
0.0
 30
0.0
  9
$UCSYDIR
 10
0.0
 20
1.0
 30
0.0
  9
$UCSORTHOREF
  2

  9
$UCSORTHOVIEW
 70
     0
  9
$UCSORGTOP
 10
0.0
 20
0.0
 30
0.0
  9
$UCSORGBOTTOM
 10
0.0
 20
0.0
 30
0.0
  9
$UCSORGLEFT
 10
0.0
 20
0.0
 30
0.0
  9
$UCSORGRIGHT
 10
0.0
 20
0.0
 30
0.0
  9
$UCSORGFRONT
 10
0.0
 20
0.0
 30
0.0
  9
$UCSORGBACK
 10
0.0
 20
0.0
 30
0.0
  9
$PUCSBASE
  2

  9
$PUCSNAME
  2

  9
$PUCSORG
 10
0.0
 20
0.0
 30
0.0
  9
$PUCSXDIR
 10
1.0
 20
0.0
 30
0.0
  9
$PUCSYDIR
 10
0.0
 20
1.0
 30
0.0
  9
$PUCSORTHOREF
  2

  9
$PUCSORTHOVIEW
 70
     0
  9
$PUCSORGTOP
 10
0.0
 20
0.0
 30
0.0
  9
$PUCSORGBOTTOM
 10
0.0
 20
0.0
 30
0.0
  9
$PUCSORGLEFT
 10
0.0
 20
0.0
 30
0.0
  9
$PUCSORGRIGHT
 10
0.0
 20
0.0
 30
0.0
  9
$PUCSORGFRONT
 10
0.0
 20
0.0
 30
0.0
  9
$PUCSORGBACK
 10
0.0
 20
0.0
 30
0.0
  9
$USERI1
 70
     0
  9
$USERI2
 70
     0
  9
$USERI3
 70
     0
  9
$USERI4
 70
     0
  9
$USERI5
 70
     0
  9
$USERR1
 40
0.0
  9
$USERR2
 40
0.0
  9
$USERR3
 40
0.0
  9
$USERR4
 40
0.0
  9
$USERR5
 40
0.0
  9
$WORLDVIEW
 70
     1
  9
$SHADEDGE
 70
     3
  9
$SHADEDIF
 70
    70
  9
$TILEMODE
 70
     1
  9
$MAXACTVP
 70
    16
  9
$PINSBASE
 10
0.0
 20
0.0
 30
0.0
  9
$PLIMCHECK
 70
     0
  9
$PEXTMIN
 10
1.000000000000000E+20
 20
1.000000000000000E+20
 30
1.000000000000000E+20
  9
$PEXTMAX
 10
-1.000000000000000E+20
 20
-1.000000000000000E+20
 30
-1.000000000000000E+20
  9
$PLIMMIN
 10
0.0
 20
0.0
  9
$PLIMMAX
 10
12.0
 20
9.0
  9
$UNITMODE
 70
     0
  9
$VISRETAIN
 70
     0
  9
$PLINEGEN
 70
     1
  9
$PSLTSCALE
 70
     0
  9
$TREEDEPTH
 70
  3020
  9
$CMLSTYLE
  2
STANDARD
  9
$CMLJUST
 70
     0
  9
$CMLSCALE
 40
1.0
  9
$PROXYGRAPHICS
 70
     1
  9
$MEASUREMENT
 70
     0
  9
$CELWEIGHT
370
    -1
  9
$ENDCAPS
280
     0
  9
$JOINSTYLE
280
     0
  9
$LWDISPLAY
290
     0
  9
$INSUNITS
 70
     0
  9
$HYPERLINKBASE
  1

  9
$STYLESHEET
  1

  9
$XEDIT
290
     1
  9
$CEPSNTYPE
380
     0
  9
$PSTYLEMODE
290
     1
  9
$FINGERPRINTGUID
  2
{2F04B08A-26A7-11D6-8687-00A024540C4A}
  9
$VERSIONGUID
  2
{2F04B095-26A7-11D6-8687-00A024540C4A}
  9
$EXTNAMES
290
     1
  9
$PSVPSCALE
 40
0.0
  9
$OLESTARTUP
290
     0
  0
ENDSEC
  0
SECTION
  2
CLASSES
  0
CLASS
  1
LWPOLYLINE
  2
AcDbPolyline
  3
AutoCAD 2000
 90
    32768
280
     0
281
     1
  0
CLASS
  1
IMAGE
  2
AcDbRasterImage
  3
ISM
 90
    32895
280
     0
281
     1
  0
CLASS
  1
OLE2FRAME
  2
AcDbOle2Frame
  3
AutoCAD 2000
 90
    32768
280
     0
281
     1
  0
CLASS
  1
HATCH
  2
AcDbHatch
  3
AutoCAD 2000
 90
    32768
280
     0
281
     1
  0
CLASS
  1
DICTIONARYVAR
  2
AcDbDictionaryVar
  3
AutoCAD 2000
 90
    32768
280
     0
281
     0
  0
CLASS
  1
RASTERVARIABLES
  2
AcDbRasterVariables
  3
ISM
 90
    32768
280
     0
281
     0
  0
CLASS
  1
IMAGEDEF
  2
AcDbRasterImageDef
  3
ISM
 90
    32768
280
     0
281
     0
  0
CLASS
  1
IMAGEDEF_REACTOR
  2
AcDbRasterImageDefReactor
  3
ISM
 90
    32769
280
     0
281
     0
  0
CLASS
  1
IDBUFFER
  2
AcDbIdBuffer
  3
AutoCAD 2000
 90
    32768
280
     0
281
     0
  0
CLASS
  1
SPATIAL_FILTER
  2
AcDbSpatialFilter
  3
AutoCAD 2000
 90
    32768
280
     0
281
     0
  0
CLASS
  1
XRECORD
  2
AcDbXrecord
  3
AutoCAD 2000
 90
    32768
280
     0
281
     0
  0
CLASS
  1
SORTENTSTABLE
  2
AcDbSortentsTable
  3
AutoCAD 2000
 90
    32768
280
     0
281
     0
  0
CLASS
  1
LAYER_INDEX
  2
AcDbLayerIndex
  3
AutoCAD 2000
 90
    32768
280
     0
281
     0
  0
CLASS
  1
SPATIAL_INDEX
  2
AcDbSpatialIndex
  3
AutoCAD 2000
 90
    32768
280
     0
281
     0
  0
CLASS
  1
OBJECT_PTR
  2
CAseDLPNTableRecord
  3
"ASE-LPNTableRecord"
 90
    32768
280
     0
281
     0
  0
CLASS
  1
ACDBDICTIONARYWDFLT
  2
AcDbDictionaryWithDefault
  3
AutoCAD 2000
 90
        0
280
     0
281
     0
  0
CLASS
  1
ACDBPLACEHOLDER
  2
AcDbPlaceHolder
  3
AutoCAD 2000
 90
        0
280
     0
281
     0
  0
CLASS
  1
LAYOUT
  2
AcDbLayout
  3
AutoCAD 2000
 90
        0
280
     0
281
     0
  0
ENDSEC
  0
SECTION
  2
TABLES
  0
TABLE
  2
VPORT
  5
7
330
0
100
AcDbSymbolTable
 70
     2
  0
VPORT
  5
142
330
7
100
AcDbSymbolTableRecord
100
AcDbViewportTableRecord
  2
*Active
 70
     0
 10
0.0
 20
0.0
 11
1.0
 21
1.0
 12
13.22374853894326
 22
124.2136305580469
 13
0.0
 23
0.0
 14
1.0
 24
1.0
 15
0.0
 25
0.0
 16
0.0
 26
0.0
 36
1.0
 17
0.0
 27
0.0
 37
0.0
 40
137.2176234045148
 41
1.672360248447204
 42
50.0
 43
0.0
 44
0.0
 50
0.0
 51
0.0
 71
     0
 72
   100
 73
     1
 74
     1
 75
     0
 76
     0
 77
     0
 78
     0
281
     0
 65
     1
110
0.0
120
0.0
130
0.0
111
1.0
121
0.0
131
0.0
112
0.0
122
1.0
132
0.0
 79
     0
146
0.0
  0
ENDTAB
  0
TABLE
  2
LTYPE
  5
4
330
0
100
AcDbSymbolTable
 70
     4
  0
LTYPE
  5
11
330
4
100
AcDbSymbolTableRecord
100
AcDbLinetypeTableRecord
  2
BYBLOCK
 70
     0
  3

 72
    65
 73
     0
 40
0.0
  0
LTYPE
  5
12
330
4
100
AcDbSymbolTableRecord
100
AcDbLinetypeTableRecord
  2
BYLAYER
 70
     0
  3

 72
    65
 73
     0
 40
0.0
  0
LTYPE
  5
13
330
4
100
AcDbSymbolTableRecord
100
AcDbLinetypeTableRecord
  2
CONTINUOUS
 70
     0
  3
Solid line
 72
    65
 73
     0
 40
0.0
  0
LTYPE
  5
1D
330
4
100
AcDbSymbolTableRecord
100
AcDbLinetypeTableRecord
  2
DASHED
 70
     0
  3
_ _ _ _ _ _ _ _ _ _ _ _ _ _ _ _
 72
    65
 73
     2
 40
0.2
 49
0.1
 74
     0
 49
-0.1
 74
     0
  0
LTYPE
  5
1E
330
4
100
AcDbSymbolTableRecord
100
AcDbLinetypeTableRecord
  2
CENTER
 70
     0
  3
___ _ ___ _ ___ _ ___ _ ___ _ ___ _ ___ _ ___ _
 72
    65
 73
     4
 40
0.95
 49
0.625
 74
     0
 49
-0.125
 74
     0
 49
0.075
 74
     0
 49
-0.125
 74
     0
  0
LTYPE
  5
1F
330
4
100
AcDbSymbolTableRecord
100
AcDbLinetypeTableRecord
  2
PHANTOM
 70
     0
  3
______  __  __  ______  __  __  ______  __  __  
 72
    65
 73
     6
 40
1.024999999999999
 49
0.625
 74
     0
 49
-0.125
 74
     0
 49
0.075
 74
     0
 49
-0.125
 74
     0
 49
0.075
 74
     0
 49
-0.125
 74
     0
  0
ENDTAB
  0
TABLE
  2
LAYER
  5
2
330
0
100
AcDbSymbolTable
 70
    10
  0
LAYER
  5
14
330
2
100
AcDbSymbolTableRecord
100
AcDbLayerTableRecord
  2
0
 70
     0
 62
     7
  6
CONTINUOUS
370
    -3
390
137
  0
LAYER
  5
21
330
2
100
AcDbSymbolTableRecord
100
AcDbLayerTableRecord
  2
CK_LEVEL_1
 70
     0
 62
     7
  6
CONTINUOUS
370
    -3
390
137
  0
LAYER
  5
22
330
2
100
AcDbSymbolTableRecord
100
AcDbLayerTableRecord
  2
CK_LEVEL_2
 70
     0
 62
     7
  6
CONTINUOUS
370
    -3
390
137
  0
LAYER
  5
23
330
2
100
AcDbSymbolTableRecord
100
AcDbLayerTableRecord
  2
CK_LEVEL_3
 70
     0
 62
     7
  6
CONTINUOUS
370
    -3
390
137
  0
LAYER
  5
24
330
2
100
AcDbSymbolTableRecord
100
AcDbLayerTableRecord
  2
CK_LEVEL_4
 70
     0
 62
     7
  6
CONTINUOUS
370
    -3
390
137
  0
LAYER
  5
25
330
2
100
AcDbSymbolTableRecord
100
AcDbLayerTableRecord
  2
CK_LEVEL_5
 70
     0
 62
     7
  6
CONTINUOUS
370
    -3
390
137
  0
LAYER
  5
26
330
2
100
AcDbSymbolTableRecord
100
AcDbLayerTableRecord
  2
CK_LEVEL_6
 70
     0
 62
     7
  6
CONTINUOUS
370
    -3
390
137
  0
LAYER
  5
27
330
2
100
AcDbSymbolTableRecord
100
AcDbLayerTableRecord
  2
CK_LEVEL_7
 70
     0
 62
     7
  6
CONTINUOUS
370
    -3
390
137
  0
LAYER
  5
28
330
2
100
AcDbSymbolTableRecord
100
AcDbLayerTableRecord
  2
CK_LEVEL_8
 70
     0
 62
     7
  6
CONTINUOUS
370
    -3
390
137
  0
LAYER
  5
29
330
2
100
AcDbSymbolTableRecord
100
AcDbLayerTableRecord
  2
MGW12
 70
     0
 62
     7
  6
CONTINUOUS
370
    -3
390
137
  0
ENDTAB
  0
TABLE
  2
STYLE
  5
3
330
0
100
AcDbSymbolTable
 70
     1
  0
STYLE
  5
17
330
3
100
AcDbSymbolTableRecord
100
AcDbTextStyleTableRecord
  2
STANDARD
 70
     0
 40
0.0
 41
1.0
 50
0.0
 71
     0
 42
0.0
  3
txt
  4

  0
ENDTAB
  0
TABLE
  2
VIEW
  5
5
330
0
100
AcDbSymbolTable
 70
     0
  0
ENDTAB
  0
TABLE
  2
UCS
  5
6
330
0
100
AcDbSymbolTable
 70
     1
  0
UCS
  5
20
330
6
100
AcDbSymbolTableRecord
100
AcDbUCSTableRecord
  2
CK_VIEW_1
 70
     0
 10
0.0
 20
0.0
 30
1.0
 11
1.0
 21
0.0
 31
0.0
 12
0.0
 22
1.0
 32
0.0
 79
     0
146
0.0
  0
ENDTAB
  0
TABLE
  2
APPID
  5
8
330
0
100
AcDbSymbolTable
 70
     1
  0
APPID
  5
16
330
8
100
AcDbSymbolTableRecord
100
AcDbRegAppTableRecord
  2
ACAD
 70
     0
  0
ENDTAB
  0
TABLE
  2
DIMSTYLE
  5
9
330
0
100
AcDbSymbolTable
 70
     1
100
AcDbDimStyleTable
 71
     0
  0
DIMSTYLE
105
18
330
9
100
AcDbSymbolTableRecord
100
AcDbDimStyleTableRecord
  2
STANDARD
 70
     0
289
     0
340
17
  0
ENDTAB
  0
TABLE
  2
BLOCK_RECORD
  5
1
330
0
100
AcDbSymbolTable
 70
     0
  0
BLOCK_RECORD
  5
A
330
1
100
AcDbSymbolTableRecord
100
AcDbBlockTableRecord
  2
*MODEL_SPACE
340
13A
  0
BLOCK_RECORD
  5
B
330
1
100
AcDbSymbolTableRecord
100
AcDbBlockTableRecord
  2
*PAPER_SPACE
340
13B
  0
ENDTAB
  0
ENDSEC
  0
SECTION
  2
BLOCKS
  0
BLOCK
  5
D
330
A
100
AcDbEntity
  8
0
100
AcDbBlockBegin
  2
*MODEL_SPACE
 70
     0
 10
0.0
 20
0.0
 30
0.0
  3
*MODEL_SPACE
  1

  0
ENDBLK
  5
E
330
A
100
AcDbEntity
  8
0
100
AcDbBlockEnd
  0
BLOCK
  5
F
330
B
100
AcDbEntity
 67
     1
  8
0
100
AcDbBlockBegin
  2
*PAPER_SPACE
 70
     0
 10
0.0
 20
0.0
 30
0.0
  3
*PAPER_SPACE
  1

  0
ENDBLK
  5
10
330
B
100
AcDbEntity
 67
     1
  8
0
100
AcDbBlockEnd
  0
ENDSEC
  0
SECTION
  2
ENTITIES
  0
LINE
  5
2A
330
A
100
AcDbEntity
  8
MGW12
  6
Continuous
 62
     4
100
AcDbLine
 10
-49.69615416534281
 20
117.2117510621423
 30
0.0
 11
-49.69615416534281
 21
115.9326589080603
 31
0.0
  0
LINE
  5
2B
330
A
100
AcDbEntity
  8
MGW12
  6
Continuous
 62
     4
100
AcDbLine
 10
-50.79615416534281
 20
117.9326589080603
 30
0.0
 11
-50.37918038905488
 21
117.9326589080603
 31
0.0
  0
ARC
  5
2C
330
A
100
AcDbEntity
  8
MGW12
  6
Continuous
 62
     4
100
AcDbCircle
 10
-50.79615416534277
 20
118.4326589080603
 30
0.0
 40
0.5
100
AcDbArc
 50
90.0
 51
270.0
  0
LINE
  5
2D
330
A
100
AcDbEntity
  8
MGW12
  6
Continuous
 62
     4
100
AcDbLine
 10
-50.37918038905485
 20
118.9326589080603
 30
0.0
 11
-50.79615416534281
 21
118.9326589080603
 31
0.0
  0
LINE
  5
2E
330
A
100
AcDbEntity
  8
MGW12
  6
Continuous
 62
     4
100
AcDbLine
 10
-49.69615416534279
 20
120.5326589080603
 30
0.0
 11
-49.69615416534281
 21
119.6535707539783
 31
0.0
  0
LINE
  5
2F
330
A
100
AcDbEntity
  8
MGW12
  6
Continuous
 62
     4
100
AcDbLine
 10
-50.09615416534282
 20
120.9326589080603
 30
0.0
 11
-49.69615416534279
 21
120.5326589080603
 31
0.0
  0
LINE
  5
30
330
A
100
AcDbEntity
  8
MGW12
  6
Continuous
 62
     4
100
AcDbLine
 10
-73.29615416534287
 20
120.9326589080603
 30
0.0
 11
-50.09615416534282
 21
120.9326589080603
 31
0.0
  0
LINE
  5
31
330
A
100
AcDbEntity
  8
MGW12
  6
Continuous
 62
     4
100
AcDbLine
 10
-73.69615416534291
 20
120.5326589080603
 30
0.0
 11
-73.29615416534287
 21
120.9326589080603
 31
0.0
  0
LINE
  5
32
330
A
100
AcDbEntity
  8
MGW12
  6
Continuous
 62
     4
100
AcDbLine
 10
-73.69615416534287
 20
119.6156851317723
 30
0.0
 11
-73.69615416534291
 21
120.5326589080603
 31
0.0
  0
LINE
  5
33
330
A
100
AcDbEntity
  8
MGW12
  6
Continuous
 62
     4
100
AcDbLine
 10
-72.59615416534288
 20
118.9326589080603
 30
0.0
 11
-73.01312794163084
 21
118.9326589080603
 31
0.0
  0
ARC
  5
34
330
A
100
AcDbEntity
  8
MGW12
  6
Continuous
 62
     4
100
AcDbCircle
 10
-72.59615416534292
 20
118.4326589080603
 30
0.0
 40
0.5
100
AcDbArc
 50
270.0
 51
450.0
  0
LINE
  5
35
330
A
100
AcDbEntity
  8
MGW12
  6
Continuous
 62
     4
100
AcDbLine
 10
-73.01312794163081
 20
117.9326589080603
 30
0.0
 11
-72.59615416534288
 21
117.9326589080603
 31
0.0
  0
LINE
  5
36
330
A
100
AcDbEntity
  8
MGW12
  6
Continuous
 62
     4
100
AcDbLine
 10
-73.69615416534287
 20
115.9326589080603
 30
0.0
 11
-73.69615416534287
 21
117.2496326843483
 31
0.0
  0
LINE
  5
37
330
A
100
AcDbEntity
  8
MGW12
  6
CENTER
 62
   252
100
AcDbLine
 10
-62.29615416534287
 20
123.6326589080603
 30
0.0
 11
-61.09615416534287
 21
123.6326589080603
 31
0.0
  0
LINE
  5
38
330
A
100
AcDbEntity
  8
MGW12
  6
CENTER
 62
   252
100
AcDbLine
 10
-61.69615416534284
 20
119.887993386778
 30
0.0
 11
-61.69615416534284
 21
127.0896189489799
 31
0.0
  0
LINE
  5
39
330
A
100
AcDbEntity
  8
MGW12
  6
Continuous
 62
     4
100
AcDbLine
 10
-49.69615416534281
 20
115.9326589080603
 30
0.0
 11
-42.89615416534283
 21
115.9326589080603
 31
0.0
  0
LINE
  5
3A
330
A
100
AcDbEntity
  8
MGW12
  6
Continuous
 62
     4
100
AcDbLine
 10
-42.09615416534282
 20
124.9326589080603
 30
0.0
 11
-43.09615416534284
 21
125.9326589080603
 31
0.0
  0
LINE
  5
3B
330
A
100
AcDbEntity
  8
MGW12
  6
Continuous
 62
     4
100
AcDbLine
 10
-42.89615416534283
 20
115.9326589080603
 30
0.0
 11
-42.09615416534284
 21
116.7326589080603
 31
0.0
  0
LINE
  5
3C
330
A
100
AcDbEntity
  8
MGW12
  6
Continuous
 62
     4
100
AcDbLine
 10
-42.09615416534284
 20
116.7326589080603
 30
0.0
 11
-42.09615416534282
 21
124.9326589080603
 31
0.0
  0
LINE
  5
3D
330
A
100
AcDbEntity
  8
MGW12
  6
Continuous
 62
     4
100
AcDbLine
 10
-73.69615416534287
 20
115.9326589080603
 30
0.0
 11
-80.49615416534287
 21
115.9326589080603
 31
0.0
  0
LINE
  5
3E
330
A
100
AcDbEntity
  8
MGW12
  6
Continuous
 62
     4
100
AcDbLine
 10
-81.29615416534289
 20
124.9326589080603
 30
0.0
 11
-80.29615416534285
 21
125.9326589080603
 31
0.0
  0
LINE
  5
3F
330
A
100
AcDbEntity
  8
MGW12
  6
Continuous
 62
     4
100
AcDbLine
 10
-80.49615416534287
 20
115.9326589080603
 30
0.0
 11
-81.29615416534285
 21
116.7326589080603
 31
0.0
  0
LINE
  5
40
330
A
100
AcDbEntity
  8
MGW12
  6
Continuous
 62
     4
100
AcDbLine
 10
-81.29615416534285
 20
116.7326589080603
 30
0.0
 11
-81.29615416534289
 21
124.9326589080603
 31
0.0
  0
LINE
  5
41
330
A
100
AcDbEntity
  8
MGW12
  6
Continuous
 62
     4
100
AcDbLine
 10
-43.09615416534284
 20
125.9326589080603
 30
0.0
 11
-80.29615416534285
 21
125.9326589080603
 31
0.0
  0
CIRCLE
  5
42
330
A
100
AcDbEntity
  8
MGW12
  6
Continuous
 62
     4
100
AcDbCircle
 10
-76.89615416534286
 20
122.5826589080603
 30
0.0
 40
2.4
  0
CIRCLE
  5
43
330
A
100
AcDbEntity
  8
MGW12
  6
Continuous
 62
     4
100
AcDbCircle
 10
-46.49615416534283
 20
122.5826589080603
 30
0.0
 40
2.4
  0
LINE
  5
44
330
A
100
AcDbEntity
  8
MGW12
  6
Continuous
 62
     4
100
AcDbLine
 10
-74.29615416534287
 20
115.9326589080603
 30
0.0
 11
-74.29615416534287
 21
117.271469597459
 31
0.0
  0
LINE
  5
45
330
A
100
AcDbEntity
  8
MGW12
  6
Continuous
 62
     4
100
AcDbLine
 10
-74.29615416534287
 20
119.5938482186656
 30
0.0
 11
-74.29615416534287
 21
120.7811870454842
 31
0.0
  0
LINE
  5
46
330
A
100
AcDbEntity
  8
MGW12
  6
Continuous
 62
     4
100
AcDbLine
 10
-74.29615416534287
 20
120.7811870454842
 30
0.0
 11
-73.54468230276667
 21
121.5326589080603
 31
0.0
  0
LINE
  5
47
330
A
100
AcDbEntity
  8
MGW12
  6
Continuous
 62
     4
100
AcDbLine
 10
-73.54468230276667
 20
121.5326589080603
 30
0.0
 11
-49.847626027919
 21
121.5326589080603
 31
0.0
  0
LINE
  5
48
330
A
100
AcDbEntity
  8
MGW12
  6
Continuous
 62
     4
100
AcDbLine
 10
-49.847626027919
 20
121.5326589080603
 30
0.0
 11
-49.09615416534278
 21
120.7811870454842
 31
0.0
  0
LINE
  5
49
330
A
100
AcDbEntity
  8
MGW12
  6
Continuous
 62
     4
100
AcDbLine
 10
-49.09615416534278
 20
120.7811870454842
 30
0.0
 11
-49.09615416534283
 21
119.6450944733585
 31
0.0
  0
ARC
  5
4A
330
A
100
AcDbEntity
  8
MGW12
  6
Continuous
 62
     4
100
AcDbCircle
 10
-49.7961541653429
 20
119.6450944733585
 30
0.0
 40
0.7000000000000029
100
AcDbArc
 50
300.0000000000001
 51
360.0
  0
ARC
  5
4B
330
A
100
AcDbEntity
  8
MGW12
  6
Continuous
 62
     4
100
AcDbCircle
 10
-49.0961541653429
 20
118.4326589080603
 30
0.0
 40
0.7000000000000077
100
AcDbArc
 50
120.0000000000005
 51
239.9999999999998
  0
ARC
  5
4C
330
A
100
AcDbEntity
  8
MGW12
  6
Continuous
 62
     4
100
AcDbCircle
 10
-49.7961541653429
 20
117.2202233427621
 30
0.0
 40
0.7000000000000041
100
AcDbArc
 50
0.0
 51
59.99999999999986
  0
LINE
  5
4D
330
A
100
AcDbEntity
  8
MGW12
  6
Continuous
 62
     4
100
AcDbLine
 10
-49.0961541653429
 20
117.220223342762
 30
0.0
 11
-49.09615416534293
 21
115.9326589080603
 31
0.0
  0
LINE
  5
4E
330
A
100
AcDbEntity
  8
MGW12
  6
Continuous
 62
     4
100
AcDbLine
 10
-75.04615416534287
 20
115.9326589080603
 30
0.0
 11
-75.04615416534287
 21
121.0537704229183
 31
0.0
  0
LINE
  5
4F
330
A
100
AcDbEntity
  8
MGW12
  6
Continuous
 62
     4
100
AcDbLine
 10
-74.92617477027822
 20
121.2118266123287
 30
0.0
 11
-73.85534247454649
 21
122.2826589080603
 31
0.0
  0
LINE
  5
50
330
A
100
AcDbEntity
  8
MGW12
  6
Continuous
 62
     4
100
AcDbLine
 10
-73.85534247454649
 20
122.2826589080603
 30
0.0
 11
-49.5369658561392
 21
122.2826589080603
 31
0.0
  0
LINE
  5
51
330
A
100
AcDbEntity
  8
MGW12
  6
Continuous
 62
     4
100
AcDbLine
 10
-49.5369658561392
 20
122.2826589080603
 30
0.0
 11
-48.46613356040737
 21
121.2118266123286
 31
0.0
  0
LINE
  5
52
330
A
100
AcDbEntity
  8
MGW12
  6
Continuous
 62
     4
100
AcDbLine
 10
-48.34615416534282
 20
121.0537704229183
 30
0.0
 11
-48.34615416534282
 21
115.9326589080603
 31
0.0
  0
ARC
  5
53
330
A
100
AcDbEntity
  8
MGW12
  6
Continuous
 62
     4
100
AcDbCircle
 10
-74.28065342534292
 20
118.4326589080623
 30
0.0
 40
0.7000000000000001
100
AcDbArc
 50
296.7189735920099
 51
423.281026407989
  0
ARC
  5
54
330
A
100
AcDbEntity
  8
MGW12
  6
Continuous
 62
     4
100
AcDbCircle
 10
-73.69615416534286
 20
119.5938482186656
 30
0.0
 40
0.6000000000000001
100
AcDbArc
 50
179.9999999999983
 51
243.2810264079908
  0
ARC
  5
55
330
A
100
AcDbEntity
  8
MGW12
  6
Continuous
 62
     4
100
AcDbCircle
 10
-73.69615416534289
 20
117.271469597459
 30
0.0
 40
0.6000000000000001
100
AcDbArc
 50
116.7189735920073
 51
180.0
  0
CIRCLE
  5
56
330
A
100
AcDbEntity
  8
MGW12
  6
Continuous
 62
     4
100
AcDbCircle
 10
-61.69615416534288
 20
123.6326589080603
 30
0.0
 40
0.5
  0
LINE
  5
57
330
A
100
AcDbEntity
  8
MGW12
  6
Continuous
 62
     4
100
AcDbLine
 10
-81.69615416534293
 20
116.5326589080603
 30
0.0
 11
-81.69615416534288
 21
125.8326589080603
 31
0.0
  0
LINE
  5
58
330
A
100
AcDbEntity
  8
MGW12
  6
Continuous
 62
     4
100
AcDbLine
 10
-81.09615416534287
 20
126.4326589080603
 30
0.0
 11
-69.59615416534285
 21
126.4326589080603
 31
0.0
  0
LINE
  5
59
330
A
100
AcDbEntity
  8
MGW12
  6
Continuous
 62
     4
100
AcDbLine
 10
-41.69615416534287
 20
125.8326589080603
 30
0.0
 11
-41.6961541653429
 21
119.9790690695741
 31
0.0
  0
LINE
  5
5A
330
A
100
AcDbEntity
  8
MGW12
  6
Continuous
 62
     4
100
AcDbLine
 10
-41.6961541653429
 20
119.2862487465465
 30
0.0
 11
-41.6961541653429
 21
116.5326589080603
 31
0.0
  0
LINE
  5
5B
330
A
100
AcDbEntity
  8
MGW12
  6
Continuous
 62
     4
100
AcDbLine
 10
-42.29615416534286
 20
126.4326589080603
 30
0.0
 11
-53.79615416534284
 21
126.4326589080603
 31
0.0
  0
LINE
  5
5C
330
A
100
AcDbEntity
  8
MGW12
  6
Continuous
 62
     4
100
AcDbLine
 10
-69.19615416534293
 20
126.0326589080603
 30
0.0
 11
-54.1961541653429
 21
126.0326589080603
 31
0.0
  0
LINE
  5
5D
330
A
100
AcDbEntity
  8
MGW12
  6
Continuous
 62
     4
100
AcDbLine
 10
-53.79615416534284
 20
126.4326589080603
 30
0.0
 11
-54.1961541653429
 21
126.0326589080603
 31
0.0
  0
LINE
  5
5E
330
A
100
AcDbEntity
  8
MGW12
  6
Continuous
 62
     4
100
AcDbLine
 10
-69.59615416534285
 20
126.4326589080603
 30
0.0
 11
-69.19615416534293
 21
126.0326589080603
 31
0.0
  0
LINE
  5
5F
330
A
100
AcDbEntity
  8
MGW12
  6
Continuous
 62
     4
100
AcDbLine
 10
-73.69615416534291
 20
115.8326589080603
 30
0.0
 11
-80.99615416534291
 21
115.8326589080603
 31
0.0
  0
LINE
  5
60
330
A
100
AcDbEntity
  8
MGW12
  6
Continuous
 62
     4
100
AcDbLine
 10
-42.39615416534283
 20
115.8326589080603
 30
0.0
 11
-49.69615416534292
 21
115.8326589080603
 31
0.0
  0
LINE
  5
61
330
A
100
AcDbEntity
  8
MGW12
  6
DASHED
 62
   252
100
AcDbLine
 10
-77.19615416534283
 20
122.4326569080603
 30
0.0
 11
-77.19615416534283
 21
126.1326589080603
 31
0.0
  0
LINE
  5
62
330
A
100
AcDbEntity
  8
MGW12
  6
DASHED
 62
   252
100
AcDbLine
 10
-76.94615416534283
 20
121.6326569080603
 30
0.0
 11
-76.94615416534286
 21
126.1326589080603
 31
0.0
  0
LINE
  5
63
330
A
100
AcDbEntity
  8
MGW12
  6
DASHED
 62
   252
100
AcDbLine
 10
-74.44615416534286
 20
121.6326569080603
 30
0.0
 11
-74.44615416534286
 21
126.1326589080603
 31
0.0
  0
LINE
  5
64
330
A
100
AcDbEntity
  8
MGW12
  6
DASHED
 62
   252
100
AcDbLine
 10
-74.19615416534289
 20
122.4326569080603
 30
0.0
 11
-74.19615416534289
 21
126.1326589080603
 31
0.0
  0
LINE
  5
65
330
A
100
AcDbEntity
  8
MGW12
  6
DASHED
 62
   252
100
AcDbLine
 10
-74.44615416534286
 20
121.6326569080603
 30
0.0
 11
-76.94615416534283
 21
121.6326569080603
 31
0.0
  0
LINE
  5
66
330
A
100
AcDbEntity
  8
MGW12
  6
DASHED
 62
   252
100
AcDbLine
 10
-76.94615416534283
 20
121.6326569080603
 30
0.0
 11
-75.69615416534286
 21
120.9109690715733
 31
0.0
  0
LINE
  5
67
330
A
100
AcDbEntity
  8
MGW12
  6
DASHED
 62
   252
100
AcDbLine
 10
-75.69615416534286
 20
120.9109690715733
 30
0.0
 11
-74.44615416534286
 21
121.6326569080603
 31
0.0
  0
LINE
  5
68
330
A
100
AcDbEntity
  8
MGW12
  6
CENTER
 62
   252
100
AcDbLine
 10
-75.69615416534286
 20
120.3497123060081
 30
0.0
 11
-75.69615416534289
 21
126.9326589080603
 31
0.0
  0
LINE
  5
69
330
A
100
AcDbEntity
  8
MGW12
  6
CENTER
 62
   252
100
AcDbLine
 10
-47.69615416534288
 20
120.4322696082588
 30
0.0
 11
-47.69615416534288
 21
126.9326589080603
 31
0.0
  0
LINE
  5
6A
330
A
100
AcDbEntity
  8
MGW12
  6
DASHED
 62
   252
100
AcDbLine
 10
-74.19615416534289
 20
122.4326569080603
 30
0.0
 11
-77.19615416534283
 21
122.4326569080603
 31
0.0
  0
LINE
  5
6B
330
A
100
AcDbEntity
  8
MGW12
  6
Continuous
 62
     4
100
AcDbLine
 10
-81.69615416534293
 20
116.5326589080603
 30
0.0
 11
-80.99615416534291
 21
115.8326589080603
 31
0.0
  0
LINE
  5
6C
330
A
100
AcDbEntity
  8
MGW12
  6
Continuous
 62
     4
100
AcDbLine
 10
-42.39615416534283
 20
115.8326589080603
 30
0.0
 11
-41.6961541653429
 21
116.5326589080603
 31
0.0
  0
LINE
  5
6D
330
A
100
AcDbEntity
  8
MGW12
  6
Continuous
 62
     4
100
AcDbLine
 10
-81.69615416534288
 20
125.8326589080603
 30
0.0
 11
-81.09615416534287
 21
126.4326589080603
 31
0.0
  0
LINE
  5
6E
330
A
100
AcDbEntity
  8
MGW12
  6
Continuous
 62
     4
100
AcDbLine
 10
-42.29615416534286
 20
126.4326589080603
 30
0.0
 11
-41.69615416534287
 21
125.8326589080603
 31
0.0
  0
ARC
  5
6F
330
A
100
AcDbEntity
  8
MGW12
  6
Continuous
 62
     4
100
AcDbCircle
 10
-41.49615416534292
 20
119.6326589080603
 30
0.0000000000000039
 40
0.4
100
AcDbArc
 50
120.0000000000005
 51
239.9999999999995
  0
LINE
  5
70
330
A
100
AcDbEntity
  8
MGW12
  6
DASHED
 62
   252
100
AcDbLine
 10
-77.19615416534283
 20
126.1326589080603
 30
0.0
 11
-77.49615416534287
 21
126.4326589080603
 31
0.0
  0
LINE
  5
71
330
A
100
AcDbEntity
  8
MGW12
  6
DASHED
 62
   252
100
AcDbLine
 10
-74.19615416534289
 20
126.1326589080603
 30
0.0
 11
-77.19615416534283
 21
126.1326589080603
 31
0.0
  0
LINE
  5
72
330
A
100
AcDbEntity
  8
MGW12
  6
DASHED
 62
   252
100
AcDbLine
 10
-73.89615716534288
 20
126.4326589080603
 30
0.0
 11
-74.19615716534289
 21
126.1326589080603
 31
0.0
  0
LINE
  5
73
330
A
100
AcDbEntity
  8
MGW12
  6
Continuous
 62
     4
100
AcDbLine
 10
-73.69615416534293
 20
120.5326589080603
 30
0.0
 11
-73.29615416534287
 21
120.9326589080603
 31
0.0
  0
LINE
  5
74
330
A
100
AcDbEntity
  8
MGW12
  6
Continuous
 62
     4
100
AcDbLine
 10
-73.69615416534291
 20
113.0326589080604
 30
0.0
 11
-73.09615416534288
 21
112.4326589080603
 31
0.0
  0
ARC
  5
75
330
A
100
AcDbEntity
  8
MGW12
  6
Continuous
 62
     4
100
AcDbCircle
 10
-53.39615416534288
 20
112.1326589080603
 30
-0.0000000000000109
 40
0.5
100
AcDbArc
 50
36.86989764584361
 51
143.1301023541563
  0
LINE
  5
76
330
A
100
AcDbEntity
  8
MGW12
  6
Continuous
 62
     4
100
AcDbLine
 10
-49.69615416534296
 20
113.0326589080602
 30
0.0
 11
-50.29615416534287
 21
112.4326589080603
 31
0.0
  0
LINE
  5
77
330
A
100
AcDbEntity
  8
MGW12
  6
Continuous
 62
     4
100
AcDbLine
 10
-50.09615416534289
 20
120.9326589080603
 30
0.0
 11
-49.69615416534288
 21
120.5326589080603
 31
0.0
  0
LINE
  5
78
330
A
100
AcDbEntity
  8
MGW12
  6
Continuous
 62
     4
100
AcDbLine
 10
-53.79615416534289
 20
112.4326589080603
 30
0.0
 11
-73.09615416534288
 21
112.4326589080603
 31
0.0
  0
LINE
  5
79
330
A
100
AcDbEntity
  8
MGW12
  6
Continuous
 62
     4
100
AcDbLine
 10
-50.29615416534287
 20
112.4326589080603
 30
0.0
 11
-52.99615416534287
 21
112.4326589080603
 31
0.0
  0
LINE
  5
7A
330
A
100
AcDbEntity
  8
MGW12
  6
Continuous
 62
     4
100
AcDbLine
 10
-50.09615416534289
 20
120.9326589080603
 30
0.0
 11
-73.29615416534287
 21
120.9326589080603
 31
0.0
  0
LINE
  5
7B
330
A
100
AcDbEntity
  8
MGW12
  6
DASHED
 62
   252
100
AcDbLine
 10
-65.69615416534286
 20
120.6326589080603
 30
0.0
 11
-65.69615416534286
 21
116.4326589080603
 31
0.0
  0
LINE
  5
7C
330
A
100
AcDbEntity
  8
MGW12
  6
DASHED
 62
   252
100
AcDbLine
 10
-65.69615416534286
 20
116.4326569080603
 30
0.0
 11
-57.69615416534286
 21
116.4326569080603
 31
0.0
  0
LINE
  5
7D
330
A
100
AcDbEntity
  8
MGW12
  6
DASHED
 62
   252
100
AcDbLine
 10
-63.94615416534286
 20
116.4326589080603
 30
0.0
 11
-63.94615416534286
 21
112.8326589080603
 31
0.0
  0
LINE
  5
7E
330
A
100
AcDbEntity
  8
MGW12
  6
DASHED
 62
   252
100
AcDbLine
 10
-59.44615416534286
 20
116.4326589080603
 30
0.0
 11
-59.44615416534286
 21
112.8326589080603
 31
0.0
  0
LINE
  5
7F
330
A
100
AcDbEntity
  8
MGW12
  6
DASHED
 62
   252
100
AcDbLine
 10
-57.69615416534286
 20
120.6326589080603
 30
0.0
 11
-57.69615416534286
 21
116.4326589080603
 31
0.0
  0
LINE
  5
80
330
A
100
AcDbEntity
  8
MGW12
  6
DASHED
 62
   252
100
AcDbLine
 10
-63.94615416534286
 20
112.8326589080603
 30
0.0
 11
-59.44615416534286
 21
112.8326589080603
 31
0.0
  0
LINE
  5
81
330
A
100
AcDbEntity
  8
MGW12
  6
DASHED
 62
   252
100
AcDbLine
 10
-59.04615416534287
 20
112.4326589080603
 30
0.0
 11
-59.44615416534286
 21
112.8326589080603
 31
0.0
  0
LINE
  5
82
330
A
100
AcDbEntity
  8
MGW12
  6
DASHED
 62
   252
100
AcDbLine
 10
-64.34615416534285
 20
112.4326589080603
 30
0.0
 11
-63.94615416534286
 21
112.8326589080603
 31
0.0
  0
LINE
  5
83
330
A
100
AcDbEntity
  8
MGW12
  6
CENTER
 62
   252
100
AcDbLine
 10
-57.69615416534286
 20
117.2326569080603
 30
0.0
 11
-57.69615416534286
 21
117.8326569080603
 31
0.0
  0
LINE
  5
84
330
A
100
AcDbEntity
  8
MGW12
  6
DASHED
 62
   252
100
AcDbLine
 10
-57.69615416534286
 20
120.6326589080603
 30
0.0
 11
-65.69615416534286
 21
120.6326589080603
 31
0.0
  0
LINE
  5
85
330
A
100
AcDbEntity
  8
MGW12
  6
DASHED
 62
   252
100
AcDbLine
 10
-65.86935924609974
 20
120.9326589080603
 30
0.0
 11
-65.69615416534286
 21
120.6326589080603
 31
0.0
  0
LINE
  5
86
330
A
100
AcDbEntity
  8
MGW12
  6
DASHED
 62
   252
100
AcDbLine
 10
-57.52294908458598
 20
120.9326589080603
 30
0.0
 11
-57.69615416534286
 21
120.6326589080603
 31
0.0
  0
LINE
  5
87
330
A
100
AcDbEntity
  8
MGW12
  6
Continuous
 62
     4
100
AcDbLine
 10
-31.69615416534288
 20
120.9326589080603
 30
0.0
 11
-31.69615416534288
 21
112.4326589080603
 31
0.0
  0
LINE
  5
88
330
A
100
AcDbEntity
  8
MGW12
  6
CENTER
 62
   252
100
AcDbLine
 10
-61.69615416534288
 20
121.902195438444
 30
0.0
 11
-61.69615416534288
 21
111.4631223776766
 31
0.0
  0
LINE
  5
89
330
A
100
AcDbEntity
  8
MGW12
  6
DASHED
 62
   252
100
AcDbLine
 10
-20.69615416534286
 20
120.6326589080603
 30
0.0
 11
-20.69615416534286
 21
116.4326589080603
 31
0.0
  0
LINE
  5
8A
330
A
100
AcDbEntity
  8
MGW12
  6
DASHED
 62
   252
100
AcDbLine
 10
-20.69615416534286
 20
116.4326569080603
 30
0.0
 11
-12.69615416534287
 21
116.4326569080603
 31
0.0
  0
LINE
  5
8B
330
A
100
AcDbEntity
  8
MGW12
  6
DASHED
 62
   252
100
AcDbLine
 10
-18.94615416534287
 20
116.4326589080603
 30
0.0
 11
-18.94615416534287
 21
112.8326589080603
 31
0.0
  0
LINE
  5
8C
330
A
100
AcDbEntity
  8
MGW12
  6
DASHED
 62
   252
100
AcDbLine
 10
-14.44615416534286
 20
116.4326589080603
 30
0.0
 11
-14.44615416534286
 21
112.8326589080603
 31
0.0
  0
LINE
  5
8D
330
A
100
AcDbEntity
  8
MGW12
  6
DASHED
 62
   252
100
AcDbLine
 10
-12.69615416534287
 20
120.6326589080603
 30
0.0
 11
-12.69615416534287
 21
116.4326589080603
 31
0.0
  0
LINE
  5
8E
330
A
100
AcDbEntity
  8
MGW12
  6
DASHED
 62
   252
100
AcDbLine
 10
-18.94615416534287
 20
112.8326589080603
 30
0.0
 11
-14.44615416534286
 21
112.8326589080603
 31
0.0
  0
LINE
  5
8F
330
A
100
AcDbEntity
  8
MGW12
  6
DASHED
 62
   252
100
AcDbLine
 10
-14.04615416534287
 20
112.4326589080603
 30
0.0
 11
-14.44615416534286
 21
112.8326589080603
 31
0.0
  0
LINE
  5
90
330
A
100
AcDbEntity
  8
MGW12
  6
DASHED
 62
   252
100
AcDbLine
 10
-19.34615416534286
 20
112.4326589080603
 30
0.0
 11
-18.94615416534287
 21
112.8326589080603
 31
0.0
  0
LINE
  5
91
330
A
100
AcDbEntity
  8
MGW12
  6
CENTER
 62
   252
100
AcDbLine
 10
-12.69615416534287
 20
117.2326569080603
 30
0.0
 11
-12.69615416534287
 21
117.8326569080603
 31
0.0
  0
LINE
  5
92
330
A
100
AcDbEntity
  8
MGW12
  6
DASHED
 62
   252
100
AcDbLine
 10
-12.69615416534287
 20
120.6326589080603
 30
0.0
 11
-20.69615416534286
 21
120.6326589080603
 31
0.0
  0
LINE
  5
93
330
A
100
AcDbEntity
  8
MGW12
  6
DASHED
 62
   252
100
AcDbLine
 10
-20.86935924609975
 20
120.9326589080603
 30
0.0
 11
-20.69615416534286
 21
120.6326589080603
 31
0.0
  0
LINE
  5
94
330
A
100
AcDbEntity
  8
MGW12
  6
DASHED
 62
   252
100
AcDbLine
 10
-12.52294908458598
 20
120.9326589080603
 30
0.0
 11
-12.69615416534287
 21
120.6326589080603
 31
0.0
  0
LINE
  5
95
330
A
100
AcDbEntity
  8
MGW12
  6
Continuous
 62
     4
100
AcDbLine
 10
78.30384583465712
 20
120.9326589080603
 30
0.0
 11
78.30384583465712
 21
112.4326589080603
 31
0.0
  0
LINE
  5
96
330
A
100
AcDbEntity
  8
MGW12
  6
Continuous
 62
     4
100
AcDbLine
 10
78.30384583465712
 20
120.9326589080603
 30
0.0
 11
46.27036097364826
 21
120.9326589080603
 31
0.0
  0
LINE
  5
97
330
A
100
AcDbEntity
  8
MGW12
  6
Continuous
 62
     4
100
AcDbLine
 10
78.30384583465712
 20
120.2326589080603
 30
0.0
 11
45.85384583465711
 21
120.2326589080603
 31
0.0
  0
LINE
  5
98
330
A
100
AcDbEntity
  8
MGW12
  6
Continuous
 62
     4
100
AcDbLine
 10
78.30384583465712
 20
119.5551581240925
 30
0.0
 11
45.85384583465711
 21
119.5551581240925
 31
0.0
  0
LINE
  5
99
330
A
100
AcDbEntity
  8
MGW12
  6
Continuous
 62
     4
100
AcDbLine
 10
78.30384583465712
 20
117.3101636920281
 30
0.0
 11
45.85384583465711
 21
117.3101636920281
 31
0.0
  0
LINE
  5
9A
330
A
100
AcDbEntity
  8
MGW12
  6
Continuous
 62
     4
100
AcDbLine
 10
78.30384583465712
 20
113.3326589080603
 30
0.0
 11
-31.69615416534288
 21
113.3326589080603
 31
0.0
  0
LINE
  5
9B
330
A
100
AcDbEntity
  8
MGW12
  6
Continuous
 62
     4
100
AcDbLine
 10
78.30384583465712
 20
112.4326589080603
 30
0.0
 11
-31.69615416534288
 21
112.4326589080603
 31
0.0
  0
LINE
  5
9C
330
A
100
AcDbEntity
  8
MGW12
  6
Continuous
 62
     4
100
AcDbLine
 10
-49.6961541653429
 20
117.2496346843483
 30
0.0
 11
-49.69615416534296
 21
113.0326589080602
 31
0.0
  0
LINE
  5
9D
330
A
100
AcDbEntity
  8
MGW12
  6
Continuous
 62
     4
100
AcDbLine
 10
-49.69615416534288
 20
120.5326589080603
 30
0.0
 11
-49.69615416534293
 21
119.6156871317723
 31
0.0
  0
ARC
  5
9E
330
A
100
AcDbEntity
  8
MGW12
  6
Continuous
 62
     4
100
AcDbCircle
 10
-50.79615416534291
 20
118.4326609080603
 30
0.0000000000000104
 40
0.5
100
AcDbArc
 50
90.0
 51
270.0
  0
LINE
  5
9F
330
A
100
AcDbEntity
  8
MGW12
  6
Continuous
 62
     4
100
AcDbLine
 10
-50.37918038905494
 20
118.9326609080603
 30
0.0
 11
-50.79615416534287
 21
118.9326609080603
 31
0.0
  0
LINE
  5
A0
330
A
100
AcDbEntity
  8
MGW12
  6
Continuous
 62
     4
100
AcDbLine
 10
-50.37918038905494
 20
117.9326609080603
 30
0.0
 11
-50.79615416534292
 21
117.9326609080603
 31
0.0
  0
LINE
  5
A1
330
A
100
AcDbEntity
  8
MGW12
  6
Continuous
 62
     4
100
AcDbLine
 10
-73.69615416534291
 20
117.2117510621423
 30
0.0
 11
-73.69615416534291
 21
113.0326589080604
 31
0.0
  0
LINE
  5
A2
330
A
100
AcDbEntity
  8
MGW12
  6
Continuous
 62
     4
100
AcDbLine
 10
-73.69615416534293
 20
120.5326589080603
 30
0.0
 11
-73.69615416534291
 21
119.6535707539783
 31
0.0
  0
LINE
  5
A3
330
A
100
AcDbEntity
  8
MGW12
  6
Continuous
 62
     4
100
AcDbLine
 10
-73.01207153992915
 20
117.9326609080603
 30
0.0
 11
-72.59615416534291
 21
117.9326609080603
 31
0.0
  0
LINE
  5
A4
330
A
100
AcDbEntity
  8
MGW12
  6
Continuous
 62
     4
100
AcDbLine
 10
-73.01207153992916
 20
118.9326609080603
 30
0.0
 11
-72.59615416534291
 21
118.9326609080603
 31
0.0
  0
ARC
  5
A5
330
A
100
AcDbEntity
  8
MGW12
  6
Continuous
 62
     4
100
AcDbCircle
 10
-72.59615416534295
 20
118.4326609080603
 30
-0.0000000000000323
 40
0.5
100
AcDbArc
 50
270.0
 51
450.0
  0
LINE
  5
A6
330
A
100
AcDbEntity
  8
MGW12
  6
Continuous
 62
     4
100
AcDbLine
 10
-31.69615416534289
 20
149.4326589080603
 30
0.0
 11
-31.69615416534289
 21
173.4326589080604
 31
0.0
  0
LINE
  5
A7
330
A
100
AcDbEntity
  8
MGW12
  6
Continuous
 62
     4
100
AcDbLine
 10
78.30384583465712
 20
149.4326589080603
 30
0.0
 11
45.85384583465711
 21
149.4326589080603
 31
0.0
  0
LINE
  5
A8
330
A
100
AcDbEntity
  8
MGW12
  6
Continuous
 62
     4
100
AcDbLine
 10
78.30384583465712
 20
173.4326589080604
 30
0.0
 11
45.85384583465711
 21
173.4326589080604
 31
0.0
  0
LINE
  5
A9
330
A
100
AcDbEntity
  8
MGW12
  6
Continuous
 62
     4
100
AcDbLine
 10
78.30384583465712
 20
149.4326589080603
 30
0.0
 11
78.30384583465712
 21
173.4326589080604
 31
0.0
  0
LINE
  5
AA
330
A
100
AcDbEntity
  8
MGW12
  6
Continuous
 62
     4
100
AcDbLine
 10
7.653845834657135
 20
181.4326589080603
 30
0.0
 11
7.653845834657135
 21
141.4326589080603
 31
0.0
  0
LINE
  5
AB
330
A
100
AcDbEntity
  8
MGW12
  6
Continuous
 62
     4
100
AcDbLine
 10
7.653845834657135
 20
181.4326589080603
 30
0.0
 11
38.95384583465711
 21
181.4326589080603
 31
0.0
  0
LINE
  5
AC
330
A
100
AcDbEntity
  8
MGW12
  6
Continuous
 62
     4
100
AcDbLine
 10
7.653845834657135
 20
141.4326589080603
 30
0.0
 11
38.95384583465711
 21
141.4326589080603
 31
0.0
  0
LINE
  5
AD
330
A
100
AcDbEntity
  8
MGW12
  6
Continuous
 62
     4
100
AcDbLine
 10
38.95384583465711
 20
181.4326589080603
 30
0.0
 11
38.95384583465711
 21
141.4326589080603
 31
0.0
  0
ARC
  5
AE
330
A
100
AcDbEntity
  8
MGW12
  6
Continuous
 62
   252
100
AcDbCircle
 10
30.80384583465712
 20
175.4326589080603
 30
-0.0000000000000109
 40
1.5
100
AcDbArc
 50
169.9999999999998
 51
460.0
  0
CIRCLE
  5
AF
330
A
100
AcDbEntity
  8
MGW12
  6
Continuous
 62
     4
100
AcDbCircle
 10
30.80384583465712
 20
175.4326589080603
 30
-0.0000000000000109
 40
1.25
  0
ARC
  5
B0
330
A
100
AcDbEntity
  8
MGW12
  6
Continuous
 62
   252
100
AcDbCircle
 10
30.80384583465712
 20
147.4326589080603
 30
-0.0000000000000109
 40
1.5
100
AcDbArc
 50
169.9999999999998
 51
460.0
  0
CIRCLE
  5
B1
330
A
100
AcDbEntity
  8
MGW12
  6
Continuous
 62
     4
100
AcDbCircle
 10
30.80384583465712
 20
147.4326589080603
 30
-0.0000000000000109
 40
1.25
  0
ARC
  5
B2
330
A
100
AcDbEntity
  8
MGW12
  6
Continuous
 62
   252
100
AcDbCircle
 10
15.80384583465712
 20
147.4326589080603
 30
-0.0000000000000109
 40
1.5
100
AcDbArc
 50
169.9999999999997
 51
460.0
  0
CIRCLE
  5
B3
330
A
100
AcDbEntity
  8
MGW12
  6
Continuous
 62
     4
100
AcDbCircle
 10
15.80384583465712
 20
147.4326589080603
 30
-0.0000000000000109
 40
1.25
  0
ARC
  5
B4
330
A
100
AcDbEntity
  8
MGW12
  6
Continuous
 62
   252
100
AcDbCircle
 10
15.80384583465712
 20
175.4326589080603
 30
-0.0000000000000109
 40
1.5
100
AcDbArc
 50
169.9999999999997
 51
460.0
  0
CIRCLE
  5
B5
330
A
100
AcDbEntity
  8
MGW12
  6
Continuous
 62
     4
100
AcDbCircle
 10
15.80384583465712
 20
175.4326589080603
 30
-0.0000000000000109
 40
1.25
  0
LINE
  5
B6
330
A
100
AcDbEntity
  8
MGW12
  6
CENTER
 62
   252
100
AcDbLine
 10
7.653845834657135
 20
161.4326589080603
 30
0.0
 11
38.95384583465711
 21
161.4326589080603
 31
0.0
  0
LINE
  5
B7
330
A
100
AcDbEntity
  8
MGW12
  6
CENTER
 62
   252
100
AcDbLine
 10
-2.596154165342893
 20
161.4326589080603
 30
0.0
 11
49.20384583465715
 21
161.4326589080603
 31
0.0
  0
LINE
  5
B8
330
A
100
AcDbEntity
  8
MGW12
  6
CENTER
 62
   252
100
AcDbLine
 10
30.80384583465712
 20
177.2326589080603
 30
0.0
 11
30.80384583465712
 21
173.6326589080603
 31
0.0
  0
LINE
  5
B9
330
A
100
AcDbEntity
  8
MGW12
  6
CENTER
 62
   252
100
AcDbLine
 10
29.00384583465711
 20
175.4326589080603
 30
0.0
 11
32.60384583465713
 21
175.4326589080603
 31
0.0
  0
LINE
  5
BA
330
A
100
AcDbEntity
  8
MGW12
  6
CENTER
 62
   252
100
AcDbLine
 10
15.80384583465712
 20
177.2326589080603
 30
0.0
 11
15.80384583465712
 21
173.6326589080603
 31
0.0
  0
LINE
  5
BB
330
A
100
AcDbEntity
  8
MGW12
  6
CENTER
 62
   252
100
AcDbLine
 10
14.00384583465711
 20
175.4326589080603
 30
0.0
 11
17.60384583465713
 21
175.4326589080603
 31
0.0
  0
LINE
  5
BC
330
A
100
AcDbEntity
  8
MGW12
  6
CENTER
 62
   252
100
AcDbLine
 10
15.80384583465712
 20
149.2326589080603
 30
0.0
 11
15.80384583465712
 21
145.6326589080603
 31
0.0
  0
LINE
  5
BD
330
A
100
AcDbEntity
  8
MGW12
  6
CENTER
 62
   252
100
AcDbLine
 10
14.00384583465711
 20
147.4326589080603
 30
0.0
 11
17.60384583465713
 21
147.4326589080603
 31
0.0
  0
LINE
  5
BE
330
A
100
AcDbEntity
  8
MGW12
  6
CENTER
 62
   252
100
AcDbLine
 10
30.80384583465712
 20
149.2326589080603
 30
0.0
 11
30.80384583465712
 21
145.6326589080603
 31
0.0
  0
LINE
  5
BF
330
A
100
AcDbEntity
  8
MGW12
  6
CENTER
 62
   252
100
AcDbLine
 10
29.00384583465711
 20
147.4326589080603
 30
0.0
 11
32.60384583465713
 21
147.4326589080603
 31
0.0
  0
LINE
  5
C0
330
A
100
AcDbEntity
  8
MGW12
  6
CENTER
 62
   252
100
AcDbLine
 10
-16.69615416534288
 20
166.4326589080603
 30
0.0
 11
-16.69615416534288
 21
156.4326589080603
 31
0.0
  0
CIRCLE
  5
C1
330
A
100
AcDbEntity
  8
MGW12
  6
Continuous
 62
     4
100
AcDbCircle
 10
-16.69615416534288
 20
161.4326589080603
 30
-0.0000000000000109
 40
4.0
  0
CIRCLE
  5
C2
330
A
100
AcDbEntity
  8
MGW12
  6
Continuous
 62
     4
100
AcDbCircle
 10
-16.69615416534288
 20
161.4326589080603
 30
-0.0000000000000109
 40
2.25
  0
LINE
  5
C3
330
A
100
AcDbEntity
  8
MGW12
  6
CENTER
 62
   252
100
AcDbLine
 10
-21.69615416534287
 20
161.4326589080603
 30
0.0
 11
-11.69615416534287
 21
161.4326589080603
 31
0.0
  0
LINE
  5
C4
330
A
100
AcDbEntity
  8
MGW12
  6
Continuous
 62
     4
100
AcDbLine
 10
2.353845834657138
 20
181.1326589080604
 30
0.0
 11
2.353845834657138
 21
141.7326589080603
 31
0.0
  0
LINE
  5
C5
330
A
100
AcDbEntity
  8
MGW12
  6
Continuous
 62
     4
100
AcDbLine
 10
0.7538458346571375
 20
181.0326589080603
 30
0.0
 11
0.7538458346571375
 21
141.8326589080603
 31
0.0
  0
LINE
  5
C6
330
A
100
AcDbEntity
  8
MGW12
  6
Continuous
 62
     4
100
AcDbLine
 10
44.25384583465711
 20
181.1326589080604
 30
0.0
 11
44.25384583465711
 21
141.7326589080603
 31
0.0
  0
LINE
  5
C7
330
A
100
AcDbEntity
  8
MGW12
  6
Continuous
 62
     4
100
AcDbLine
 10
45.85384583465711
 20
181.0326589080603
 30
0.0
 11
45.85384583465711
 21
141.8326589080603
 31
0.0
  0
LINE
  5
C8
330
A
100
AcDbEntity
  8
MGW12
  6
Continuous
 62
     4
100
AcDbLine
 10
0.7538458346571375
 20
173.4326589080604
 30
0.0
 11
-31.69615416534288
 21
173.4326589080604
 31
0.0
  0
LINE
  5
C9
330
A
100
AcDbEntity
  8
MGW12
  6
Continuous
 62
     4
100
AcDbLine
 10
0.7538458346571375
 20
149.4326589080603
 30
0.0
 11
-31.69615416534288
 21
149.4326589080603
 31
0.0
  0
LINE
  5
CA
330
A
100
AcDbEntity
  8
MGW12
  6
Continuous
 62
     4
100
AcDbLine
 10
0.7538458346571375
 20
115.8326589080603
 30
0.0
 11
0.7538458346571375
 21
126.0326589080603
 31
0.0
  0
LINE
  5
CB
330
A
100
AcDbEntity
  8
MGW12
  6
Continuous
 62
     4
100
AcDbLine
 10
2.353845834657138
 20
115.8326589080603
 30
0.0
 11
2.353845834657138
 21
126.1326589080603
 31
0.0
  0
LINE
  5
CC
330
A
100
AcDbEntity
  8
MGW12
  6
Continuous
 62
     4
100
AcDbLine
 10
7.653845834657135
 20
115.8326589080603
 30
0.0
 11
7.653845834657135
 21
126.4326589080603
 31
0.0
  0
LINE
  5
CD
330
A
100
AcDbEntity
  8
MGW12
  6
Continuous
 62
     4
100
AcDbLine
 10
38.95384583465711
 20
115.8326589080603
 30
0.0
 11
38.95384583465711
 21
126.4326589080603
 31
0.0
  0
LINE
  5
CE
330
A
100
AcDbEntity
  8
MGW12
  6
Continuous
 62
     4
100
AcDbLine
 10
44.25384583465711
 20
115.8326589080603
 30
0.0
 11
44.25384583465711
 21
126.1326589080603
 31
0.0
  0
LINE
  5
CF
330
A
100
AcDbEntity
  8
MGW12
  6
Continuous
 62
     4
100
AcDbLine
 10
45.85384583465711
 20
115.8326589080603
 30
0.0
 11
45.85384583465711
 21
126.0326589080603
 31
0.0
  0
LINE
  5
D0
330
A
100
AcDbEntity
  8
MGW12
  6
Continuous
 62
     4
100
AcDbLine
 10
7.653845834657135
 20
126.4326589080603
 30
0.0
 11
38.95384583465711
 21
126.4326589080603
 31
0.0
  0
LINE
  5
D1
330
A
100
AcDbEntity
  8
MGW12
  6
Continuous
 62
     4
100
AcDbLine
 10
45.85384583465711
 20
115.8326589080603
 30
0.0
 11
0.7538458346571446
 21
115.8326589080603
 31
0.0
  0
LINE
  5
D2
330
A
100
AcDbEntity
  8
MGW12
  6
Continuous
 62
     4
100
AcDbLine
 10
0.3373306956659843
 20
120.9326589080603
 30
0.0
 11
-31.69615416534288
 21
120.9326589080603
 31
0.0
  0
LINE
  5
D3
330
A
100
AcDbEntity
  8
MGW12
  6
Continuous
 62
     4
100
AcDbLine
 10
0.7538458346571446
 20
120.2326589080603
 30
0.0
 11
-31.6961541653429
 21
120.2326589080603
 31
0.0
  0
LINE
  5
D4
330
A
100
AcDbEntity
  8
MGW12
  6
Continuous
 62
     4
100
AcDbLine
 10
0.7538458346571446
 20
119.5551581240925
 30
0.0
 11
-31.6961541653429
 21
119.5551581240925
 31
0.0
  0
LINE
  5
D5
330
A
100
AcDbEntity
  8
MGW12
  6
Continuous
 62
     4
100
AcDbLine
 10
0.7538458346571446
 20
117.3101636920281
 30
0.0
 11
-31.6961541653429
 21
117.3101636920281
 31
0.0
  0
LINE
  5
D6
330
A
100
AcDbEntity
  8
MGW12
  6
DASHED
 62
   252
100
AcDbLine
 10
14.30384583465718
 20
122.4326569080603
 30
0.0
 11
14.30384583465718
 21
126.1326589080603
 31
0.0
  0
LINE
  5
D7
330
A
100
AcDbEntity
  8
MGW12
  6
DASHED
 62
   252
100
AcDbLine
 10
14.55384583465718
 20
121.6326569080603
 30
0.0
 11
14.55384583465715
 21
126.1326589080603
 31
0.0
  0
LINE
  5
D8
330
A
100
AcDbEntity
  8
MGW12
  6
DASHED
 62
   252
100
AcDbLine
 10
17.05384583465715
 20
121.6326569080603
 30
0.0
 11
17.05384583465715
 21
126.1326589080603
 31
0.0
  0
LINE
  5
D9
330
A
100
AcDbEntity
  8
MGW12
  6
DASHED
 62
   252
100
AcDbLine
 10
17.30384583465712
 20
122.4326569080603
 30
0.0
 11
17.30384583465712
 21
126.1326589080603
 31
0.0
  0
LINE
  5
DA
330
A
100
AcDbEntity
  8
MGW12
  6
DASHED
 62
   252
100
AcDbLine
 10
17.05384583465715
 20
121.6326569080603
 30
0.0
 11
14.55384583465718
 21
121.6326569080603
 31
0.0
  0
LINE
  5
DB
330
A
100
AcDbEntity
  8
MGW12
  6
DASHED
 62
   252
100
AcDbLine
 10
14.55384583465718
 20
121.6326569080603
 30
0.0
 11
15.80384583465715
 21
120.9109690715733
 31
0.0
  0
LINE
  5
DC
330
A
100
AcDbEntity
  8
MGW12
  6
DASHED
 62
   252
100
AcDbLine
 10
15.80384583465715
 20
120.9109690715733
 30
0.0
 11
17.05384583465715
 21
121.6326569080603
 31
0.0
  0
LINE
  5
DD
330
A
100
AcDbEntity
  8
MGW12
  6
CENTER
 62
   252
100
AcDbLine
 10
15.80384583465715
 20
120.3497123060081
 30
0.0
 11
15.80384583465712
 21
126.9326589080603
 31
0.0
  0
LINE
  5
DE
330
A
100
AcDbEntity
  8
MGW12
  6
DASHED
 62
   252
100
AcDbLine
 10
17.30384583465712
 20
122.4326569080603
 30
0.0
 11
14.30384583465718
 21
122.4326569080603
 31
0.0
  0
LINE
  5
DF
330
A
100
AcDbEntity
  8
MGW12
  6
DASHED
 62
   252
100
AcDbLine
 10
14.30384583465718
 20
126.1326589080603
 30
0.0
 11
14.00384583465714
 21
126.4326589080603
 31
0.0
  0
LINE
  5
E0
330
A
100
AcDbEntity
  8
MGW12
  6
DASHED
 62
   252
100
AcDbLine
 10
17.30384583465712
 20
126.1326589080603
 30
0.0
 11
14.30384583465718
 21
126.1326589080603
 31
0.0
  0
LINE
  5
E1
330
A
100
AcDbEntity
  8
MGW12
  6
CENTER
 62
   252
100
AcDbLine
 10
30.80384583465715
 20
120.3497123060081
 30
0.0
 11
30.80384583465712
 21
126.9326589080603
 31
0.0
  0
LINE
  5
E2
330
A
100
AcDbEntity
  8
MGW12
  6
CENTER
 62
   252
100
AcDbLine
 10
23.30384583465711
 20
121.902195438444
 30
0.0
 11
23.30384583465711
 21
111.4631223776766
 31
0.0
  0
LINE
  5
E3
330
A
100
AcDbEntity
  8
MGW12
  6
CENTER
 62
   252
100
AcDbLine
 10
63.30384583465711
 20
121.902195438444
 30
0.0
 11
63.30384583465711
 21
111.4631223776766
 31
0.0
  0
LINE
  5
E4
330
A
100
AcDbEntity
  8
MGW12
  6
CENTER
 62
   252
100
AcDbLine
 10
-16.69615416534288
 20
121.902195438444
 30
0.0
 11
-16.69615416534288
 21
111.4631223776766
 31
0.0
  0
LINE
  5
E5
330
A
100
AcDbEntity
  8
MGW12
  6
CENTER
 62
   252
100
AcDbLine
 10
63.30384583465711
 20
166.4326589080603
 30
0.0
 11
63.30384583465711
 21
156.4326589080603
 31
0.0
  0
CIRCLE
  5
E6
330
A
100
AcDbEntity
  8
MGW12
  6
Continuous
 62
     4
100
AcDbCircle
 10
63.30384583465711
 20
161.4326589080603
 30
-0.0000000000000109
 40
4.0
  0
CIRCLE
  5
E7
330
A
100
AcDbEntity
  8
MGW12
  6
Continuous
 62
     4
100
AcDbCircle
 10
63.30384583465711
 20
161.4326589080603
 30
-0.0000000000000109
 40
2.25
  0
LINE
  5
E8
330
A
100
AcDbEntity
  8
MGW12
  6
CENTER
 62
   252
100
AcDbLine
 10
58.30384583465712
 20
161.4326589080603
 30
0.0
 11
68.30384583465712
 21
161.4326589080603
 31
0.0
  0
LINE
  5
E9
330
A
100
AcDbEntity
  8
MGW12
  6
Continuous
 62
     4
100
AcDbLine
 10
2.353845834657138
 20
181.1326589080604
 30
0.0
 11
7.653845834657135
 21
181.1326589080604
 31
0.0
  0
LINE
  5
EA
330
A
100
AcDbEntity
  8
MGW12
  6
Continuous
 62
     4
100
AcDbLine
 10
2.353845834657138
 20
141.7326589080603
 30
0.0
 11
7.653845834657135
 21
141.7326589080603
 31
0.0
  0
LINE
  5
EB
330
A
100
AcDbEntity
  8
MGW12
  6
Continuous
 62
     4
100
AcDbLine
 10
0.7538458346571375
 20
181.0326589080603
 30
0.0
 11
2.353845834657138
 21
181.0326589080603
 31
0.0
  0
LINE
  5
EC
330
A
100
AcDbEntity
  8
MGW12
  6
Continuous
 62
     4
100
AcDbLine
 10
0.7538458346571375
 20
141.8326589080603
 30
0.0
 11
2.353845834657138
 21
141.8326589080603
 31
0.0
  0
LINE
  5
ED
330
A
100
AcDbEntity
  8
MGW12
  6
Continuous
 62
     4
100
AcDbLine
 10
44.25384583465711
 20
181.1326589080604
 30
0.0
 11
38.95384583465711
 21
181.1326589080604
 31
0.0
  0
LINE
  5
EE
330
A
100
AcDbEntity
  8
MGW12
  6
Continuous
 62
     4
100
AcDbLine
 10
44.25384583465711
 20
141.7326589080603
 30
0.0
 11
38.95384583465711
 21
141.7326589080603
 31
0.0
  0
LINE
  5
EF
330
A
100
AcDbEntity
  8
MGW12
  6
Continuous
 62
     4
100
AcDbLine
 10
45.85384583465711
 20
181.0326589080603
 30
0.0
 11
44.25384583465711
 21
181.0326589080603
 31
0.0
  0
LINE
  5
F0
330
A
100
AcDbEntity
  8
MGW12
  6
Continuous
 62
     4
100
AcDbLine
 10
45.85384583465711
 20
141.8326589080603
 30
0.0
 11
44.25384583465711
 21
141.8326589080603
 31
0.0
  0
LINE
  5
F1
330
A
100
AcDbEntity
  8
MGW12
  6
Continuous
 62
     4
100
AcDbLine
 10
44.25384583465711
 20
126.1326589080603
 30
0.0
 11
38.95384583465711
 21
126.1326589080603
 31
0.0
  0
LINE
  5
F2
330
A
100
AcDbEntity
  8
MGW12
  6
Continuous
 62
     4
100
AcDbLine
 10
45.85384583465711
 20
126.0326589080603
 30
0.0
 11
44.25384583465711
 21
126.0326589080603
 31
0.0
  0
LINE
  5
F3
330
A
100
AcDbEntity
  8
MGW12
  6
Continuous
 62
     4
100
AcDbLine
 10
2.353845834657138
 20
126.1326589080603
 30
0.0
 11
7.653845834657135
 21
126.1326589080603
 31
0.0
  0
LINE
  5
F4
330
A
100
AcDbEntity
  8
MGW12
  6
Continuous
 62
     4
100
AcDbLine
 10
0.7538458346571375
 20
126.0326589080603
 30
0.0
 11
2.353845834657138
 21
126.0326589080603
 31
0.0
  0
CIRCLE
  5
F5
330
A
100
AcDbEntity
  8
MGW12
  6
Continuous
 62
     4
100
AcDbCircle
 10
-76.89615416534286
 20
122.5826589080603
 30
0.0
 40
2.25
  0
ARC
  5
F6
330
A
100
AcDbEntity
  8
MGW12
  6
Continuous
 62
     4
100
AcDbCircle
 10
-76.89615416534286
 20
122.5826589080603
 30
0.0
 40
1.3
100
AcDbArc
 50
306.1501169015712
 51
323.8498830984287
  0
LINE
  5
F7
330
A
100
AcDbEntity
  8
MGW12
  6
Continuous
 62
     4
100
AcDbLine
 10
-77.66302791533478
 20
121.5329424455938
 30
0.0
 11
-76.89615416534285
 21
122.2998161955857
 31
0.0
  0
LINE
  5
F8
330
A
100
AcDbEntity
  8
MGW12
  6
Continuous
 62
     4
100
AcDbLine
 10
-77.94587062780943
 20
121.8157851580684
 30
0.0
 11
-77.17899687781747
 21
122.5826589080603
 31
0.0
  0
LINE
  5
F9
330
A
100
AcDbEntity
  8
MGW12
  6
Continuous
 62
     4
100
AcDbLine
 10
-76.12928041535091
 20
121.5329424455938
 30
0.0
 11
-76.89615416534285
 21
122.2998161955857
 31
0.0
  0
LINE
  5
FA
330
A
100
AcDbEntity
  8
MGW12
  6
Continuous
 62
     4
100
AcDbLine
 10
-75.84643770287629
 20
121.8157851580684
 30
0.0
 11
-76.6133114528682
 21
122.5826589080603
 31
0.0
  0
LINE
  5
FB
330
A
100
AcDbEntity
  8
MGW12
  6
Continuous
 62
     4
100
AcDbLine
 10
-77.17899687781747
 20
122.5826589080603
 30
0.0
 11
-77.94587062780943
 21
123.3495326580523
 31
0.0
  0
LINE
  5
FC
330
A
100
AcDbEntity
  8
MGW12
  6
Continuous
 62
     4
100
AcDbLine
 10
-76.89615416534286
 20
122.865501620535
 30
0.0
 11
-77.66302791533476
 21
123.6323753705269
 31
0.0
  0
LINE
  5
FD
330
A
100
AcDbEntity
  8
MGW12
  6
Continuous
 62
     4
100
AcDbLine
 10
-76.89615416534286
 20
122.865501620535
 30
0.0
 11
-76.12928041535093
 21
123.6323753705269
 31
0.0
  0
LINE
  5
FE
330
A
100
AcDbEntity
  8
MGW12
  6
Continuous
 62
     4
100
AcDbLine
 10
-76.6133114528682
 20
122.5826589080603
 30
0.0
 11
-75.84643770287629
 21
123.3495326580523
 31
0.0
  0
ARC
  5
FF
330
A
100
AcDbEntity
  8
MGW12
  6
Continuous
 62
     4
100
AcDbCircle
 10
-76.89615416534286
 20
122.5826589080603
 30
0.0
 40
1.3
100
AcDbArc
 50
216.1501169015712
 51
233.8498830984287
  0
ARC
  5
100
330
A
100
AcDbEntity
  8
MGW12
  6
Continuous
 62
     4
100
AcDbCircle
 10
-76.89615416534286
 20
122.5826589080603
 30
0.0
 40
1.3
100
AcDbArc
 50
36.15011690157126
 51
53.8498830984294
  0
ARC
  5
101
330
A
100
AcDbEntity
  8
MGW12
  6
Continuous
 62
     4
100
AcDbCircle
 10
-76.89615416534286
 20
122.5826589080603
 30
0.0
 40
1.3
100
AcDbArc
 50
126.1501169015712
 51
143.8498830984287
  0
CIRCLE
  5
102
330
A
100
AcDbEntity
  8
MGW12
  6
Continuous
 62
     4
100
AcDbCircle
 10
-46.49615416534283
 20
122.5826589080603
 30
0.0
 40
2.25
  0
ARC
  5
103
330
A
100
AcDbEntity
  8
MGW12
  6
Continuous
 62
     4
100
AcDbCircle
 10
-46.49615416534283
 20
122.5826589080603
 30
0.0
 40
1.3
100
AcDbArc
 50
306.1501169015709
 51
323.8498830984287
  0
LINE
  5
104
330
A
100
AcDbEntity
  8
MGW12
  6
Continuous
 62
     4
100
AcDbLine
 10
-47.26302791533474
 20
121.5329424455938
 30
0.0
 11
-46.49615416534281
 21
122.2998161955857
 31
0.0
  0
LINE
  5
105
330
A
100
AcDbEntity
  8
MGW12
  6
Continuous
 62
     4
100
AcDbLine
 10
-47.54587062780939
 20
121.8157851580684
 30
0.0
 11
-46.77899687781743
 21
122.5826589080603
 31
0.0
  0
LINE
  5
106
330
A
100
AcDbEntity
  8
MGW12
  6
Continuous
 62
     4
100
AcDbLine
 10
-45.72928041535088
 20
121.5329424455938
 30
0.0
 11
-46.49615416534281
 21
122.2998161955857
 31
0.0
  0
LINE
  5
107
330
A
100
AcDbEntity
  8
MGW12
  6
Continuous
 62
     4
100
AcDbLine
 10
-45.44643770287625
 20
121.8157851580684
 30
0.0
 11
-46.21331145286816
 21
122.5826589080603
 31
0.0
  0
LINE
  5
108
330
A
100
AcDbEntity
  8
MGW12
  6
Continuous
 62
     4
100
AcDbLine
 10
-46.77899687781743
 20
122.5826589080603
 30
0.0
 11
-47.54587062780939
 21
123.3495326580523
 31
0.0
  0
LINE
  5
109
330
A
100
AcDbEntity
  8
MGW12
  6
Continuous
 62
     4
100
AcDbLine
 10
-46.49615416534283
 20
122.865501620535
 30
0.0
 11
-47.26302791533472
 21
123.6323753705269
 31
0.0
  0
LINE
  5
10A
330
A
100
AcDbEntity
  8
MGW12
  6
Continuous
 62
     4
100
AcDbLine
 10
-46.49615416534283
 20
122.865501620535
 30
0.0
 11
-45.7292804153509
 21
123.6323753705269
 31
0.0
  0
LINE
  5
10B
330
A
100
AcDbEntity
  8
MGW12
  6
Continuous
 62
     4
100
AcDbLine
 10
-46.21331145286816
 20
122.5826589080603
 30
0.0
 11
-45.44643770287625
 21
123.3495326580523
 31
0.0
  0
ARC
  5
10C
330
A
100
AcDbEntity
  8
MGW12
  6
Continuous
 62
     4
100
AcDbCircle
 10
-46.49615416534283
 20
122.5826589080603
 30
0.0
 40
1.3
100
AcDbArc
 50
216.1501169015712
 51
233.849883098429
  0
ARC
  5
10D
330
A
100
AcDbEntity
  8
MGW12
  6
Continuous
 62
     4
100
AcDbCircle
 10
-46.49615416534283
 20
122.5826589080603
 30
0.0
 40
1.3
100
AcDbArc
 50
36.15011690157126
 51
53.84988309842906
  0
ARC
  5
10E
330
A
100
AcDbEntity
  8
MGW12
  6
Continuous
 62
     4
100
AcDbCircle
 10
-46.49615416534283
 20
122.5826589080603
 30
0.0
 40
1.3
100
AcDbArc
 50
126.1501169015709
 51
143.8498830984287
  0
LINE
  5
10F
330
A
100
AcDbEntity
  8
MGW12
  6
Continuous
 62
     4
100
AcDbLine
 10
46.35384583465711
 20
121.3326589080603
 30
0.0
 11
46.35384583465711
 21
123.8326589080603
 31
0.0
  0
ARC
  5
110
330
A
100
AcDbEntity
  8
MGW12
  6
Continuous
 62
     4
100
AcDbCircle
 10
45.35384583465711
 20
123.8326589080603
 30
0.0
 40
1.0
100
AcDbArc
 50
0.0
 51
59.99999999999986
  0
ARC
  5
111
330
A
100
AcDbEntity
  8
MGW12
  6
Continuous
 62
     4
100
AcDbCircle
 10
45.35384583465711
 20
121.3326589080603
 30
0.0
 40
1.0
100
AcDbArc
 50
300.0000000000001
 51
360.0
  0
LINE
  5
112
330
A
100
AcDbEntity
  8
MGW12
  6
Continuous
 62
     4
100
AcDbLine
 10
0.2538458346571375
 20
121.3326589080603
 30
0.0
 11
0.2538458346571375
 21
123.8326589080603
 31
0.0
  0
ARC
  5
113
330
A
100
AcDbEntity
  8
MGW12
  6
Continuous
 62
     4
100
AcDbCircle
 10
1.253845834657137
 20
123.8326589080603
 30
0.0
 40
1.0
100
AcDbArc
 50
120.0000000000001
 51
180.0
  0
ARC
  5
114
330
A
100
AcDbEntity
  8
MGW12
  6
Continuous
 62
     4
100
AcDbCircle
 10
1.253845834657137
 20
121.3326589080603
 30
0.0
 40
1.0
100
AcDbArc
 50
180.0
 51
239.9999999999998
  0
LINE
  5
115
330
A
100
AcDbEntity
  8
MGW12
  6
Continuous
 62
     4
100
AcDbLine
 10
46.35384583465711
 20
144.9826589080603
 30
0.0
 11
46.35384583465711
 21
147.4826589080603
 31
0.0
  0
ARC
  5
116
330
A
100
AcDbEntity
  8
MGW12
  6
Continuous
 62
     4
100
AcDbCircle
 10
45.35384583465711
 20
147.4826589080603
 30
0.0
 40
1.0
100
AcDbArc
 50
0.0
 51
60.00000000000028
  0
ARC
  5
117
330
A
100
AcDbEntity
  8
MGW12
  6
Continuous
 62
     4
100
AcDbCircle
 10
45.35384583465711
 20
144.9826589080603
 30
0.0
 40
1.0
100
AcDbArc
 50
299.9999999999997
 51
360.0
  0
LINE
  5
118
330
A
100
AcDbEntity
  8
MGW12
  6
Continuous
 62
     4
100
AcDbLine
 10
46.35384583465711
 20
175.3826589080603
 30
0.0
 11
46.35384583465711
 21
177.8826589080603
 31
0.0
  0
ARC
  5
119
330
A
100
AcDbEntity
  8
MGW12
  6
Continuous
 62
     4
100
AcDbCircle
 10
45.35384583465711
 20
177.8826589080603
 30
0.0
 40
1.0
100
AcDbArc
 50
0.0
 51
60.00000000000028
  0
ARC
  5
11A
330
A
100
AcDbEntity
  8
MGW12
  6
Continuous
 62
     4
100
AcDbCircle
 10
45.35384583465711
 20
175.3826589080603
 30
0.0
 40
1.0
100
AcDbArc
 50
299.9999999999997
 51
360.0
  0
LINE
  5
11B
330
A
100
AcDbEntity
  8
MGW12
  6
Continuous
 62
     4
100
AcDbLine
 10
0.2538458346571375
 20
144.9826589080603
 30
0.0
 11
0.2538458346571375
 21
147.4826589080603
 31
0.0
  0
ARC
  5
11C
330
A
100
AcDbEntity
  8
MGW12
  6
Continuous
 62
     4
100
AcDbCircle
 10
1.253845834657137
 20
147.4826589080603
 30
0.0
 40
1.0
100
AcDbArc
 50
119.9999999999997
 51
180.0
  0
ARC
  5
11D
330
A
100
AcDbEntity
  8
MGW12
  6
Continuous
 62
     4
100
AcDbCircle
 10
1.253845834657137
 20
144.9826589080603
 30
0.0
 40
1.0
100
AcDbArc
 50
180.0
 51
240.0000000000002
  0
LINE
  5
11E
330
A
100
AcDbEntity
  8
MGW12
  6
Continuous
 62
     4
100
AcDbLine
 10
0.2538458346571375
 20
175.3826589080603
 30
0.0
 11
0.2538458346571375
 21
177.8826589080603
 31
0.0
  0
ARC
  5
11F
330
A
100
AcDbEntity
  8
MGW12
  6
Continuous
 62
     4
100
AcDbCircle
 10
1.253845834657137
 20
177.8826589080603
 30
0.0
 40
1.0
100
AcDbArc
 50
119.9999999999997
 51
180.0
  0
ARC
  5
120
330
A
100
AcDbEntity
  8
MGW12
  6
Continuous
 62
     4
100
AcDbCircle
 10
1.253845834657137
 20
175.3826589080603
 30
0.0
 40
1.0
100
AcDbArc
 50
180.0
 51
240.0000000000002
  0
ARC
  5
121
330
A
100
AcDbEntity
  8
MGW12
  6
Continuous
 62
     4
100
AcDbCircle
 10
-74.28065342534293
 20
118.4326609080603
 30
-0.0000000000000252
 40
1.27
100
AcDbArc
 50
301.3744431811077
 51
332.5135737496202
  0
ARC
  5
122
330
A
100
AcDbEntity
  8
MGW12
  6
Continuous
 62
     4
100
AcDbCircle
 10
-74.28065342534293
 20
118.4326609080603
 30
-0.0000000000000252
 40
1.27
100
AcDbArc
 50
27.48642625038237
 51
58.62555681889228
  0
ARC
  5
123
330
A
100
AcDbEntity
  8
MGW12
  6
Continuous
 62
     4
100
AcDbCircle
 10
-73.53615416534291
 20
119.6535707539783
 30
-0.0000000000000252
 40
0.16
100
AcDbArc
 50
179.9999999999951
 51
238.6255568188911
  0
ARC
  5
124
330
A
100
AcDbEntity
  8
MGW12
  6
Continuous
 62
     4
100
AcDbCircle
 10
-73.01207153992916
 20
119.0926609080603
 30
-0.0000000000000252
 40
0.16
100
AcDbArc
 50
207.4864262503852
 51
270.0
  0
ARC
  5
125
330
A
100
AcDbEntity
  8
MGW12
  6
Continuous
 62
     4
100
AcDbCircle
 10
-73.01207153992915
 20
117.7726609080603
 30
-0.0000000000000252
 40
0.16
100
AcDbArc
 50
90.0
 51
152.5135737496172
  0
ARC
  5
126
330
A
100
AcDbEntity
  8
MGW12
  6
Continuous
 62
     4
100
AcDbCircle
 10
-73.53615416534291
 20
117.2117510621423
 30
-0.0000000000000252
 40
0.16
100
AcDbArc
 50
121.3744431811052
 51
180.0
  0
ARC
  5
127
330
A
100
AcDbEntity
  8
MGW12
  6
Continuous
 62
     4
100
AcDbCircle
 10
-49.11165490534276
 20
118.4326609080603
 30
-0.0000000000000252
 40
1.27
100
AcDbArc
 50
207.4864262503798
 51
238.6255568188922
  0
ARC
  5
128
330
A
100
AcDbEntity
  8
MGW12
  6
Continuous
 62
     4
100
AcDbCircle
 10
-49.11165490534276
 20
118.4326609080603
 30
-0.0000000000000252
 40
1.27
100
AcDbArc
 50
121.3744431811073
 51
152.5135737496174
  0
ARC
  5
129
330
A
100
AcDbEntity
  8
MGW12
  6
Continuous
 62
     4
100
AcDbCircle
 10
-49.85615416534279
 20
119.6535707539783
 30
-0.0000000000000252
 40
0.16
100
AcDbArc
 50
301.3744431811092
 51
360.0000000000048
  0
ARC
  5
12A
330
A
100
AcDbEntity
  8
MGW12
  6
Continuous
 62
     4
100
AcDbCircle
 10
-50.38023679075653
 20
119.0926609080603
 30
-0.0000000000000252
 40
0.16
100
AcDbArc
 50
270.0
 51
332.5135737496147
  0
ARC
  5
12B
330
A
100
AcDbEntity
  8
MGW12
  6
Continuous
 62
     4
100
AcDbCircle
 10
-50.38023679075654
 20
117.7726609080603
 30
-0.0000000000000252
 40
0.16
100
AcDbArc
 50
27.48642625038256
 51
90.0
  0
ARC
  5
12C
330
A
100
AcDbEntity
  8
MGW12
  6
Continuous
 62
     4
100
AcDbCircle
 10
-49.85615416534279
 20
117.2117510621423
 30
-0.0000000000000252
 40
0.16
100
AcDbArc
 50
0.0
 51
58.62555681889478
  0
ENDSEC
  0
SECTION
  2
OBJECTS
  0
DICTIONARY
  5
19
330
0
100
AcDbDictionary
281
     1
  3
ACAD_GROUP
350
1A
  3
ACAD_LAYOUT
350
138
  3
ACAD_MLINESTYLE
350
1B
  3
ACAD_PLOTSETTINGS
350
139
  3
ACAD_PLOTSTYLENAME
350
136
  0
DICTIONARY
  5
1A
102
{ACAD_REACTORS
330
19
102
}
330
19
100
AcDbDictionary
281
     1
  0
DICTIONARY
  5
138
102
{ACAD_REACTORS
330
19
102
}
330
19
100
AcDbDictionary
281
     1
  3
Layout1
350
13B
  3
Model
350
13A
  0
DICTIONARY
  5
1B
102
{ACAD_REACTORS
330
19
102
}
330
19
100
AcDbDictionary
281
     1
  3
STANDARD
350
1C
  0
DICTIONARY
  5
139
102
{ACAD_REACTORS
330
19
102
}
330
19
100
AcDbDictionary
281
     1
  0
ACDBDICTIONARYWDFLT
  5
136
102
{ACAD_REACTORS
330
19
102
}
330
19
100
AcDbDictionary
281
     1
  3
Normal
350
137
100
AcDbDictionaryWithDefault
340
137
  0
LAYOUT
  5
13B
102
{ACAD_REACTORS
330
138
102
}
330
138
100
AcDbPlotSettings
  1

  2
HPLJ2100_Technik_S3
  4

  6

 40
0.0
 41
0.0
 42
0.0
 43
0.0
 44
0.0
 45
0.0
 46
0.0
 47
0.0
 48
0.0
 49
0.0
140
0.0
141
0.0
142
1.0
143
1.0
 70
   688
 72
     0
 73
     0
 74
     5
  7

 75
    16
147
1.0
148
0.0
149
0.0
100
AcDbLayout
  1
Layout1
 70
     0
 71
     1
 10
0.0
 20
0.0
 11
12.0
 21
9.0
 12
0.0
 22
0.0
 32
0.0
 14
1.000000000000000E+20
 24
1.000000000000000E+20
 34
1.000000000000000E+20
 15
-1.000000000000000E+20
 25
-1.000000000000000E+20
 35
-1.000000000000000E+20
146
0.0
 13
0.0
 23
0.0
 33
0.0
 16
1.0
 26
0.0
 36
0.0
 17
0.0
 27
1.0
 37
0.0
 76
     0
330
B
  0
LAYOUT
  5
13A
102
{ACAD_REACTORS
330
138
102
}
330
138
100
AcDbPlotSettings
  1

  2
HPLJ2100_Technik_S3
  4

  6

 40
0.0
 41
0.0
 42
0.0
 43
0.0
 44
0.0
 45
0.0
 46
0.0
 47
0.0
 48
0.0
 49
0.0
140
0.0
141
0.0
142
1.0
143
1.0
 70
  1712
 72
     0
 73
     0
 74
     0
  7

 75
     0
147
1.0
148
0.0
149
0.0
100
AcDbLayout
  1
Model
 70
     1
 71
     0
 10
0.0
 20
0.0
 11
12.0
 21
9.0
 12
0.0
 22
0.0
 32
0.0
 14
0.0
 24
0.0
 34
0.0
 15
0.0
 25
0.0
 35
0.0
146
0.0
 13
0.0
 23
0.0
 33
0.0
 16
1.0
 26
0.0
 36
0.0
 17
0.0
 27
1.0
 37
0.0
 76
     0
330
A
  0
MLINESTYLE
  5
1C
102
{ACAD_REACTORS
330
1B
102
}
330
1B
100
AcDbMlineStyle
  2
STANDARD
 70
     0
  3

 62
     0
 51
90.00000000000019
 52
90.00000000000019
 71
     2
 49
0.5
 62
   256
  6
BYLAYER
 49
-0.5
 62
   256
  6
BYLAYER
  0
ACDBPLACEHOLDER
  5
137
102
{ACAD_REACTORS
330
136
102
}
330
136
  0
ENDSEC
  0
EOF
