  0
SECTION
  2
HEADER
  9
$ACADVER
  1
AC1009
  9
$INSBASE
 10
0.0
 20
0.0
 30
0.0
  9
$EXTMIN
 10
-414.38286128363711
 20
-54.936170420477119
 30
0.0
  9
$EXTMAX
 10
-90.728148197069686
 20
170.46689743451819
 30
0.0
  9
$LIMMIN
 10
-10.0
 20
-15.0
  9
$LIMMAX
 10
120.0
 20
90.0
  9
$ORTHOMODE
 70
     1
  9
$REGENMODE
 70
     0
  9
$FILLMODE
 70
     1
  9
$QTEXTMODE
 70
     0
  9
$MIRRTEXT
 70
     0
  9
$DRAGMODE
 70
     2
  9
$LTSCALE
 40
2.0
  9
$OSMODE
 70
  3071
  9
$ATTMODE
 70
     1
  9
$TEXTSIZE
 40
3.0
  9
$TRACEWID
 40
1.0
  9
$TEXTSTYLE
  7
STANDARD
  9
$CLAYER
  8
0
  9
$CELTYPE
  6
ByLayer
  9
$CECOLOR
 62
   256
  9
$DIMSCALE
 40
1.0
  9
$DIMASZ
 40
3.0
  9
$DIMEXO
 40
1.0
  9
$DIMDLI
 40
6.0
  9
$DIMRND
 40
0.0
  9
$DIMDLE
 40
0.0
  9
$DIMEXE
 40
1.0
  9
$DIMTP
 40
0.0
  9
$DIMTM
 40
0.0
  9
$DIMTXT
 40
3.0
  9
$DIMCEN
 40
1.5
  9
$DIMTSZ
 40
0.0
  9
$DIMTOL
 70
     0
  9
$DIMLIM
 70
     0
  9
$DIMTIH
 70
     1
  9
$DIMTOH
 70
     1
  9
$DIMSE1
 70
     0
  9
$DIMSE2
 70
     0
  9
$DIMTAD
 70
     0
  9
$DIMZIN
 70
     0
  9
$DIMBLK
  1

  9
$DIMASO
 70
     1
  9
$DIMSHO
 70
     0
  9
$DIMPOST
  1

  9
$DIMAPOST
  1

  9
$DIMALT
 70
     0
  9
$DIMALTD
 70
     2
  9
$DIMALTF
 40
25.399999999999999
  9
$DIMLFAC
 40
1.0
  9
$DIMTOFL
 70
     1
  9
$DIMTVP
 40
0.0
  9
$DIMTIX
 70
     0
  9
$DIMSOXD
 70
     0
  9
$DIMSAH
 70
     0
  9
$DIMBLK1
  1

  9
$DIMBLK2
  1

  9
$DIMSTYLE
  2
STANDARD
  9
$DIMCLRD
 70
     0
  9
$DIMCLRE
 70
     0
  9
$DIMCLRT
 70
     0
  9
$DIMTFAC
 40
1.0
  9
$DIMGAP
 40
0.09
  9
$LUNITS
 70
     2
  9
$LUPREC
 70
     4
  9
$SKETCHINC
 40
0.5
  9
$FILLETRAD
 40
0.0
  9
$AUNITS
 70
     0
  9
$AUPREC
 70
     0
  9
$MENU
  1
ACAD
  9
$ELEVATION
 40
0.0
  9
$PELEVATION
 40
0.0
  9
$THICKNESS
 40
0.0
  9
$LIMCHECK
 70
     0
  9
$BLIPMODE
 70
     0
  9
$CHAMFERA
 40
0.0
  9
$CHAMFERB
 40
0.0
  9
$SKPOLY
 70
     0
  9
$TDCREATE
 40
2444975.333333334
  9
$TDUPDATE
 40
2453689.3986678938
  9
$TDINDWG
 40
0.0437640972
  9
$TDUSRTIMER
 40
0.0
  9
$USRTIMER
 70
     0
  9
$ANGBASE
 50
0.0
  9
$ANGDIR
 70
     0
  9
$PDMODE
 70
   171
  9
$PDSIZE
 40
0.001
  9
$PLINEWID
 40
0.0
  9
$COORDS
 70
     2
  9
$SPLFRAME
 70
     0
  9
$SPLINETYPE
 70
     6
  9
$SPLINESEGS
 70
     8
  9
$ATTDIA
 70
     0
  9
$ATTREQ
 70
     1
  9
$HANDLING
 70
     1
  9
$HANDSEED
  5
7280
  9
$SURFTAB1
 70
     6
  9
$SURFTAB2
 70
     6
  9
$SURFTYPE
 70
     6
  9
$SURFU
 70
     6
  9
$SURFV
 70
     6
  9
$UCSNAME
  2

  9
$UCSORG
 10
0.0
 20
0.0
 30
0.0
  9
$UCSXDIR
 10
1.0
 20
0.0
 30
0.0
  9
$UCSYDIR
 10
0.0
 20
1.0
 30
0.0
  9
$PUCSNAME
  2

  9
$PUCSORG
 10
0.0
 20
0.0
 30
0.0
  9
$PUCSXDIR
 10
1.0
 20
0.0
 30
0.0
  9
$PUCSYDIR
 10
0.0
 20
1.0
 30
0.0
  9
$USERI1
 70
     0
  9
$USERI2
 70
     0
  9
$USERI3
 70
     0
  9
$USERI4
 70
     0
  9
$USERI5
 70
     0
  9
$USERR1
 40
0.0
  9
$USERR2
 40
0.0
  9
$USERR3
 40
0.0
  9
$USERR4
 40
0.0
  9
$USERR5
 40
0.0
  9
$WORLDVIEW
 70
     1
  9
$SHADEDGE
 70
     3
  9
$SHADEDIF
 70
    70
  9
$TILEMODE
 70
     1
  9
$MAXACTVP
 70
    48
  9
$PLIMCHECK
 70
     0
  9
$PEXTMIN
 10
1.0000000000000000E+020
 20
1.0000000000000000E+020
 30
1.0000000000000000E+020
  9
$PEXTMAX
 10
-1.0000000000000000E+020
 20
-1.0000000000000000E+020
 30
-1.0000000000000000E+020
  9
$PLIMMIN
 10
0.0
 20
0.0
  9
$PLIMMAX
 10
12.0
 20
9.0
  9
$UNITMODE
 70
     0
  9
$VISRETAIN
 70
     1
  9
$PLINEGEN
 70
     0
  9
$PSLTSCALE
 70
     0
  0
ENDSEC
  0
SECTION
  2
TABLES
  0
TABLE
  2
VPORT
 70
     2
  0
VPORT
  2
*ACTIVE
 70
     0
 10
0.0
 20
0.0
 11
1.0
 21
1.0
 12
-236.90020890210889
 22
57.378605465935443
 13
457.99999999999972
 23
1082.0
 14
10.0
 24
10.0
 15
10.0
 25
10.0
 16
0.0
 26
0.0
 36
1.0
 17
0.0
 27
0.0
 37
0.0
 40
297.43241604622392
 41
1.7038081805359659
 42
1.0
 43
0.0
 44
0.0
 50
0.0
 51
0.0
 71
     0
 72
   100
 73
     1
 74
     1
 75
     0
 76
     0
 77
     0
 78
     0
  0
ENDTAB
  0
TABLE
  2
LTYPE
 70
     5
  0
LTYPE
  2
ByBlock
 70
     0
  3

 72
    65
 73
     0
 40
0.0
  0
LTYPE
  2
ByLayer
 70
     0
  3

 72
    65
 73
     0
 40
0.0
  0
LTYPE
  2
CONTINUOUS
 70
     0
  3
łsÄň˝u ________________________
 72
    65
 73
     2
 40
200000.0
 49
200000.0
 49
0.0
  0
LTYPE
  2
CENTER2
 70
     0
  3
Center (.5x) ___ _ ___ _ ___ _ ___ _ ___ _ ___
 72
    65
 73
     4
 40
28.574999999999999
 49
19.050000000000001
 49
-3.1749999999999989
 49
3.1749999999999989
 49
-3.1749999999999989
  0
LTYPE
  2
DASHED2
 70
     0
  3
Dashed (.5x) _ _ _ _ _ _ _ _ _ _ _ _ _ _ _ _ _
 72
    65
 73
     2
 40
9.5249999999999986
 49
6.3499999999999988
 49
-3.1749999999999989
  0
ENDTAB
  0
TABLE
  2
LAYER
 70
     8
  0
LAYER
  2
0
 70
     0
 62
     7
  6
CONTINUOUS
  0
LAYER
  2
«ü˝u
 70
     0
 62
     3
  6
CONTINUOUS
  0
LAYER
  2
¤¤¤ß˝u
 70
     0
 62
     4
  6
CENTER2
  0
LAYER
  2
µę˝u
 70
     0
 62
     6
  6
DASHED2
  0
LAYER
  2
«Řşc˝u
 70
     0
 62
     1
  6
CONTINUOUS
  0
LAYER
  2
AM5
 70
     0
 62
     3
  6
CONTINUOUS
  0
LAYER
  2
AM7
 70
     0
 62
     4
  6
CENTER2
  0
LAYER
  2
DEFPOINTS
 70
     0
 62
     7
  6
CONTINUOUS
  0
ENDTAB
  0
TABLE
  2
STYLE
 70
     1
  0
STYLE
  2
STANDARD
 70
     0
 40
0.0
 41
1.0
 50
0.0
 71
     0
 42
3.0
  3
txt
  4

  0
ENDTAB
  0
TABLE
  2
VIEW
 70
     0
  0
ENDTAB
  0
TABLE
  2
UCS
 70
     0
  0
ENDTAB
  0
TABLE
  2
APPID
 70
     4
  0
APPID
  2
ACAD
 70
     0
  0
APPID
  2
TCAD
 70
     0
  0
APPID
  2
CONTENTBLOCKICON
 70
     0
  0
APPID
  2
PNTFLAG
 70
     0
  0
ENDTAB
  0
TABLE
  2
DIMSTYLE
 70
     2
  0
DIMSTYLE
  2
STANDARD
 70
     0
  3

  4

  5

  6

  7

 40
1.0
 41
0.18
 42
0.0625
 43
0.38
 44
0.18
 45
0.0
 46
0.0
 47
0.0
 48
0.0
140
0.18
141
0.09
142
0.0
143
25.399999999999999
144
1.0
145
0.0
146
1.0
147
0.09
 71
     0
 72
     0
 73
     1
 74
     1
 75
     0
 76
     0
 77
     0
 78
     0
170
     0
171
     2
172
     0
173
     0
174
     0
175
     0
176
     0
177
     0
178
     0
  0
DIMSTYLE
  2
ISO-25
 70
     0
  3

  4

  5

  6

  7

 40
1.0
 41
1.1999999999999991
 42
0.7
 43
3.75
 44
0.3
 45
0.0
 46
0.0
 47
0.0
 48
0.0
140
1.5
141
2.5
142
0.0
143
0.03937007874016
144
1.0
145
0.0
146
1.0
147
0.5
 71
     0
 72
     0
 73
     0
 74
     0
 75
     0
 76
     0
 77
     1
 78
     1
170
     0
171
     3
172
     1
173
     0
174
     0
175
     0
176
     3
177
     3
178
     2
  0
ENDTAB
  0
ENDSEC
  0
SECTION
  2
BLOCKS
  0
BLOCK
  8
0
  2
$MODEL_SPACE
 70
     0
 10
0.0
 20
0.0
 30
0.0
  3
$MODEL_SPACE
  1

  0
ENDBLK
  5
255
  8
0
  0
BLOCK
 67
     1
  8
0
  2
$PAPER_SPACE
 70
     0
 10
0.0
 20
0.0
 30
0.0
  3
$PAPER_SPACE
  1

  0
ENDBLK
  5
253
 67
     1
  8
0
  0
BLOCK
  8
0
  2
HGW30CC_F
 70
     0
 10
0.0
 20
0.0
 30
0.0
  3
HGW30CC_F
  1

  0
LINE
  5
54CC
  8
µę˝u
 10
20.999999999999829
 20
35.200863464771288
 30
0.0
 11
30.999999999999829
 21
35.200863464771288
 31
0.0
  0
LINE
  5
54CD
  8
µę˝u
 10
31.0
 20
27.00086346477136
 30
0.0
 11
20.999999999999879
 21
27.0008634647713
 31
0.0
  0
LINE
  5
54CE
  8
0
 10
32.451200000000263
 20
26.00086346477136
 30
0.0
 11
19.548800000000199
 21
26.000863464771271
 31
0.0
  0
POLYLINE
  5
54CF
  8
0
 66
     1
 10
0.0
 20
0.0
 30
0.0
  0
VERTEX
  5
711D
  8
0
 10
32.451200000000313
 20
20.423124591171391
 30
0.0
  0
VERTEX
  5
711E
  8
0
 10
32.444479529369858
 20
20.341565716035259
 30
0.0
  0
VERTEX
  5
711F
  8
0
 10
32.425062871500757
 20
20.21850032989758
 30
0.0
  0
VERTEX
  5
7120
  8
0
 10
32.416166788505677
 20
20.16906349559369
 30
0.0
  0
VERTEX
  5
7121
  8
0
 10
32.379966326989013
 20
19.97742157037132
 30
0.0
  0
VERTEX
  5
7122
  8
0
 10
32.346891450368283
 20
19.800853488348789
 30
0.0
  0
VERTEX
  5
7123
  8
0
 10
32.289809648230751
 20
19.4651186603169
 30
0.0
  0
VERTEX
  5
7124
  8
0
 10
32.236663972659301
 20
19.07120065056327
 30
0.0
  0
VERTEX
  5
7125
  8
0
 10
32.222001164134497
 20
18.931160457334531
 30
0.0
  0
VERTEX
  5
7126
  8
0
 10
32.201848367820787
 20
18.688291469225671
 30
0.0
  0
VERTEX
  5
7127
  8
0
 10
32.183413838489741
 20
18.452624241065759
 30
0.0
  0
VERTEX
  5
7128
  8
0
 10
32.143035341158338
 20
17.96501275987529
 30
0.0
  0
VERTEX
  5
7129
  8
0
 10
32.055126320537738
 20
17.011178240528089
 30
0.0
  0
VERTEX
  5
712A
  8
0
 10
31.881793939865759
 20
15.426732420521629
 30
0.0
  0
VERTEX
  5
712B
  8
0
 10
31.66558009103397
 20
13.802621263836871
 30
0.0
  0
VERTEX
  5
712C
  8
0
 10
31.584304740147331
 20
13.2624571740321
 30
0.0
  0
VERTEX
  5
712D
  8
0
 10
31.318144123136221
 20
11.68761737929284
 30
0.0
  0
VERTEX
  5
712E
  8
0
 10
31.080554444134581
 20
10.479262660419259
 30
0.0
  0
VERTEX
  5
712F
  8
0
 10
30.87384986117149
 20
9.5437101262496924
 30
0.0
  0
VERTEX
  5
7130
  8
0
 10
30.609910151321738
 20
8.4746217255583645
 30
0.0
  0
VERTEX
  5
7131
  8
0
 10
30.382247243264089
 20
7.6485765856928358
 30
0.0
  0
VERTEX
  5
7132
  8
0
 10
30.071584106547508
 20
6.641839402409544
 30
0.0
  0
VERTEX
  5
7133
  8
0
 10
29.802247587584649
 20
5.8673416096928861
 30
0.0
  0
VERTEX
  5
7134
  8
0
 10
29.441555334963311
 20
4.9533075623072591
 30
0.0
  0
VERTEX
  5
7135
  8
0
 10
29.347733451776211
 20
4.7366243295392101
 30
0.0
  0
VERTEX
  5
7136
  8
0
 10
29.299387307571411
 20
4.629528335734391
 30
0.0
  0
VERTEX
  5
7137
  8
0
 10
29.228741682790432
 20
4.4995468905631242
 30
0.0
  0
VERTEX
  5
7138
  8
0
 10
29.058064514816071
 20
4.2693454864544256
 30
0.0
  0
VERTEX
  5
7139
  8
0
 10
28.90126706432034
 20
4.1141803228831568
 30
0.0
  0
VERTEX
  5
713A
  8
0
 10
28.671733961062561
 20
3.9414658476704281
 30
0.0
  0
VERTEX
  5
713B
  8
0
 10
28.364171263232439
 20
3.7728566488736979
 30
0.0
  0
VERTEX
  5
713C
  8
0
 10
28.108910842112319
 20
3.6686340677791232
 30
0.0
  0
VERTEX
  5
713D
  8
0
 10
27.73712553374736
 20
3.5558180989088441
 30
0.0
  0
VERTEX
  5
713E
  8
0
 10
27.205664810240481
 20
3.4510871512736112
 30
0.0
  0
VERTEX
  5
713F
  8
0
 10
26.65414083461155
 20
3.3907402885279789
 30
0.0
  0
VERTEX
  5
7140
  8
0
 10
26.219445782989229
 20
3.3701040007328511
 30
0.0
  0
VERTEX
  5
7141
  8
0
 10
25.626797068851602
 20
3.3748615618208069
 30
0.0
  0
VERTEX
  5
7142
  8
0
 10
25.168780062157111
 20
3.405727421302458
 30
0.0
  0
VERTEX
  5
7143
  8
0
 10
24.600410267955461
 20
3.4829306037920271
 30
0.0
  0
VERTEX
  5
7144
  8
0
 10
24.172235373977571
 20
3.579909633295955
 30
0.0
  0
VERTEX
  5
7145
  8
0
 10
23.78904003630095
 20
3.7069855790240061
 30
0.0
  0
VERTEX
  5
7146
  8
0
 10
23.510070465689701
 20
3.835055961718381
 30
0.0
  0
VERTEX
  5
7147
  8
0
 10
23.306285459763728
 20
3.9560847476383572
 30
0.0
  0
VERTEX
  5
7148
  8
0
 10
23.069314573261131
 20
4.1404539305119954
 30
0.0
  0
VERTEX
  5
7149
  8
0
 10
22.906947499213
 20
4.3099459377823726
 30
0.0
  0
VERTEX
  5
714A
  8
0
 10
22.75174590663681
 20
4.5325509494431619
 30
0.0
  0
VERTEX
  5
714B
  8
0
 10
22.695133042073788
 20
4.6410282307231512
 30
0.0
  0
VERTEX
  5
714C
  8
0
 10
22.647092852633872
 20
4.7483583172256374
 30
0.0
  0
VERTEX
  5
714D
  8
0
 10
22.289051138201959
 20
5.623269265423942
 30
0.0
  0
VERTEX
  5
714E
  8
0
 10
21.93195202319373
 20
6.6310668668575943
 30
0.0
  0
VERTEX
  5
714F
  8
0
 10
21.68362356715528
 20
7.4241609284767662
 30
0.0
  0
VERTEX
  5
7150
  8
0
 10
21.371088876646361
 20
8.5461821002399745
 30
0.0
  0
VERTEX
  5
7151
  8
0
 10
21.039854997094722
 20
9.9216295309472287
 30
0.0
  0
VERTEX
  5
7152
  8
0
 10
20.813782176819359
 20
10.998163393500789
 30
0.0
  0
VERTEX
  5
7153
  8
0
 10
20.533830681497928
 20
12.529711391811221
 30
0.0
  0
VERTEX
  5
7154
  8
0
 10
20.290215833754129
 20
14.11079923979838
 30
0.0
  0
VERTEX
  5
7155
  8
0
 10
20.218018356992278
 20
14.63906362502712
 30
0.0
  0
VERTEX
  5
7156
  8
0
 10
20.03752258488322
 20
16.12447899490871
 30
0.0
  0
VERTEX
  5
7157
  8
0
 10
19.884257972019331
 20
17.65451099915833
 30
0.0
  0
VERTEX
  5
7158
  8
0
 10
19.840026152345729
 20
18.165126793999999
 30
0.0
  0
VERTEX
  5
7159
  8
0
 10
19.803714723276979
 20
18.61622519359042
 30
0.0
  0
VERTEX
  5
715A
  8
0
 10
19.78675513671703
 20
18.834162188508849
 30
0.0
  0
VERTEX
  5
715B
  8
0
 10
19.766418052045079
 20
19.043789153244798
 30
0.0
  0
VERTEX
  5
715C
  8
0
 10
19.721921471437209
 20
19.388135844521571
 30
0.0
  0
VERTEX
  5
715D
  8
0
 10
19.670246204979431
 20
19.705576953411189
 30
0.0
  0
VERTEX
  5
715E
  8
0
 10
19.652963938457841
 20
19.801642996649601
 30
0.0
  0
VERTEX
  5
715F
  8
0
 10
19.610893050521721
 20
20.0259507507871
 30
0.0
  0
VERTEX
  5
7160
  8
0
 10
19.579339236300939
 20
20.194623091779189
 30
0.0
  0
VERTEX
  5
7161
  8
0
 10
19.55720765788152
 20
20.32878447387208
 30
0.0
  0
VERTEX
  5
7162
  8
0
 10
19.552756835686349
 20
20.364052684764712
 30
0.0
  0
VERTEX
  5
7163
  8
0
 10
19.549270674329868
 20
20.437492874921471
 30
0.0
  0
VERTEX
  5
7164
  8
0
 10
19.556514217318579
 20
20.46615015210552
 30
0.0
  0
VERTEX
  5
7165
  8
0
 10
19.564044413388899
 20
20.470848129603269
 30
0.0
  0
SEQEND
  5
7166
  8
0
  0
LINE
  5
54D0
  8
0
 10
35.0
 20
0.0000000000002274
 30
0.0
 11
-35.000000000000057
 21
-0.0000000000002274
 31
0.0
  0
LINE
  5
54D1
  8
0
 10
35.0
 20
1.93185165257833
 30
0.0
 11
-35.000000000000057
 21
1.9318516525779039
 31
0.0
  0
LINE
  5
54D2
  8
0
 10
-35.000000000000171
 20
36.000863464770902
 30
0.0
 11
34.999999999999893
 21
36.000863464771392
 31
0.0
  0
LINE
  5
54D3
  8
0
 10
34.999999999999829
 20
36.000863464771363
 30
0.0
 11
-35.000000000000227
 21
36.00086346477093
 31
0.0
  0
LINE
  5
54D4
  8
0
 10
34.999999999999893
 20
20.00086346477141
 30
0.0
 11
32.384394415441591
 21
20.000863464771388
 31
0.0
  0
LINE
  5
54D5
  8
0
 10
19.548799999999691
 20
26.000863464771161
 30
0.0
 11
32.451199999999751
 21
26.000863464771161
 31
0.0
  0
LINE
  5
54D6
  8
µę˝u
 10
31.00000000000006
 20
35.200863464771153
 30
0.0
 11
21.00000000000006
 21
35.200863464771089
 31
0.0
  0
LINE
  5
54D7
  8
µę˝u
 10
20.99999999999994
 20
27.000863464771161
 30
0.0
 11
31.00000000000006
 21
27.000863464771161
 31
0.0
  0
LINE
  5
54D8
  8
0
 10
-35.000000000000057
 20
20.000863464771189
 30
0.0
 11
-32.384401608806463
 21
20.000863464771189
 31
0.0
  0
LINE
  5
54D9
  8
0
 10
-35.000000000000107
 20
36.000863464771129
 30
0.0
 11
34.99999999999995
 21
36.000863464771157
 31
0.0
  0
LINE
  5
54DA
  8
0
 10
34.999999999999893
 20
36.000863464771129
 30
0.0
 11
-35.000000000000171
 21
36.000863464771157
 31
0.0
  0
LINE
  5
54DB
  8
0
 10
-35.000000000000057
 20
1.9318516525781031
 30
0.0
 11
35.0
 21
1.9318516525781311
 31
0.0
  0
LINE
  5
54DC
  8
0
 10
-35.000000000000057
 20
0.0
 30
0.0
 11
35.0
 21
0.0
 31
0.0
  0
LINE
  5
54DD
  8
0
 10
-45.500000000000171
 20
32.999999999999723
 30
0.0
 11
-35.000000000000227
 21
32.99999999999978
 31
0.0
  0
LINE
  5
54DE
  8
0
 10
-45.50000000000022
 20
35.000000000000142
 30
0.0
 11
-35.000000000000227
 21
35.000000000000199
 31
0.0
  0
LINE
  5
54DF
  8
0
 10
-45.50000000000022
 20
34.999999999999723
 30
0.0
 11
-35.000000000000227
 21
34.999999999999773
 31
0.0
  0
CIRCLE
  5
54E0
  8
0
 10
-41.000000000000171
 20
25.200000000000191
 30
0.0
 40
2.75
  0
CIRCLE
  5
54E1
  8
0
 10
-41.000000000000171
 20
25.200000000000191
 30
0.0
 40
2.486916010899999
  0
CIRCLE
  5
54E2
  8
0
 10
-41.000000000000171
 20
25.199999999999761
 30
0.0
 40
2.486916010899999
  0
CIRCLE
  5
54E3
  8
0
 10
-41.000000000000171
 20
25.199999999999761
 30
0.0
 40
2.75
  0
CIRCLE
  5
54E4
  8
0
 10
-41.000000000000171
 20
25.200000000000191
 30
0.0
 40
2.1855533242999989
  0
CIRCLE
  5
54E5
  8
0
 10
-41.000000000000171
 20
25.199999999999761
 30
0.0
 40
2.1855533242999989
  0
LINE
  5
54E6
  8
¤¤¤ß˝u
 10
-45.841437231543573
 20
25.199999999999729
 30
0.0
 11
-36.158562768456527
 21
25.19999999999979
 31
0.0
  0
LINE
  5
54E7
  8
0
 10
-45.499999999999993
 20
2.0000000000001421
 30
0.0
 11
-35.0
 21
2.0000000000001981
 31
0.0
  0
LINE
  5
54E8
  8
0
 10
-45.499999999999993
 20
0.0000000000001421
 30
0.0
 11
-35.0
 21
0.000000000000199
 31
0.0
  0
LINE
  5
54E9
  8
0
 10
-45.499999999999993
 20
-0.0000000000002842
 30
0.0
 11
-35.0
 21
-0.0000000000002274
 31
0.0
  0
LINE
  5
54EA
  8
0
 10
-45.499999999999993
 20
1.9999999999997149
 30
0.0
 11
-35.0
 21
1.999999999999772
 31
0.0
  0
LINE
  5
54EB
  8
¤¤¤ß˝u
 10
-45.841437231543573
 20
25.200000000000021
 30
0.0
 11
-36.158562768456527
 21
25.200000000000021
 31
0.0
  0
LINE
  5
54EC
  8
0
 10
-35.000000000000057
 20
32.999999999999972
 30
0.0
 11
-45.500000000000057
 21
32.999999999999972
 31
0.0
  0
CIRCLE
  5
54ED
  8
0
 10
-41.00000000000005
 20
25.20000000000044
 30
0.0
 40
2.1855533242999989
  0
CIRCLE
  5
54EE
  8
0
 10
-41.00000000000005
 20
25.200000000000021
 30
0.0
 40
2.1855533242999989
  0
CIRCLE
  5
54EF
  8
0
 10
-41.00000000000005
 20
25.20000000000044
 30
0.0
 40
2.75
  0
CIRCLE
  5
54F0
  8
0
 10
-41.00000000000005
 20
25.20000000000044
 30
0.0
 40
2.486916010899999
  0
CIRCLE
  5
54F1
  8
0
 10
-41.00000000000005
 20
25.200000000000021
 30
0.0
 40
2.486916010899999
  0
CIRCLE
  5
54F2
  8
0
 10
-41.00000000000005
 20
25.200000000000021
 30
0.0
 40
2.75
  0
LINE
  5
54F3
  8
0
 10
-45.500000000000057
 20
2.0000000000004259
 30
0.0
 11
-35.000000000000057
 21
2.0000000000004259
 31
0.0
  0
LINE
  5
54F4
  8
0
 10
-45.500000000000057
 20
0.0000000000004263
 30
0.0
 11
-35.000000000000057
 21
0.0000000000004263
 31
0.0
  0
LINE
  5
54F5
  8
0
 10
-45.500000000000057
 20
35.000000000000433
 30
0.0
 11
-35.000000000000057
 21
35.000000000000433
 31
0.0
  0
LINE
  5
54F6
  8
0
 10
-45.500000000000057
 20
0.0
 30
0.0
 11
-35.000000000000057
 21
0.0
 31
0.0
  0
LINE
  5
54F7
  8
0
 10
-45.500000000000057
 20
2.0
 30
0.0
 11
-35.000000000000057
 21
2.0
 31
0.0
  0
LINE
  5
54F8
  8
0
 10
-45.500000000000057
 20
35.0
 30
0.0
 11
-35.000000000000057
 21
35.0
 31
0.0
  0
LINE
  5
54F9
  8
0
 10
-45.499999999999993
 20
0.0000000000001421
 30
0.0
 11
-45.50000000000022
 21
35.000000000000142
 31
0.0
  0
LINE
  5
54FA
  8
0
 10
-45.50000000000022
 20
35.000000000000107
 30
0.0
 11
-45.499999999999993
 21
0.0000000000001421
 31
0.0
  0
LINE
  5
54FB
  8
0
 10
-45.50000000000022
 20
34.999999999999723
 30
0.0
 11
-45.499999999999993
 21
-0.0000000000002842
 31
0.0
  0
LINE
  5
54FC
  8
0
 10
-45.500000000000057
 20
0.0000000000004263
 30
0.0
 11
-45.500000000000057
 21
35.000000000000433
 31
0.0
  0
LINE
  5
54FD
  8
0
 10
-45.500000000000057
 20
35.000000000000398
 30
0.0
 11
-45.500000000000057
 21
0.0000000000004263
 31
0.0
  0
LINE
  5
54FE
  8
0
 10
-45.500000000000057
 20
35.0
 30
0.0
 11
-45.500000000000057
 21
0.0
 31
0.0
  0
CIRCLE
  5
54FF
  8
0
 10
-41.000000000000171
 20
25.200000000000191
 30
0.0
 40
0.7185553324000001
  0
CIRCLE
  5
5500
  8
0
 10
-41.000000000000171
 20
25.199999999999761
 30
0.0
 40
0.7185553324000001
  0
LINE
  5
5501
  8
¤¤¤ß˝u
 10
-41.0
 20
20.358562768456238
 30
0.0
 11
-41.00000000000005
 21
30.041437231543281
 31
0.0
  0
LINE
  5
5502
  8
¤¤¤ß˝u
 10
-41.00000000000005
 20
20.35856276845649
 30
0.0
 11
-41.00000000000005
 21
30.04143723154354
 31
0.0
  0
CIRCLE
  5
5503
  8
0
 10
-41.00000000000005
 20
25.20000000000044
 30
0.0
 40
0.7185553324000001
  0
CIRCLE
  5
5504
  8
0
 10
-41.00000000000005
 20
25.200000000000021
 30
0.0
 40
0.7185553324000001
  0
LINE
  5
5505
  8
0
 10
-35.000000000000227
 20
36.00086346477093
 30
0.0
 11
-34.99999999999995
 21
-0.0000000000002274
 31
0.0
  0
POLYLINE
  5
5506
  8
0
 66
     1
 10
0.0
 20
0.0
 30
0.0
  0
VERTEX
  5
7167
  8
0
 10
-19.548799999999861
 20
20.423124591171071
 30
0.0
  0
VERTEX
  5
7168
  8
0
 10
-19.555520470630309
 20
20.34156571603495
 30
0.0
  0
VERTEX
  5
7169
  8
0
 10
-19.57493712849941
 20
20.218500329897271
 30
0.0
  0
VERTEX
  5
716A
  8
0
 10
-19.58383321149449
 20
20.169063495593381
 30
0.0
  0
VERTEX
  5
716B
  8
0
 10
-19.620033673011161
 20
19.977421570371011
 30
0.0
  0
VERTEX
  5
716C
  8
0
 10
-19.653108549631892
 20
19.80085348834848
 30
0.0
  0
VERTEX
  5
716D
  8
0
 10
-19.71019035176943
 20
19.465118660316591
 30
0.0
  0
VERTEX
  5
716E
  8
0
 10
-19.76333602734087
 20
19.071200650562961
 30
0.0
  0
VERTEX
  5
716F
  8
0
 10
-19.77799883586567
 20
18.931160457334212
 30
0.0
  0
VERTEX
  5
7170
  8
0
 10
-19.79815163217938
 20
18.688291469225359
 30
0.0
  0
VERTEX
  5
7171
  8
0
 10
-19.816586161510429
 20
18.45262424106545
 30
0.0
  0
VERTEX
  5
7172
  8
0
 10
-19.856964658841829
 20
17.96501275987498
 30
0.0
  0
VERTEX
  5
7173
  8
0
 10
-19.944873679462429
 20
17.01117824052778
 30
0.0
  0
VERTEX
  5
7174
  8
0
 10
-20.118206060134408
 20
15.42673242052129
 30
0.0
  0
VERTEX
  5
7175
  8
0
 10
-20.334419908966201
 20
13.80262126383653
 30
0.0
  0
VERTEX
  5
7176
  8
0
 10
-20.415695259852839
 20
13.262457174031759
 30
0.0
  0
VERTEX
  5
7177
  8
0
 10
-20.681855876863949
 20
11.687617379292501
 30
0.0
  0
VERTEX
  5
7178
  8
0
 10
-20.91944555586559
 20
10.47926266041892
 30
0.0
  0
VERTEX
  5
7179
  8
0
 10
-21.126150138828681
 20
9.5437101262493513
 30
0.0
  0
VERTEX
  5
717A
  8
0
 10
-21.390089848678429
 20
8.4746217255580234
 30
0.0
  0
VERTEX
  5
717B
  8
0
 10
-21.617752756736081
 20
7.6485765856924948
 30
0.0
  0
VERTEX
  5
717C
  8
0
 10
-21.928415893452669
 20
6.6418394024092029
 30
0.0
  0
VERTEX
  5
717D
  8
0
 10
-22.197752412415529
 20
5.867341609692545
 30
0.0
  0
VERTEX
  5
717E
  8
0
 10
-22.558444665036859
 20
4.9533075623069456
 30
0.0
  0
VERTEX
  5
717F
  8
0
 10
-22.65226654822396
 20
4.7366243295388983
 30
0.0
  0
VERTEX
  5
7180
  8
0
 10
-22.700612692428759
 20
4.6295283357340793
 30
0.0
  0
VERTEX
  5
7181
  8
0
 10
-22.771258317209739
 20
4.4995468905628107
 30
0.0
  0
VERTEX
  5
7182
  8
0
 10
-22.941935485184111
 20
4.2693454864541129
 30
0.0
  0
VERTEX
  5
7183
  8
0
 10
-23.098732935679831
 20
4.1141803228828451
 30
0.0
  0
VERTEX
  5
7184
  8
0
 10
-23.32826603893761
 20
3.9414658476701159
 30
0.0
  0
VERTEX
  5
7185
  8
0
 10
-23.635828736767738
 20
3.7728566488733861
 30
0.0
  0
VERTEX
  5
7186
  8
0
 10
-23.891089157887851
 20
3.6686340677788101
 30
0.0
  0
VERTEX
  5
7187
  8
0
 10
-24.262874466252811
 20
3.5558180989085311
 30
0.0
  0
VERTEX
  5
7188
  8
0
 10
-24.794335189759689
 20
3.4510871512732701
 30
0.0
  0
VERTEX
  5
7189
  8
0
 10
-25.345859165388621
 20
3.3907402885276379
 30
0.0
  0
VERTEX
  5
718A
  8
0
 10
-25.780554217010941
 20
3.37010400073251
 30
0.0
  0
VERTEX
  5
718B
  8
0
 10
-26.373202931148569
 20
3.3748615618204658
 30
0.0
  0
VERTEX
  5
718C
  8
0
 10
-26.831219937843059
 20
3.4057274213021169
 30
0.0
  0
VERTEX
  5
718D
  8
0
 10
-27.399589732044721
 20
3.482930603791714
 30
0.0
  0
VERTEX
  5
718E
  8
0
 10
-27.827764626022599
 20
3.5799096332956419
 30
0.0
  0
VERTEX
  5
718F
  8
0
 10
-28.210959963699231
 20
3.7069855790236939
 30
0.0
  0
VERTEX
  5
7190
  8
0
 10
-28.48992953431048
 20
3.8350559617180688
 30
0.0
  0
VERTEX
  5
7191
  8
0
 10
-28.693714540236439
 20
3.9560847476380441
 30
0.0
  0
VERTEX
  5
7192
  8
0
 10
-28.93068542673905
 20
4.1404539305116819
 30
0.0
  0
VERTEX
  5
7193
  8
0
 10
-29.09305250078717
 20
4.3099459377820324
 30
0.0
  0
VERTEX
  5
7194
  8
0
 10
-29.248254093363361
 20
4.5325509494428209
 30
0.0
  0
VERTEX
  5
7195
  8
0
 10
-29.304866957926379
 20
4.6410282307228101
 30
0.0
  0
VERTEX
  5
7196
  8
0
 10
-29.352907147366299
 20
4.7483583172252963
 30
0.0
  0
VERTEX
  5
7197
  8
0
 10
-29.710948861798219
 20
5.6232692654236009
 30
0.0
  0
VERTEX
  5
7198
  8
0
 10
-30.06804797680644
 20
6.6310668668572532
 30
0.0
  0
VERTEX
  5
7199
  8
0
 10
-30.316376432844891
 20
7.4241609284764252
 30
0.0
  0
VERTEX
  5
719A
  8
0
 10
-30.62891112335382
 20
8.5461821002396334
 30
0.0
  0
VERTEX
  5
719B
  8
0
 10
-30.960145002905449
 20
9.9216295309468876
 30
0.0
  0
VERTEX
  5
719C
  8
0
 10
-31.186217823180812
 20
10.99816339350045
 30
0.0
  0
VERTEX
  5
719D
  8
0
 10
-31.466169318502239
 20
12.52971139181088
 30
0.0
  0
VERTEX
  5
719E
  8
0
 10
-31.709784166246038
 20
14.110799239798069
 30
0.0
  0
VERTEX
  5
719F
  8
0
 10
-31.781981643007899
 20
14.639063625026809
 30
0.0
  0
VERTEX
  5
71A0
  8
0
 10
-31.96247741511695
 20
16.124478994908401
 30
0.0
  0
VERTEX
  5
71A1
  8
0
 10
-32.115742027980851
 20
17.65451099915802
 30
0.0
  0
VERTEX
  5
71A2
  8
0
 10
-32.159973847654442
 20
18.16512679399969
 30
0.0
  0
VERTEX
  5
71A3
  8
0
 10
-32.196285276723188
 20
18.616225193590111
 30
0.0
  0
VERTEX
  5
71A4
  8
0
 10
-32.213244863283137
 20
18.83416218850854
 30
0.0
  0
VERTEX
  5
71A5
  8
0
 10
-32.233581947955088
 20
19.043789153244489
 30
0.0
  0
VERTEX
  5
71A6
  8
0
 10
-32.278078528562958
 20
19.388135844521258
 30
0.0
  0
VERTEX
  5
71A7
  8
0
 10
-32.329753795020743
 20
19.70557695341088
 30
0.0
  0
VERTEX
  5
71A8
  8
0
 10
-32.347036061542333
 20
19.801642996649289
 30
0.0
  0
VERTEX
  5
71A9
  8
0
 10
-32.389106949478453
 20
20.025950750786791
 30
0.0
  0
VERTEX
  5
71AA
  8
0
 10
-32.420660763699232
 20
20.19462309177888
 30
0.0
  0
VERTEX
  5
71AB
  8
0
 10
-32.442792342118651
 20
20.32878447387176
 30
0.0
  0
VERTEX
  5
71AC
  8
0
 10
-32.447243164313818
 20
20.364052684764399
 30
0.0
  0
VERTEX
  5
71AD
  8
0
 10
-32.450729325670302
 20
20.437492874921158
 30
0.0
  0
VERTEX
  5
71AE
  8
0
 10
-32.443485782681591
 20
20.4661501521052
 30
0.0
  0
VERTEX
  5
71AF
  8
0
 10
-32.435955586611271
 20
20.47084812960296
 30
0.0
  0
SEQEND
  5
71B0
  8
0
  0
LINE
  5
5507
  8
0
 10
-35.000000000000107
 20
36.000863464771129
 30
0.0
 11
-35.000000000000107
 21
0.0
 31
0.0
  0
LINE
  5
5508
  8
µę˝u
 10
-30.250000000000341
 20
35.200863464770947
 30
0.0
 11
-30.250000000000291
 21
27.000863464770958
 31
0.0
  0
LINE
  5
5509
  8
µę˝u
 10
-31.000000000000341
 20
35.200863464770947
 30
0.0
 11
-31.000000000000281
 21
27.000863464770958
 31
0.0
  0
LINE
  5
550A
  8
¤¤¤ß˝u
 10
-26.00000000000006
 20
20.874117950879679
 30
0.0
 11
-26.000000000000171
 21
37.029670360820553
 31
0.0
  0
LINE
  5
550B
  8
¤¤¤ß˝u
 10
-26.000000000000231
 20
20.874117950879619
 30
0.0
 11
-26.000000000000341
 21
37.029670360820489
 31
0.0
  0
LINE
  5
550C
  8
µę˝u
 10
-21.000000000000341
 20
35.200863464770997
 30
0.0
 11
-21.000000000000281
 21
27.000863464771019
 31
0.0
  0
LINE
  5
550D
  8
µę˝u
 10
-21.750000000000341
 20
35.200863464770997
 30
0.0
 11
-21.750000000000291
 21
27.000863464771019
 31
0.0
  0
LINE
  5
550E
  8
µę˝u
 10
-30.25000000000011
 20
35.200863464771153
 30
0.0
 11
-30.25000000000011
 21
27.000863464771161
 31
0.0
  0
LINE
  5
550F
  8
µę˝u
 10
-31.000000000000121
 20
35.200863464771153
 30
0.0
 11
-31.000000000000121
 21
27.000863464771161
 31
0.0
  0
LINE
  5
5510
  8
µę˝u
 10
-21.75000000000011
 20
35.200863464771153
 30
0.0
 11
-21.75000000000011
 21
27.000863464771161
 31
0.0
  0
LINE
  5
5511
  8
µę˝u
 10
-21.000000000000121
 20
35.200863464771153
 30
0.0
 11
-21.000000000000121
 21
27.000863464771161
 31
0.0
  0
LINE
  5
5512
  8
¤¤¤ß˝u
 10
-26.000000000000121
 20
20.874117950879882
 30
0.0
 11
-26.000000000000121
 21
37.029670360820752
 31
0.0
  0
LINE
  5
5513
  8
¤¤¤ß˝u
 10
-26.000000000000281
 20
20.874117950879821
 30
0.0
 11
-26.000000000000281
 21
37.029670360820688
 31
0.0
  0
LINE
  5
5514
  8
µę˝u
 10
-21.000000000000171
 20
27.000863464771019
 30
0.0
 11
-31.000000000000281
 21
27.000863464770958
 31
0.0
  0
LINE
  5
5515
  8
0
 10
-19.548799999999911
 20
26.00086346477104
 30
0.0
 11
-32.451199999999972
 21
26.000863464770958
 31
0.0
  0
LINE
  5
5516
  8
0
 10
-32.451200000000483
 20
26.000863464771161
 30
0.0
 11
-19.548800000000419
 21
26.000863464771161
 31
0.0
  0
LINE
  5
5517
  8
µę˝u
 10
-31.000000000000231
 20
27.000863464771161
 30
0.0
 11
-21.000000000000121
 21
27.000863464771161
 31
0.0
  0
LINE
  5
5518
  8
µę˝u
 10
-31.000000000000281
 20
27.000863464770958
 30
0.0
 11
-31.850000000000311
 21
26.000863464770958
 31
0.0
  0
LINE
  5
5519
  8
µę˝u
 10
-31.000000000000121
 20
27.05578910308077
 30
0.0
 11
-31.85000000000014
 21
26.000863464771161
 31
0.0
  0
LINE
  5
551A
  8
0
 10
-32.451199999999972
 20
26.000863464770958
 30
0.0
 11
-32.451199999999922
 21
20.471263464770889
 31
0.0
  0
LINE
  5
551B
  8
0
 10
-32.451200000000483
 20
26.000863464771161
 30
0.0
 11
-32.451200000000483
 21
20.471263464771081
 31
0.0
  0
LINE
  5
551C
  8
0
 10
-19.548799999999911
 20
26.00086346477104
 30
0.0
 11
-19.548799999999861
 21
20.471263464770971
 31
0.0
  0
LINE
  5
551D
  8
0
 10
-19.548800000000419
 20
26.000863464771161
 30
0.0
 11
-19.548800000000419
 21
20.471263464771081
 31
0.0
  0
LINE
  5
551E
  8
µę˝u
 10
-21.000000000000281
 20
27.055789103080631
 30
0.0
 11
-20.150000000000261
 21
26.000863464771019
 31
0.0
  0
LINE
  5
551F
  8
µę˝u
 10
-21.000000000000121
 20
27.000863464771161
 30
0.0
 11
-20.150000000000091
 21
26.000863464771161
 31
0.0
  0
LINE
  5
5520
  8
µę˝u
 10
-31.000000000000341
 20
35.200863464770947
 30
0.0
 11
-21.000000000000341
 21
35.200863464770947
 31
0.0
  0
LINE
  5
5521
  8
µę˝u
 10
-21.000000000000121
 20
35.200863464771153
 30
0.0
 11
-31.000000000000121
 21
35.200863464771089
 31
0.0
  0
LINE
  5
5522
  8
µę˝u
 10
-31.000000000000341
 20
35.200863464770947
 30
0.0
 11
-31.680000000000408
 21
36.000863464770958
 31
0.0
  0
LINE
  5
5523
  8
µę˝u
 10
-31.000000000000121
 20
35.200863464771153
 30
0.0
 11
-31.680000000000181
 21
36.000863464771157
 31
0.0
  0
LINE
  5
5524
  8
µę˝u
 10
-21.000000000000341
 20
35.200863464770983
 30
0.0
 11
-20.320000000000281
 21
36.000863464770987
 31
0.0
  0
LINE
  5
5525
  8
µę˝u
 10
-21.000000000000121
 20
35.200863464771153
 30
0.0
 11
-20.32000000000005
 21
36.000863464771157
 31
0.0
  0
LINE
  5
5526
  8
¤¤¤ß˝u
 10
26.000000000000121
 20
20.874117950879992
 30
0.0
 11
26.0
 21
37.029670360820859
 31
0.0
  0
LINE
  5
5527
  8
¤¤¤ß˝u
 10
25.99999999999994
 20
20.874117950880049
 30
0.0
 11
25.999999999999829
 21
37.029670360820923
 31
0.0
  0
LINE
  5
5528
  8
µę˝u
 10
20.999999999999829
 20
35.200863464771288
 30
0.0
 11
20.999999999999879
 21
27.0008634647713
 31
0.0
  0
LINE
  5
5529
  8
µę˝u
 10
21.749999999999829
 20
35.200863464771288
 30
0.0
 11
21.74999999999989
 21
27.0008634647713
 31
0.0
  0
LINE
  5
552A
  8
µę˝u
 10
21.75000000000006
 20
35.200863464771153
 30
0.0
 11
21.75000000000006
 21
27.000863464771161
 31
0.0
  0
LINE
  5
552B
  8
µę˝u
 10
21.00000000000006
 20
35.200863464771153
 30
0.0
 11
21.00000000000006
 21
27.000863464771161
 31
0.0
  0
LINE
  5
552C
  8
¤¤¤ß˝u
 10
26.00000000000006
 20
20.874117950879789
 30
0.0
 11
26.00000000000006
 21
37.02967036082066
 31
0.0
  0
LINE
  5
552D
  8
¤¤¤ß˝u
 10
25.99999999999989
 20
20.87411795087985
 30
0.0
 11
25.99999999999989
 21
37.029670360820717
 31
0.0
  0
LINE
  5
552E
  8
0
 10
19.548800000000199
 20
26.000863464771271
 30
0.0
 11
19.548800000000249
 21
20.471263464771202
 31
0.0
  0
LINE
  5
552F
  8
0
 10
19.548799999999691
 20
26.000863464771161
 30
0.0
 11
19.548799999999691
 21
20.471263464771081
 31
0.0
  0
LINE
  5
5530
  8
µę˝u
 10
20.999999999999879
 20
27.0008634647713
 30
0.0
 11
20.14999999999986
 21
26.000863464771271
 31
0.0
  0
LINE
  5
5531
  8
µę˝u
 10
21.00000000000006
 20
27.05578910308077
 30
0.0
 11
20.150000000000041
 21
26.000863464771161
 31
0.0
  0
LINE
  5
5532
  8
µę˝u
 10
20.999999999999829
 20
35.200863464771288
 30
0.0
 11
20.319999999999759
 21
36.000863464771271
 31
0.0
  0
LINE
  5
5533
  8
µę˝u
 10
21.00000000000006
 20
35.200863464771118
 30
0.0
 11
20.32
 21
36.000863464771129
 31
0.0
  0
LINE
  5
5534
  8
0
 10
34.999999999999829
 20
36.000863464771363
 30
0.0
 11
35.000000000000057
 21
0.0000000000002274
 31
0.0
  0
LINE
  5
5535
  8
0
 10
45.499999999999773
 20
35.000000000000277
 30
0.0
 11
45.499999999999993
 21
0.0000000000002842
 31
0.0
  0
LINE
  5
5536
  8
0
 10
45.499999999999773
 20
35.000000000000682
 30
0.0
 11
45.499999999999993
 21
0.0000000000007105
 31
0.0
  0
LINE
  5
5537
  8
0
 10
45.499999999999993
 20
0.0000000000007105
 30
0.0
 11
45.499999999999773
 21
35.000000000000711
 31
0.0
  0
LINE
  5
5538
  8
0
 10
34.99999999999995
 20
36.000863464771157
 30
0.0
 11
34.999999999999893
 21
0.0
 31
0.0
  0
LINE
  5
5539
  8
0
 10
45.499999999999943
 20
35.0
 30
0.0
 11
45.499999999999943
 21
0.0
 31
0.0
  0
LINE
  5
553A
  8
0
 10
45.499999999999943
 20
35.000000000000398
 30
0.0
 11
45.499999999999943
 21
0.0000000000004263
 31
0.0
  0
LINE
  5
553B
  8
0
 10
45.499999999999943
 20
0.0000000000004263
 30
0.0
 11
45.499999999999943
 21
35.000000000000433
 31
0.0
  0
LINE
  5
553C
  8
0
 10
45.499999999999993
 20
2.0000000000002842
 30
0.0
 11
35.0
 21
2.0000000000002269
 31
0.0
  0
LINE
  5
553D
  8
0
 10
45.499999999999993
 20
0.0000000000002842
 30
0.0
 11
35.0
 21
0.0000000000002274
 31
0.0
  0
LINE
  5
553E
  8
0
 10
45.499999999999993
 20
0.0000000000007105
 30
0.0
 11
35.0
 21
0.0000000000006537
 31
0.0
  0
LINE
  5
553F
  8
0
 10
45.499999999999993
 20
2.0000000000007101
 30
0.0
 11
35.0
 21
2.0000000000006528
 31
0.0
  0
LINE
  5
5540
  8
0
 10
45.499999999999943
 20
2.0
 30
0.0
 11
34.99999999999995
 21
2.0
 31
0.0
  0
LINE
  5
5541
  8
0
 10
45.499999999999943
 20
0.0
 30
0.0
 11
34.99999999999995
 21
0.0
 31
0.0
  0
LINE
  5
5542
  8
0
 10
45.499999999999943
 20
0.0000000000004263
 30
0.0
 11
34.99999999999995
 21
0.0000000000004263
 31
0.0
  0
LINE
  5
5543
  8
0
 10
45.499999999999943
 20
2.0000000000004259
 30
0.0
 11
34.99999999999995
 21
2.0000000000004259
 31
0.0
  0
LINE
  5
5544
  8
µę˝u
 10
30.999999999999829
 20
35.200863464771352
 30
0.0
 11
30.99999999999989
 21
27.00086346477136
 31
0.0
  0
LINE
  5
5545
  8
µę˝u
 10
30.249999999999829
 20
35.200863464771352
 30
0.0
 11
30.24999999999989
 21
27.00086346477136
 31
0.0
  0
LINE
  5
5546
  8
µę˝u
 10
31.00000000000006
 20
35.200863464771153
 30
0.0
 11
31.00000000000006
 21
27.000863464771161
 31
0.0
  0
LINE
  5
5547
  8
µę˝u
 10
30.25000000000006
 20
35.200863464771153
 30
0.0
 11
30.25000000000006
 21
27.000863464771161
 31
0.0
  0
CIRCLE
  5
5548
  8
0
 10
40.999999999999822
 20
25.200000000000269
 30
0.0
 40
2.75
  0
CIRCLE
  5
5549
  8
0
 10
40.999999999999822
 20
25.200000000000269
 30
0.0
 40
2.486916010899999
  0
CIRCLE
  5
554A
  8
0
 10
40.999999999999822
 20
25.200000000000699
 30
0.0
 40
2.486916010899999
  0
CIRCLE
  5
554B
  8
0
 10
40.999999999999822
 20
25.200000000000699
 30
0.0
 40
2.75
  0
CIRCLE
  5
554C
  8
0
 10
40.999999999999822
 20
25.200000000000269
 30
0.0
 40
2.1855533242999989
  0
CIRCLE
  5
554D
  8
0
 10
40.999999999999822
 20
25.200000000000699
 30
0.0
 40
2.1855533242999989
  0
LINE
  5
554E
  8
¤¤¤ß˝u
 10
45.841437231543352
 20
25.200000000000301
 30
0.0
 11
36.158562768456306
 21
25.200000000000241
 31
0.0
  0
LINE
  5
554F
  8
¤¤¤ß˝u
 10
45.841437231543352
 20
25.200000000000021
 30
0.0
 11
36.158562768456306
 21
25.200000000000021
 31
0.0
  0
CIRCLE
  5
5550
  8
0
 10
40.999999999999943
 20
25.200000000000021
 30
0.0
 40
2.1855533242999989
  0
CIRCLE
  5
5551
  8
0
 10
40.999999999999943
 20
25.20000000000044
 30
0.0
 40
2.1855533242999989
  0
CIRCLE
  5
5552
  8
0
 10
40.999999999999943
 20
25.200000000000021
 30
0.0
 40
2.75
  0
CIRCLE
  5
5553
  8
0
 10
40.999999999999943
 20
25.200000000000021
 30
0.0
 40
2.486916010899999
  0
CIRCLE
  5
5554
  8
0
 10
40.999999999999943
 20
25.20000000000044
 30
0.0
 40
2.486916010899999
  0
CIRCLE
  5
5555
  8
0
 10
40.999999999999943
 20
25.20000000000044
 30
0.0
 40
2.75
  0
LINE
  5
5556
  8
0
 10
32.451200000000263
 20
26.00086346477136
 30
0.0
 11
32.451200000000313
 21
20.47126346477128
 31
0.0
  0
LINE
  5
5557
  8
0
 10
32.451199999999751
 20
26.000863464771161
 30
0.0
 11
32.451199999999751
 21
20.471263464771081
 31
0.0
  0
LINE
  5
5558
  8
µę˝u
 10
30.99999999999989
 20
27.055789103080969
 30
0.0
 11
31.849999999999909
 21
26.00086346477136
 31
0.0
  0
LINE
  5
5559
  8
µę˝u
 10
31.00000000000006
 20
27.000863464771161
 30
0.0
 11
31.85000000000008
 21
26.000863464771161
 31
0.0
  0
CIRCLE
  5
555A
  8
0
 10
40.999999999999822
 20
25.200000000000269
 30
0.0
 40
0.7185553324000001
  0
CIRCLE
  5
555B
  8
0
 10
40.999999999999822
 20
25.200000000000699
 30
0.0
 40
0.7185553324000001
  0
LINE
  5
555C
  8
¤¤¤ß˝u
 10
40.999999999999879
 20
20.35856276845675
 30
0.0
 11
40.999999999999822
 21
30.041437231543799
 31
0.0
  0
LINE
  5
555D
  8
¤¤¤ß˝u
 10
40.999999999999822
 20
20.35856276845649
 30
0.0
 11
40.999999999999822
 21
30.04143723154354
 31
0.0
  0
CIRCLE
  5
555E
  8
0
 10
40.999999999999943
 20
25.200000000000021
 30
0.0
 40
0.7185553324000001
  0
CIRCLE
  5
555F
  8
0
 10
40.999999999999943
 20
25.20000000000044
 30
0.0
 40
0.7185553324000001
  0
LINE
  5
5560
  8
0
 10
45.499999999999773
 20
35.000000000000277
 30
0.0
 11
34.999999999999773
 21
35.000000000000227
 31
0.0
  0
LINE
  5
5561
  8
0
 10
45.499999999999773
 20
35.000000000000711
 30
0.0
 11
34.999999999999773
 21
35.000000000000661
 31
0.0
  0
LINE
  5
5562
  8
0
 10
34.999999999999829
 20
33.000000000000199
 30
0.0
 11
45.499999999999822
 21
33.000000000000263
 31
0.0
  0
LINE
  5
5563
  8
0
 10
45.499999999999943
 20
35.0
 30
0.0
 11
34.99999999999995
 21
35.0
 31
0.0
  0
LINE
  5
5564
  8
0
 10
45.499999999999943
 20
35.000000000000433
 30
0.0
 11
34.99999999999995
 21
35.000000000000433
 31
0.0
  0
LINE
  5
5565
  8
0
 10
45.499999999999943
 20
33.0
 30
0.0
 11
35.0
 21
33.0
 31
0.0
  0
LINE
  5
5566
  8
µę˝u
 10
30.999999999999829
 20
35.200863464771352
 30
0.0
 11
31.67999999999989
 21
36.000863464771363
 31
0.0
  0
LINE
  5
5567
  8
µę˝u
 10
31.00000000000006
 20
35.200863464771153
 30
0.0
 11
31.680000000000121
 21
36.000863464771157
 31
0.0
  0
LINE
  5
5568
  8
0
 10
32.384394415441541
 20
20.000863464771161
 30
0.0
 11
34.999999999999829
 21
20.000863464771161
 31
0.0
  0
LINE
  5
5569
  8
0
 10
19.615598391193711
 20
20.0008634647713
 30
0.0
 11
-19.61560558455858
 21
20.00086346477104
 31
0.0
  0
LINE
  5
556A
  8
0
 10
-32.3844016088064
 20
20.000863464770958
 30
0.0
 11
-35.0
 21
20.00086346477093
 31
0.0
  0
LINE
  5
556B
  8
0
 10
-19.61560558455858
 20
20.000863464771189
 30
0.0
 11
19.615598391193771
 21
20.000863464771161
 31
0.0
  0
ENDBLK
  5
556D
  8
0
  0
BLOCK
  8
0
  2
A$C2DEF36D5
 70
     0
 10
0.0
 20
0.0
 30
0.0
  3
A$C2DEF36D5
  1

  0
ARC
  5
5709
  8
AM5
 10
-36.099999999999909
 20
26.0
 30
0.0
 40
5.0
 50
168.55797039413031
 51
74.132847475313611
  0
CIRCLE
  5
570A
  8
0
 10
-36.099999999999909
 20
26.0
 30
0.0
 40
4.25
  0
CIRCLE
  5
570B
  8
0
 10
-36.099999999999909
 20
-26.0
 30
0.0
 40
4.25
  0
ARC
  5
570C
  8
AM5
 10
-36.099999999999909
 20
-26.0
 30
0.0
 40
5.0
 50
285.86715252468639
 51
191.44202960586961
  0
ARC
  5
570D
  8
AM5
 10
35.900000000000091
 20
-26.0
 30
0.0
 40
5.0
 50
348.55797039413028
 51
254.13284747531361
  0
CIRCLE
  5
570E
  8
0
 10
35.900000000000091
 20
-26.0
 30
0.0
 40
4.25
  0
ARC
  5
570F
  8
AM5
 10
35.900000000000091
 20
26.0
 30
0.0
 40
5.0
 50
105.8671525246864
 51
11.442029605869649
  0
CIRCLE
  5
5710
  8
0
 10
35.900000000000091
 20
26.0
 30
0.0
 40
4.25
  0
ENDBLK
  5
5712
  8
0
  0
BLOCK
  8
0
  2
*U2
 70
     1
 10
0.0
 20
0.0
 30
0.0
  3
*U2
  1

  0
TEXT
  5
71B2
  8
0
 10
-410.44133308547259
 20
-24.342330368877271
 30
0.0
 40
7.8000001593418631
  1
HGW30CC
  0
TEXT
  5
71B3
  8
0
 10
-410.66065536825153
 20
-37.440744479283723
 30
0.0
 40
7.8000001593418631
  1
C : 3950 kgf
  0
TEXT
  5
71B4
  8
0
 10
-410.66065536825153
 20
-50.638771958704211
 30
0.0
 40
7.8000001593418631
  1
C
  0
TEXT
  5
71B5
  8
0
 10
-402.9787518227136
 20
-45.828771860443403
 30
0.0
 40
5.4600001115393031
  1

  0
TEXT
  5
71B6
  8
0
 10
-403.80736972581991
 20
-53.101373635027599
 30
0.0
 40
5.4600001115393031
  1
0
  0
TEXT
  5
71B7
  8
0
 10
-399.36834524489359
 20
-50.639941958728123
 30
0.0
 40
7.8023401593896651
  1
: 8470 kgf
  0
ENDBLK
  5
71B9
  8
0
  0
ENDSEC
  0
SECTION
  2
ENTITIES
  0
TEXT
  5
4CBB
  8
0
 10
-10.651989752863271
 20
-43.468790589311993
 30
0.0
 40
5.4600001115393031
  1

  0
INSERT
  5
5702
  8
0
  2
*U2
 10
0.0
 20
0.0
 30
0.0
  0
LINE
  5
6D7F
  8
AM7
 10
-162.06982617597421
 20
88.366897434518535
 30
0.0
 11
-173.8298261759742
 21
88.366897434518535
 31
0.0
  0
LINE
  5
6D80
  8
AM7
 10
-167.94982617597421
 20
82.486897434518426
 30
0.0
 11
-167.94982617597421
 21
94.24689743451853
 31
0.0
  0
ARC
  5
6D81
  8
AM5
 10
-167.94982617597421
 20
88.266897434518654
 30
0.0
 40
5.0
 50
15.867152524685929
 51
281.44202960587188
  0
CIRCLE
  5
6D82
  8
0
 10
-167.94982617597421
 20
88.266897434518654
 30
0.0
 40
4.25
  0
LINE
  5
6D83
  8
AM7
 10
-225.8298261759742
 20
88.366897434518535
 30
0.0
 11
-214.06982617597421
 21
88.366897434518535
 31
0.0
  0
LINE
  5
6D84
  8
AM7
 10
-219.94982617597421
 20
82.486897434518426
 30
0.0
 11
-219.94982617597421
 21
94.24689743451853
 31
0.0
  0
CIRCLE
  5
6D85
  8
0
 10
-219.94982617597421
 20
88.266897434518626
 30
0.0
 40
4.25
  0
ARC
  5
6D86
  8
AM5
 10
-219.94982617597421
 20
88.266897434518626
 30
0.0
 40
5.0
 50
258.55797039412812
 51
164.13284747531401
  0
ARC
  5
6D87
  8
AM5
 10
-219.94982617597421
 20
160.4668974345179
 30
0.0
 40
5.0
 50
195.86715252468591
 51
101.44202960587189
  0
CIRCLE
  5
6D88
  8
0
 10
-219.94982617597421
 20
160.4668974345179
 30
0.0
 40
4.25
  0
CIRCLE
  5
6D89
  8
0
 10
-167.94982617597421
 20
160.46689743451779
 30
0.0
 40
4.25
  0
ARC
  5
6D8A
  8
AM5
 10
-167.94982617597421
 20
160.46689743451779
 30
0.0
 40
5.0
 50
78.557970394128034
 51
344.13284747531412
  0
LINE
  5
6D8B
  8
AM7
 10
-140.50880250437379
 20
124.36689743451819
 30
0.0
 11
-247.39084984757449
 21
124.36689743451819
 31
0.0
  0
LINE
  5
6D8C
  8
0
 10
-228.94982617597421
 20
42.959141873893678
 30
0.0
 11
-158.9498261759739
 21
42.959141873893678
 31
0.0
  0
LINE
  5
6D8D
  8
0
 10
-213.5654317605325
 20
26.960005338664871
 30
0.0
 11
-174.33422778478021
 21
26.960005338664839
 31
0.0
  0
LINE
  5
6D8E
  8
0
 10
-226.3342277847803
 20
26.96000533866464
 30
0.0
 11
-228.94982617597401
 21
26.960005338664619
 31
0.0
  0
LINE
  5
6D8F
  8
0
 10
-174.3342277847803
 20
26.960005338664999
 30
0.0
 11
-213.5654317605325
 21
26.960005338664729
 31
0.0
  0
LINE
  5
6D90
  8
0
 10
-161.56543176053239
 20
26.960005338664839
 30
0.0
 11
-158.94982617597401
 21
26.960005338664839
 31
0.0
  0
LINE
  5
6D91
  8
µę˝u
 10
-162.9498261759739
 20
42.16000533866481
 30
0.0
 11
-162.2698261759738
 21
42.960005338664843
 31
0.0
  0
LINE
  5
6D92
  8
µę˝u
 10
-162.94982617597401
 20
42.160005338665037
 30
0.0
 11
-162.26982617597409
 21
42.960005338665027
 31
0.0
  0
LINE
  5
6D93
  8
0
 10
-148.44982617597401
 20
39.959141873893692
 30
0.0
 11
-158.9498261759739
 21
39.959141873893692
 31
0.0
  0
LINE
  5
6D94
  8
0
 10
-148.44982617597401
 20
41.95914187389409
 30
0.0
 11
-158.9498261759739
 21
41.95914187389409
 31
0.0
  0
LINE
  5
6D95
  8
0
 10
-148.44982617597401
 20
41.959141873893692
 30
0.0
 11
-158.9498261759739
 21
41.959141873893692
 31
0.0
  0
LINE
  5
6D96
  8
0
 10
-158.94982617597401
 20
39.959141873893877
 30
0.0
 11
-148.44982617597421
 21
39.959141873893941
 31
0.0
  0
LINE
  5
6D97
  8
0
 10
-148.44982617597421
 20
41.959141873894403
 30
0.0
 11
-158.9498261759741
 21
41.959141873894332
 31
0.0
  0
LINE
  5
6D98
  8
0
 10
-148.44982617597421
 20
41.959141873893969
 30
0.0
 11
-158.9498261759741
 21
41.959141873893913
 31
0.0
  0
CIRCLE
  5
6D99
  8
0
 10
-152.9498261759741
 20
32.159141873894129
 30
0.0
 40
0.7185553324000003
  0
CIRCLE
  5
6D9A
  8
0
 10
-152.9498261759741
 20
32.159141873893702
 30
0.0
 40
0.7185553324000003
  0
LINE
  5
6D9B
  8
¤¤¤ß˝u
 10
-152.94982617597421
 20
27.317704642350179
 30
0.0
 11
-152.94982617597421
 21
37.000579105437232
 31
0.0
  0
LINE
  5
6D9C
  8
¤¤¤ß˝u
 10
-152.9498261759741
 20
27.317704642350439
 30
0.0
 11
-152.94982617597421
 21
37.000579105437481
 31
0.0
  0
CIRCLE
  5
6D9D
  8
0
 10
-152.94982617597421
 20
32.159141873894399
 30
0.0
 40
0.7185553324000003
  0
CIRCLE
  5
6D9E
  8
0
 10
-152.94982617597421
 20
32.159141873893958
 30
0.0
 40
0.7185553324000003
  0
LINE
  5
6D9F
  8
µę˝u
 10
-162.9498261759739
 20
33.96000533866485
 30
0.0
 11
-162.0998261759739
 21
32.96000533866485
 31
0.0
  0
LINE
  5
6DA0
  8
µę˝u
 10
-162.94982617597401
 20
34.014930976974647
 30
0.0
 11
-162.09982617597399
 21
32.960005338665042
 31
0.0
  0
LINE
  5
6DA1
  8
0
 10
-161.49862617597421
 20
32.96000533866485
 30
0.0
 11
-161.49862617597421
 21
27.430405338664769
 31
0.0
  0
LINE
  5
6DA2
  8
0
 10
-161.4986261759737
 20
32.960005338665042
 30
0.0
 11
-161.49862617597361
 21
27.430405338664968
 31
0.0
  0
CIRCLE
  5
6DA3
  8
0
 10
-152.9498261759741
 20
32.159141873894129
 30
0.0
 40
2.75
  0
CIRCLE
  5
6DA4
  8
0
 10
-152.9498261759741
 20
32.159141873894129
 30
0.0
 40
2.486916010899999
  0
CIRCLE
  5
6DA5
  8
0
 10
-152.9498261759741
 20
32.159141873893702
 30
0.0
 40
2.486916010899999
  0
CIRCLE
  5
6DA6
  8
0
 10
-152.9498261759741
 20
32.159141873893702
 30
0.0
 40
2.75
  0
CIRCLE
  5
6DA7
  8
0
 10
-152.9498261759741
 20
32.159141873894129
 30
0.0
 40
2.185553324299998
  0
CIRCLE
  5
6DA8
  8
0
 10
-152.9498261759741
 20
32.159141873893702
 30
0.0
 40
2.185553324299998
  0
LINE
  5
6DA9
  8
¤¤¤ß˝u
 10
-148.10838894443049
 20
32.159141873893702
 30
0.0
 11
-157.7912634075177
 21
32.159141873893702
 31
0.0
  0
LINE
  5
6DAA
  8
¤¤¤ß˝u
 10
-148.10838894443049
 20
32.159141873893986
 30
0.0
 11
-157.7912634075177
 21
32.15914187389393
 31
0.0
  0
CIRCLE
  5
6DAB
  8
0
 10
-152.94982617597421
 20
32.159141873894399
 30
0.0
 40
2.185553324299998
  0
CIRCLE
  5
6DAC
  8
0
 10
-152.94982617597421
 20
32.159141873893958
 30
0.0
 40
2.185553324299998
  0
CIRCLE
  5
6DAD
  8
0
 10
-152.94982617597421
 20
32.159141873894399
 30
0.0
 40
2.75
  0
CIRCLE
  5
6DAE
  8
0
 10
-152.94982617597421
 20
32.159141873894399
 30
0.0
 40
2.486916010899999
  0
CIRCLE
  5
6DAF
  8
0
 10
-152.94982617597421
 20
32.159141873893958
 30
0.0
 40
2.486916010899999
  0
CIRCLE
  5
6DB0
  8
0
 10
-152.94982617597421
 20
32.159141873893958
 30
0.0
 40
2.75
  0
LINE
  5
6DB1
  8
µę˝u
 10
-163.69982617597381
 20
42.16000533866481
 30
0.0
 11
-163.69982617597381
 21
33.96000533866485
 31
0.0
  0
LINE
  5
6DB2
  8
µę˝u
 10
-162.9498261759739
 20
42.16000533866481
 30
0.0
 11
-162.9498261759739
 21
33.96000533866485
 31
0.0
  0
LINE
  5
6DB3
  8
µę˝u
 10
-163.69982617597401
 20
42.160005338665037
 30
0.0
 11
-163.69982617597401
 21
33.960005338665049
 31
0.0
  0
LINE
  5
6DB4
  8
µę˝u
 10
-162.94982617597401
 20
42.160005338665037
 30
0.0
 11
-162.94982617597401
 21
33.960005338665049
 31
0.0
  0
LINE
  5
6DB5
  8
0
 10
-148.44982617597401
 20
8.9591418738941133
 30
0.0
 11
-158.9498261759739
 21
8.9591418738941133
 31
0.0
  0
LINE
  5
6DB6
  8
0
 10
-148.44982617597401
 20
6.9591418738941133
 30
0.0
 11
-158.9498261759739
 21
6.9591418738941133
 31
0.0
  0
LINE
  5
6DB7
  8
0
 10
-148.44982617597401
 20
6.9591418738936861
 30
0.0
 11
-158.9498261759739
 21
6.9591418738936861
 31
0.0
  0
LINE
  5
6DB8
  8
0
 10
-148.44982617597401
 20
8.9591418738936852
 30
0.0
 11
-158.9498261759739
 21
8.9591418738936852
 31
0.0
  0
LINE
  5
6DB9
  8
0
 10
-148.4498261759739
 20
8.9591418738943975
 30
0.0
 11
-158.9498261759739
 21
8.9591418738943371
 31
0.0
  0
LINE
  5
6DBA
  8
0
 10
-148.4498261759739
 20
6.9591418738943966
 30
0.0
 11
-158.9498261759739
 21
6.9591418738943398
 31
0.0
  0
LINE
  5
6DBB
  8
0
 10
-148.4498261759739
 20
6.9591418738939712
 30
0.0
 11
-158.9498261759739
 21
6.9591418738939144
 31
0.0
  0
LINE
  5
6DBC
  8
0
 10
-148.4498261759739
 20
8.9591418738939712
 30
0.0
 11
-158.9498261759739
 21
8.9591418738939126
 31
0.0
  0
LINE
  5
6DBD
  8
0
 10
-148.44982617597401
 20
6.9591418738941133
 30
0.0
 11
-148.44982617597401
 21
41.95914187389409
 31
0.0
  0
LINE
  5
6DBE
  8
0
 10
-148.44982617597401
 20
41.959141873894083
 30
0.0
 11
-148.44982617597401
 21
6.9591418738941133
 31
0.0
  0
LINE
  5
6DBF
  8
0
 10
-148.44982617597401
 20
41.959141873893692
 30
0.0
 11
-148.44982617597401
 21
6.9591418738936861
 31
0.0
  0
LINE
  5
6DC0
  8
0
 10
-158.9498261759739
 20
42.959141873893678
 30
0.0
 11
-158.94982617597401
 21
6.9591418738936861
 31
0.0
  0
LINE
  5
6DC1
  8
0
 10
-148.4498261759739
 20
6.9591418738943966
 30
0.0
 11
-148.44982617597421
 21
41.959141873894403
 31
0.0
  0
LINE
  5
6DC2
  8
0
 10
-148.44982617597421
 20
41.95914187389436
 30
0.0
 11
-148.4498261759739
 21
6.9591418738943966
 31
0.0
  0
LINE
  5
6DC3
  8
0
 10
-148.44982617597421
 20
41.959141873893969
 30
0.0
 11
-148.4498261759739
 21
6.9591418738939712
 31
0.0
  0
LINE
  5
6DC4
  8
µę˝u
 10
-172.9498261759739
 20
42.160005338664803
 30
0.0
 11
-173.62982617597399
 21
42.9600053386648
 31
0.0
  0
LINE
  5
6DC5
  8
µę˝u
 10
-172.94982617597401
 20
42.160005338664973
 30
0.0
 11
-173.62982617597419
 21
42.960005338664963
 31
0.0
  0
LINE
  5
6DC6
  8
µę˝u
 10
-172.9498261759739
 20
34.014930976974462
 30
0.0
 11
-173.799826175974
 21
32.96000533866485
 31
0.0
  0
LINE
  5
6DC7
  8
µę˝u
 10
-172.94982617597401
 20
33.960005338664978
 30
0.0
 11
-173.79982617597409
 21
32.960005338664963
 31
0.0
  0
LINE
  5
6DC8
  8
0
 10
-174.40102617597421
 20
32.96000533866485
 30
0.0
 11
-174.40102617597421
 21
27.430405338664769
 31
0.0
  0
LINE
  5
6DC9
  8
0
 10
-174.40102617597381
 20
32.960005338664963
 30
0.0
 11
-174.4010261759737
 21
27.43040533866488
 31
0.0
  0
LINE
  5
6DCA
  8
¤¤¤ß˝u
 10
-167.94982617597401
 20
27.833259824773538
 30
0.0
 11
-167.94982617597401
 21
43.988812234714388
 31
0.0
  0
LINE
  5
6DCB
  8
¤¤¤ß˝u
 10
-167.9498261759739
 20
27.833259824773481
 30
0.0
 11
-167.9498261759739
 21
43.988812234714331
 31
0.0
  0
LINE
  5
6DCC
  8
µę˝u
 10
-172.9498261759739
 20
42.16000533866481
 30
0.0
 11
-172.9498261759739
 21
33.96000533866485
 31
0.0
  0
LINE
  5
6DCD
  8
µę˝u
 10
-172.19982617597381
 20
42.16000533866481
 30
0.0
 11
-172.19982617597381
 21
33.96000533866485
 31
0.0
  0
LINE
  5
6DCE
  8
µę˝u
 10
-172.19982617597421
 20
42.160005338664973
 30
0.0
 11
-172.19982617597401
 21
33.960005338664978
 31
0.0
  0
LINE
  5
6DCF
  8
µę˝u
 10
-172.94982617597401
 20
42.160005338664973
 30
0.0
 11
-172.94982617597401
 21
33.960005338664978
 31
0.0
  0
LINE
  5
6DD0
  8
¤¤¤ß˝u
 10
-167.94982617597401
 20
27.833259824773741
 30
0.0
 11
-167.94982617597401
 21
43.988812234714587
 31
0.0
  0
LINE
  5
6DD1
  8
¤¤¤ß˝u
 10
-167.94982617597381
 20
27.83325982477368
 30
0.0
 11
-167.9498261759739
 21
43.988812234714537
 31
0.0
  0
LINE
  5
6DD2
  8
µę˝u
 10
-214.9498261759741
 20
42.16000533866481
 30
0.0
 11
-214.269826175974
 21
42.960005338664843
 31
0.0
  0
LINE
  5
6DD3
  8
µę˝u
 10
-214.94982617597429
 20
42.160005338664647
 30
0.0
 11
-214.2698261759742
 21
42.960005338664651
 31
0.0
  0
LINE
  5
6DD4
  8
µę˝u
 10
-224.94982617597401
 20
42.16000533866481
 30
0.0
 11
-225.62982617597419
 21
42.960005338664843
 31
0.0
  0
LINE
  5
6DD5
  8
µę˝u
 10
-224.94982617597429
 20
42.160005338664647
 30
0.0
 11
-225.62982617597439
 21
42.960005338664637
 31
0.0
  0
LINE
  5
6DD6
  8
µę˝u
 10
-214.9498261759741
 20
42.16000533866481
 30
0.0
 11
-224.94982617597401
 21
42.160005338664803
 31
0.0
  0
LINE
  5
6DD7
  8
µę˝u
 10
-224.94982617597429
 20
42.160005338664647
 30
0.0
 11
-214.94982617597429
 21
42.160005338664647
 31
0.0
  0
LINE
  5
6DD8
  8
µę˝u
 10
-214.9498261759741
 20
33.96000533866485
 30
0.0
 11
-214.09982617597399
 21
32.96000533866485
 31
0.0
  0
LINE
  5
6DD9
  8
µę˝u
 10
-214.94982617597421
 20
34.014930976974313
 30
0.0
 11
-214.09982617597419
 21
32.960005338664701
 31
0.0
  0
LINE
  5
6DDA
  8
0
 10
-213.49862617597429
 20
32.96000533866485
 30
0.0
 11
-213.49862617597429
 21
27.430405338664769
 31
0.0
  0
LINE
  5
6DDB
  8
0
 10
-213.4986261759739
 20
32.960005338664729
 30
0.0
 11
-213.4986261759737
 21
27.430405338664659
 31
0.0
  0
LINE
  5
6DDC
  8
0
 10
-226.40102617597449
 20
32.96000533866485
 30
0.0
 11
-226.40102617597449
 21
27.430405338664769
 31
0.0
  0
LINE
  5
6DDD
  8
0
 10
-226.4010261759739
 20
32.960005338664651
 30
0.0
 11
-226.40102617597381
 21
27.430405338664571
 31
0.0
  0
LINE
  5
6DDE
  8
µę˝u
 10
-224.94982617597401
 20
34.014930976974462
 30
0.0
 11
-225.79982617597409
 21
32.96000533866485
 31
0.0
  0
LINE
  5
6DDF
  8
µę˝u
 10
-224.94982617597421
 20
33.960005338664651
 30
0.0
 11
-225.7998261759742
 21
32.960005338664651
 31
0.0
  0
LINE
  5
6DE0
  8
µę˝u
 10
-224.94982617597421
 20
33.96000533866485
 30
0.0
 11
-214.9498261759741
 21
33.96000533866485
 31
0.0
  0
LINE
  5
6DE1
  8
0
 10
-226.40102617597449
 20
32.96000533866485
 30
0.0
 11
-213.49862617597429
 21
32.96000533866485
 31
0.0
  0
LINE
  5
6DE2
  8
0
 10
-213.4986261759739
 20
32.960005338664729
 30
0.0
 11
-226.4010261759739
 21
32.960005338664651
 31
0.0
  0
LINE
  5
6DE3
  8
µę˝u
 10
-214.9498261759741
 20
33.960005338664701
 30
0.0
 11
-224.94982617597421
 21
33.960005338664651
 31
0.0
  0
LINE
  5
6DE4
  8
¤¤¤ß˝u
 10
-219.94982617597421
 20
27.83325982477351
 30
0.0
 11
-219.94982617597421
 21
43.988812234714374
 31
0.0
  0
LINE
  5
6DE5
  8
¤¤¤ß˝u
 10
-219.9498261759741
 20
27.83325982477356
 30
0.0
 11
-219.9498261759741
 21
43.988812234714437
 31
0.0
  0
LINE
  5
6DE6
  8
µę˝u
 10
-214.9498261759741
 20
42.16000533866481
 30
0.0
 11
-214.9498261759741
 21
33.96000533866485
 31
0.0
  0
LINE
  5
6DE7
  8
µę˝u
 10
-215.6998261759741
 20
42.16000533866481
 30
0.0
 11
-215.6998261759741
 21
33.96000533866485
 31
0.0
  0
LINE
  5
6DE8
  8
µę˝u
 10
-224.94982617597401
 20
42.16000533866481
 30
0.0
 11
-224.94982617597401
 21
33.96000533866485
 31
0.0
  0
LINE
  5
6DE9
  8
µę˝u
 10
-224.1998261759741
 20
42.16000533866481
 30
0.0
 11
-224.1998261759741
 21
33.96000533866485
 31
0.0
  0
LINE
  5
6DEA
  8
µę˝u
 10
-215.69982617597429
 20
42.160005338664689
 30
0.0
 11
-215.69982617597421
 21
33.960005338664701
 31
0.0
  0
LINE
  5
6DEB
  8
µę˝u
 10
-214.94982617597429
 20
42.160005338664689
 30
0.0
 11
-214.94982617597421
 21
33.960005338664701
 31
0.0
  0
LINE
  5
6DEC
  8
¤¤¤ß˝u
 10
-219.94982617597421
 20
27.833259824773311
 30
0.0
 11
-219.94982617597429
 21
43.988812234714182
 31
0.0
  0
LINE
  5
6DED
  8
¤¤¤ß˝u
 10
-219.9498261759739
 20
27.833259824773361
 30
0.0
 11
-219.9498261759741
 21
43.988812234714217
 31
0.0
  0
LINE
  5
6DEE
  8
µę˝u
 10
-224.94982617597429
 20
42.160005338664647
 30
0.0
 11
-224.94982617597421
 21
33.960005338664651
 31
0.0
  0
LINE
  5
6DEF
  8
µę˝u
 10
-224.19982617597429
 20
42.160005338664647
 30
0.0
 11
-224.19982617597421
 21
33.960005338664651
 31
0.0
  0
LINE
  5
6DF0
  8
0
 10
-228.94982617597421
 20
42.959141873893678
 30
0.0
 11
-228.9498261759741
 21
6.9591418738936861
 31
0.0
  0
POLYLINE
  5
6DF1
  8
0
 66
     1
 10
0.0
 20
0.0
 30
0.0
  0
VERTEX
  5
71BA
  8
0
 10
-213.4986261759737
 20
27.38226646506476
 30
0.0
  0
VERTEX
  5
71BB
  8
0
 10
-213.50534664660429
 20
27.300707589928638
 30
0.0
  0
VERTEX
  5
71BC
  8
0
 10
-213.5247633044734
 20
27.177642203790949
 30
0.0
  0
VERTEX
  5
71BD
  8
0
 10
-213.5336593874685
 20
27.12820536948707
 30
0.0
  0
VERTEX
  5
71BE
  8
0
 10
-213.56985984898509
 20
26.936563444264689
 30
0.0
  0
VERTEX
  5
71BF
  8
0
 10
-213.60293472560579
 20
26.759995362242162
 30
0.0
  0
VERTEX
  5
71C0
  8
0
 10
-213.6600165277433
 20
26.42426053421028
 30
0.0
  0
VERTEX
  5
71C1
  8
0
 10
-213.71316220331479
 20
26.030342524456628
 30
0.0
  0
VERTEX
  5
71C2
  8
0
 10
-213.7278250118396
 20
25.8903023312279
 30
0.0
  0
VERTEX
  5
71C3
  8
0
 10
-213.74797780815331
 20
25.647433343119051
 30
0.0
  0
VERTEX
  5
71C4
  8
0
 10
-213.7664123374843
 20
25.411766114959139
 30
0.0
  0
VERTEX
  5
71C5
  8
0
 10
-213.8067908348157
 20
24.924154633768669
 30
0.0
  0
VERTEX
  5
71C6
  8
0
 10
-213.8946998554363
 20
23.970320114421469
 30
0.0
  0
VERTEX
  5
71C7
  8
0
 10
-214.06803223610839
 20
22.385874294414979
 30
0.0
  0
VERTEX
  5
71C8
  8
0
 10
-214.28424608494021
 20
20.76176313773021
 30
0.0
  0
VERTEX
  5
71C9
  8
0
 10
-214.36552143582679
 20
20.221599047925451
 30
0.0
  0
VERTEX
  5
71CA
  8
0
 10
-214.6316820528379
 20
18.64675925318619
 30
0.0
  0
VERTEX
  5
71CB
  8
0
 10
-214.86927173183949
 20
17.43840453431261
 30
0.0
  0
VERTEX
  5
71CC
  8
0
 10
-215.0759763148026
 20
16.50285200014304
 30
0.0
  0
VERTEX
  5
71CD
  8
0
 10
-215.3399160246523
 20
15.43376359945171
 30
0.0
  0
VERTEX
  5
71CE
  8
0
 10
-215.56757893271009
 20
14.607718459586181
 30
0.0
  0
VERTEX
  5
71CF
  8
0
 10
-215.87824206942659
 20
13.600981276302891
 30
0.0
  0
VERTEX
  5
71D0
  8
0
 10
-216.14757858838951
 20
12.82648348358623
 30
0.0
  0
VERTEX
  5
71D1
  8
0
 10
-216.50827084101081
 20
11.91244943620063
 30
0.0
  0
VERTEX
  5
71D2
  8
0
 10
-216.602092724198
 20
11.69576620343258
 30
0.0
  0
VERTEX
  5
71D3
  8
0
 10
-216.65043886840269
 20
11.588670209627759
 30
0.0
  0
VERTEX
  5
71D4
  8
0
 10
-216.72108449318361
 20
11.4586887644565
 30
0.0
  0
VERTEX
  5
71D5
  8
0
 10
-216.891761661158
 20
11.228487360347801
 30
0.0
  0
VERTEX
  5
71D6
  8
0
 10
-217.0485591116537
 20
11.07332219677653
 30
0.0
  0
VERTEX
  5
71D7
  8
0
 10
-217.2780922149116
 20
10.9006077215638
 30
0.0
  0
VERTEX
  5
71D8
  8
0
 10
-217.58565491274169
 20
10.73199852276707
 30
0.0
  0
VERTEX
  5
71D9
  8
0
 10
-217.8409153338618
 20
10.627775941672491
 30
0.0
  0
VERTEX
  5
71DA
  8
0
 10
-218.21270064222671
 20
10.51495997280222
 30
0.0
  0
VERTEX
  5
71DB
  8
0
 10
-218.74416136573359
 20
10.41022902516695
 30
0.0
  0
VERTEX
  5
71DC
  8
0
 10
-219.2956853413626
 20
10.34988216242132
 30
0.0
  0
VERTEX
  5
71DD
  8
0
 10
-219.7303803929849
 20
10.32924587462619
 30
0.0
  0
VERTEX
  5
71DE
  8
0
 10
-220.32302910712261
 20
10.33400343571415
 30
0.0
  0
VERTEX
  5
71DF
  8
0
 10
-220.78104611381701
 20
10.364869295195801
 30
0.0
  0
VERTEX
  5
71E0
  8
0
 10
-221.34941590801861
 20
10.4420724776854
 30
0.0
  0
VERTEX
  5
71E1
  8
0
 10
-221.7775908019965
 20
10.53905150718932
 30
0.0
  0
VERTEX
  5
71E2
  8
0
 10
-222.16078613967321
 20
10.66612745291738
 30
0.0
  0
VERTEX
  5
71E3
  8
0
 10
-222.4397557102844
 20
10.794197835611749
 30
0.0
  0
VERTEX
  5
71E4
  8
0
 10
-222.6435407162104
 20
10.91522662153173
 30
0.0
  0
VERTEX
  5
71E5
  8
0
 10
-222.880511602713
 20
11.09959580440537
 30
0.0
  0
VERTEX
  5
71E6
  8
0
 10
-223.04287867676109
 20
11.269087811675719
 30
0.0
  0
VERTEX
  5
71E7
  8
0
 10
-223.19808026933731
 20
11.491692823336511
 30
0.0
  0
VERTEX
  5
71E8
  8
0
 10
-223.2546931339003
 20
11.600170104616501
 30
0.0
  0
VERTEX
  5
71E9
  8
0
 10
-223.30273332334019
 20
11.70750019111898
 30
0.0
  0
VERTEX
  5
71EA
  8
0
 10
-223.66077503777211
 20
12.582411139317291
 30
0.0
  0
VERTEX
  5
71EB
  8
0
 10
-224.01787415278051
 20
13.59020874075094
 30
0.0
  0
VERTEX
  5
71EC
  8
0
 10
-224.2662026088189
 20
14.38330280237011
 30
0.0
  0
VERTEX
  5
71ED
  8
0
 10
-224.57873729932771
 20
15.50532397413332
 30
0.0
  0
VERTEX
  5
71EE
  8
0
 10
-224.90997117887949
 20
16.880771404840569
 30
0.0
  0
VERTEX
  5
71EF
  8
0
 10
-225.13604399915471
 20
17.957305267394119
 30
0.0
  0
VERTEX
  5
71F0
  8
0
 10
-225.41599549447619
 20
19.488853265704559
 30
0.0
  0
VERTEX
  5
71F1
  8
0
 10
-225.65961034222011
 20
21.069941113691751
 30
0.0
  0
VERTEX
  5
71F2
  8
0
 10
-225.73180781898179
 20
21.598205498920489
 30
0.0
  0
VERTEX
  5
71F3
  8
0
 10
-225.9123035910909
 20
23.08362086880209
 30
0.0
  0
VERTEX
  5
71F4
  8
0
 10
-226.06556820395491
 20
24.613652873051709
 30
0.0
  0
VERTEX
  5
71F5
  8
0
 10
-226.1098000236284
 20
25.124268667893372
 30
0.0
  0
VERTEX
  5
71F6
  8
0
 10
-226.1461114526972
 20
25.5753670674838
 30
0.0
  0
VERTEX
  5
71F7
  8
0
 10
-226.16307103925701
 20
25.793304062402228
 30
0.0
  0
VERTEX
  5
71F8
  8
0
 10
-226.18340812392901
 20
26.002931027138171
 30
0.0
  0
VERTEX
  5
71F9
  8
0
 10
-226.227904704537
 20
26.34727771841494
 30
0.0
  0
VERTEX
  5
71FA
  8
0
 10
-226.2795799709946
 20
26.664718827304569
 30
0.0
  0
VERTEX
  5
71FB
  8
0
 10
-226.29686223751631
 20
26.760784870542981
 30
0.0
  0
VERTEX
  5
71FC
  8
0
 10
-226.3389331254524
 20
26.98509262468049
 30
0.0
  0
VERTEX
  5
71FD
  8
0
 10
-226.3704869396731
 20
27.153764965672568
 30
0.0
  0
VERTEX
  5
71FE
  8
0
 10
-226.3926185180926
 20
27.287926347765449
 30
0.0
  0
VERTEX
  5
71FF
  8
0
 10
-226.3970693402878
 20
27.323194558658091
 30
0.0
  0
VERTEX
  5
7200
  8
0
 10
-226.40055550164431
 20
27.396634748814851
 30
0.0
  0
VERTEX
  5
7201
  8
0
 10
-226.39331195865549
 20
27.425292025998889
 30
0.0
  0
VERTEX
  5
7202
  8
0
 10
-226.3857817625852
 20
27.429990003496641
 30
0.0
  0
SEQEND
  5
7203
  8
0
  0
CIRCLE
  5
6DF2
  8
0
 10
-234.94982617597401
 20
32.159141873893702
 30
0.0
 40
0.7185553324000003
  0
CIRCLE
  5
6DF3
  8
0
 10
-234.94982617597401
 20
32.159141873894129
 30
0.0
 40
0.7185553324000003
  0
LINE
  5
6DF4
  8
¤¤¤ß˝u
 10
-234.94982617597401
 20
27.317704642350179
 30
0.0
 11
-234.94982617597401
 21
37.000579105437232
 31
0.0
  0
LINE
  5
6DF5
  8
¤¤¤ß˝u
 10
-234.94982617597401
 20
27.317704642349931
 30
0.0
 11
-234.94982617597401
 21
37.000579105436969
 31
0.0
  0
CIRCLE
  5
6DF6
  8
0
 10
-234.9498261759741
 20
32.159141873893446
 30
0.0
 40
0.7185553324000003
  0
CIRCLE
  5
6DF7
  8
0
 10
-234.9498261759741
 20
32.15914187389388
 30
0.0
 40
0.7185553324000003
  0
LINE
  5
6DF8
  8
0
 10
-239.4498261759741
 20
41.959141873893692
 30
0.0
 11
-239.4498261759741
 21
6.9591418738936861
 31
0.0
  0
LINE
  5
6DF9
  8
0
 10
-239.4498261759741
 20
41.959141873894083
 30
0.0
 11
-239.4498261759741
 21
6.9591418738941133
 31
0.0
  0
LINE
  5
6DFA
  8
0
 10
-239.4498261759741
 20
6.9591418738941133
 30
0.0
 11
-239.4498261759741
 21
41.95914187389409
 31
0.0
  0
LINE
  5
6DFB
  8
0
 10
-239.44982617597421
 20
41.959141873893401
 30
0.0
 11
-239.44982617597401
 21
6.9591418738934019
 31
0.0
  0
LINE
  5
6DFC
  8
0
 10
-239.44982617597421
 20
41.959141873893792
 30
0.0
 11
-239.44982617597401
 21
6.9591418738938291
 31
0.0
  0
LINE
  5
6DFD
  8
0
 10
-239.44982617597401
 20
6.9591418738938291
 30
0.0
 11
-239.44982617597421
 21
41.959141873893827
 31
0.0
  0
LINE
  5
6DFE
  8
0
 10
-239.4498261759741
 20
41.959141873893692
 30
0.0
 11
-228.94982617597401
 21
41.959141873893692
 31
0.0
  0
LINE
  5
6DFF
  8
0
 10
-239.4498261759741
 20
8.9591418738936852
 30
0.0
 11
-228.94982617597401
 21
8.9591418738936852
 31
0.0
  0
LINE
  5
6E00
  8
0
 10
-239.4498261759741
 20
41.95914187389409
 30
0.0
 11
-228.94982617597401
 21
41.95914187389409
 31
0.0
  0
LINE
  5
6E01
  8
0
 10
-239.4498261759741
 20
8.9591418738941133
 30
0.0
 11
-228.94982617597401
 21
8.9591418738941133
 31
0.0
  0
CIRCLE
  5
6E02
  8
0
 10
-234.94982617597401
 20
32.159141873893702
 30
0.0
 40
2.75
  0
CIRCLE
  5
6E03
  8
0
 10
-234.94982617597401
 20
32.159141873893702
 30
0.0
 40
2.486916010899999
  0
CIRCLE
  5
6E04
  8
0
 10
-234.94982617597401
 20
32.159141873894129
 30
0.0
 40
2.486916010899999
  0
CIRCLE
  5
6E05
  8
0
 10
-234.94982617597401
 20
32.159141873894129
 30
0.0
 40
2.75
  0
CIRCLE
  5
6E06
  8
0
 10
-234.94982617597401
 20
32.159141873893702
 30
0.0
 40
2.185553324299998
  0
CIRCLE
  5
6E07
  8
0
 10
-234.94982617597401
 20
32.159141873894129
 30
0.0
 40
2.185553324299998
  0
LINE
  5
6E08
  8
0
 10
-228.94982617597401
 20
39.959141873893657
 30
0.0
 11
-239.4498261759741
 21
39.959141873893657
 31
0.0
  0
LINE
  5
6E09
  8
¤¤¤ß˝u
 10
-239.7912634075175
 20
32.159141873893702
 30
0.0
 11
-230.10838894443049
 21
32.159141873893702
 31
0.0
  0
LINE
  5
6E0A
  8
0
 10
-239.44982617597401
 20
8.9591418738934028
 30
0.0
 11
-228.94982617597401
 21
8.9591418738934578
 31
0.0
  0
LINE
  5
6E0B
  8
0
 10
-239.44982617597401
 20
6.9591418738934019
 30
0.0
 11
-228.94982617597401
 21
6.9591418738934587
 31
0.0
  0
LINE
  5
6E0C
  8
0
 10
-239.44982617597401
 20
6.9591418738938291
 30
0.0
 11
-228.94982617597401
 21
6.9591418738938851
 31
0.0
  0
LINE
  5
6E0D
  8
0
 10
-239.44982617597401
 20
8.9591418738938255
 30
0.0
 11
-228.94982617597401
 21
8.9591418738938842
 31
0.0
  0
LINE
  5
6E0E
  8
¤¤¤ß˝u
 10
-239.7912634075175
 20
32.159141873893418
 30
0.0
 11
-230.10838894443049
 21
32.159141873893482
 31
0.0
  0
CIRCLE
  5
6E0F
  8
0
 10
-234.9498261759741
 20
32.159141873893446
 30
0.0
 40
2.185553324299998
  0
CIRCLE
  5
6E10
  8
0
 10
-234.9498261759741
 20
32.15914187389388
 30
0.0
 40
2.185553324299998
  0
CIRCLE
  5
6E11
  8
0
 10
-234.9498261759741
 20
32.159141873893446
 30
0.0
 40
2.75
  0
CIRCLE
  5
6E12
  8
0
 10
-234.9498261759741
 20
32.159141873893446
 30
0.0
 40
2.486916010899999
  0
CIRCLE
  5
6E13
  8
0
 10
-234.9498261759741
 20
32.15914187389388
 30
0.0
 40
2.486916010899999
  0
CIRCLE
  5
6E14
  8
0
 10
-234.9498261759741
 20
32.15914187389388
 30
0.0
 40
2.75
  0
LINE
  5
6E15
  8
0
 10
-239.44982617597421
 20
41.959141873893401
 30
0.0
 11
-228.94982617597421
 21
41.959141873893451
 31
0.0
  0
LINE
  5
6E16
  8
0
 10
-239.44982617597421
 20
41.959141873893827
 30
0.0
 11
-228.94982617597421
 21
41.959141873893877
 31
0.0
  0
LINE
  5
6E17
  8
0
 10
-239.4498261759741
 20
39.959141873893401
 30
0.0
 11
-228.94982617597421
 21
39.959141873893472
 31
0.0
  0
LINE
  5
6E18
  8
0
 10
-228.94982617597401
 20
8.8909935264717852
 30
0.0
 11
-158.9498261759739
 21
8.8909935264718172
 31
0.0
  0
LINE
  5
6E19
  8
0
 10
-228.94982617597401
 20
26.960005338664871
 30
0.0
 11
-226.33422778478041
 21
26.960005338664871
 31
0.0
  0
LINE
  5
6E1A
  8
µę˝u
 10
-172.94982617597401
 20
33.96000533866485
 30
0.0
 11
-162.9498261759739
 21
33.96000533866485
 31
0.0
  0
LINE
  5
6E1B
  8
µę˝u
 10
-162.9498261759739
 20
42.16000533866481
 30
0.0
 11
-172.9498261759739
 21
42.160005338664803
 31
0.0
  0
LINE
  5
6E1C
  8
0
 10
-174.40102617597421
 20
32.96000533866485
 30
0.0
 11
-161.49862617597421
 21
32.96000533866485
 31
0.0
  0
LINE
  5
6E1D
  8
0
 10
-158.94982617597401
 20
26.960005338665098
 30
0.0
 11
-161.56543176053239
 21
26.96000533866507
 31
0.0
  0
LINE
  5
6E1E
  8
0
 10
-158.9498261759739
 20
8.8909935264720161
 30
0.0
 11
-228.94982617597401
 21
8.8909935264715916
 31
0.0
  0
LINE
  5
6E1F
  8
0
 10
-158.9498261759739
 20
6.9591418738939144
 30
0.0
 11
-228.94982617597401
 21
6.9591418738934587
 31
0.0
  0
POLYLINE
  5
6E20
  8
0
 66
     1
 10
0.0
 20
0.0
 30
0.0
  0
VERTEX
  5
7204
  8
0
 10
-161.49862617597361
 20
27.382266465065069
 30
0.0
  0
VERTEX
  5
7205
  8
0
 10
-161.5053466466041
 20
27.300707589928951
 30
0.0
  0
VERTEX
  5
7206
  8
0
 10
-161.5247633044732
 20
27.177642203791269
 30
0.0
  0
VERTEX
  5
7207
  8
0
 10
-161.5336593874683
 20
27.128205369487379
 30
0.0
  0
VERTEX
  5
7208
  8
0
 10
-161.56985984898489
 20
26.936563444265008
 30
0.0
  0
VERTEX
  5
7209
  8
0
 10
-161.60293472560559
 20
26.759995362242481
 30
0.0
  0
VERTEX
  5
720A
  8
0
 10
-161.66001652774321
 20
26.424260534210589
 30
0.0
  0
VERTEX
  5
720B
  8
0
 10
-161.7131622033146
 20
26.030342524456952
 30
0.0
  0
VERTEX
  5
720C
  8
0
 10
-161.72782501183951
 20
25.890302331228199
 30
0.0
  0
VERTEX
  5
720D
  8
0
 10
-161.74797780815319
 20
25.64743334311936
 30
0.0
  0
VERTEX
  5
720E
  8
0
 10
-161.76641233748421
 20
25.411766114959448
 30
0.0
  0
VERTEX
  5
720F
  8
0
 10
-161.80679083481559
 20
24.924154633768978
 30
0.0
  0
VERTEX
  5
7210
  8
0
 10
-161.89469985543619
 20
23.970320114421781
 30
0.0
  0
VERTEX
  5
7211
  8
0
 10
-162.06803223610811
 20
22.385874294415309
 30
0.0
  0
VERTEX
  5
7212
  8
0
 10
-162.28424608494001
 20
20.761763137730551
 30
0.0
  0
VERTEX
  5
7213
  8
0
 10
-162.36552143582659
 20
20.221599047925778
 30
0.0
  0
VERTEX
  5
7214
  8
0
 10
-162.6316820528377
 20
18.646759253186531
 30
0.0
  0
VERTEX
  5
7215
  8
0
 10
-162.8692717318394
 20
17.438404534312941
 30
0.0
  0
VERTEX
  5
7216
  8
0
 10
-163.0759763148024
 20
16.502852000143381
 30
0.0
  0
VERTEX
  5
7217
  8
0
 10
-163.33991602465221
 20
15.43376359945205
 30
0.0
  0
VERTEX
  5
7218
  8
0
 10
-163.56757893270989
 20
14.60771845958652
 30
0.0
  0
VERTEX
  5
7219
  8
0
 10
-163.87824206942651
 20
13.60098127630323
 30
0.0
  0
VERTEX
  5
721A
  8
0
 10
-164.14757858838931
 20
12.82648348358657
 30
0.0
  0
VERTEX
  5
721B
  8
0
 10
-164.5082708410107
 20
11.912449436200941
 30
0.0
  0
VERTEX
  5
721C
  8
0
 10
-164.60209272419769
 20
11.695766203432891
 30
0.0
  0
VERTEX
  5
721D
  8
0
 10
-164.6504388684026
 20
11.588670209628081
 30
0.0
  0
VERTEX
  5
721E
  8
0
 10
-164.7210844931835
 20
11.458688764456809
 30
0.0
  0
VERTEX
  5
721F
  8
0
 10
-164.89176166115789
 20
11.22848736034811
 30
0.0
  0
VERTEX
  5
7220
  8
0
 10
-165.04855911165359
 20
11.073322196776839
 30
0.0
  0
VERTEX
  5
7221
  8
0
 10
-165.27809221491131
 20
10.900607721564111
 30
0.0
  0
VERTEX
  5
7222
  8
0
 10
-165.58565491274149
 20
10.73199852276738
 30
0.0
  0
VERTEX
  5
7223
  8
0
 10
-165.8409153338616
 20
10.627775941672811
 30
0.0
  0
VERTEX
  5
7224
  8
0
 10
-166.21270064222659
 20
10.514959972802529
 30
0.0
  0
VERTEX
  5
7225
  8
0
 10
-166.7441613657335
 20
10.4102290251673
 30
0.0
  0
VERTEX
  5
7226
  8
0
 10
-167.2956853413624
 20
10.349882162421659
 30
0.0
  0
VERTEX
  5
7227
  8
0
 10
-167.73038039298461
 20
10.32924587462654
 30
0.0
  0
VERTEX
  5
7228
  8
0
 10
-168.3230291071223
 20
10.334003435714489
 30
0.0
  0
VERTEX
  5
7229
  8
0
 10
-168.78104611381681
 20
10.36486929519614
 30
0.0
  0
VERTEX
  5
722A
  8
0
 10
-169.3494159080185
 20
10.442072477685709
 30
0.0
  0
VERTEX
  5
722B
  8
0
 10
-169.77759080199641
 20
10.53905150718964
 30
0.0
  0
VERTEX
  5
722C
  8
0
 10
-170.16078613967301
 20
10.66612745291769
 30
0.0
  0
VERTEX
  5
722D
  8
0
 10
-170.4397557102842
 20
10.794197835612071
 30
0.0
  0
VERTEX
  5
722E
  8
0
 10
-170.64354071621031
 20
10.915226621532041
 30
0.0
  0
VERTEX
  5
722F
  8
0
 10
-170.8805116027128
 20
11.099595804405681
 30
0.0
  0
VERTEX
  5
7230
  8
0
 10
-171.04287867676101
 20
11.26908781167606
 30
0.0
  0
VERTEX
  5
7231
  8
0
 10
-171.1980802693372
 20
11.491692823336839
 30
0.0
  0
VERTEX
  5
7232
  8
0
 10
-171.25469313390019
 20
11.60017010461684
 30
0.0
  0
VERTEX
  5
7233
  8
0
 10
-171.30273332334011
 20
11.707500191119321
 30
0.0
  0
VERTEX
  5
7234
  8
0
 10
-171.660775037772
 20
12.58241113931763
 30
0.0
  0
VERTEX
  5
7235
  8
0
 10
-172.01787415278019
 20
13.590208740751279
 30
0.0
  0
VERTEX
  5
7236
  8
0
 10
-172.2662026088187
 20
14.38330280237045
 30
0.0
  0
VERTEX
  5
7237
  8
0
 10
-172.5787372993276
 20
15.50532397413366
 30
0.0
  0
VERTEX
  5
7238
  8
0
 10
-172.9099711788792
 20
16.88077140484091
 30
0.0
  0
VERTEX
  5
7239
  8
0
 10
-173.13604399915459
 20
17.957305267394471
 30
0.0
  0
VERTEX
  5
723A
  8
0
 10
-173.41599549447611
 20
19.488853265704911
 30
0.0
  0
VERTEX
  5
723B
  8
0
 10
-173.65961034221979
 20
21.069941113692071
 30
0.0
  0
VERTEX
  5
723C
  8
0
 10
-173.73180781898159
 20
21.598205498920802
 30
0.0
  0
VERTEX
  5
723D
  8
0
 10
-173.91230359109079
 20
23.083620868802399
 30
0.0
  0
VERTEX
  5
723E
  8
0
 10
-174.0655682039546
 20
24.613652873052011
 30
0.0
  0
VERTEX
  5
723F
  8
0
 10
-174.10980002362831
 20
25.124268667893691
 30
0.0
  0
VERTEX
  5
7240
  8
0
 10
-174.146111452697
 20
25.575367067484109
 30
0.0
  0
VERTEX
  5
7241
  8
0
 10
-174.16307103925689
 20
25.793304062402541
 30
0.0
  0
VERTEX
  5
7242
  8
0
 10
-174.18340812392881
 20
26.002931027138491
 30
0.0
  0
VERTEX
  5
7243
  8
0
 10
-174.22790470453671
 20
26.347277718415249
 30
0.0
  0
VERTEX
  5
7244
  8
0
 10
-174.27957997099449
 20
26.664718827304881
 30
0.0
  0
VERTEX
  5
7245
  8
0
 10
-174.29686223751611
 20
26.76078487054329
 30
0.0
  0
VERTEX
  5
7246
  8
0
 10
-174.33893312545229
 20
26.985092624680789
 30
0.0
  0
VERTEX
  5
7247
  8
0
 10
-174.37048693967299
 20
27.153764965672881
 30
0.0
  0
VERTEX
  5
7248
  8
0
 10
-174.39261851809241
 20
27.287926347765762
 30
0.0
  0
VERTEX
  5
7249
  8
0
 10
-174.3970693402876
 20
27.3231945586584
 30
0.0
  0
VERTEX
  5
724A
  8
0
 10
-174.40055550164411
 20
27.39663474881516
 30
0.0
  0
VERTEX
  5
724B
  8
0
 10
-174.3933119586554
 20
27.425292025999209
 30
0.0
  0
VERTEX
  5
724C
  8
0
 10
-174.38578176258511
 20
27.429990003496961
 30
0.0
  0
SEQEND
  5
724D
  8
0
  0
LINE
  5
6E21
  8
0
 10
-161.4986261759737
 20
32.960005338665042
 30
0.0
 11
-174.40102617597381
 21
32.960005338664963
 31
0.0
  0
LINE
  5
6E22
  8
µę˝u
 10
-162.9498261759739
 20
33.960005338665049
 30
0.0
 11
-172.94982617597401
 21
33.960005338664978
 31
0.0
  0
LINE
  5
6E23
  8
µę˝u
 10
-172.94982617597401
 20
42.160005338664973
 30
0.0
 11
-162.94982617597401
 21
42.160005338664973
 31
0.0
  0
LINE
  5
6E24
  8
µę˝u
 10
-329.132861283637
 20
42.158667636686403
 30
0.0
 11
-329.132861283637
 21
33.958667636686407
 31
0.0
  0
LINE
  5
6E25
  8
µę˝u
 10
-328.38286128363688
 20
42.158667636686403
 30
0.0
 11
-328.38286128363688
 21
33.958667636686407
 31
0.0
  0
LINE
  5
6E26
  8
0
 10
-324.38286128363711
 20
41.458667636686407
 30
0.0
 11
-324.38286128363711
 21
34.458667636686471
 31
0.0
  0
LINE
  5
6E27
  8
0
 10
-324.38286128363711
 20
34.458667636686471
 30
0.0
 11
-324.88286128363711
 21
33.958667636686407
 31
0.0
  0
LINE
  5
6E28
  8
µę˝u
 10
-328.38286128363688
 20
42.158667636686403
 30
0.0
 11
-327.70286128363688
 21
42.958667636686407
 31
0.0
  0
LINE
  5
6E29
  8
0
 10
-325.88286128363711
 20
42.958667636686407
 30
0.0
 11
-324.38286128363711
 21
41.458667636686407
 31
0.0
  0
LINE
  5
6E2A
  8
µę˝u
 10
-338.38286128363688
 20
42.158667636686403
 30
0.0
 11
-338.38286128363688
 21
33.958667636686407
 31
0.0
  0
LINE
  5
6E2B
  8
0
 10
-342.382861283637
 20
42.958667636686407
 30
0.0
 11
-342.88286128363711
 21
42.458667636686407
 31
0.0
  0
LINE
  5
6E2C
  8
µę˝u
 10
-338.38286128363688
 20
42.158667636686403
 30
0.0
 11
-339.06286128363701
 21
42.958667636686407
 31
0.0
  0
LINE
  5
6E2D
  8
µę˝u
 10
-337.632861283637
 20
42.158667636686403
 30
0.0
 11
-337.632861283637
 21
33.958667636686407
 31
0.0
  0
LINE
  5
6E2E
  8
µę˝u
 10
-338.38286128363711
 20
33.958667636686407
 30
0.0
 11
-328.38286128363688
 21
33.958667636686407
 31
0.0
  0
LINE
  5
6E2F
  8
µę˝u
 10
-328.38286128363688
 20
42.158667636686403
 30
0.0
 11
-338.38286128363688
 21
42.158667636686353
 31
0.0
  0
LINE
  5
6E30
  8
0
 10
-342.382861283637
 20
42.958667636686407
 30
0.0
 11
-325.88286128363711
 21
42.958667636686407
 31
0.0
  0
LINE
  5
6E31
  8
0
 10
-325.88286128363711
 20
26.958667636686421
 30
0.0
 11
-332.8735091574984
 21
26.958667636686421
 31
0.0
  0
LINE
  5
6E32
  8
0
 10
-325.88286128363711
 20
26.958667636686421
 30
0.0
 11
-324.88286128363711
 21
27.95866763668641
 31
0.0
  0
LINE
  5
6E33
  8
0
 10
-340.38286128363683
 20
32.958667636686407
 30
0.0
 11
-324.88286128363711
 21
32.958667636686407
 31
0.0
  0
ARC
  5
6E34
  8
0
 10
-332.87350915749852
 20
24.458667636686421
 30
0.0
 40
2.5
 50
90.0
 51
165.00000000000099
  0
LINE
  5
6E35
  8
µę˝u
 10
-338.38286128363688
 20
34.013593274996033
 30
0.0
 11
-339.23286128363702
 21
32.958667636686407
 31
0.0
  0
LINE
  5
6E36
  8
0
 10
-324.88286128363711
 20
33.958667636686407
 30
0.0
 11
-324.88286128363711
 21
27.95866763668641
 31
0.0
  0
LINE
  5
6E37
  8
µę˝u
 10
-328.38286128363688
 20
33.958667636686407
 30
0.0
 11
-327.53286128363692
 21
32.958667636686407
 31
0.0
  0
LINE
  5
6E38
  8
0
 10
-339.63340375055139
 20
8.8896558244933885
 30
0.0
 11
-342.14991655155819
 21
6.9586676366863989
 31
0.0
  0
LINE
  5
6E39
  8
0
 10
-339.6331723858633
 20
8.8905192892645442
 30
0.0
 11
-335.28832372322108
 21
25.10571524944271
 31
0.0
  0
LINE
  5
6E3A
  8
µę˝u
 10
-340.38286128363683
 20
8.3152627654145572
 30
0.0
 11
-340.38286128363683
 21
32.958667636686407
 31
0.0
  0
LINE
  5
6E3B
  8
0
 10
-362.38286128363711
 20
42.958667636686407
 30
0.0
 11
-361.88286128363711
 21
42.458667636686407
 31
0.0
  0
LINE
  5
6E3C
  8
0
 10
-376.38286128363711
 20
42.958667636686407
 30
0.0
 11
-376.88286128363711
 21
42.458667636686407
 31
0.0
  0
LINE
  5
6E3D
  8
0
 10
-376.38286128363711
 20
42.958667636686407
 30
0.0
 11
-362.38286128363711
 21
42.958667636686407
 31
0.0
  0
LINE
  5
6E3E
  8
µę˝u
 10
-401.13286128363688
 20
42.158667636686403
 30
0.0
 11
-401.13286128363688
 21
33.958667636686407
 31
0.0
  0
LINE
  5
6E3F
  8
µę˝u
 10
-400.38286128363688
 20
42.158667636686403
 30
0.0
 11
-400.38286128363688
 21
33.958667636686407
 31
0.0
  0
LINE
  5
6E40
  8
µę˝u
 10
-400.38286128363688
 20
42.158667636686403
 30
0.0
 11
-399.70286128363688
 21
42.958667636686407
 31
0.0
  0
LINE
  5
6E41
  8
0
 10
-396.38286128363688
 20
42.958667636686407
 30
0.0
 11
-395.882861283637
 21
42.458667636686407
 31
0.0
  0
ARC
  5
6E42
  8
0
 10
-405.89221340977548
 20
24.458667636686421
 30
0.0
 40
2.5
 50
14.99999999999884
 51
90.0
  0
LINE
  5
6E43
  8
µę˝u
 10
-400.38286128363688
 20
34.013593274996033
 30
0.0
 11
-399.53286128363698
 21
32.958667636686407
 31
0.0
  0
LINE
  5
6E44
  8
0
 10
-395.882861283637
 20
42.458667636686407
 30
0.0
 11
-376.88286128363711
 21
42.458667636686407
 31
0.0
  0
LINE
  5
6E45
  8
0
 10
-399.13255018141069
 20
8.8905192892645442
 30
0.0
 11
-396.61491209120578
 21
6.9586676366863989
 31
0.0
  0
LINE
  5
6E46
  8
0
 10
-399.13255018141069
 20
8.8905192892645442
 30
0.0
 11
-403.4773988440528
 21
25.10571524944271
 31
0.0
  0
LINE
  5
6E47
  8
µę˝u
 10
-398.382861283637
 20
8.3152627654145572
 30
0.0
 11
-398.382861283637
 21
32.958667636686407
 31
0.0
  0
LINE
  5
6E48
  8
µę˝u
 10
-409.63286128363688
 20
42.158667636686403
 30
0.0
 11
-409.63286128363688
 21
33.958667636686407
 31
0.0
  0
LINE
  5
6E49
  8
µę˝u
 10
-410.38286128363688
 20
42.158667636686403
 30
0.0
 11
-410.38286128363688
 21
33.958667636686407
 31
0.0
  0
LINE
  5
6E4A
  8
µę˝u
 10
-410.38286128363688
 20
42.158667636686403
 30
0.0
 11
-411.06286128363701
 21
42.958667636686407
 31
0.0
  0
LINE
  5
6E4B
  8
0
 10
-412.882861283637
 20
42.958667636686407
 30
0.0
 11
-414.38286128363711
 21
41.458667636686407
 31
0.0
  0
LINE
  5
6E4C
  8
0
 10
-414.38286128363711
 20
27.95866763668641
 30
0.0
 11
-413.382861283637
 21
26.958667636686421
 31
0.0
  0
LINE
  5
6E4D
  8
0
 10
-414.38286128363711
 20
27.95866763668641
 30
0.0
 11
-414.38286128363711
 21
41.458667636686407
 31
0.0
  0
LINE
  5
6E4E
  8
µę˝u
 10
-410.38286128363688
 20
33.958667636686407
 30
0.0
 11
-411.23286128363679
 21
32.958667636686407
 31
0.0
  0
LINE
  5
6E4F
  8
0
 10
-412.882861283637
 20
42.958667636686407
 30
0.0
 11
-396.38286128363688
 21
42.958667636686407
 31
0.0
  0
LINE
  5
6E50
  8
0
 10
-398.382861283637
 20
32.958667636686407
 30
0.0
 11
-414.38286128363711
 21
32.958667636686407
 31
0.0
  0
LINE
  5
6E51
  8
µę˝u
 10
-400.38286128363688
 20
33.958667636686407
 30
0.0
 11
-410.38286128363688
 21
33.958667636686407
 31
0.0
  0
LINE
  5
6E52
  8
µę˝u
 10
-410.38286128363688
 20
42.158667636686403
 30
0.0
 11
-400.38286128363688
 21
42.158667636686353
 31
0.0
  0
LINE
  5
6E53
  8
0
 10
-413.382861283637
 20
26.958667636686421
 30
0.0
 11
-405.89221340977548
 21
26.958667636686421
 31
0.0
  0
LINE
  5
6E54
  8
0
 10
-361.88286128363711
 20
42.458667636686407
 30
0.0
 11
-342.88286128363711
 21
42.458667636686407
 31
0.0
  0
ARC
  5
6E55
  8
0
 10
-382.10965105828859
 20
15.441055654332439
 30
0.0
 40
3.0
 50
2.4229356526406538
 51
87.577051814798452
  0
ARC
  5
6E56
  8
0
 10
-382.1095763010299
 20
26.476055654079239
 30
0.0
 40
3.0
 50
272.53387024114153
 51
357.46612261247992
  0
ARC
  5
6E57
  8
0
 10
-356.65565105887271
 20
15.44088321470735
 30
0.0
 40
3.0
 50
92.434783766460129
 51
177.5652287778853
  0
ARC
  5
6E58
  8
0
 10
-356.65557630161402
 20
26.475883214454129
 30
0.0
 40
3.0
 50
182.5418294689097
 51
267.45817768503082
  0
LINE
  5
6E59
  8
0
 10
-359.65262463307738
 20
26.342836986126699
 30
0.0
 11
-360.26845528363702
 21
26.958667636686421
 31
0.0
  0
LINE
  5
6E5A
  8
0
 10
-355.38286128363711
 20
22.07307695001089
 30
0.0
 11
-355.38286128363711
 21
19.838408297354931
 31
0.0
  0
LINE
  5
6E5B
  8
0
 10
-359.65294275769332
 20
15.56832917259163
 30
0.0
 11
-360.08286128363699
 21
15.138410671946071
 31
0.0
  0
LINE
  5
6E5C
  8
0
 10
-355.38286128363711
 20
19.838408297354931
 30
0.0
 11
-356.7830976729843
 21
18.4381748856249
 31
0.0
  0
LINE
  5
6E5D
  8
0
 10
-355.38286128363711
 20
22.07307695001089
 30
0.0
 11
-356.78862215573048
 21
23.47883486637858
 31
0.0
  0
LINE
  5
6E5E
  8
0
 10
-355.38286128363711
 20
6.2583459366912271
 30
0.0
 11
-360.08286128363699
 21
10.958345836686419
 31
0.0
  0
LINE
  5
6E5F
  8
0
 10
-360.08286128363699
 20
15.138410671946071
 30
0.0
 11
-360.08286128363699
 21
10.958345836686419
 31
0.0
  0
LINE
  5
6E60
  8
0
 10
-355.38286128363711
 20
2.4586676366864131
 30
0.0
 11
-356.882861283637
 21
0.9586676366864139
 31
0.0
  0
LINE
  5
6E61
  8
0
 10
-361.63286128363711
 20
0.9586676366864139
 30
0.0
 11
-356.882861283637
 21
0.9586676366864139
 31
0.0
  0
LINE
  5
6E62
  8
0
 10
-355.38286128363711
 20
6.2583459366912271
 30
0.0
 11
-355.38286128363711
 21
2.4586676366864131
 31
0.0
  0
LINE
  5
6E63
  8
µę˝u
 10
-362.38286128363711
 20
26.55866763668644
 30
0.0
 11
-376.38286128363711
 21
26.55866763668644
 31
0.0
  0
LINE
  5
6E64
  8
µę˝u
 10
-376.38286128363711
 20
26.55866763668644
 30
0.0
 11
-376.6138013913129
 21
26.958667636686421
 31
0.0
  0
LINE
  5
6E65
  8
µę˝u
 10
-362.15192117596132
 20
26.958667636686421
 30
0.0
 11
-362.38286128363711
 21
26.55866763668644
 31
0.0
  0
LINE
  5
6E66
  8
0
 10
-379.11250953294569
 20
26.343425387377721
 30
0.0
 11
-378.49726728363709
 21
26.958667636686421
 31
0.0
  0
LINE
  5
6E67
  8
µę˝u
 10
-362.38286128363711
 20
14.95866763668641
 30
0.0
 11
-376.38286128363711
 21
14.95866763668641
 31
0.0
  0
LINE
  5
6E68
  8
µę˝u
 10
-364.882861283637
 20
14.658667636686401
 30
0.0
 11
-373.88286128363711
 21
14.658667636686401
 31
0.0
  0
LINE
  5
6E69
  8
µę˝u
 10
-374.18286128363701
 20
14.95866763668641
 30
0.0
 11
-373.88286128363711
 21
14.658667636686401
 31
0.0
  0
LINE
  5
6E6A
  8
µę˝u
 10
-364.5828612836371
 20
14.95866763668641
 30
0.0
 11
-364.882861283637
 21
14.658667636686401
 31
0.0
  0
LINE
  5
6E6B
  8
0
 10
-379.11233309694921
 20
15.56788245998632
 30
0.0
 11
-378.68286128363712
 21
15.138410671946071
 31
0.0
  0
LINE
  5
6E6C
  8
0
 10
-383.382861283637
 20
22.07307695001089
 30
0.0
 11
-383.382861283637
 21
19.838408297354931
 31
0.0
  0
LINE
  5
6E6D
  8
0
 10
-383.382861283637
 20
19.838408297354931
 30
0.0
 11
-381.9828235970179
 21
18.438373587930361
 31
0.0
  0
LINE
  5
6E6E
  8
0
 10
-383.382861283637
 20
22.07307695001089
 30
0.0
 11
-381.97694640814609
 21
23.478988869452369
 31
0.0
  0
LINE
  5
6E6F
  8
0
 10
-383.382861283637
 20
6.2583459366912271
 30
0.0
 11
-378.68286128363712
 21
10.958345836686419
 31
0.0
  0
LINE
  5
6E70
  8
0
 10
-378.68286128363712
 20
15.138410671946071
 30
0.0
 11
-378.68286128363712
 21
10.958345836686419
 31
0.0
  0
LINE
  5
6E71
  8
µę˝u
 10
-362.38286128363711
 20
14.95866763668641
 30
0.0
 11
-362.38286128363711
 21
26.55866763668644
 31
0.0
  0
LINE
  5
6E72
  8
µę˝u
 10
-376.38286128363711
 20
14.95866763668641
 30
0.0
 11
-376.38286128363711
 21
26.55866763668644
 31
0.0
  0
LINE
  5
6E73
  8
µę˝u
 10
-364.48286128363708
 20
1.4586676366864131
 30
0.0
 11
-364.882861283637
 21
1.858667636686391
 31
0.0
  0
LINE
  5
6E74
  8
µę˝u
 10
-374.28286128363698
 20
1.4586676366864131
 30
0.0
 11
-373.88286128363711
 21
1.858667636686391
 31
0.0
  0
LINE
  5
6E75
  8
0
 10
-362.13286128363711
 20
1.4586676366864131
 30
0.0
 11
-365.63286128363711
 21
1.4586676366864131
 31
0.0
  0
LINE
  5
6E76
  8
0
 10
-372.63286128363711
 20
0.9586676366864139
 30
0.0
 11
-366.13286128363711
 21
0.9586676366864139
 31
0.0
  0
LINE
  5
6E77
  8
0
 10
-373.132861283637
 20
1.4586676366864131
 30
0.0
 11
-372.63286128363711
 21
0.9586676366864139
 31
0.0
  0
LINE
  5
6E78
  8
0
 10
-376.63286128363711
 20
1.4586676366864131
 30
0.0
 11
-373.132861283637
 21
1.4586676366864131
 31
0.0
  0
LINE
  5
6E79
  8
0
 10
-365.63286128363711
 20
1.4586676366864131
 30
0.0
 11
-366.13286128363711
 21
0.9586676366864139
 31
0.0
  0
LINE
  5
6E7A
  8
µę˝u
 10
-364.882861283637
 20
1.858667636686391
 30
0.0
 11
-373.88286128363711
 21
1.858667636686391
 31
0.0
  0
LINE
  5
6E7B
  8
0
 10
-377.132861283637
 20
0.9586676366864139
 30
0.0
 11
-381.882861283637
 21
0.9586676366864139
 31
0.0
  0
LINE
  5
6E7C
  8
0
 10
-383.382861283637
 20
2.4586676366864131
 30
0.0
 11
-381.882861283637
 21
0.9586676366864139
 31
0.0
  0
LINE
  5
6E7D
  8
0
 10
-376.63286128363711
 20
1.4586676366864131
 30
0.0
 11
-377.132861283637
 21
0.9586676366864139
 31
0.0
  0
LINE
  5
6E7E
  8
µę˝u
 10
-364.882861283637
 20
1.858667636686391
 30
0.0
 11
-364.882861283637
 21
14.658667636686401
 31
0.0
  0
LINE
  5
6E7F
  8
µę˝u
 10
-373.88286128363711
 20
1.858667636686391
 30
0.0
 11
-373.88286128363711
 21
14.658667636686401
 31
0.0
  0
LINE
  5
6E80
  8
0
 10
-383.382861283637
 20
6.2583459366912271
 30
0.0
 11
-383.382861283637
 21
2.4586676366864131
 31
0.0
  0
LINE
  5
6E81
  8
0
 10
-362.13286128363711
 20
1.4586676366864131
 30
0.0
 11
-361.63286128363711
 21
0.9586676366864139
 31
0.0
  0
LINE
  5
6E82
  8
0
 10
-378.49726728363709
 20
26.958667636686421
 30
0.0
 11
-360.26845528363702
 21
26.958667636686421
 31
0.0
  0
LINE
  5
6E83
  8
0
 10
-379.16158226457731
 20
28.232669434269429
 30
0.0
 11
-359.60357192331338
 21
28.232669434269368
 31
0.0
  0
LINE
  5
6E84
  8
0
 10
-379.61306960932632
 20
29.098669434269461
 30
0.0
 11
-359.24486297829827
 21
29.098669434269361
 31
0.0
  0
LINE
  5
6E85
  8
0
 10
-379.16158226457731
 20
28.232669434269368
 30
0.0
 11
-380.58859784560337
 21
26.805653853243239
 31
0.0
  0
LINE
  5
6E86
  8
0
 10
-379.61306960932632
 20
29.098669434269461
 30
0.0
 11
-381.3549534497763
 21
27.264082170211381
 31
0.0
  0
LINE
  5
6E87
  8
0
 10
-379.16156957086167
 20
28.232735682673979
 30
0.0
 11
-380.5885948192564
 21
26.805729769081822
 31
0.0
  0
LINE
  5
6E88
  8
0
 10
-380.58859784560337
 20
26.805653853243239
 30
0.0
 11
-381.3549595812413
 21
27.264001062620469
 31
0.0
  0
LINE
  5
6E89
  8
0
 10
-380.5885948192564
 20
26.805729769081822
 30
0.0
 11
-381.3549534497763
 21
27.264082170211381
 31
0.0
  0
ARC
  5
6E8A
  8
0
 10
-381.00140619064803
 20
26.910447672027189
 30
0.0
 40
0.5
 50
135.0000000000002
 51
201.40855149926151
  0
ARC
  5
6E8B
  8
0
 10
-381.00140245435949
 20
26.910526384457899
 30
0.0
 40
0.5
 50
134.9996118463626
 51
201.40816334562501
  0
LINE
  5
6E8C
  8
0
 10
-378.49726728363709
 20
26.958667636686421
 30
0.0
 11
-379.61306960932632
 21
29.098669434269461
 31
0.0
  0
LINE
  5
6E8D
  8
0
 10
-379.11250953294569
 20
26.343425387377721
 30
0.0
 11
-380.58859481925663
 21
26.805729769081591
 31
0.0
  0
LINE
  5
6E8E
  8
0
 10
-382.89761304156389
 20
25.72144347995923
 30
0.0
 11
-385.46096120752293
 21
23.158130044871729
 31
0.0
  0
LINE
  5
6E8F
  8
0
 10
-382.43926151291902
 20
24.954990185927709
 30
0.0
 11
-382.36154746068001
 21
25.833299204456569
 31
0.0
  0
LINE
  5
6E90
  8
0
 10
-382.43926151291942
 20
24.954990185927372
 30
0.0
 11
-382.89760872229652
 21
25.721351921565251
 31
0.0
  0
ARC
  5
6E91
  8
0
 10
-382.54405533170319
 20
25.367798530971971
 30
0.0
 40
0.5
 50
68.591448500734998
 51
135.0000000000002
  0
LINE
  5
6E92
  8
0
 10
-382.43927102395969
 20
24.95507863923898
 30
0.0
 11
-382.36155102156619
 21
25.833387131269252
 31
0.0
  0
LINE
  5
6E93
  8
0
 10
-382.43927102395998
 20
24.955078639238639
 30
0.0
 11
-382.89761304156377
 21
25.721443479959181
 31
0.0
  0
ARC
  5
6E94
  8
0
 10
-382.54406204614702
 20
25.367887694205692
 30
0.0
 40
0.5
 50
68.591060347098335
 51
134.9996118463626
  0
ARC
  5
6E95
  8
0
 10
-382.1095770939454
 20
26.475969434269349
 30
0.0
 40
0.6903000000000003
 50
248.591448500735
 51
21.40855149926411
  0
ARC
  5
6E96
  8
0
 10
-382.1095770939454
 20
26.475969434269349
 30
0.0
 40
1.5563
 50
257.76987908362742
 51
12.23012091636919
  0
ARC
  5
6E97
  8
0
 10
-382.1095763010299
 20
26.476055654079222
 30
0.0
 40
0.6903000000000003
 50
248.59106034709481
 51
21.40816334562496
  0
LINE
  5
6E98
  8
0
 10
-380.58859784560372
 20
26.805653853242958
 30
0.0
 11
-381.46690686413262
 21
26.727939801004009
 31
0.0
  0
LINE
  5
6E99
  8
0
 10
-385.45950635626963
 20
18.74854193718782
 30
0.0
 11
-382.90412720277368
 21
16.193128160484591
 31
0.0
  0
LINE
  5
6E9A
  8
0
 10
-382.43926151291942
 20
24.954990185927372
 30
0.0
 11
-384.65627709394539
 21
22.737974604901339
 31
0.0
  0
LINE
  5
6E9B
  8
0
 10
-382.43927102395998
 20
24.955078639238639
 30
0.0
 11
-384.65630162423798
 21
22.73807807756641
 31
0.0
  0
LINE
  5
6E9C
  8
0
 10
-383.382861283637
 20
22.07307695001089
 30
0.0
 11
-385.46096120752293
 21
23.158130044871729
 31
0.0
  0
LINE
  5
6E9D
  8
0
 10
-383.382861283637
 20
19.838408297354931
 30
0.0
 11
-385.45950635626963
 21
18.74854193718782
 31
0.0
  0
LINE
  5
6E9E
  8
0
 10
-384.65627709394539
 20
19.169964263618301
 30
0.0
 11
-382.44664278999079
 21
16.960329959803161
 31
0.0
  0
LINE
  5
6E9F
  8
0
 10
-384.65632579593461
 20
19.170067736365251
 30
0.0
 11
-382.4467064613288
 21
16.960418463302808
 31
0.0
  0
LINE
  5
6EA0
  8
0
 10
-384.65627709394539
 20
19.169964263618301
 30
0.0
 11
-384.65627709394539
 21
22.737974604901339
 31
0.0
  0
LINE
  5
6EA1
  8
0
 10
-384.65632579593461
 20
19.170067736365251
 30
0.0
 11
-384.65630162423798
 21
22.73807807756641
 31
0.0
  0
LINE
  5
6EA2
  8
0
 10
-381.97694640814598
 20
23.478988869452369
 30
0.0
 11
-382.43927102395998
 21
24.955078639238639
 31
0.0
  0
LINE
  5
6EA3
  8
0
 10
-379.11233309694921
 20
15.56788245998632
 30
0.0
 11
-380.5902928162829
 21
15.103979665198731
 31
0.0
  0
LINE
  5
6EA4
  8
0
 10
-378.68286128363712
 20
15.138410671946071
 30
0.0
 11
-380.82236071558287
 21
14.015527634123581
 31
0.0
  0
ARC
  5
6EA5
  8
0
 10
-382.1095770939454
 20
15.44096943426935
 30
0.0
 40
1.5563
 50
347.49167649457081
 51
102.5083235017163
  0
ARC
  5
6EA6
  8
0
 10
-382.10965105828859
 20
15.44105565433243
 30
0.0
 40
1.5563
 50
347.4912883409321
 51
102.507935348077
  0
LINE
  5
6EA7
  8
0
 10
-380.59021656843339
 20
15.10390373812545
 30
0.0
 11
-381.35750997006193
 21
14.64648819473895
 31
0.0
  0
LINE
  5
6EA8
  8
0
 10
-380.59021656843339
 20
15.10390373812545
 30
0.0
 11
-379.9562770939454
 21
14.46996426363741
 31
0.0
  0
LINE
  5
6EA9
  8
0
 10
-381.35758931668249
 20
14.64656931989715
 30
0.0
 11
-380.82236071558287
 21
14.015527634123581
 31
0.0
  0
LINE
  5
6EAA
  8
0
 10
-380.82236071558287
 20
14.015527634123581
 30
0.0
 11
-380.82237380458508
 21
12.083445824295559
 31
0.0
  0
LINE
  5
6EAB
  8
0
 10
-380.5902928162829
 20
15.103979665198731
 30
0.0
 11
-379.95635763646987
 21
14.470035896064861
 31
0.0
  0
ARC
  5
6EAC
  8
0
 10
-382.1095770939454
 20
15.44096943426935
 30
0.0
 40
0.6903000000000003
 50
338.25760091997557
 51
111.7423990752109
  0
ARC
  5
6EAD
  8
0
 10
-382.10965105828859
 20
15.44105565433243
 30
0.0
 40
0.6903000000000003
 50
338.25721276633487
 51
111.74201092157119
  0
ARC
  5
6EAE
  8
0
 10
-381.00395657946859
 20
15.00004158533222
 30
0.0
 40
0.5
 50
158.2576009199756
 51
224.99999999999551
  0
LINE
  5
6EAF
  8
0
 10
-380.59021656843339
 20
15.10390373812545
 30
0.0
 11
-381.46838593109288
 21
15.18525869401789
 31
0.0
  0
LINE
  5
6EB0
  8
0
 10
-380.5902928162829
 20
15.103979665198731
 30
0.0
 11
-381.46846162777842
 21
15.185340570299459
 31
0.0
  0
ARC
  5
6EB1
  8
0
 10
-381.00403353092901
 20
15.000120315314019
 30
0.0
 40
0.5
 50
158.25721276633479
 51
224.99961184635799
  0
LINE
  5
6EB2
  8
0
 10
-379.9562770939454
 20
14.46996426363741
 30
0.0
 11
-379.9562770939454
 21
11.62797460490127
 31
0.0
  0
LINE
  5
6EB3
  8
0
 10
-379.95635763646987
 20
14.470035896064861
 30
0.0
 11
-379.95637688969663
 21
11.628046237393921
 31
0.0
  0
LINE
  5
6EB4
  8
0
 10
-382.44664278999062
 20
16.960329959802898
 30
0.0
 11
-382.36528783414298
 21
16.082160597143329
 31
0.0
  0
LINE
  5
6EB5
  8
0
 10
-382.90405833337172
 20
16.193036558178751
 30
0.0
 11
-382.44664278999102
 21
16.96032995980282
 31
0.0
  0
LINE
  5
6EB6
  8
0
 10
-382.90412720277368
 20
16.193128160484591
 30
0.0
 11
-382.44670646132892
 21
16.960418463302471
 31
0.0
  0
LINE
  5
6EB7
  8
0
 10
-382.44670646132857
 20
16.96041846330256
 30
0.0
 11
-382.36535745469303
 21
16.0822485495192
 31
0.0
  0
ARC
  5
6EB8
  8
0
 10
-382.55050494278959
 20
16.546589948783129
 30
0.0
 40
0.5
 50
225.0000000018056
 51
291.74239907521439
  0
ARC
  5
6EB9
  8
0
 10
-382.55057141703128
 20
16.546679155912571
 30
0.0
 40
0.5
 50
224.99961184816809
 51
291.74201092157119
  0
LINE
  5
6EBA
  8
0
 10
-381.9828235970179
 20
18.438373587930361
 30
0.0
 11
-382.4467064613288
 21
16.960418463302808
 31
0.0
  0
LINE
  5
6EBB
  8
0
 10
-378.68286128363712
 20
10.958345836686419
 30
0.0
 11
-380.82237380458508
 21
12.083445824295559
 31
0.0
  0
LINE
  5
6EBC
  8
0
 10
-379.95637688969663
 20
11.628046237393921
 30
0.0
 11
-384.62541369067247
 21
6.959072697320166
 31
0.0
  0
LINE
  5
6EBD
  8
0
 10
-379.9562770939454
 20
11.62797460490127
 30
0.0
 11
-384.62528226457738
 21
6.9589694342693198
 31
0.0
  0
LINE
  5
6EBE
  8
0
 10
-380.82237380458508
 20
12.083445824295559
 30
0.0
 11
-385.91348657912448
 21
6.9924020293767191
 31
0.0
  0
LINE
  5
6EBF
  8
0
 10
-385.46096120752293
 20
23.158130044871729
 30
0.0
 11
-385.45950635626963
 21
18.74854193718782
 31
0.0
  0
LINE
  5
6EC0
  8
0
 10
-357.94334876268903
 20
12.083445824295559
 30
0.0
 11
-352.85223598814957
 21
6.9924020293767191
 31
0.0
  0
LINE
  5
6EC1
  8
0
 10
-358.80944547332871
 20
11.62797460490127
 30
0.0
 11
-354.14044030269667
 21
6.9589694342693198
 31
0.0
  0
LINE
  5
6EC2
  8
0
 10
-358.8093456775776
 20
11.628046237393921
 30
0.0
 11
-354.14030887660169
 21
6.959072697320166
 31
0.0
  0
LINE
  5
6EC3
  8
0
 10
-360.08286128363699
 20
10.958345836686419
 30
0.0
 11
-357.94334876268908
 21
12.083445824295559
 31
0.0
  0
LINE
  5
6EC4
  8
0
 10
-358.80936493080418
 20
14.470035896064861
 30
0.0
 11
-358.8093456775776
 21
11.628046237393921
 31
0.0
  0
LINE
  5
6EC5
  8
0
 10
-358.80944547332871
 20
14.46996426363741
 30
0.0
 11
-358.80944547332871
 21
11.62797460490127
 31
0.0
  0
ARC
  5
6EC6
  8
0
 10
-357.7616890363451
 20
15.000120315314019
 30
0.0
 40
0.5
 50
315.00038815364201
 51
21.74278723366514
  0
LINE
  5
6EC7
  8
0
 10
-358.17542975099121
 20
15.103979665198731
 30
0.0
 11
-357.2972609394958
 21
15.185340570299459
 31
0.0
  0
LINE
  5
6EC8
  8
0
 10
-358.17550599884072
 20
15.10390373812545
 30
0.0
 11
-357.29733663618123
 21
15.18525869401789
 31
0.0
  0
ARC
  5
6EC9
  8
0
 10
-357.7617659878054
 20
15.00004158533222
 30
0.0
 40
0.5
 50
315.0000000000046
 51
21.74239908002442
  0
ARC
  5
6ECA
  8
0
 10
-356.65607150898552
 20
15.44105565433243
 30
0.0
 40
0.6903000000000003
 50
68.257989078428778
 51
201.7427872336651
  0
ARC
  5
6ECB
  8
0
 10
-356.65614547332882
 20
15.44096943426935
 30
0.0
 40
0.6903000000000003
 50
68.257600924789074
 51
201.7423990800244
  0
LINE
  5
6ECC
  8
0
 10
-358.17542975099121
 20
15.103979665198731
 30
0.0
 11
-358.80936493080418
 21
14.470035896064861
 31
0.0
  0
LINE
  5
6ECD
  8
0
 10
-357.94336185169129
 20
14.015527634123581
 30
0.0
 11
-357.94334876268908
 21
12.083445824295559
 31
0.0
  0
LINE
  5
6ECE
  8
0
 10
-357.40813325059162
 20
14.64656931989715
 30
0.0
 11
-357.94336185169129
 21
14.015527634123581
 31
0.0
  0
LINE
  5
6ECF
  8
0
 10
-358.17550599884072
 20
15.10390373812545
 30
0.0
 11
-358.80944547332871
 21
14.46996426363741
 31
0.0
  0
LINE
  5
6ED0
  8
0
 10
-358.17550599884072
 20
15.10390373812545
 30
0.0
 11
-357.40821259721218
 21
14.64648819473895
 31
0.0
  0
ARC
  5
6ED1
  8
0
 10
-356.65607150898552
 20
15.44105565433243
 30
0.0
 40
1.5563
 50
77.492064651922973
 51
192.50871165906781
  0
ARC
  5
6ED2
  8
0
 10
-356.65614547332882
 20
15.44096943426935
 30
0.0
 40
1.5563
 50
77.491676498283695
 51
192.5083235054293
  0
LINE
  5
6ED3
  8
0
 10
-360.08286128363699
 20
15.138410671946071
 30
0.0
 11
-357.94336185169129
 21
14.015527634123581
 31
0.0
  0
LINE
  5
6ED4
  8
0
 10
-359.6533894703249
 20
15.56788245998632
 30
0.0
 11
-358.17542975099121
 21
15.103979665198731
 31
0.0
  0
LINE
  5
6ED5
  8
0
 10
-356.78289897025621
 20
18.438373587930361
 30
0.0
 11
-356.31901610594531
 21
16.960418463302808
 31
0.0
  0
ARC
  5
6ED6
  8
0
 10
-356.21515115024278
 20
16.546679155912571
 30
0.0
 40
0.5
 50
248.25798907842869
 51
315.00038815183183
  0
ARC
  5
6ED7
  8
0
 10
-356.21521762448452
 20
16.546589948783129
 30
0.0
 40
0.5
 50
248.25760092478561
 51
314.99999999819443
  0
LINE
  5
6ED8
  8
0
 10
-356.31901610594559
 20
16.96041846330256
 30
0.0
 11
-356.40036511258108
 21
16.0822485495192
 31
0.0
  0
LINE
  5
6ED9
  8
0
 10
-355.86159536450049
 20
16.193128160484591
 30
0.0
 11
-356.3190161059452
 21
16.960418463302471
 31
0.0
  0
LINE
  5
6EDA
  8
0
 10
-355.86166423390239
 20
16.193036558178751
 30
0.0
 11
-356.31907977728309
 21
16.96032995980282
 31
0.0
  0
LINE
  5
6EDB
  8
0
 10
-356.31907977728349
 20
16.960329959802898
 30
0.0
 11
-356.40043473313108
 21
16.082160597143329
 31
0.0
  0
LINE
  5
6EDC
  8
0
 10
-354.1093967713395
 20
19.170067736365251
 30
0.0
 11
-356.31901610594531
 21
16.960418463302808
 31
0.0
  0
LINE
  5
6EDD
  8
0
 10
-354.10944547332878
 20
19.169964263618301
 30
0.0
 11
-356.31907977728332
 21
16.960329959803161
 31
0.0
  0
LINE
  5
6EDE
  8
0
 10
-353.30621621100448
 20
18.74854193718782
 30
0.0
 11
-355.86159536450049
 21
16.193128160484591
 31
0.0
  0
LINE
  5
6EDF
  8
0
 10
-353.3047613597513
 20
23.158130044871729
 30
0.0
 11
-353.30621621100448
 21
18.74854193718782
 31
0.0
  0
LINE
  5
6EE0
  8
0
 10
-354.1093967713395
 20
19.170067736365251
 30
0.0
 11
-354.10942094303613
 21
22.73807807756641
 31
0.0
  0
LINE
  5
6EE1
  8
0
 10
-354.10944547332878
 20
19.169964263618301
 30
0.0
 11
-354.10944547332878
 21
22.737974604901339
 31
0.0
  0
LINE
  5
6EE2
  8
0
 10
-355.38286128363711
 20
19.838408297354931
 30
0.0
 11
-353.30621621100448
 21
18.74854193718782
 31
0.0
  0
LINE
  5
6EE3
  8
0
 10
-355.38286128363711
 20
22.07307695001089
 30
0.0
 11
-353.3047613597513
 21
23.158130044871729
 31
0.0
  0
LINE
  5
6EE4
  8
0
 10
-356.32645154331408
 20
24.955078639238639
 30
0.0
 11
-354.10942094303613
 21
22.73807807756641
 31
0.0
  0
LINE
  5
6EE5
  8
0
 10
-356.3264610543547
 20
24.954990185927372
 30
0.0
 11
-354.10944547332878
 21
22.737974604901339
 31
0.0
  0
LINE
  5
6EE6
  8
0
 10
-355.86810952571022
 20
25.72144347995923
 30
0.0
 11
-353.3047613597513
 21
23.158130044871729
 31
0.0
  0
LINE
  5
6EE7
  8
0
 10
-358.1771247216704
 20
26.805653853242958
 30
0.0
 11
-357.29881570314149
 21
26.727939801004009
 31
0.0
  0
ARC
  5
6EE8
  8
0
 10
-356.65614626624421
 20
26.476055654079222
 30
0.0
 40
0.6903000000000003
 50
158.59183665437499
 51
291.40893965290519
  0
ARC
  5
6EE9
  8
0
 10
-356.65614547332882
 20
26.475969434269349
 30
0.0
 40
1.5563
 50
167.7698790836308
 51
282.23012091637258
  0
ARC
  5
6EEA
  8
0
 10
-356.65614547332882
 20
26.475969434269349
 30
0.0
 40
0.6903000000000003
 50
158.59144850073579
 51
291.408551499265
  0
ARC
  5
6EEB
  8
0
 10
-356.22166052112721
 20
25.367887694205692
 30
0.0
 40
0.5
 50
45.00038815363736
 51
111.40893965290159
  0
LINE
  5
6EEC
  8
0
 10
-356.32645154331408
 20
24.955078639238639
 30
0.0
 11
-355.86810952571028
 21
25.721443479959181
 31
0.0
  0
LINE
  5
6EED
  8
0
 10
-356.32645154331442
 20
24.95507863923898
 30
0.0
 11
-356.40417154570792
 21
25.833387131269252
 31
0.0
  0
ARC
  5
6EEE
  8
0
 10
-356.22166723557092
 20
25.367798530971971
 30
0.0
 40
0.5
 50
44.999999999999758
 51
111.408551499265
  0
LINE
  5
6EEF
  8
0
 10
-356.3264610543547
 20
24.954990185927372
 30
0.0
 11
-355.86811384497759
 21
25.721351921565251
 31
0.0
  0
LINE
  5
6EF0
  8
0
 10
-356.32646105435509
 20
24.954990185927709
 30
0.0
 11
-356.4041751065941
 21
25.833299204456569
 31
0.0
  0
LINE
  5
6EF1
  8
0
 10
-359.65321303432842
 20
26.343425387377721
 30
0.0
 11
-358.17712774801748
 21
26.805729769081591
 31
0.0
  0
ARC
  5
6EF2
  8
0
 10
-357.76432011291462
 20
26.910526384457899
 30
0.0
 40
0.5
 50
338.59183665437507
 51
45.00038815363736
  0
ARC
  5
6EF3
  8
0
 10
-357.7643163766262
 20
26.910447672027189
 30
0.0
 40
0.5
 50
338.59144850073852
 51
44.999999999999758
  0
LINE
  5
6EF4
  8
0
 10
-358.17712774801782
 20
26.805729769081822
 30
0.0
 11
-357.41076911749769
 21
27.264082170211381
 31
0.0
  0
LINE
  5
6EF5
  8
0
 10
-358.17712472167068
 20
26.805653853243239
 30
0.0
 11
-357.41076298603281
 21
27.264001062620469
 31
0.0
  0
LINE
  5
6EF6
  8
0
 10
-359.60415299641249
 20
28.232735682673979
 30
0.0
 11
-358.17712774801782
 21
26.805729769081822
 31
0.0
  0
LINE
  5
6EF7
  8
0
 10
-359.15265295794779
 20
29.098669434269461
 30
0.0
 11
-357.41076911749769
 21
27.264082170211381
 31
0.0
  0
LINE
  5
6EF8
  8
0
 10
-359.60414030269681
 20
28.232669434269368
 30
0.0
 11
-358.17712472167068
 21
26.805653853243239
 31
0.0
  0
LINE
  5
6EF9
  8
0
 10
-356.78877615912802
 20
23.478988869452369
 30
0.0
 11
-356.32645154331408
 21
24.955078639238639
 31
0.0
  0
LINE
  5
6EFA
  8
0
 10
-360.26845528363702
 20
26.958667636686421
 30
0.0
 11
-359.15265295794779
 21
29.098669434269461
 31
0.0
  0
ARC
  5
6EFB
  8
«ü˝u
 10
-393.18286128309092
 20
9.6091039941625951
 30
0.0
 40
1.644659169866167
 50
199.47109100509539
 51
250.62804939167731
  0
ARC
  5
6EFC
  8
«ü˝u
 10
-393.18286128309092
 20
9.6091039941625951
 30
0.0
 40
1.644659169866167
 50
289.55118240030379
 51
340.54586684386732
  0
LINE
  5
6EFD
  8
«ü˝u
 10
-393.72854205237581
 20
9.0610119410912375
 30
0.0
 11
-393.72839363348658
 21
8.0575569469556285
 31
0.0
  0
CIRCLE
  5
6EFE
  8
«ü˝u
 10
-393.18286128309092
 20
9.6091039941625951
 30
0.0
 40
2.739789646400014
  0
LINE
  5
6EFF
  8
«ü˝u
 10
-392.63262627330499
 20
9.0611741404504755
 30
0.0
 11
-392.6324780837374
 21
8.0592710615875092
 31
0.0
  0
ARC
  5
6F00
  8
«ü˝u
 10
-393.18286128309092
 20
9.6091039941625951
 30
0.0
 40
1.644659169866167
 50
109.38889961061879
 51
160.5479173296242
  0
LINE
  5
6F01
  8
«ü˝u
 10
-393.72885258188938
 20
11.16048959634572
 30
0.0
 11
-393.72870414729749
 21
10.15692991934837
 31
0.0
  0
LINE
  5
6F02
  8
«ü˝u
 10
-393.72854205237581
 20
9.0610119410912375
 30
0.0
 11
-395.8672146955779
 21
9.0607476991900882
 31
0.0
  0
LINE
  5
6F03
  8
«ü˝u
 10
-393.72870414729749
 20
10.15692991934837
 30
0.0
 11
-395.86737679049969
 21
10.15666567744745
 31
0.0
  0
ARC
  5
6F04
  8
«ü˝u
 10
-393.18286128309092
 20
9.6091039941625951
 30
0.0
 40
1.644659169866167
 50
19.46904051925226
 51
83.221091041674313
  0
LINE
  5
6F05
  8
«ü˝u
 10
-392.63293657302779
 20
11.159099671023309
 30
0.0
 11
-392.63278836822712
 21
10.15709211870786
 31
0.0
  0
LINE
  5
6F06
  8
«ü˝u
 10
-392.63262627330499
 20
9.0611741404504755
 30
0.0
 11
-390.49834577568203
 21
9.061542310877698
 31
0.0
  0
LINE
  5
6F07
  8
«ü˝u
 10
-392.63278836822712
 20
10.15709211870786
 30
0.0
 11
-390.49850787060399
 21
10.157460289135059
 31
0.0
  0
LINE
  5
6F08
  8
«ü˝u
 10
-392.63278836822712
 20
37.907092156919347
 30
0.0
 11
-390.49850787060399
 21
37.907460327346541
 31
0.0
  0
LINE
  5
6F09
  8
«ü˝u
 10
-392.63262627330499
 20
36.811174178661958
 30
0.0
 11
-390.49834577568203
 21
36.811542349089173
 31
0.0
  0
LINE
  5
6F0A
  8
«ü˝u
 10
-392.63293657302779
 20
38.909099709234802
 30
0.0
 11
-392.63278836822712
 21
37.907092156919347
 31
0.0
  0
ARC
  5
6F0B
  8
«ü˝u
 10
-393.18286128309092
 20
37.35910403237407
 30
0.0
 40
1.644659169866167
 50
19.46904051925226
 51
83.221091041674313
  0
LINE
  5
6F0C
  8
«ü˝u
 10
-393.72870414729749
 20
37.906929957559861
 30
0.0
 11
-395.86737679049969
 21
37.906665715658932
 31
0.0
  0
LINE
  5
6F0D
  8
«ü˝u
 10
-393.72854205237581
 20
36.81101197930272
 30
0.0
 11
-395.8672146955779
 21
36.810747737401563
 31
0.0
  0
LINE
  5
6F0E
  8
«ü˝u
 10
-393.72885258188938
 20
38.910489634557209
 30
0.0
 11
-393.72870414729749
 21
37.906929957559861
 31
0.0
  0
ARC
  5
6F0F
  8
«ü˝u
 10
-393.18286128309092
 20
37.35910403237407
 30
0.0
 40
1.644659169866167
 50
109.38889961061879
 51
160.5479173296242
  0
LINE
  5
6F10
  8
«ü˝u
 10
-392.63262627330499
 20
36.811174178661958
 30
0.0
 11
-392.6324780837374
 21
35.809271099798991
 31
0.0
  0
CIRCLE
  5
6F11
  8
«ü˝u
 10
-393.18286128309092
 20
37.35910403237407
 30
0.0
 40
2.739789646400014
  0
LINE
  5
6F12
  8
«ü˝u
 10
-393.72854205237581
 20
36.81101197930272
 30
0.0
 11
-393.72839363348658
 21
35.80755698516711
 31
0.0
  0
ARC
  5
6F13
  8
«ü˝u
 10
-393.18286128309092
 20
37.35910403237407
 30
0.0
 40
1.644659169866167
 50
289.55118240030379
 51
340.54586684386732
  0
ARC
  5
6F14
  8
«ü˝u
 10
-393.18286128309092
 20
37.35910403237407
 30
0.0
 40
1.644659169866167
 50
199.47109100509539
 51
250.62804939167731
  0
LINE
  5
6F15
  8
0
 10
-398.382861283637
 20
39.958667636686371
 30
0.0
 11
-396.382861283637
 21
41.95866763668635
 31
0.0
  0
LINE
  5
6F16
  8
0
 10
-396.382861283637
 20
6.9586676366863989
 30
0.0
 11
-398.382861283637
 21
8.9586676366862754
 31
0.0
  0
LINE
  5
6F17
  8
0
 10
-398.382861283637
 20
39.958667636686371
 30
0.0
 11
-398.382861283637
 21
8.9586676366863571
 31
0.0
  0
LINE
  5
6F18
  8
«ü˝u
 10
-345.03278836931941
 20
10.15676964969896
 30
0.0
 11
-342.89850787169638
 21
10.15713782012616
 31
0.0
  0
LINE
  5
6F19
  8
«ü˝u
 10
-345.03262627439739
 20
9.0608516714415952
 30
0.0
 11
-342.89834577677442
 21
9.061219841868791
 31
0.0
  0
LINE
  5
6F1A
  8
«ü˝u
 10
-346.12870414838989
 20
10.156607450339481
 30
0.0
 11
-348.26737679159208
 21
10.15634320843855
 31
0.0
  0
LINE
  5
6F1B
  8
«ü˝u
 10
-346.1285420534681
 20
9.0606894720823448
 30
0.0
 11
-348.26721469667041
 21
9.0604252301811812
 31
0.0
  0
LINE
  5
6F1C
  8
«ü˝u
 10
-345.03262627439739
 20
9.0608516714415952
 30
0.0
 11
-345.03247808482968
 21
8.0589485925786306
 31
0.0
  0
LINE
  5
6F1D
  8
«ü˝u
 10
-346.1285420534681
 20
9.0606894720823448
 30
0.0
 11
-346.12839363457903
 21
8.0572344779467358
 31
0.0
  0
LINE
  5
6F1E
  8
«ü˝u
 10
-345.0329365741203
 20
11.15877720201442
 30
0.0
 11
-345.03278836931941
 21
10.15676964969896
 31
0.0
  0
LINE
  5
6F1F
  8
«ü˝u
 10
-346.12885258298178
 20
11.16016712733685
 30
0.0
 11
-346.12870414838989
 21
10.156607450339481
 31
0.0
  0
CIRCLE
  5
6F20
  8
«ü˝u
 10
-345.58286128418331
 20
9.6087815251536881
 30
0.0
 40
2.739789646400014
  0
ARC
  5
6F21
  8
«ü˝u
 10
-345.58286128418331
 20
9.6087815251536881
 30
0.0
 40
1.644659169866167
 50
109.38889961061879
 51
160.5479173296242
  0
ARC
  5
6F22
  8
«ü˝u
 10
-345.58286128418331
 20
9.6087815251536881
 30
0.0
 40
1.644659169866167
 50
19.46904051925226
 51
83.221091041674313
  0
ARC
  5
6F23
  8
«ü˝u
 10
-345.58286128418331
 20
9.6087815251536881
 30
0.0
 40
1.644659169866167
 50
289.55118240030379
 51
340.54586684386732
  0
ARC
  5
6F24
  8
«ü˝u
 10
-345.58286128418331
 20
9.6087815251536881
 30
0.0
 40
1.644659169866167
 50
199.47109100509539
 51
250.62804939167731
  0
ARC
  5
6F25
  8
«ü˝u
 10
-345.58286128418331
 20
37.35878156336517
 30
0.0
 40
1.644659169866167
 50
199.47109100509539
 51
250.62804939167731
  0
ARC
  5
6F26
  8
«ü˝u
 10
-345.58286128418331
 20
37.35878156336517
 30
0.0
 40
1.644659169866167
 50
289.55118240030379
 51
340.54586684386732
  0
ARC
  5
6F27
  8
«ü˝u
 10
-345.58286128418331
 20
37.35878156336517
 30
0.0
 40
1.644659169866167
 50
19.46904051925226
 51
83.221091041674313
  0
ARC
  5
6F28
  8
«ü˝u
 10
-345.58286128418331
 20
37.35878156336517
 30
0.0
 40
1.644659169866167
 50
109.38889961061879
 51
160.5479173296242
  0
CIRCLE
  5
6F29
  8
«ü˝u
 10
-345.58286128418331
 20
37.35878156336517
 30
0.0
 40
2.739789646400014
  0
LINE
  5
6F2A
  8
«ü˝u
 10
-346.12885258298178
 20
38.91016716554833
 30
0.0
 11
-346.12870414838989
 21
37.906607488550961
 31
0.0
  0
LINE
  5
6F2B
  8
«ü˝u
 10
-345.0329365741203
 20
38.908777240225902
 30
0.0
 11
-345.03278836931941
 21
37.90676968791044
 31
0.0
  0
LINE
  5
6F2C
  8
«ü˝u
 10
-346.1285420534681
 20
36.810689510293827
 30
0.0
 11
-346.12839363457903
 21
35.807234516158218
 31
0.0
  0
LINE
  5
6F2D
  8
«ü˝u
 10
-345.03262627439739
 20
36.810851709653072
 30
0.0
 11
-345.03247808482968
 21
35.80894863079012
 31
0.0
  0
LINE
  5
6F2E
  8
«ü˝u
 10
-346.1285420534681
 20
36.810689510293827
 30
0.0
 11
-348.26721469667041
 21
36.81042526839267
 31
0.0
  0
LINE
  5
6F2F
  8
«ü˝u
 10
-346.12870414838989
 20
37.906607488550961
 30
0.0
 11
-348.26737679159208
 21
37.906343246650039
 31
0.0
  0
LINE
  5
6F30
  8
«ü˝u
 10
-345.03262627439739
 20
36.810851709653072
 30
0.0
 11
-342.89834577677442
 21
36.811219880080273
 31
0.0
  0
LINE
  5
6F31
  8
«ü˝u
 10
-345.03278836931941
 20
37.90676968791044
 30
0.0
 11
-342.89850787169638
 21
37.907137858337649
 31
0.0
  0
LINE
  5
6F32
  8
0
 10
-342.38286128363711
 20
41.95866763668635
 30
0.0
 11
-340.38286128363711
 21
39.958667636686371
 31
0.0
  0
LINE
  5
6F33
  8
0
 10
-340.38286128363688
 20
8.9586676366866911
 30
0.0
 11
-342.382861283637
 21
6.9586676366863989
 31
0.0
  0
LINE
  5
6F34
  8
0
 10
-340.38286128363711
 20
8.9586676366863571
 30
0.0
 11
-340.38286128363711
 21
39.958667636686371
 31
0.0
  0
LINE
  5
6F35
  8
0
 10
-371.6922618988371
 20
40.458666968824069
 30
0.0
 11
-367.07346066843712
 21
40.458666968824069
 31
0.0
  0
LINE
  5
6F36
  8
¤¤¤ß˝u
 10
-369.38286128363711
 20
-1.587806895158109
 30
0.0
 11
-369.38286128363711
 21
51.611274851709588
 31
0.0
  0
POINT
  5
6F37
  8
0
 10
-359.62594485223713
 20
36.458667636824103
 30
0.0
1001
PNTFLAG
1000
endpoint
  0
LINE
  5
6F38
  8
0
 10
-363.09904173253722
 20
38.372469237124101
 30
0.0
 11
-363.04828708443711
 21
38.405932034424083
 31
0.0
  0
LINE
  5
6F39
  8
0
 10
-363.31156463023711
 20
34.522582889024108
 30
0.0
 11
-363.26321077463712
 21
34.520529456624111
 31
0.0
  0
LINE
  5
6F3A
  8
0
 10
-363.09904173253722
 20
34.544864700524101
 30
0.0
 11
-363.04828708443711
 21
34.51140190322409
 31
0.0
  0
LINE
  5
6F3B
  8
0
 10
-362.59606838053708
 20
36.458667636824103
 30
0.0
 11
-362.57729223353721
 21
36.95680867602411
 31
0.0
  0
LINE
  5
6F3C
  8
0
 10
-360.9972248223371
 20
36.458667636824103
 30
0.0
 11
-360.9840505242372
 21
36.808204036424087
 31
0.0
  0
LINE
  5
6F3D
  8
0
 10
-360.9840505242372
 20
36.109131237224076
 30
0.0
 11
-360.9972248223371
 21
36.458667636824103
 31
0.0
  0
LINE
  5
6F3E
  8
0
 10
-362.57729223353721
 20
35.960525261624092
 30
0.0
 11
-362.59606838053708
 21
36.458667636824103
 31
0.0
  0
LINE
  5
6F3F
  8
0
 10
-360.9840505242372
 20
36.808204036424087
 30
0.0
 11
-360.94503263803711
 21
37.144306953824092
 31
0.0
  0
LINE
  5
6F40
  8
0
 10
-362.57729223353721
 20
36.95680867602411
 30
0.0
 11
-362.52168790473712
 21
37.435807504224087
 31
0.0
  0
LINE
  5
6F41
  8
0
 10
-360.94503263803711
 20
35.773026983824082
 30
0.0
 11
-360.9840505242372
 21
36.109131237224076
 31
0.0
  0
LINE
  5
6F42
  8
0
 10
-362.52168790473712
 20
35.481526433424079
 30
0.0
 11
-362.57729223353721
 21
35.960525261624092
 31
0.0
  0
LINE
  5
6F43
  8
0
 10
-360.94503263803711
 20
37.144306953824092
 30
0.0
 11
-360.88167282793722
 21
37.454062611124087
 31
0.0
  0
LINE
  5
6F44
  8
0
 10
-362.52168790473712
 20
37.435807504224087
 30
0.0
 11
-362.43139032233711
 21
37.877255374324079
 31
0.0
  0
LINE
  5
6F45
  8
0
 10
-360.88167282793722
 20
35.463272662524084
 30
0.0
 11
-360.94503263803711
 21
35.773026983824082
 31
0.0
  0
LINE
  5
6F46
  8
0
 10
-362.43139032233711
 20
35.040078563224093
 30
0.0
 11
-362.52168790473712
 21
35.481526433424079
 31
0.0
  0
LINE
  5
6F47
  8
0
 10
-360.88167282793722
 20
37.454062611124087
 30
0.0
 11
-360.79640528633712
 21
37.72556457422408
 31
0.0
  0
LINE
  5
6F48
  8
0
 10
-362.43139032233711
 20
37.877255374324079
 30
0.0
 11
-362.3098704150371
 21
38.264187755924098
 31
0.0
  0
LINE
  5
6F49
  8
0
 10
-360.79640528633712
 20
35.191769363424093
 30
0.0
 11
-360.88167282793722
 21
35.463272662524084
 31
0.0
  0
LINE
  5
6F4A
  8
0
 10
-362.3098704150371
 20
34.653147517724094
 30
0.0
 11
-362.43139032233711
 21
35.040078563224093
 31
0.0
  0
LINE
  5
6F4B
  8
0
 10
-360.79640528633712
 20
37.72556457422408
 30
0.0
 11
-360.69250588583708
 21
37.948381353724102
 31
0.0
  0
LINE
  5
6F4C
  8
0
 10
-362.3098704150371
 20
38.264187755924098
 30
0.0
 11
-362.16179750343713
 21
38.581733630424068
 31
0.0
  0
LINE
  5
6F4D
  8
0
 10
-360.69250588583708
 20
34.968952583924107
 30
0.0
 11
-360.79640528633712
 21
35.191769363424093
 31
0.0
  0
LINE
  5
6F4E
  8
0
 10
-360.69250588583708
 20
37.948381353724102
 30
0.0
 11
-360.57396793103709
 21
38.113947852024083
 31
0.0
  0
LINE
  5
6F4F
  8
0
 10
-362.16179750343713
 20
34.335600307224091
 30
0.0
 11
-362.3098704150371
 21
34.653147517724094
 31
0.0
  0
LINE
  5
6F50
  8
0
 10
-363.70009086003711
 20
36.458667636824103
 30
0.0
 11
-363.6857435537371
 21
36.839346201324084
 31
0.0
  0
LINE
  5
6F51
  8
0
 10
-363.6857435537371
 20
36.077987736324083
 30
0.0
 11
-363.70009086003711
 21
36.458667636824103
 31
0.0
  0
LINE
  5
6F52
  8
0
 10
-363.6857435537371
 20
36.839346201324084
 30
0.0
 11
-363.64324939503712
 21
37.205395563524092
 31
0.0
  0
LINE
  5
6F53
  8
0
 10
-366.8781641573371
 20
36.458667636824103
 30
0.0
 11
-366.85610412183712
 21
37.043938601824102
 31
0.0
  0
LINE
  5
6F54
  8
0
 10
-366.85610412183712
 20
35.873396671724102
 30
0.0
 11
-366.8781641573371
 21
36.458667636824103
 31
0.0
  0
LINE
  5
6F55
  8
0
 10
-363.64324939503712
 20
35.711938374124109
 30
0.0
 11
-363.6857435537371
 21
36.077987736324083
 31
0.0
  0
LINE
  5
6F56
  8
0
 10
-363.64324939503712
 20
37.205395563524092
 30
0.0
 11
-363.57424498403719
 21
37.542748977224072
 31
0.0
  0
LINE
  5
6F57
  8
0
 10
-362.16179750343713
 20
38.581733630424068
 30
0.0
 11
-361.99286294863708
 21
38.81769264392409
 31
0.0
  0
LINE
  5
6F58
  8
0
 10
-360.57396793103709
 20
34.803386085624091
 30
0.0
 11
-360.69250588583708
 21
34.968952583924107
 31
0.0
  0
LINE
  5
6F59
  8
0
 10
-360.57396793103709
 20
38.113947852024083
 30
0.0
 11
-360.44534584653712
 21
38.215904708224087
 31
0.0
  0
LINE
  5
6F5A
  8
0
 10
-366.85610412183712
 20
37.043938601824102
 30
0.0
 11
-366.79077371143711
 21
37.606718003324062
 31
0.0
  0
LINE
  5
6F5B
  8
0
 10
-366.79077371143711
 20
35.310617270324087
 30
0.0
 11
-366.85610412183712
 21
35.873396671724102
 31
0.0
  0
LINE
  5
6F5C
  8
0
 10
-363.57424498403719
 20
35.374584960424102
 30
0.0
 11
-363.64324939503712
 21
35.711938374124109
 31
0.0
  0
LINE
  5
6F5D
  8
0
 10
-361.99286294863708
 20
34.09964129372409
 30
0.0
 11
-362.16179750343713
 21
34.335600307224091
 31
0.0
  0
LINE
  5
6F5E
  8
0
 10
-363.57424498403719
 20
37.542748977224072
 30
0.0
 11
-363.48137960923708
 21
37.83844189622409
 31
0.0
  0
LINE
  5
6F5F
  8
0
 10
-366.79077371143711
 20
37.606718003324062
 30
0.0
 11
-366.68468327063709
 21
38.125377333824083
 31
0.0
  0
LINE
  5
6F60
  8
0
 10
-366.68468327063709
 20
34.791956603824083
 30
0.0
 11
-366.79077371143711
 21
35.310617270324087
 31
0.0
  0
LINE
  5
6F61
  8
0
 10
-363.48137960923708
 20
35.078892041424098
 30
0.0
 11
-363.57424498403719
 21
35.374584960424102
 31
0.0
  0
LINE
  5
6F62
  8
0
 10
-360.44534584653712
 20
38.215904708224087
 30
0.0
 11
-360.3115841693371
 21
38.250330761724094
 31
0.0
  0
LINE
  5
6F63
  8
0
 10
-361.99286294863708
 20
38.81769264392409
 30
0.0
 11
-361.80955837543712
 21
38.962996027024083
 31
0.0
  0
LINE
  5
6F64
  8
0
 10
-360.57396793103709
 20
34.803386085624091
 30
0.0
 11
-360.44534584653712
 21
34.7014292294241
 31
0.0
  0
LINE
  5
6F65
  8
0
 10
-363.48137960923708
 20
37.83844189622409
 30
0.0
 11
-363.3682230633371
 21
38.081110302824101
 31
0.0
  0
LINE
  5
6F66
  8
0
 10
-361.99286294863708
 20
34.09964129372409
 30
0.0
 11
-361.80955837543712
 21
33.954339246624087
 31
0.0
  0
LINE
  5
6F67
  8
0
 10
-363.3682230633371
 20
34.836223634824087
 30
0.0
 11
-363.48137960923708
 21
35.078892041424098
 31
0.0
  0
LINE
  5
6F68
  8
0
 10
-366.68468327063709
 20
38.125377333824083
 30
0.0
 11
-366.54190759993708
 21
38.579987478124082
 31
0.0
  0
LINE
  5
6F69
  8
0
 10
-366.54190759993708
 20
34.337346459524092
 30
0.0
 11
-366.68468327063709
 21
34.791956603824083
 31
0.0
  0
LINE
  5
6F6A
  8
0
 10
-363.3682230633371
 20
38.081110302824101
 30
0.0
 11
-363.23912269073708
 21
38.261428915424091
 31
0.0
  0
LINE
  5
6F6B
  8
0
 10
-362.66360319123709
 20
38.636977239124079
 30
0.0
 11
-362.49433998033709
 21
38.771149068524082
 31
0.0
  0
LINE
  5
6F6C
  8
0
 10
-361.80955837543712
 20
38.962996027024083
 30
0.0
 11
-361.6189271771371
 21
39.012057962824088
 31
0.0
  0
LINE
  5
6F6D
  8
0
 10
-360.3115841693371
 20
38.250330761724094
 30
0.0
 11
-360.17782249203719
 21
38.215904708224087
 31
0.0
  0
LINE
  5
6F6E
  8
0
 10
-360.44534584653712
 20
34.7014292294241
 30
0.0
 11
-360.3115841693371
 21
34.66700317592408
 31
0.0
  0
LINE
  5
6F6F
  8
0
 10
-363.23912269073708
 20
34.65590502222409
 30
0.0
 11
-363.3682230633371
 21
34.836223634824087
 31
0.0
  0
LINE
  5
6F70
  8
0
 10
-367.05576801763721
 20
36.458667636824103
 30
0.0
 11
-366.39294090423709
 21
39.45866680182408
 31
0.0
  0
LINE
  5
6F71
  8
0
 10
-366.39294090423709
 20
33.458667135824093
 30
0.0
 11
-367.05576801763721
 21
36.458667636824103
 31
0.0
  0
LINE
  5
6F72
  8
0
 10
-362.49433998033709
 20
38.771149068524082
 30
0.0
 11
-362.1683078325371
 21
38.9356481026241
 31
0.0
  0
LINE
  5
6F73
  8
0
 10
-362.1683078325371
 20
38.9356481026241
 30
0.0
 11
-361.9797594585371
 21
38.984175638324082
 31
0.0
  0
LINE
  5
6F74
  8
0
 10
-361.80955837543712
 20
33.954339246624087
 30
0.0
 11
-361.6189271771371
 21
33.905275974824079
 31
0.0
  0
LINE
  5
6F75
  8
0
 10
-366.54190759993708
 20
38.579987478124082
 30
0.0
 11
-366.36793632423712
 21
38.95307622542407
 31
0.0
  0
LINE
  5
6F76
  8
0
 10
-366.36793632423712
 20
33.964257712224082
 30
0.0
 11
-366.54190759993708
 21
34.337346459524092
 31
0.0
  0
LINE
  5
6F77
  8
0
 10
-363.23912269073708
 20
38.261428915424091
 30
0.0
 11
-363.09904173253722
 21
38.372469237124101
 31
0.0
  0
LINE
  5
6F78
  8
0
 10
-363.04828708443711
 20
38.405932034424083
 30
0.0
 11
-362.49433998033709
 21
38.771149068524082
 31
0.0
  0
LINE
  5
6F79
  8
0
 10
-362.1683078325371
 20
33.981685835024081
 30
0.0
 11
-361.9797594585371
 21
33.933159635224087
 31
0.0
  0
LINE
  5
6F7A
  8
0
 10
-362.49433998033709
 20
34.146184869124077
 30
0.0
 11
-362.1683078325371
 21
33.981685835024081
 31
0.0
  0
LINE
  5
6F7B
  8
0
 10
-363.23912269073708
 20
34.65590502222409
 30
0.0
 11
-363.09904173253722
 21
34.544864700524101
 31
0.0
  0
LINE
  5
6F7C
  8
0
 10
-361.9797594585371
 20
38.984175638324082
 30
0.0
 11
-361.6189271771371
 21
39.012057962824088
 31
0.0
  0
LINE
  5
6F7D
  8
0
 10
-361.6189271771371
 20
39.012057962824088
 30
0.0
 11
-361.4282973148371
 21
38.962996027024083
 31
0.0
  0
LINE
  5
6F7E
  8
0
 10
-360.17782249203719
 20
38.215904708224087
 30
0.0
 11
-360.04920174353708
 21
38.113947852024083
 31
0.0
  0
LINE
  5
6F7F
  8
0
 10
-361.4282973148371
 20
38.962996027024083
 30
0.0
 11
-360.17782249203719
 21
38.215904708224087
 31
0.0
  0
LINE
  5
6F80
  8
0
 10
-360.3115841693371
 20
34.66700317592408
 30
0.0
 11
-360.17782249203719
 21
34.7014292294241
 31
0.0
  0
LINE
  5
6F81
  8
0
 10
-363.04828708443711
 20
34.51140190322409
 30
0.0
 11
-362.49433998033709
 21
34.146184869124077
 31
0.0
  0
LINE
  5
6F82
  8
0
 10
-361.9797594585371
 20
33.933159635224087
 30
0.0
 11
-361.6189271771371
 21
33.905275974824079
 31
0.0
  0
LINE
  5
6F83
  8
0
 10
-361.6189271771371
 20
33.905275974824079
 30
0.0
 11
-361.4282973148371
 21
33.954339246624087
 31
0.0
  0
LINE
  5
6F84
  8
0
 10
-366.36793632423712
 20
38.95307622542407
 30
0.0
 11
-366.16945345273712
 21
39.230305621524082
 31
0.0
  0
LINE
  5
6F85
  8
0
 10
-366.16945345273712
 20
33.687028316124092
 30
0.0
 11
-366.36793632423712
 21
33.964257712224082
 31
0.0
  0
LINE
  5
6F86
  8
0
 10
-368.08135526063711
 20
33.458667135824093
 30
0.0
 11
-368.74418237403711
 21
36.458667636824103
 31
0.0
  0
LINE
  5
6F87
  8
0
 10
-368.74418237403711
 20
36.458667636824103
 30
0.0
 11
-367.05576801763721
 21
36.458667636824103
 31
0.0
  0
LINE
  5
6F88
  8
0
 10
-368.74418237403711
 20
36.458667636824103
 30
0.0
 11
-368.08135526063711
 21
39.45866680182408
 31
0.0
  0
LINE
  5
6F89
  8
0
 10
-359.93066378873721
 20
37.948381353724102
 30
0.0
 11
-360.04920174353708
 21
38.113947852024083
 31
0.0
  0
LINE
  5
6F8A
  8
0
 10
-360.17782249203719
 20
34.7014292294241
 30
0.0
 11
-360.04920174353708
 21
34.803386085624091
 31
0.0
  0
LINE
  5
6F8B
  8
0
 10
-361.4282973148371
 20
33.954339246624087
 30
0.0
 11
-360.17782249203719
 21
34.7014292294241
 31
0.0
  0
LINE
  5
6F8C
  8
0
 10
-363.26321077463712
 20
38.396805817024081
 30
0.0
 11
-363.04828708443711
 21
38.405932034424083
 31
0.0
  0
LINE
  5
6F8D
  8
0
 10
-363.26321077463712
 20
34.520529456624111
 30
0.0
 11
-363.04828708443711
 21
34.51140190322409
 31
0.0
  0
LINE
  5
6F8E
  8
0
 10
-366.16945345273712
 20
39.230305621524082
 30
0.0
 11
-365.95408754643711
 21
39.401022400624079
 31
0.0
  0
LINE
  5
6F8F
  8
0
 10
-366.16945345273712
 20
33.687028316124092
 30
0.0
 11
-365.95408754643711
 21
33.516311537024109
 31
0.0
  0
LINE
  5
6F90
  8
0
 10
-359.82676438823711
 20
37.72556457422408
 30
0.0
 11
-359.93066378873721
 21
37.948381353724102
 31
0.0
  0
LINE
  5
6F91
  8
0
 10
-360.04920174353708
 20
34.803386085624091
 30
0.0
 11
-359.93066378873721
 21
34.968952583924107
 31
0.0
  0
LINE
  5
6F92
  8
0
 10
-363.50433342893712
 20
38.495207576624082
 30
0.0
 11
-363.26321077463712
 21
38.396805817024081
 31
0.0
  0
LINE
  5
6F93
  8
0
 10
-363.50433342893712
 20
34.422126361024091
 30
0.0
 11
-363.26321077463712
 21
34.520529456624111
 31
0.0
  0
LINE
  5
6F94
  8
0
 10
-359.74149551063709
 20
37.454062611124087
 30
0.0
 11
-359.82676438823711
 21
37.72556457422408
 31
0.0
  0
LINE
  5
6F95
  8
0
 10
-359.93066378873721
 20
34.968952583924107
 30
0.0
 11
-359.82676438823711
 21
35.191769363424093
 31
0.0
  0
LINE
  5
6F96
  8
0
 10
-365.95408754643711
 20
39.401022400624079
 30
0.0
 11
-365.73011379083721
 21
39.45866680182408
 31
0.0
  0
LINE
  5
6F97
  8
0
 10
-365.95408754643711
 20
33.516311537024109
 30
0.0
 11
-365.73011379083721
 21
33.458667135824093
 31
0.0
  0
LINE
  5
6F98
  8
0
 10
-359.6781357005371
 20
37.144306953824092
 30
0.0
 11
-359.74149551063709
 21
37.454062611124087
 31
0.0
  0
LINE
  5
6F99
  8
0
 10
-360.5861188529372
 20
34.820358632324101
 30
0.0
 11
-360.58422039663708
 21
34.821287152424091
 31
0.0
  0
LINE
  5
6F9A
  8
0
 10
-359.82676438823711
 20
35.191769363424093
 30
0.0
 11
-359.74149551063709
 21
35.463272662524084
 31
0.0
  0
LINE
  5
6F9B
  8
0
 10
-359.63911915033708
 20
36.808204036424087
 30
0.0
 11
-359.6781357005371
 21
37.144306953824092
 31
0.0
  0
LINE
  5
6F9C
  8
0
 10
-359.74149551063709
 20
35.463272662524084
 30
0.0
 11
-359.6781357005371
 21
35.773026983824082
 31
0.0
  0
LINE
  5
6F9D
  8
0
 10
-365.50614003523719
 20
39.401022400624079
 30
0.0
 11
-363.50433342893712
 21
38.495207576624082
 31
0.0
  0
LINE
  5
6F9E
  8
0
 10
-365.73011379083721
 20
39.45866680182408
 30
0.0
 11
-365.50614003523719
 21
39.401022400624079
 31
0.0
  0
LINE
  5
6F9F
  8
0
 10
-365.73011379083721
 20
33.458667135824093
 30
0.0
 11
-365.50614003523719
 21
33.516311537024109
 31
0.0
  0
LINE
  5
6FA0
  8
0
 10
-359.62594485223713
 20
36.458667636824103
 30
0.0
 11
-359.63911915033708
 21
36.808204036424087
 31
0.0
  0
LINE
  5
6FA1
  8
0
 10
-359.6781357005371
 20
35.773026983824082
 30
0.0
 11
-359.63911915033708
 21
36.109131237224076
 31
0.0
  0
LINE
  5
6FA2
  8
0
 10
-359.63911915033708
 20
36.109131237224076
 30
0.0
 11
-359.62594485223713
 21
36.458667636824103
 31
0.0
  0
LINE
  5
6FA3
  8
0
 10
-365.50614003523719
 20
33.516311537024109
 30
0.0
 11
-363.50433342893712
 21
34.422126361024091
 31
0.0
  0
LINE
  5
6FA4
  8
0
 10
-368.08135526063711
 20
39.45866680182408
 30
0.0
 11
-365.0672866774371
 21
39.45866680182408
 31
0.0
  0
LINE
  5
6FA5
  8
0
 10
-365.0672866774371
 20
33.458667135824093
 30
0.0
 11
-365.00438778743711
 21
33.743354085124082
 31
0.0
  0
LINE
  5
6FA6
  8
0
 10
-365.00438778743711
 20
39.173979852524091
 30
0.0
 11
-365.0672866774371
 21
39.45866680182408
 31
0.0
  0
LINE
  5
6FA7
  8
0
 10
-368.08135526063711
 20
33.458667135824093
 30
0.0
 11
-365.0672866774371
 21
33.458667135824093
 31
0.0
  0
LINE
  5
6FA8
  8
0
 10
-366.49610951263719
 20
33.458667135824093
 30
0.0
 11
-367.07345933243721
 21
32.45866696882409
 31
0.0
  0
LINE
  5
6FA9
  8
0
 10
-367.07345933243721
 20
32.45866696882409
 30
0.0
 11
-371.6922618988371
 21
32.45866696882409
 31
0.0
  0
LINE
  5
6FAA
  8
0
 10
-374.00166251403709
 20
36.458667636824103
 30
0.0
 11
-371.6922618988371
 21
32.45866696882409
 31
0.0
  0
LINE
  5
6FAB
  8
0
 10
-371.6922618988371
 20
40.458666968824069
 30
0.0
 11
-374.00166251403709
 21
36.458667636824103
 31
0.0
  0
LINE
  5
6FAC
  8
0
 10
-371.6922618988371
 20
40.458666968824069
 30
0.0
 11
-367.07346066843712
 21
40.458666968824069
 31
0.0
  0
LINE
  5
6FAD
  8
0
 10
-366.49610951263719
 20
39.45866680182408
 30
0.0
 11
-367.07346066843712
 21
40.458666968824069
 31
0.0
  0
ARC
  5
6FAE
  8
0
 10
-369.38286128363711
 20
36.458667636824103
 30
0.0
 40
3.999999331999998
 50
48.590377998899079
 51
311.40962200319882
  0
POLYLINE
  5
6FAF
  8
0
 66
     1
 10
0.0
 20
0.0
 30
0.0
  0
VERTEX
  5
724E
  8
0
 10
-360.43117355633711
 20
36.458667636824089
 30
0.0
  0
VERTEX
  5
724F
  8
0
 10
-360.39762525493711
 20
36.241630394324091
 30
0.0
  0
VERTEX
  5
7250
  8
0
 10
-360.36473426573713
 20
36.178726160324111
 30
0.0
  0
VERTEX
  5
7251
  8
0
 10
-360.32816393193713
 20
36.149184523624093
 30
0.0
  0
VERTEX
  5
7252
  8
0
 10
-360.29418677453708
 20
36.149491803624102
 30
0.0
  0
VERTEX
  5
7253
  8
0
 10
-360.25769392873713
 20
36.179696096424102
 30
0.0
  0
VERTEX
  5
7254
  8
0
 10
-360.22635002773711
 20
36.239466073924078
 30
0.0
  0
VERTEX
  5
7255
  8
0
 10
-360.19696336703709
 20
36.369539054624092
 30
0.0
  0
VERTEX
  5
7256
  8
0
 10
-360.19199611823711
 20
36.458667636824089
 30
0.0
  0
VERTEX
  5
7257
  8
0
 10
-360.22554308363709
 20
36.675703543324083
 30
0.0
  0
VERTEX
  5
7258
  8
0
 10
-360.25843540883722
 20
36.738607777324091
 30
0.0
  0
VERTEX
  5
7259
  8
0
 10
-360.2950057426371
 20
36.768149414024101
 30
0.0
  0
VERTEX
  5
725A
  8
0
 10
-360.32898156403712
 20
36.767842133924091
 30
0.0
  0
VERTEX
  5
725B
  8
0
 10
-360.3654757458371
 20
36.737637841124076
 30
0.0
  0
VERTEX
  5
725C
  8
0
 10
-360.3968183108372
 20
36.677867863624087
 30
0.0
  0
VERTEX
  5
725D
  8
0
 10
-360.42620630753709
 20
36.547794883024082
 30
0.0
  0
VERTEX
  5
725E
  8
0
 10
-360.43117355633711
 20
36.458667636824089
 30
0.0
  0
SEQEND
  5
725F
  8
0
  0
LINE
  5
6FB0
  8
0
 10
-342.38286128363711
 20
41.95866763668635
 30
0.0
 11
-396.382861283637
 21
41.95866763668635
 31
0.0
  0
LINE
  5
6FB1
  8
0
 10
-396.61491209120578
 20
6.9586676366863989
 30
0.0
 11
-382.68253956874071
 21
6.9586676366863989
 31
0.0
  0
LINE
  5
6FB2
  8
0
 10
-342.14991655155819
 20
6.9586676366863989
 30
0.0
 11
-356.0831829985334
 21
6.9586676366863989
 31
0.0
  0
LINE
  5
6FB3
  8
0
 10
-90.728148197070027
 20
26.959141873893699
 30
0.0
 11
-145.24982617597459
 21
26.959141873893699
 31
0.0
  0
LINE
  5
6FB4
  8
0
 10
-90.7281481970698
 20
0.9591418738937065
 30
0.0
 11
-290.7281481970698
 21
0.9591418738937065
 31
0.0
  0
LINE
  5
6FB5
  8
0
 10
-277.7281481970698
 20
26.059141873893839
 30
0.0
 11
-278.24776343934047
 21
26.959141873893699
 31
0.0
  0
LINE
  5
6FB6
  8
0
 10
-290.7281481970698
 20
0.9591418738937065
 30
0.0
 11
-290.7281481970698
 21
26.959141873893699
 31
0.0
  0
LINE
  5
6FB7
  8
µę˝u
 10
-103.7281481970699
 20
26.059141873893839
 30
0.0
 11
-117.7281481970698
 21
26.059141873893839
 31
0.0
  0
LINE
  5
6FB8
  8
µę˝u
 10
-106.2281481970699
 20
1.3591418738937691
 30
0.0
 11
-115.2281481970698
 21
1.3591418738937691
 31
0.0
  0
LINE
  5
6FB9
  8
µę˝u
 10
-106.2281481970699
 20
14.15914187389378
 30
0.0
 11
-115.2281481970698
 21
14.15914187389378
 31
0.0
  0
LINE
  5
6FBA
  8
µę˝u
 10
-103.7281481970699
 20
14.45914187389379
 30
0.0
 11
-117.7281481970698
 21
14.45914187389379
 31
0.0
  0
LINE
  5
6FBB
  8
0
 10
-90.7281481970698
 20
2.4591418738937061
 30
0.0
 11
-252.2618600815118
 21
2.4591418738937061
 31
0.0
  0
LINE
  5
6FBC
  8
0
 10
-90.728148197070027
 20
6.2588201738984921
 30
0.0
 11
-253.30315418611411
 21
6.2588201738984921
 31
0.0
  0
LINE
  5
6FBD
  8
0
 10
-90.728148197070027
 20
10.95882007389371
 30
0.0
 11
-145.24982617597479
 21
10.95882007389371
 31
0.0
  0
LINE
  5
6FBE
  8
0
 10
-90.728148197070027
 20
15.13888490915337
 30
0.0
 11
-145.24982617597459
 21
15.13888490915337
 31
0.0
  0
LINE
  5
6FBF
  8
0
 10
-90.728148197070027
 20
15.752769098947271
 30
0.0
 11
-145.24982617597459
 21
15.752769098947271
 31
0.0
  0
LINE
  5
6FC0
  8
0
 10
-90.728148197070027
 20
18.254339519682041
 30
0.0
 11
-145.24982617597459
 21
18.254339519682041
 31
0.0
  0
LINE
  5
6FC1
  8
0
 10
-90.728148197070027
 20
19.838882534562181
 30
0.0
 11
-145.24982617597459
 21
19.838882534562181
 31
0.0
  0
LINE
  5
6FC2
  8
0
 10
-90.728148197070027
 20
22.07355118721815
 30
0.0
 11
-145.24982617597459
 21
22.07355118721815
 31
0.0
  0
LINE
  5
6FC3
  8
0
 10
-90.728148197070027
 20
23.664404697456419
 30
0.0
 11
-145.24982617597459
 21
23.664404697456419
 31
0.0
  0
LINE
  5
6FC4
  8
0
 10
-90.728148197070027
 20
26.15895805435126
 30
0.0
 11
-145.24982617597459
 21
26.15895805435126
 31
0.0
  0
LINE
  5
6FC5
  8
¤¤¤ß˝u
 10
-270.7281481970698
 20
-1.640858126106159
 30
0.0
 11
-270.7281481970698
 21
27.95914187389382
 31
0.0
  0
LINE
  5
6FC6
  8
«Řşc˝u
 10
-253.36074367170721
 20
17.075599404275291
 30
0.0
 11
-252.57425712353449
 21
14.338884909153499
 31
0.0
  0
LINE
  5
6FC7
  8
0
 10
-277.7281481970698
 20
14.45914187389379
 30
0.0
 11
-277.7281481970698
 21
26.059141873893839
 31
0.0
  0
LINE
  5
6FC8
  8
0
 10
-263.7281481970698
 20
14.45914187389379
 30
0.0
 11
-263.7281481970698
 21
26.059141873893839
 31
0.0
  0
LINE
  5
6FC9
  8
¤¤¤ß˝u
 10
-270.7281481970698
 20
-1.640858126106159
 30
0.0
 11
-270.7281481970698
 21
27.95914187389382
 31
0.0
  0
LINE
  5
6FCA
  8
0
 10
-275.2281481970698
 20
1.3591418738937691
 30
0.0
 11
-275.2281481970698
 21
14.15914187389378
 31
0.0
  0
LINE
  5
6FCB
  8
0
 10
-266.2281481970698
 20
1.3591418738937691
 30
0.0
 11
-266.2281481970698
 21
14.15914187389378
 31
0.0
  0
LINE
  5
6FCC
  8
0
 10
-266.2281481970698
 20
1.3591418738937691
 30
0.0
 11
-275.2281481970698
 21
1.3591418738937691
 31
0.0
  0
LINE
  5
6FCD
  8
0
 10
-275.62814819706978
 20
0.9591418738937917
 30
0.0
 11
-275.2281481970698
 21
1.3591418738937691
 31
0.0
  0
LINE
  5
6FCE
  8
0
 10
-265.82814819707022
 20
0.9591418738937917
 30
0.0
 11
-266.2281481970698
 21
1.3591418738937691
 31
0.0
  0
LINE
  5
6FCF
  8
0
 10
-266.2281481970698
 20
14.15914187389378
 30
0.0
 11
-275.2281481970698
 21
14.15914187389378
 31
0.0
  0
LINE
  5
6FD0
  8
0
 10
-263.7281481970698
 20
14.45914187389379
 30
0.0
 11
-277.7281481970698
 21
14.45914187389379
 31
0.0
  0
LINE
  5
6FD1
  8
0
 10
-275.52814819706981
 20
14.45914187389379
 30
0.0
 11
-275.2281481970698
 21
14.15914187389378
 31
0.0
  0
LINE
  5
6FD2
  8
0
 10
-265.92814819707019
 20
14.45914187389379
 30
0.0
 11
-266.2281481970698
 21
14.15914187389378
 31
0.0
  0
LINE
  5
6FD3
  8
«Řşc˝u
 10
-254.3719412210086
 20
10.158820073893841
 30
0.0
 11
-252.1248360991658
 21
1.9591418738937909
 31
0.0
  0
LINE
  5
6FD4
  8
«Řşc˝u
 10
-252.1248360991658
 20
1.9591418738937629
 30
0.0
 11
-253.13603364846711
 21
0.9591418738937065
 31
0.0
  0
LINE
  5
6FD5
  8
«Řşc˝u
 10
-252.57425712353449
 20
14.338884909153499
 30
0.0
 11
-254.3719412210086
 21
10.158820073893841
 31
0.0
  0
LINE
  5
6FD6
  8
0
 10
-263.7281481970698
 20
26.059141873893839
 30
0.0
 11
-277.7281481970698
 21
26.059141873893839
 31
0.0
  0
LINE
  5
6FD7
  8
0
 10
-263.20853295479941
 20
26.959141873893699
 30
0.0
 11
-263.7281481970698
 21
26.059141873893839
 31
0.0
  0
LINE
  5
6FD8
  8
«Řşc˝u
 10
-252.6433937157212
 20
26.959141873893699
 30
0.0
 11
-253.02367814790281
 21
24.978687208714739
 31
0.0
  0
LINE
  5
6FD9
  8
«Řşc˝u
 10
-252.23719159973029
 20
19.338881896609191
 30
0.0
 11
-253.36074367170721
 21
17.075599404275291
 31
0.0
  0
LINE
  5
6FDA
  8
«Řşc˝u
 10
-251.45070407366819
 20
23.244675873557942
 30
0.0
 11
-253.05649975483399
 21
20.9735518179926
 31
0.0
  0
LINE
  5
6FDB
  8
«Řşc˝u
 10
-253.05649975483399
 20
20.9735518179926
 30
0.0
 11
-252.23719159973029
 21
19.338881896609191
 31
0.0
  0
LINE
  5
6FDC
  8
«Řşc˝u
 10
-253.02367814790281
 20
24.978687208714739
 30
0.0
 11
-251.45070407366819
 21
23.244675873557942
 31
0.0
  0
LINE
  5
6FDD
  8
¤¤¤ß˝u
 10
-190.72814819706991
 20
-1.640858126106159
 30
0.0
 11
-190.72814819706991
 21
8.1341316391404845
 31
0.0
  0
LINE
  5
6FDE
  8
µę˝u
 10
-195.2281481970698
 20
1.3591418738937691
 30
0.0
 11
-195.2281481970698
 21
6.9596161111012051
 31
0.0
  0
LINE
  5
6FDF
  8
µę˝u
 10
-186.2281481970698
 20
1.3591418738937691
 30
0.0
 11
-186.2281481970698
 21
6.9596161111011483
 31
0.0
  0
LINE
  5
6FE0
  8
µę˝u
 10
-186.2281481970698
 20
1.3591418738937691
 30
0.0
 11
-195.2281481970698
 21
1.3591418738937691
 31
0.0
  0
LINE
  5
6FE1
  8
µę˝u
 10
-195.62814819706969
 20
0.9591418738937917
 30
0.0
 11
-195.2281481970698
 21
1.3591418738937691
 31
0.0
  0
LINE
  5
6FE2
  8
µę˝u
 10
-185.82814819707011
 20
0.9591418738937917
 30
0.0
 11
-186.2281481970698
 21
1.3591418738937691
 31
0.0
  0
LINE
  5
6FE3
  8
µę˝u
 10
-117.7281481970698
 20
14.45914187389379
 30
0.0
 11
-117.7281481970698
 21
26.059141873893839
 31
0.0
  0
LINE
  5
6FE4
  8
µę˝u
 10
-115.2281481970698
 20
1.3591418738937691
 30
0.0
 11
-115.2281481970698
 21
14.15914187389378
 31
0.0
  0
LINE
  5
6FE5
  8
µę˝u
 10
-115.62814819707
 20
0.9591418738937917
 30
0.0
 11
-115.2281481970698
 21
1.3591418738937691
 31
0.0
  0
LINE
  5
6FE6
  8
µę˝u
 10
-115.5281481970698
 20
14.45914187389379
 30
0.0
 11
-115.2281481970698
 21
14.15914187389378
 31
0.0
  0
LINE
  5
6FE7
  8
µę˝u
 10
-117.7281481970698
 20
26.059141873893839
 30
0.0
 11
-117.9590883047458
 21
26.45914187389382
 31
0.0
  0
LINE
  5
6FE8
  8
µę˝u
 10
-103.7281481970699
 20
14.45914187389379
 30
0.0
 11
-103.7281481970699
 21
26.059141873893839
 31
0.0
  0
LINE
  5
6FE9
  8
0
 10
-90.7281481970698
 20
0.9591418738937633
 30
0.0
 11
-90.728148197070027
 21
26.959141873893699
 31
0.0
  0
LINE
  5
6FEA
  8
µę˝u
 10
-106.2281481970699
 20
1.3591418738937691
 30
0.0
 11
-106.2281481970699
 21
14.15914187389378
 31
0.0
  0
LINE
  5
6FEB
  8
µę˝u
 10
-105.82814819706989
 20
0.9591418738937917
 30
0.0
 11
-106.2281481970699
 21
1.3591418738937691
 31
0.0
  0
LINE
  5
6FEC
  8
µę˝u
 10
-105.9281481970699
 20
14.45914187389379
 30
0.0
 11
-106.2281481970699
 21
14.15914187389378
 31
0.0
  0
LINE
  5
6FED
  8
µę˝u
 10
-103.49720808939411
 20
26.45914187389382
 30
0.0
 11
-103.7281481970699
 21
26.059141873893839
 31
0.0
  0
LINE
  5
6FEE
  8
¤¤¤ß˝u
 10
-110.7281481970699
 20
-1.640858126106159
 30
0.0
 11
-110.7281481970699
 21
27.95914187389382
 31
0.0
  0
LINE
  5
6FEF
  8
0
 10
-242.64982617597471
 20
26.15895805435126
 30
0.0
 11
-252.7970440137087
 21
26.15895805435126
 31
0.0
  0
LINE
  5
6FF0
  8
0
 10
-242.64982617597471
 20
26.959141873893699
 30
0.0
 11
-290.7281481970698
 21
26.959141873893699
 31
0.0
  0
LINE
  5
6FF1
  8
0
 10
-242.64982617597471
 20
23.664404697456419
 30
0.0
 11
-251.8314527716818
 21
23.664404697456419
 31
0.0
  0
LINE
  5
6FF2
  8
0
 10
-242.64982617597471
 20
22.07355118721815
 30
0.0
 11
-252.27874645154861
 21
22.07355118721815
 31
0.0
  0
LINE
  5
6FF3
  8
0
 10
-242.64982617597471
 20
19.838882534562181
 30
0.0
 11
-252.48779546469001
 21
19.838882534562181
 31
0.0
  0
LINE
  5
6FF4
  8
0
 10
-242.64982617597471
 20
18.254339519682041
 30
0.0
 11
-252.77558653667279
 21
18.254339519682041
 31
0.0
  0
LINE
  5
6FF5
  8
0
 10
-242.64982617597471
 20
15.752769098947271
 30
0.0
 11
-252.98058408892629
 21
15.752769098947271
 31
0.0
  0
LINE
  5
6FF6
  8
0
 10
-242.64982617597471
 20
15.13888490915337
 30
0.0
 11
-252.80416391127551
 21
15.13888490915337
 31
0.0
  0
LINE
  5
6FF7
  8
0
 10
-242.64982617597471
 20
10.95882007389371
 30
0.0
 11
-254.0278921847715
 21
10.95882007389371
 31
0.0
  0
LINE
  5
6FF8
  8
0
 10
-145.24982617597419
 20
28.232880583621721
 30
0.0
 11
-145.2498261759745
 21
6.9591418738943966
 31
0.0
  0
LINE
  5
6FF9
  8
0
 10
-146.74982617597419
 20
29.09890598740613
 30
0.0
 11
-146.74982617597419
 21
6.9591418738943966
 31
0.0
  0
LINE
  5
6FFA
  8
0
 10
-145.2498261759745
 20
28.232880583621821
 30
0.0
 11
-145.2498261759745
 21
6.9591418738945388
 31
0.0
  0
LINE
  5
6FFB
  8
0
 10
-146.74982617597419
 20
29.098905987406241
 30
0.0
 11
-146.74982617597419
 21
6.9591418738945388
 31
0.0
  0
LINE
  5
6FFC
  8
¤¤¤ß˝u
 10
-144.96597637960281
 20
9.6091418738948846
 30
0.0
 11
-150.71761335398389
 21
9.6091418738948846
 31
0.0
  0
LINE
  5
6FFD
  8
¤¤¤ß˝u
 10
-144.96597637960281
 20
9.6091418738948846
 30
0.0
 11
-150.71761335398389
 21
9.6091418738948846
 31
0.0
  0
LINE
  5
6FFE
  8
0
 10
-145.86549831661571
 20
10.60914187389487
 30
0.0
 11
-145.86549831661571
 21
8.6091418738948846
 31
0.0
  0
LINE
  5
6FFF
  8
0
 10
-145.86549831661571
 20
10.60914187389487
 30
0.0
 11
-145.86549831661571
 21
8.6091418738948846
 31
0.0
  0
ARC
  5
7000
  8
0
 10
-147.08534999546859
 20
8.6288935119119987
 30
0.0
 40
1.220011576012179
 50
285.96302216882867
 51
359.07235721200237
  0
ARC
  5
7001
  8
0
 10
-147.08534999546859
 20
8.6288935119119987
 30
0.0
 40
1.220011576012179
 50
285.96302216882867
 51
359.07235721200237
  0
LINE
  5
7002
  8
0
 10
-148.44982617597421
 20
6.9591418738943966
 30
0.0
 11
-145.2498261759745
 21
6.9591418738943966
 31
0.0
  0
LINE
  5
7003
  8
0
 10
-148.44982617597421
 20
6.9591418738945388
 30
0.0
 11
-145.2498261759745
 21
6.9591418738945388
 31
0.0
  0
ARC
  5
7004
  8
0
 10
-147.08534999546859
 20
10.589390235877771
 30
0.0
 40
1.220011576012179
 50
0.927642787997596
 51
74.036977831171271
  0
ARC
  5
7005
  8
0
 10
-147.08534999546859
 20
10.589390235877771
 30
0.0
 40
1.220011576012179
 50
0.927642787997596
 51
74.036977831171271
  0
LINE
  5
7006
  8
0
 10
-146.74982617597419
 20
41.959141873894353
 30
0.0
 11
-146.74982617597419
 21
29.09890598740613
 31
0.0
  0
LINE
  5
7007
  8
0
 10
-146.74982617597419
 20
41.959141873894481
 30
0.0
 11
-146.74982617597419
 21
29.098905987406241
 31
0.0
  0
LINE
  5
7008
  8
¤¤¤ß˝u
 10
-144.96597637960281
 20
36.459140180323431
 30
0.0
 11
-150.71761335398361
 21
36.459140180323431
 31
0.0
  0
LINE
  5
7009
  8
¤¤¤ß˝u
 10
-144.96597637960281
 20
36.459140180323601
 30
0.0
 11
-150.71761335398389
 21
36.459140180323601
 31
0.0
  0
LINE
  5
700A
  8
0
 10
-146.74982617597419
 20
29.09890598740613
 30
0.0
 11
-145.24982617597419
 21
28.232880583621721
 31
0.0
  0
LINE
  5
700B
  8
0
 10
-146.74982617597419
 20
29.098905987406241
 30
0.0
 11
-145.2498261759745
 21
28.232880583621821
 31
0.0
  0
ARC
  5
700C
  8
0
 10
-147.08534999546791
 20
37.439388542306311
 30
0.0
 40
1.220011576012179
 50
0.927642787997596
 51
74.036977831171271
  0
ARC
  5
700D
  8
0
 10
-147.08534999546859
 20
37.439388542306432
 30
0.0
 40
1.220011576012179
 50
0.927642787997596
 51
74.036977831171271
  0
LINE
  5
700E
  8
¤¤¤ß˝u
 10
-145.74982617597419
 20
36.459140180323431
 30
0.0
 11
-149.4498261759739
 21
36.459140180323431
 31
0.0
  0
LINE
  5
700F
  8
¤¤¤ß˝u
 10
-145.74982617597439
 20
36.459140180323601
 30
0.0
 11
-149.44982617597441
 21
36.459140180323601
 31
0.0
  0
ARC
  5
7010
  8
0
 10
-147.08534999546791
 20
35.478891818340529
 30
0.0
 40
1.220011576012179
 50
285.96302216882867
 51
359.07235721200237
  0
ARC
  5
7011
  8
0
 10
-147.08534999546859
 20
35.478891818340657
 30
0.0
 40
1.220011576012179
 50
285.96302216882867
 51
359.07235721200237
  0
LINE
  5
7012
  8
0
 10
-145.86549831661549
 20
37.459140180323431
 30
0.0
 11
-145.86549831661549
 21
35.459140180323423
 31
0.0
  0
LINE
  5
7013
  8
0
 10
-145.86549831661571
 20
37.459140180323587
 30
0.0
 11
-145.86549831661571
 21
35.459140180323608
 31
0.0
  0
LINE
  5
7014
  8
0
 10
-148.4498261759739
 20
41.959141873894353
 30
0.0
 11
-146.74982617597419
 21
41.959141873894353
 31
0.0
  0
LINE
  5
7015
  8
0
 10
-148.44982617597421
 20
41.959141873894481
 30
0.0
 11
-146.74982617597419
 21
41.959141873894481
 31
0.0
  0
LINE
  5
7016
  8
0
 10
-242.64982617597431
 20
28.232880583621721
 30
0.0
 11
-242.64982617597431
 21
6.9591418738943966
 31
0.0
  0
LINE
  5
7017
  8
0
 10
-241.1498261759744
 20
29.09890598740613
 30
0.0
 11
-241.1498261759742
 21
6.9591418738943966
 31
0.0
  0
LINE
  5
7018
  8
0
 10
-242.64982617597431
 20
28.232880583621832
 30
0.0
 11
-242.64982617597431
 21
6.9591418738945388
 31
0.0
  0
LINE
  5
7019
  8
0
 10
-241.1498261759742
 20
29.098905987406258
 30
0.0
 11
-241.1498261759742
 21
6.9591418738945388
 31
0.0
  0
LINE
  5
701A
  8
¤¤¤ß˝u
 10
-242.93367597234541
 20
9.6091418738948846
 30
0.0
 11
-237.18203899796461
 21
9.6091418738948846
 31
0.0
  0
LINE
  5
701B
  8
¤¤¤ß˝u
 10
-242.93367597234541
 20
9.6091418738948846
 30
0.0
 11
-237.18203899796461
 21
9.6091418738948846
 31
0.0
  0
LINE
  5
701C
  8
0
 10
-242.03415403533259
 20
10.609141873894879
 30
0.0
 11
-242.03415403533259
 21
8.6091418738948846
 31
0.0
  0
LINE
  5
701D
  8
0
 10
-242.03415403533259
 20
10.609141873894879
 30
0.0
 11
-242.03415403533259
 21
8.6091418738948846
 31
0.0
  0
ARC
  5
701E
  8
0
 10
-240.81430235648011
 20
8.6288935119119987
 30
0.0
 40
1.220011576012179
 50
180.9276427879976
 51
254.03697783117121
  0
ARC
  5
701F
  8
0
 10
-240.81430235648011
 20
8.6288935119119987
 30
0.0
 40
1.220011576012179
 50
180.9276427879976
 51
254.03697783117121
  0
LINE
  5
7020
  8
0
 10
-239.44982617597421
 20
6.9591418738943966
 30
0.0
 11
-242.64982617597431
 21
6.9591418738943966
 31
0.0
  0
LINE
  5
7021
  8
0
 10
-239.44982617597421
 20
6.9591418738945388
 30
0.0
 11
-242.64982617597431
 21
6.9591418738945388
 31
0.0
  0
ARC
  5
7022
  8
0
 10
-240.81430235648011
 20
10.589390235877771
 30
0.0
 40
1.220011576012179
 50
105.9630221688287
 51
179.0723572120024
  0
ARC
  5
7023
  8
0
 10
-240.81430235648011
 20
10.589390235877771
 30
0.0
 40
1.220011576012179
 50
105.9630221688287
 51
179.0723572120024
  0
LINE
  5
7024
  8
0
 10
-241.1498261759744
 20
41.95914187389436
 30
0.0
 11
-241.1498261759744
 21
29.09890598740613
 31
0.0
  0
LINE
  5
7025
  8
0
 10
-241.1498261759742
 20
41.959141873894481
 30
0.0
 11
-241.1498261759742
 21
29.098905987406258
 31
0.0
  0
LINE
  5
7026
  8
0
 10
-241.1498261759744
 20
29.09890598740613
 30
0.0
 11
-242.64982617597431
 21
28.232880583621721
 31
0.0
  0
LINE
  5
7027
  8
0
 10
-241.1498261759742
 20
29.098905987406258
 30
0.0
 11
-242.64982617597431
 21
28.232880583621832
 31
0.0
  0
ARC
  5
7028
  8
0
 10
-240.81430235648031
 20
37.439388542306318
 30
0.0
 40
1.220011576012179
 50
105.9630221688287
 51
179.0723572120024
  0
ARC
  5
7029
  8
0
 10
-240.81430235648011
 20
37.439388542306432
 30
0.0
 40
1.220011576012179
 50
105.9630221688287
 51
179.0723572120024
  0
ARC
  5
702A
  8
0
 10
-240.81430235648031
 20
35.478891818340529
 30
0.0
 40
1.220011576012179
 50
180.9276427879976
 51
254.03697783117121
  0
ARC
  5
702B
  8
0
 10
-240.81430235648011
 20
35.478891818340657
 30
0.0
 40
1.220011576012179
 50
180.9276427879976
 51
254.03697783117121
  0
LINE
  5
702C
  8
0
 10
-242.0341540353327
 20
37.459140180323431
 30
0.0
 11
-242.0341540353327
 21
35.459140180323423
 31
0.0
  0
LINE
  5
702D
  8
0
 10
-242.03415403533259
 20
37.459140180323601
 30
0.0
 11
-242.03415403533259
 21
35.459140180323608
 31
0.0
  0
LINE
  5
702E
  8
0
 10
-239.44982617597461
 20
41.95914187389436
 30
0.0
 11
-241.1498261759744
 21
41.95914187389436
 31
0.0
  0
LINE
  5
702F
  8
0
 10
-239.44982617597421
 20
41.959141873894481
 30
0.0
 11
-241.1498261759742
 21
41.959141873894481
 31
0.0
  0
LINE
  5
7030
  8
0
 10
-239.44982617597421
 20
6.9591418738941107
 30
0.0
 11
-239.44982617597421
 21
41.959141873894112
 31
0.0
  0
LINE
  5
7031
  8
0
 10
-239.44982617597421
 20
41.959141873894048
 30
0.0
 11
-239.44982617597421
 21
6.9591418738941107
 31
0.0
  0
LINE
  5
7032
  8
0
 10
-239.44982617597421
 20
41.959141873893707
 30
0.0
 11
-239.44982617597421
 21
6.9591418738936861
 31
0.0
  0
LINE
  5
7033
  8
0
 10
-148.44982617597421
 20
41.959141873893707
 30
0.0
 11
-148.44982617597421
 21
6.9591418738936861
 31
0.0
  0
LINE
  5
7034
  8
0
 10
-148.44982617597421
 20
41.959141873894048
 30
0.0
 11
-148.44982617597421
 21
6.9591418738941107
 31
0.0
  0
LINE
  5
7035
  8
0
 10
-148.44982617597421
 20
6.9591418738941107
 30
0.0
 11
-148.44982617597421
 21
41.959141873894112
 31
0.0
  0
LINE
  5
7036
  8
¤¤¤ß˝u
 10
-256.14982441695747
 20
36.459141873893998
 30
0.0
 11
-242.03415403533259
 21
36.459141873893998
 31
0.0
  0
ARC
  5
7037
  8
0
 10
-241.95820917597419
 20
34.459161204994047
 30
0.0
 40
2.9541109999999762
 50
137.38859300450039
 51
222.61140699760139
  0
ARC
  5
7038
  8
0
 10
-241.95820817597419
 20
38.45916120499394
 30
0.0
 40
2.954111999999975
 50
137.3885980021997
 51
222.61140199989771
  0
POLYLINE
  5
7039
  8
0
 66
     1
 10
0.0
 20
0.0
 30
0.0
  0
VERTEX
  5
7260
  8
0
 10
-252.2410371759741
 20
36.459161204993961
 30
0.0
  0
VERTEX
  5
7261
  8
0
 10
-252.27385517597421
 20
36.669416204993979
 30
0.0
  0
VERTEX
  5
7262
  8
0
 10
-252.31800217597399
 20
36.774903204993961
 30
0.0
  0
VERTEX
  5
7263
  8
0
 10
-252.3810351759746
 20
36.872682204993957
 30
0.0
  0
VERTEX
  5
7264
  8
0
 10
-252.46051117597449
 20
36.956795204993973
 30
0.0
  0
VERTEX
  5
7265
  8
0
 10
-252.552002175974
 20
37.022668204993977
 30
0.0
  0
VERTEX
  5
7266
  8
0
 10
-252.6499221759741
 20
37.067949204993909
 30
0.0
  0
VERTEX
  5
7267
  8
0
 10
-252.78255817597429
 20
37.09689020499394
 30
0.0
  0
VERTEX
  5
7268
  8
0
 10
-252.9055671759742
 20
37.094231204993953
 30
0.0
  0
VERTEX
  5
7269
  8
0
 10
-253.01249117597419
 20
37.068725204993953
 30
0.0
  0
VERTEX
  5
726A
  8
0
 10
-253.12869617597431
 20
37.012957204993953
 30
0.0
  0
VERTEX
  5
726B
  8
0
 10
-253.23926617597419
 20
36.923468204993981
 30
0.0
  0
VERTEX
  5
726C
  8
0
 10
-253.32749617597401
 20
36.808918204993979
 30
0.0
  0
VERTEX
  5
726D
  8
0
 10
-253.38413017597421
 20
36.689079204994023
 30
0.0
  0
VERTEX
  5
726E
  8
0
 10
-253.41198117597401
 20
36.585423204993958
 30
0.0
  0
VERTEX
  5
726F
  8
0
 10
-253.4236021759742
 20
36.459161204993961
 30
0.0
  0
VERTEX
  5
7270
  8
0
 10
-253.3907841759742
 20
36.248906204994
 30
0.0
  0
VERTEX
  5
7271
  8
0
 10
-253.34663617597451
 20
36.143418204993957
 30
0.0
  0
VERTEX
  5
7272
  8
0
 10
-253.28360417597429
 20
36.045640204993973
 30
0.0
  0
VERTEX
  5
7273
  8
0
 10
-253.20412817597401
 20
35.961527204993963
 30
0.0
  0
VERTEX
  5
7274
  8
0
 10
-253.1126371759741
 20
35.895654204993953
 30
0.0
  0
VERTEX
  5
7275
  8
0
 10
-253.0147171759744
 20
35.850373204993957
 30
0.0
  0
VERTEX
  5
7276
  8
0
 10
-252.88208117597429
 20
35.821431204993928
 30
0.0
  0
VERTEX
  5
7277
  8
0
 10
-252.7590721759741
 20
35.824091204993991
 30
0.0
  0
VERTEX
  5
7278
  8
0
 10
-252.65214817597399
 20
35.849596204993993
 30
0.0
  0
VERTEX
  5
7279
  8
0
 10
-252.53594317597401
 20
35.90536420499398
 30
0.0
  0
VERTEX
  5
727A
  8
0
 10
-252.42537317597419
 20
35.994854204993942
 30
0.0
  0
VERTEX
  5
727B
  8
0
 10
-252.33714317597421
 20
36.10940320499396
 30
0.0
  0
VERTEX
  5
727C
  8
0
 10
-252.28050917597429
 20
36.229242204993973
 30
0.0
  0
VERTEX
  5
727D
  8
0
 10
-252.25265717597449
 20
36.332899204994021
 30
0.0
  0
VERTEX
  5
727E
  8
0
 10
-252.2410371759741
 20
36.459161204993961
 30
0.0
  0
SEQEND
  5
727F
  8
0
  0
ARC
  5
703A
  8
0
 10
-248.66066017597419
 20
36.45916120499399
 30
0.0
 40
3.999999999999968
 50
90.0
 51
131.4096219995987
  0
ARC
  5
703B
  8
0
 10
-248.66066017597419
 20
36.45916120499399
 30
0.0
 40
3.999999999999968
 50
228.59037799730089
 51
270.0
  0
LINE
  5
703C
  8
0
 10
-241.1498261759742
 20
40.459161204993983
 30
0.0
 11
-248.66066017597419
 21
40.459161204993983
 31
0.0
  0
LINE
  5
703D
  8
0
 10
-248.66066017597419
 20
32.45916120499399
 30
0.0
 11
-241.1498261759742
 21
32.45916120499399
 31
0.0
  0
LINE
  5
703E
  8
0
 10
-244.9123201759742
 20
40.459161204993983
 30
0.0
 11
-244.9123201759742
 21
32.45916120499399
 31
0.0
  0
LINE
  5
703F
  8
0
 10
-252.18809717597401
 20
39.459161204993961
 30
0.0
 11
-248.2883211759746
 21
39.459161204993961
 31
0.0
  0
LINE
  5
7040
  8
0
 10
-252.4344901759743
 20
33.921088204993978
 30
0.0
 11
-252.18809717597401
 21
33.459161204994018
 31
0.0
  0
LINE
  5
7041
  8
0
 10
-252.18809717597401
 20
39.459161204993961
 30
0.0
 11
-252.4344901759743
 21
38.997234204993987
 31
0.0
  0
LINE
  5
7042
  8
0
 10
-247.38747917597431
 20
36.45916120499399
 30
0.0
 11
-246.68811517597419
 21
36.45916120499399
 31
0.0
  0
LINE
  5
7043
  8
0
 10
-248.2883211759746
 20
39.459161204993961
 30
0.0
 11
-246.68811517597419
 21
36.45916120499399
 31
0.0
  0
LINE
  5
7044
  8
0
 10
-248.2883211759746
 20
33.459161204994018
 30
0.0
 11
-252.18809717597401
 21
33.459161204994018
 31
0.0
  0
LINE
  5
7045
  8
0
 10
-246.68811517597419
 20
36.45916120499399
 30
0.0
 11
-248.2883211759746
 21
33.459161204994018
 31
0.0
  0
LINE
  5
7046
  8
0
 10
-252.0670181759742
 20
38.988695204993981
 30
0.0
 11
-251.6485511759746
 21
39.230799204993957
 31
0.0
  0
LINE
  5
7047
  8
0
 10
-252.0670181759742
 20
33.929626204994037
 30
0.0
 11
-251.6485511759746
 21
33.687522204994004
 31
0.0
  0
LINE
  5
7048
  8
0
 10
-251.6485511759746
 20
39.230799204993957
 30
0.0
 11
-251.1286111759745
 21
39.401517204993922
 31
0.0
  0
LINE
  5
7049
  8
0
 10
-251.6485511759746
 20
33.687522204994004
 30
0.0
 11
-251.1286111759745
 21
33.516805204994057
 31
0.0
  0
LINE
  5
704A
  8
0
 10
-251.1286111759745
 20
39.401517204993922
 30
0.0
 11
-250.58789117597411
 21
39.459161204993961
 31
0.0
  0
LINE
  5
704B
  8
0
 10
-251.1286111759745
 20
33.516805204994057
 30
0.0
 11
-250.58789117597411
 21
33.459161204994018
 31
0.0
  0
LINE
  5
704C
  8
0
 10
-250.58789117597411
 20
39.459161204993961
 30
0.0
 11
-250.04717117597431
 21
39.401517204993922
 31
0.0
  0
LINE
  5
704D
  8
0
 10
-250.58789117597411
 20
33.459161204994018
 30
0.0
 11
-250.04717117597431
 21
33.516805204994057
 31
0.0
  0
LINE
  5
704E
  8
0
 10
-250.04717117597431
 20
39.401517204993922
 30
0.0
 11
-249.52723117597421
 21
39.230799204993957
 31
0.0
  0
LINE
  5
704F
  8
0
 10
-250.04717117597431
 20
33.516805204994057
 30
0.0
 11
-249.52723117597421
 21
33.687522204994004
 31
0.0
  0
LINE
  5
7050
  8
0
 10
-249.52723117597421
 20
39.230799204993957
 30
0.0
 11
-249.04805117597451
 21
38.95357020499398
 31
0.0
  0
LINE
  5
7051
  8
0
 10
-249.52723117597421
 20
33.687522204994004
 30
0.0
 11
-249.04805117597451
 21
33.964752204993999
 31
0.0
  0
LINE
  5
7052
  8
0
 10
-249.04805117597451
 20
38.95357020499398
 30
0.0
 11
-248.62804717597419
 21
38.58048120499398
 31
0.0
  0
LINE
  5
7053
  8
0
 10
-249.04805117597451
 20
33.964752204993999
 30
0.0
 11
-248.62804717597419
 21
34.337840204993967
 31
0.0
  0
LINE
  5
7054
  8
0
 10
-248.98768517597421
 20
39.459161204993961
 30
0.0
 11
-247.38747917597431
 21
36.45916120499399
 31
0.0
  0
LINE
  5
7055
  8
0
 10
-247.38747917597431
 20
36.45916120499399
 30
0.0
 11
-248.98768517597421
 21
33.459161204994018
 31
0.0
  0
LINE
  5
7056
  8
0
 10
-248.62804717597419
 20
38.58048120499398
 30
0.0
 11
-248.2833581759742
 21
38.125871204993992
 31
0.0
  0
LINE
  5
7057
  8
0
 10
-248.2833581759742
 20
34.792450204993969
 30
0.0
 11
-248.62804717597419
 21
34.337840204993967
 31
0.0
  0
LINE
  5
7058
  8
0
 10
-248.2833581759742
 20
38.125871204993992
 30
0.0
 11
-248.02723117597421
 21
37.607211204993988
 31
0.0
  0
LINE
  5
7059
  8
0
 10
-248.02723117597421
 20
35.311110204994037
 30
0.0
 11
-248.2833581759742
 21
34.792450204993969
 31
0.0
  0
LINE
  5
705A
  8
0
 10
-248.02723117597421
 20
37.607211204993988
 30
0.0
 11
-247.86950917597451
 21
37.044432204994031
 31
0.0
  0
LINE
  5
705B
  8
0
 10
-247.86950917597451
 20
35.87389020499397
 30
0.0
 11
-248.02723117597421
 21
35.311110204994037
 31
0.0
  0
LINE
  5
705C
  8
0
 10
-247.86950917597451
 20
37.044432204994031
 30
0.0
 11
-247.81625317597431
 21
36.45916120499399
 31
0.0
  0
LINE
  5
705D
  8
0
 10
-247.81625317597431
 20
36.45916120499399
 30
0.0
 11
-247.86950917597451
 21
35.87389020499397
 31
0.0
  0
LINE
  5
705E
  8
0
 10
-253.49178817597419
 20
38.09938820499395
 30
0.0
 11
-253.48881717597419
 21
38.097773204993977
 31
0.0
  0
LINE
  5
705F
  8
0
 10
-253.49178817597419
 20
34.818933204994011
 30
0.0
 11
-253.48881717597419
 21
34.820549204994002
 31
0.0
  0
LINE
  5
7060
  8
0
 10
-254.60449817597419
 20
36.957303204993998
 30
0.0
 11
-254.6498261759742
 21
36.45916120499399
 31
0.0
  0
LINE
  5
7061
  8
0
 10
-254.47025617597421
 20
37.436301204993981
 30
0.0
 11
-254.60449817597419
 21
36.957303204993998
 31
0.0
  0
LINE
  5
7062
  8
0
 10
-254.6498261759742
 20
36.45916120499399
 30
0.0
 11
-254.60449817597419
 21
35.961019204993988
 31
0.0
  0
LINE
  5
7063
  8
0
 10
-254.25225917597399
 20
37.877749204993989
 30
0.0
 11
-254.47025617597421
 21
37.436301204993981
 31
0.0
  0
LINE
  5
7064
  8
0
 10
-254.60449817597419
 20
35.961019204993988
 30
0.0
 11
-254.47025617597421
 21
35.482020204993972
 31
0.0
  0
LINE
  5
7065
  8
0
 10
-253.95888317597399
 20
38.264681204994019
 30
0.0
 11
-254.25225917597399
 21
37.877749204993989
 31
0.0
  0
LINE
  5
7066
  8
0
 10
-254.47025617597421
 20
35.482020204993972
 30
0.0
 11
-254.25225917597399
 21
35.04057320499399
 31
0.0
  0
LINE
  5
7067
  8
0
 10
-253.95888317597399
 20
38.264681204994019
 30
0.0
 11
-253.60140517597421
 21
38.582228204993982
 31
0.0
  0
LINE
  5
7068
  8
0
 10
-254.25225917597399
 20
35.04057320499399
 30
0.0
 11
-253.95888317597399
 21
34.65364120499396
 31
0.0
  0
LINE
  5
7069
  8
0
 10
-254.455795175974
 20
36.808697204993997
 30
0.0
 11
-254.48760117597419
 21
36.45916120499399
 31
0.0
  0
LINE
  5
706A
  8
0
 10
-254.36160017597419
 20
37.144801204994003
 30
0.0
 11
-254.455795175974
 21
36.808697204993997
 31
0.0
  0
LINE
  5
706B
  8
0
 10
-254.48760117597419
 20
36.45916120499399
 30
0.0
 11
-254.455795175974
 21
36.109625204993989
 31
0.0
  0
LINE
  5
706C
  8
0
 10
-254.20863617597419
 20
37.454556204993963
 30
0.0
 11
-254.36160017597419
 21
37.144801204994003
 31
0.0
  0
LINE
  5
706D
  8
0
 10
-254.455795175974
 20
36.109625204993989
 30
0.0
 11
-254.36160017597419
 21
35.773521204993983
 31
0.0
  0
LINE
  5
706E
  8
0
 10
-253.60140517597421
 20
38.582228204993982
 30
0.0
 11
-253.1935601759742
 21
38.818187204993961
 31
0.0
  0
LINE
  5
706F
  8
0
 10
-253.95888317597399
 20
34.65364120499396
 30
0.0
 11
-253.60140517597421
 21
34.336094204993998
 31
0.0
  0
LINE
  5
7070
  8
0
 10
-254.00278017597421
 20
37.72605820499399
 30
0.0
 11
-254.20863617597419
 21
37.454556204993963
 31
0.0
  0
LINE
  5
7071
  8
0
 10
-254.36160017597419
 20
35.773521204993983
 30
0.0
 11
-254.20863617597419
 21
35.463766204994023
 31
0.0
  0
LINE
  5
7072
  8
0
 10
-253.1935601759742
 20
38.818187204993961
 30
0.0
 11
-252.75102317597421
 21
38.96348920499392
 31
0.0
  0
LINE
  5
7073
  8
0
 10
-253.60140517597421
 20
34.336094204993998
 30
0.0
 11
-253.1935601759742
 21
34.10013520499399
 31
0.0
  0
LINE
  5
7074
  8
0
 10
-254.00278017597421
 20
37.72605820499399
 30
0.0
 11
-253.7519451759745
 21
37.948875204993961
 31
0.0
  0
LINE
  5
7075
  8
0
 10
-254.20863617597419
 20
35.463766204994023
 30
0.0
 11
-254.00278017597421
 21
35.192263204994049
 31
0.0
  0
LINE
  5
7076
  8
0
 10
-252.75102317597421
 20
38.96348920499392
 30
0.0
 11
-252.29080017597451
 21
39.012552204993973
 31
0.0
  0
LINE
  5
7077
  8
0
 10
-253.1935601759742
 20
34.10013520499399
 30
0.0
 11
-252.75102317597421
 21
33.954832204993977
 31
0.0
  0
LINE
  5
7078
  8
0
 10
-253.7519451759745
 20
37.948875204993961
 30
0.0
 11
-253.4657681759742
 21
38.114442204993942
 31
0.0
  0
LINE
  5
7079
  8
0
 10
-254.00278017597421
 20
35.192263204994049
 30
0.0
 11
-253.7519451759745
 21
34.969447204994033
 31
0.0
  0
LINE
  5
707A
  8
0
 10
-251.6861411759742
 20
38.936142204993963
 30
0.0
 11
-251.2484371759742
 21
38.792426204993951
 31
0.0
  0
LINE
  5
707B
  8
0
 10
-253.4657681759742
 20
38.114442204993942
 30
0.0
 11
-253.15524917597421
 21
38.216398204993972
 31
0.0
  0
LINE
  5
707C
  8
0
 10
-253.7519451759745
 20
34.969447204994033
 30
0.0
 11
-253.4657681759742
 21
34.803879204994018
 31
0.0
  0
LINE
  5
707D
  8
0
 10
-251.8305771759741
 20
38.96348920499392
 30
0.0
 11
-251.6861411759742
 21
38.936142204993963
 31
0.0
  0
LINE
  5
707E
  8
0
 10
-252.29080017597451
 20
39.012552204993973
 30
0.0
 11
-251.8305771759741
 21
38.96348920499392
 31
0.0
  0
LINE
  5
707F
  8
0
 10
-252.75102317597421
 20
33.954832204993977
 30
0.0
 11
-252.29080017597451
 21
33.90577020499402
 31
0.0
  0
LINE
  5
7080
  8
0
 10
-251.2484371759742
 20
38.792426204993951
 30
0.0
 11
-250.8450461759742
 21
38.559044204993967
 31
0.0
  0
LINE
  5
7081
  8
0
 10
-251.6861411759742
 20
33.98218020499403
 30
0.0
 11
-251.2484371759742
 21
34.125896204994028
 31
0.0
  0
LINE
  5
7082
  8
0
 10
-250.8450461759742
 20
38.559044204993967
 30
0.0
 11
-250.4914711759742
 21
38.244965204993981
 31
0.0
  0
LINE
  5
7083
  8
0
 10
-251.2484371759742
 20
34.125896204994028
 30
0.0
 11
-250.8450461759742
 21
34.35927820499402
 31
0.0
  0
LINE
  5
7084
  8
0
 10
-253.15524917597421
 20
38.216398204993972
 30
0.0
 11
-252.83231917597431
 21
38.250824204993989
 31
0.0
  0
LINE
  5
7085
  8
0
 10
-253.4657681759742
 20
34.803879204994018
 30
0.0
 11
-253.15524917597421
 21
34.701923204993989
 31
0.0
  0
LINE
  5
7086
  8
0
 10
-251.8305771759741
 20
38.96348920499392
 30
0.0
 11
-251.3880401759742
 21
38.818187204993961
 31
0.0
  0
LINE
  5
7087
  8
0
 10
-251.8305771759741
 20
33.954832204993977
 30
0.0
 11
-251.6861411759742
 21
33.98218020499403
 31
0.0
  0
LINE
  5
7088
  8
0
 10
-252.29080017597451
 20
33.90577020499402
 30
0.0
 11
-251.8305771759741
 21
33.954832204993977
 31
0.0
  0
LINE
  5
7089
  8
0
 10
-250.4914711759742
 20
38.244965204993981
 30
0.0
 11
-250.2013001759741
 21
37.862258204993957
 31
0.0
  0
LINE
  5
708A
  8
0
 10
-250.8450461759742
 20
34.35927820499402
 30
0.0
 11
-250.4914711759742
 21
34.673357204993991
 31
0.0
  0
LINE
  5
708B
  8
0
 10
-252.83231917597431
 20
38.250824204993989
 30
0.0
 11
-252.5093901759742
 21
38.216398204993972
 31
0.0
  0
LINE
  5
708C
  8
0
 10
-253.15524917597421
 20
34.701923204993989
 30
0.0
 11
-252.83231917597431
 21
34.667497204994021
 31
0.0
  0
LINE
  5
708D
  8
0
 10
-251.3880401759742
 20
38.818187204993961
 30
0.0
 11
-250.98019617597399
 21
38.582228204993982
 31
0.0
  0
LINE
  5
708E
  8
0
 10
-251.8305771759741
 20
33.954832204993977
 30
0.0
 11
-251.3880401759742
 21
34.10013520499399
 31
0.0
  0
LINE
  5
708F
  8
0
 10
-250.2013001759741
 20
37.862258204993957
 30
0.0
 11
-249.9856831759746
 21
37.425631204993977
 31
0.0
  0
LINE
  5
7090
  8
0
 10
-250.2013001759741
 20
35.056064204994023
 30
0.0
 11
-250.4914711759742
 21
34.673357204993991
 31
0.0
  0
LINE
  5
7091
  8
0
 10
-249.9856831759746
 20
37.425631204993977
 30
0.0
 11
-249.8529071759742
 21
36.951863204993998
 31
0.0
  0
LINE
  5
7092
  8
0
 10
-249.9856831759746
 20
35.49269120499401
 30
0.0
 11
-250.2013001759741
 21
35.056064204994023
 31
0.0
  0
LINE
  5
7093
  8
0
 10
-250.98019617597399
 20
38.582228204993982
 30
0.0
 11
-250.622717175974
 21
38.264681204994019
 31
0.0
  0
LINE
  5
7094
  8
0
 10
-251.3880401759742
 20
34.10013520499399
 30
0.0
 11
-250.98019617597399
 21
34.336094204993998
 31
0.0
  0
LINE
  5
7095
  8
0
 10
-249.8529071759742
 20
36.951863204993998
 30
0.0
 11
-249.80807417597421
 21
36.45916120499399
 31
0.0
  0
LINE
  5
7096
  8
0
 10
-249.8529071759742
 20
35.966459204993981
 30
0.0
 11
-249.9856831759746
 21
35.49269120499401
 31
0.0
  0
LINE
  5
7097
  8
0
 10
-252.5093901759742
 20
38.216398204993972
 30
0.0
 11
-252.1988711759742
 21
38.114442204993942
 31
0.0
  0
LINE
  5
7098
  8
0
 10
-252.83231917597431
 20
34.667497204994021
 30
0.0
 11
-252.5093901759742
 21
34.701923204993989
 31
0.0
  0
LINE
  5
7099
  8
0
 10
-249.80807417597421
 20
36.45916120499399
 30
0.0
 11
-249.8529071759742
 21
35.966459204993981
 31
0.0
  0
LINE
  5
709A
  8
0
 10
-250.622717175974
 20
38.264681204994019
 30
0.0
 11
-250.32934217597449
 21
37.877749204993989
 31
0.0
  0
LINE
  5
709B
  8
0
 10
-250.98019617597399
 20
34.336094204993998
 30
0.0
 11
-250.622717175974
 21
34.65364120499396
 31
0.0
  0
LINE
  5
709C
  8
0
 10
-252.1988711759742
 20
38.114442204993942
 30
0.0
 11
-251.91269417597451
 21
37.948875204993961
 31
0.0
  0
LINE
  5
709D
  8
0
 10
-252.5093901759742
 20
34.701923204993989
 30
0.0
 11
-252.1988711759742
 21
34.803879204994018
 31
0.0
  0
LINE
  5
709E
  8
0
 10
-250.32934217597449
 20
37.877749204993989
 30
0.0
 11
-250.11134517597421
 21
37.436301204993981
 31
0.0
  0
LINE
  5
709F
  8
0
 10
-250.32934217597449
 20
35.04057320499399
 30
0.0
 11
-250.622717175974
 21
34.65364120499396
 31
0.0
  0
LINE
  5
70A0
  8
0
 10
-250.11134517597421
 20
37.436301204993981
 30
0.0
 11
-249.9771021759741
 21
36.957303204993998
 31
0.0
  0
LINE
  5
70A1
  8
0
 10
-250.11134517597421
 20
35.482020204993972
 30
0.0
 11
-250.32934217597449
 21
35.04057320499399
 31
0.0
  0
LINE
  5
70A2
  8
0
 10
-251.91269417597451
 20
37.948875204993961
 30
0.0
 11
-251.66185917597431
 21
37.72605820499399
 31
0.0
  0
LINE
  5
70A3
  8
0
 10
-252.1988711759742
 20
34.803879204994018
 30
0.0
 11
-251.91269417597451
 21
34.969447204994033
 31
0.0
  0
LINE
  5
70A4
  8
0
 10
-249.9771021759741
 20
36.957303204993998
 30
0.0
 11
-249.9317741759742
 21
36.45916120499399
 31
0.0
  0
LINE
  5
70A5
  8
0
 10
-249.9771021759741
 20
35.961019204993988
 30
0.0
 11
-250.11134517597421
 21
35.482020204993972
 31
0.0
  0
LINE
  5
70A6
  8
0
 10
-249.9317741759742
 20
36.45916120499399
 30
0.0
 11
-249.9771021759741
 21
35.961019204993988
 31
0.0
  0
LINE
  5
70A7
  8
0
 10
-251.66185917597431
 20
37.72605820499399
 30
0.0
 11
-251.45600317597419
 21
37.454556204993963
 31
0.0
  0
LINE
  5
70A8
  8
0
 10
-251.91269417597451
 20
34.969447204994033
 30
0.0
 11
-251.66185917597431
 21
35.192263204994049
 31
0.0
  0
LINE
  5
70A9
  8
0
 10
-251.45600317597419
 20
37.454556204993963
 30
0.0
 11
-251.30303917597411
 21
37.144801204994003
 31
0.0
  0
LINE
  5
70AA
  8
0
 10
-251.45600317597419
 20
35.463766204994023
 30
0.0
 11
-251.66185917597431
 21
35.192263204994049
 31
0.0
  0
LINE
  5
70AB
  8
0
 10
-251.30303917597411
 20
37.144801204994003
 30
0.0
 11
-251.20884417597449
 21
36.808697204993997
 31
0.0
  0
LINE
  5
70AC
  8
0
 10
-251.30303917597411
 20
35.773521204993983
 30
0.0
 11
-251.45600317597419
 21
35.463766204994023
 31
0.0
  0
LINE
  5
70AD
  8
0
 10
-251.20884417597449
 20
36.808697204993997
 30
0.0
 11
-251.17703817597419
 21
36.45916120499399
 31
0.0
  0
LINE
  5
70AE
  8
0
 10
-251.20884417597449
 20
36.109625204993989
 30
0.0
 11
-251.30303917597411
 21
35.773521204993983
 31
0.0
  0
LINE
  5
70AF
  8
0
 10
-251.17703817597419
 20
36.45916120499399
 30
0.0
 11
-251.20884417597449
 21
36.109625204993989
 31
0.0
  0
POINT
  5
70B0
  8
0
 10
-254.6498261759742
 20
36.45916120499399
 30
0.0
1001
PNTFLAG
1000
endpoint
  0
LINE
  5
70B1
  8
0
 10
-241.1498261759742
 20
153.3669800848034
 30
0.0
 11
-228.94982617597421
 21
153.36689743518349
 31
0.0
  0
LINE
  5
70B2
  8
0
 10
-228.94982617597421
 20
95.366897433852628
 30
0.0
 11
-241.1498261759744
 21
95.366980083472626
 31
0.0
  0
LINE
  5
70B3
  8
0
 10
-239.44982617597421
 20
153.36696856805321
 30
0.0
 11
-239.44982617597421
 21
95.366968566722335
 31
0.0
  0
LINE
  5
70B4
  8
0
 10
-241.1498261759742
 20
153.3669800848034
 30
0.0
 11
-241.1498261759744
 21
95.366980083472626
 31
0.0
  0
ARC
  5
70B5
  8
0
 10
-240.81430235648011
 20
101.5473825904235
 30
0.0
 40
1.220011576012179
 50
105.9630221688287
 51
179.0723572120024
  0
ARC
  5
70B6
  8
0
 10
-240.81430235648031
 20
99.586885866457607
 30
0.0
 40
1.220011576012179
 50
180.9276427879976
 51
254.03697783117121
  0
ARC
  5
70B7
  8
0
 10
-240.81430235648011
 20
99.586885866457706
 30
0.0
 40
1.220011576012179
 50
180.9276427879976
 51
254.03697783117121
  0
LINE
  5
70B8
  8
0
 10
-242.0341540353327
 20
101.56713422844039
 30
0.0
 11
-242.0341540353327
 21
99.567134228440466
 31
0.0
  0
LINE
  5
70B9
  8
0
 10
-242.03415403533259
 20
101.56713422844059
 30
0.0
 11
-242.03415403533259
 21
99.567134228440693
 31
0.0
  0
LINE
  5
70BA
  8
0
 10
-290.72814819706952
 20
110.3671342278943
 30
0.0
 11
-241.1498261759742
 21
110.3671342278943
 31
0.0
  0
LINE
  5
70BB
  8
0
 10
-290.72814819706952
 20
138.3671342278943
 30
0.0
 11
-241.1498261759742
 21
138.3671342278941
 31
0.0
  0
LINE
  5
70BC
  8
0
 10
-290.72814819706952
 20
138.3671342278943
 30
0.0
 11
-290.72814819706952
 21
110.3671342278943
 31
0.0
  0
LINE
  5
70BD
  8
¤¤¤ß˝u
 10
-270.72814819706917
 20
112.48091394407579
 30
0.0
 11
-270.72814819706917
 21
136.34250295356961
 31
0.0
  0
LINE
  5
70BE
  8
¤¤¤ß˝u
 10
-260.07648488162317
 20
124.32737023931109
 30
0.0
 11
-281.4806538059911
 21
124.32737023931109
 31
0.0
  0
CIRCLE
  5
70BF
  8
0
 10
-270.72814819706917
 20
124.32737023931109
 30
0.0
 40
7.000000000000381
  0
CIRCLE
  5
70C0
  8
0
 10
-270.72814819706917
 20
124.32737023931109
 30
0.0
 40
4.5000000000003668
  0
LINE
  5
70C1
  8
0
  6
CONTINUOUS
 10
-248.56511378952271
 20
118.9771302378084
 30
0.0
 11
-247.9930365210071
 21
120.35824693818429
 31
0.0
  0
ARC
  5
70C2
  8
0
  6
CONTINUOUS
 10
-247.65933072336779
 20
118.5344253507204
 30
0.0
 40
1.8541337299152461
 50
34.632779998936293
 51
100.3672200010636
  0
ARC
  5
70C3
  8
0
  6
CONTINUOUS
 10
-242.7933101989284
 20
120.91697998454509
 30
0.0
 40
2.119009977045994
 50
147.13277999893791
 51
212.86722000106201
  0
ARC
  5
70C4
  8
0
  6
CONTINUOUS
 10
-255.41654630211801
 20
119.6079884571481
 30
0.0
 40
2.0596736098176041
 50
335.84790116505968
 51
45.847901165061963
  0
LINE
  5
70C5
  8
0
  6
CONTINUOUS
 10
-253.326980643306
 20
120.6282563035404
 30
0.0
 11
-247.7490578047485
 21
118.31780501393931
 31
0.0
  0
ARC
  5
70C6
  8
0
  6
CONTINUOUS
 10
-247.8701398643673
 20
125.9138611916061
 30
0.0
 40
6.9715047321794721
 50
230.72134999791211
 51
264.27865000208948
  0
LINE
  5
70C7
  8
0
  6
CONTINUOUS
 10
-254.9123201759742
 20
117.0618333974754
 30
0.0
 11
-249.14989529217351
 21
114.6749588584489
 31
0.0
  0
LINE
  5
70C8
  8
0
  6
CONTINUOUS
 10
-253.35239545088299
 20
118.6887150406756
 30
0.0
 11
-249.10254960133111
 21
116.92837125179619
 31
0.0
  0
LINE
  5
70C9
  8
0
  6
CONTINUOUS
 10
-251.2938401977066
 20
112.5310139529156
 30
0.0
 11
-249.14989529217351
 21
114.6749588584489
 31
0.0
  0
LINE
  5
70CA
  8
0
  6
CONTINUOUS
 10
-254.9123201759742
 20
114.0298374350895
 30
0.0
 11
-251.2938401977066
 21
112.5310139529156
 31
0.0
  0
LINE
  5
70CB
  8
0
  6
CONTINUOUS
 10
-254.9123201759742
 20
114.0298374350895
 30
0.0
 11
-254.9123201759742
 21
117.0618333974754
 31
0.0
  0
ARC
  5
70CC
  8
0
  6
CONTINUOUS
 10
-252.16853794973389
 20
116.2535910982526
 30
0.0
 40
2.860349020536761
 50
118.5864858262624
 51
163.5864858262627
  0
ARC
  5
70CD
  8
0
  6
CONTINUOUS
 10
-246.9929500704786
 20
116.11882065404831
 30
0.0
 40
2.0596736098176041
 50
89.152098834939196
 51
159.15209883493969
  0
ARC
  5
70CE
  8
0
  6
CONTINUOUS
 10
-251.66155592106921
 20
116.0435922661005
 30
0.0
 40
2.860349020536761
 50
331.41351417373608
 51
16.413514173737251
  0
ARC
  5
70CF
  8
0
  6
CONTINUOUS
 10
-247.0395115449206
 20
120.0308012175467
 30
0.0
 40
1.8541337299152461
 50
214.63277999893629
 51
280.36722000106357
  0
LINE
  5
70D0
  8
0
  6
CONTINUOUS
 10
-246.7058483213695
 20
118.20693698420629
 30
0.0
 11
-246.13372842800359
 21
119.5881565900734
 31
0.0
  0
LINE
  5
70D1
  8
0
  6
CONTINUOUS
 10
-244.57306763386509
 20
119.7669800841381
 30
0.0
 11
-241.1498261759742
 21
119.7669800841381
 31
0.0
  0
LINE
  5
70D2
  8
0
  6
CONTINUOUS
 10
-252.5277073020977
 20
122.5578728439291
 30
0.0
 11
-246.94978446354031
 21
120.2474215543279
 31
0.0
  0
ARC
  5
70D3
  8
0
  6
CONTINUOUS
 10
-252.40662524247881
 20
114.96181666626229
 30
0.0
 40
6.9715047321794721
 50
50.721349997912178
 51
84.278650002086209
  0
ARC
  5
70D4
  8
0
  6
CONTINUOUS
 10
-248.51087899845911
 20
124.36698008413801
 30
0.0
 40
4.0
 50
90.0
 51
210.83520489408559
  0
ARC
  5
70D5
  8
0
  6
CONTINUOUS
 10
-253.2372535619256
 20
120.8448766403215
 30
0.0
 40
1.8541337299152461
 50
34.632779998936293
 51
100.3672200010636
  0
LINE
  5
70D6
  8
0
  6
CONTINUOUS
 10
-254.14303630603911
 20
121.2875813940158
 30
0.0
 11
-253.57095903752301
 21
122.6686980943916
 31
0.0
  0
ARC
  5
70D7
  8
0
  6
CONTINUOUS
 10
-252.61743438347861
 20
122.3412525071479
 30
0.0
 40
1.8541337299152461
 50
214.63277999893629
 51
280.36722000106357
  0
LINE
  5
70D8
  8
0
  6
CONTINUOUS
 10
-252.2837285858391
 20
120.517430919684
 30
0.0
 11
-251.71165131732349
 21
121.8985476200598
 31
0.0
  0
ARC
  5
70D9
  8
0
  6
CONTINUOUS
 10
-236.9448861963406
 20
124.36698008413801
 30
0.0
 40
7.9674339796336771
 50
163.2213499979128
 51
196.77865000208709
  0
LINE
  5
70DA
  8
0
  6
CONTINUOUS
 10
-244.9123201759742
 20
120.91697998454509
 30
0.0
 11
-244.9123201759742
 21
127.81698018373091
 31
0.0
  0
LINE
  5
70DB
  8
0
  6
CONTINUOUS
 10
-247.3772756978185
 20
120.36698008413801
 30
0.0
 11
-244.83969808795931
 21
120.36698008413801
 31
0.0
  0
LINE
  5
70DC
  8
0
  6
CONTINUOUS
 10
-244.57306763386509
 20
122.0669802833238
 30
0.0
 11
-241.1498261759742
 21
122.0669802833238
 31
0.0
  0
LINE
  5
70DD
  8
0
  6
CONTINUOUS
 10
-248.51087899845911
 20
128.36698008413799
 30
0.0
 11
-244.83969808795931
 21
128.36698008413799
 31
0.0
  0
ARC
  5
70DE
  8
0
  6
CONTINUOUS
 10
-242.7933101989284
 20
127.81698018373091
 30
0.0
 40
2.119009977045994
 50
147.13277999893791
 51
212.86722000106201
  0
LINE
  5
70DF
  8
0
  6
CONTINUOUS
 10
-244.57306763386509
 20
126.6669798849521
 30
0.0
 11
-241.1498261759742
 21
126.6669798849521
 31
0.0
  0
LINE
  5
70E0
  8
0
  6
CONTINUOUS
 10
-244.57306763386509
 20
128.96698008413799
 30
0.0
 11
-241.1498261759742
 21
128.96698008413799
 31
0.0
  0
LINE
  5
70E1
  8
0
 10
-242.0341540353327
 20
149.16713422734799
 30
0.0
 11
-242.0341540353327
 21
147.1671342273481
 31
0.0
  0
LINE
  5
70E2
  8
0
 10
-242.03415403533259
 20
149.1671342273481
 30
0.0
 11
-242.03415403533259
 21
147.1671342273481
 31
0.0
  0
ARC
  5
70E3
  8
0
 10
-240.81430235648031
 20
147.18688586536521
 30
0.0
 40
1.220011576012179
 50
180.9276427879976
 51
254.03697783117121
  0
ARC
  5
70E4
  8
0
 10
-240.81430235648011
 20
147.18688586536521
 30
0.0
 40
1.220011576012179
 50
180.9276427879976
 51
254.03697783117121
  0
ARC
  5
70E5
  8
0
 10
-240.81430235648011
 20
149.14738258933099
 30
0.0
 40
1.220011576012179
 50
105.9630221688287
 51
179.0723572120024
  0
LINE
  5
70E6
  8
0
 10
-146.74982617597419
 20
153.3669800848034
 30
0.0
 11
-146.74982617597419
 21
95.366980083472626
 31
0.0
  0
LINE
  5
70E7
  8
0
 10
-148.44982617597421
 20
153.36696856805321
 30
0.0
 11
-148.44982617597421
 21
95.366968566722335
 31
0.0
  0
LINE
  5
70E8
  8
AM7
 10
-193.94982617597421
 20
78.26689743451827
 30
0.0
 11
-193.94982617597421
 21
170.46689743451819
 31
0.0
  0
LINE
  5
70E9
  8
0
 10
-158.9498261759741
 20
169.36689743451819
 30
0.0
 11
-158.9498261759741
 21
79.366897434518108
 31
0.0
  0
LINE
  5
70EA
  8
0
 10
-228.94982617597421
 20
169.36689743451819
 30
0.0
 11
-228.94982617597421
 21
79.366897434518108
 31
0.0
  0
ARC
  5
70EB
  8
0
 10
-147.08534999546859
 20
99.586885866457706
 30
0.0
 40
1.220011576012179
 50
285.96302216882867
 51
359.07235721200237
  0
ARC
  5
70EC
  8
0
 10
-147.08534999546791
 20
99.586885866457607
 30
0.0
 40
1.220011576012179
 50
285.96302216882867
 51
359.07235721200237
  0
ARC
  5
70ED
  8
0
 10
-147.08534999546859
 20
101.5473825904235
 30
0.0
 40
1.220011576012179
 50
0.927642787997596
 51
74.036977831171271
  0
LINE
  5
70EE
  8
0
 10
-158.9498261759741
 20
79.366897434518108
 30
0.0
 11
-228.94982617597421
 21
79.366897434518108
 31
0.0
  0
LINE
  5
70EF
  8
0
 10
-228.94982617597421
 20
80.866897434518336
 30
0.0
 11
-158.9498261759741
 21
80.866897434518336
 31
0.0
  0
LINE
  5
70F0
  8
0
 10
-228.94982617597421
 20
97.866897434518094
 30
0.0
 11
-158.9498261759741
 21
97.866897434518094
 31
0.0
  0
LINE
  5
70F1
  8
0
 10
-228.94982617597421
 20
97.366897434518123
 30
0.0
 11
-158.9498261759741
 21
97.366897434518123
 31
0.0
  0
LINE
  5
70F2
  8
0
 10
-158.9498261759741
 20
95.366897433852628
 30
0.0
 11
-146.74982617597419
 21
95.366980083472626
 31
0.0
  0
LINE
  5
70F3
  8
0
 10
-145.86549831661549
 20
101.56713422844059
 30
0.0
 11
-145.86549831661549
 21
99.567134228440693
 31
0.0
  0
LINE
  5
70F4
  8
0
 10
-145.86549831661549
 20
101.56713422844039
 30
0.0
 11
-145.86549831661549
 21
99.567134228440466
 31
0.0
  0
ARC
  5
70F5
  8
0
 10
-147.08534999546859
 20
147.18688586536521
 30
0.0
 40
1.220011576012179
 50
285.96302216882867
 51
359.07235721200237
  0
ARC
  5
70F6
  8
0
 10
-147.08534999546791
 20
147.18688586536521
 30
0.0
 40
1.220011576012179
 50
285.96302216882867
 51
359.07235721200237
  0
ARC
  5
70F7
  8
0
 10
-147.08534999546859
 20
149.14738258933099
 30
0.0
 40
1.220011576012179
 50
0.927642787997596
 51
74.036977831171271
  0
LINE
  5
70F8
  8
0
 10
-90.728148197069686
 20
138.36713422789489
 30
0.0
 11
-146.74982617597419
 21
138.3671342278947
 31
0.0
  0
LINE
  5
70F9
  8
0
 10
-90.728148197070141
 20
110.36713422789489
 30
0.0
 11
-146.74982617597419
 21
110.3671342278945
 31
0.0
  0
LINE
  5
70FA
  8
AM7
 10
-219.94982617597421
 20
166.2468974345181
 30
0.0
 11
-219.94982617597421
 21
154.486897434518
 31
0.0
  0
LINE
  5
70FB
  8
AM7
 10
-167.94982617597421
 20
166.2468974345181
 30
0.0
 11
-167.94982617597421
 21
154.486897434518
 31
0.0
  0
LINE
  5
70FC
  8
0
 10
-228.94982617597421
 20
151.36689743451819
 30
0.0
 11
-158.9498261759741
 21
151.36689743451819
 31
0.0
  0
LINE
  5
70FD
  8
0
 10
-228.94982617597421
 20
150.86689743451799
 30
0.0
 11
-158.9498261759741
 21
150.86689743451799
 31
0.0
  0
LINE
  5
70FE
  8
0
 10
-228.94982617597421
 20
131.36689743451811
 30
0.0
 11
-158.9498261759741
 21
131.36689743451811
 31
0.0
  0
LINE
  5
70FF
  8
0
 10
-228.94982617597421
 20
131.86689743451799
 30
0.0
 11
-158.9498261759741
 21
131.86689743451799
 31
0.0
  0
LINE
  5
7100
  8
0
 10
-228.94982617597421
 20
116.86689743451809
 30
0.0
 11
-158.9498261759741
 21
116.86689743451809
 31
0.0
  0
LINE
  5
7101
  8
0
 10
-228.94982617597421
 20
117.36689743451799
 30
0.0
 11
-158.9498261759741
 21
117.36689743451799
 31
0.0
  0
LINE
  5
7102
  8
0
 10
-146.74982617597419
 20
153.3669800848034
 30
0.0
 11
-158.9498261759741
 21
153.36689743518349
 31
0.0
  0
LINE
  5
7103
  8
0
 10
-158.9498261759741
 20
169.36689743451819
 30
0.0
 11
-228.94982617597421
 21
169.36689743451819
 31
0.0
  0
LINE
  5
7104
  8
0
 10
-228.94982617597421
 20
167.86689743451819
 30
0.0
 11
-158.9498261759741
 21
167.86689743451819
 31
0.0
  0
LINE
  5
7105
  8
AM7
 10
-225.8298261759742
 20
160.36689743451799
 30
0.0
 11
-214.06982617597421
 21
160.36689743451799
 31
0.0
  0
LINE
  5
7106
  8
AM7
 10
-162.06982617597421
 20
160.36689743451799
 30
0.0
 11
-173.8298261759742
 21
160.36689743451799
 31
0.0
  0
LINE
  5
7107
  8
¤¤¤ß˝u
 10
-110.7281481970694
 20
112.48091394407579
 30
0.0
 11
-110.7281481970694
 21
136.34250295356961
 31
0.0
  0
CIRCLE
  5
7108
  8
0
 10
-110.7281481970694
 20
124.32737023931109
 30
0.0
 40
4.5000000000003668
  0
CIRCLE
  5
7109
  8
0
 10
-110.7281481970694
 20
124.32737023931109
 30
0.0
 40
7.000000000000381
  0
LINE
  5
710A
  8
¤¤¤ß˝u
 10
-100.0764848816239
 20
124.32737023931109
 30
0.0
 11
-121.48065380599159
 21
124.32737023931109
 31
0.0
  0
LINE
  5
710B
  8
0
 10
-145.86549831661549
 20
149.1671342273481
 30
0.0
 11
-145.86549831661549
 21
147.1671342273481
 31
0.0
  0
LINE
  5
710C
  8
0
 10
-145.86549831661549
 20
149.16713422734799
 30
0.0
 11
-145.86549831661549
 21
147.1671342273481
 31
0.0
  0
LINE
  5
710D
  8
0
 10
-90.728148197069686
 20
138.36713422789489
 30
0.0
 11
-90.728148197070141
 21
110.36713422789489
 31
0.0
  0
ENDSEC
  0
EOF
