  0
SECTION
  2
HEADER
  9
$ACADVER
  1
AC1014
  9
$ACADMAINTVER
 70
     9
  9
$DWGCODEPAGE
  3
ANSI_1252
  9
$INSBASE
 10
0.0
 20
0.0
 30
0.0
  9
$EXTMIN
 10
41.42039087257479
 20
62.88369875768921
 30
-0.0000000000000142
  9
$EXTMAX
 10
448.7974506276247
 20
99.52781060853205
 30
0.0
  9
$LIMMIN
 10
0.0
 20
0.0
  9
$LIMMAX
 10
420.0
 20
297.0
  9
$ORTHOMODE
 70
     0
  9
$REGENMODE
 70
     1
  9
$FILLMODE
 70
     1
  9
$QTEXTMODE
 70
     0
  9
$MIRRTEXT
 70
     0
  9
$DRAGMODE
 70
     2
  9
$LTSCALE
 40
0.9
  9
$OSMODE
 70
    37
  9
$ATTMODE
 70
     1
  9
$TEXTSIZE
 40
2.5
  9
$TRACEWID
 40
1.0
  9
$TEXTSTYLE
  7
\M+2ABAC\M+2A6A12
  9
$CLAYER
  8
0
  9
$CELTYPE
  6
BYLAYER
  9
$CECOLOR
 62
   256
  9
$CELTSCALE
 40
1.0
  9
$DELOBJ
 70
     1
  9
$DISPSILH
 70
     0
  9
$DIMSCALE
 40
1.0
  9
$DIMASZ
 40
1.0
  9
$DIMEXO
 40
0.7
  9
$DIMDLI
 40
3.75
  9
$DIMRND
 40
0.0
  9
$DIMDLE
 40
0.0
  9
$DIMEXE
 40
0.3
  9
$DIMTP
 40
0.0
  9
$DIMTM
 40
0.0
  9
$DIMTXT
 40
1.199999999999999
  9
$DIMCEN
 40
2.5
  9
$DIMTSZ
 40
0.0
  9
$DIMTOL
 70
     0
  9
$DIMLIM
 70
     0
  9
$DIMTIH
 70
     0
  9
$DIMTOH
 70
     0
  9
$DIMSE1
 70
     0
  9
$DIMSE2
 70
     0
  9
$DIMTAD
 70
     1
  9
$DIMZIN
 70
     8
  9
$DIMBLK
  1

  9
$DIMASO
 70
     1
  9
$DIMSHO
 70
     1
  9
$DIMPOST
  1

  9
$DIMAPOST
  1

  9
$DIMALT
 70
     0
  9
$DIMALTD
 70
     3
  9
$DIMALTF
 40
0.03937007874016
  9
$DIMLFAC
 40
1.0
  9
$DIMTOFL
 70
     1
  9
$DIMTVP
 40
0.0
  9
$DIMTIX
 70
     0
  9
$DIMSOXD
 70
     0
  9
$DIMSAH
 70
     0
  9
$DIMBLK1
  1

  9
$DIMBLK2
  1

  9
$DIMSTYLE
  2
ISO-25
  9
$DIMCLRD
 70
     3
  9
$DIMCLRE
 70
     3
  9
$DIMCLRT
 70
     2
  9
$DIMTFAC
 40
1.0
  9
$DIMGAP
 40
0.5
  9
$DIMJUST
 70
     0
  9
$DIMSD1
 70
     0
  9
$DIMSD2
 70
     0
  9
$DIMTOLJ
 70
     0
  9
$DIMTZIN
 70
     8
  9
$DIMALTZ
 70
     0
  9
$DIMALTTZ
 70
     0
  9
$DIMFIT
 70
     3
  9
$DIMUPT
 70
     0
  9
$DIMUNIT
 70
     2
  9
$DIMDEC
 70
     2
  9
$DIMTDEC
 70
     2
  9
$DIMALTU
 70
     2
  9
$DIMALTTD
 70
     3
  9
$DIMTXSTY
  7
STANDARD
  9
$DIMAUNIT
 70
     0
  9
$LUNITS
 70
     2
  9
$LUPREC
 70
     4
  9
$SKETCHINC
 40
1.0
  9
$FILLETRAD
 40
0.0
  9
$AUNITS
 70
     0
  9
$AUPREC
 70
     0
  9
$MENU
  1
.
  9
$ELEVATION
 40
0.0
  9
$PELEVATION
 40
0.0
  9
$THICKNESS
 40
0.0
  9
$LIMCHECK
 70
     0
  9
$BLIPMODE
 70
     0
  9
$CHAMFERA
 40
0.0
  9
$CHAMFERB
 40
0.0
  9
$CHAMFERC
 40
20.0
  9
$CHAMFERD
 40
0.0
  9
$SKPOLY
 70
     0
  9
$TDCREATE
 40
2452648.158040394
  9
$TDUPDATE
 40
2453060.474715544
  9
$TDINDWG
 40
1.2754661227
  9
$TDUSRTIMER
 40
1.2754660069
  9
$USRTIMER
 70
     1
  9
$ANGBASE
 50
0.0
  9
$ANGDIR
 70
     0
  9
$PDMODE
 70
     0
  9
$PDSIZE
 40
0.0
  9
$PLINEWID
 40
0.0
  9
$COORDS
 70
     0
  9
$SPLFRAME
 70
     0
  9
$SPLINETYPE
 70
     6
  9
$SPLINESEGS
 70
    30
  9
$ATTDIA
 70
     0
  9
$ATTREQ
 70
     1
  9
$HANDLING
 70
-16383
  9
$HANDSEED
  5
2AF3B
  9
$SURFTAB1
 70
     6
  9
$SURFTAB2
 70
     6
  9
$SURFTYPE
 70
     6
  9
$SURFU
 70
     6
  9
$SURFV
 70
     6
  9
$UCSNAME
  2

  9
$UCSORG
 10
0.0
 20
0.0
 30
0.0
  9
$UCSXDIR
 10
1.0
 20
0.0
 30
0.0
  9
$UCSYDIR
 10
0.0
 20
1.0
 30
0.0
  9
$PUCSNAME
  2

  9
$PUCSORG
 10
0.0
 20
0.0
 30
0.0
  9
$PUCSXDIR
 10
1.0
 20
0.0
 30
0.0
  9
$PUCSYDIR
 10
0.0
 20
1.0
 30
0.0
  9
$USERI1
 70
     0
  9
$USERI2
 70
     0
  9
$USERI3
 70
     0
  9
$USERI4
 70
     0
  9
$USERI5
 70
     0
  9
$USERR1
 40
0.0
  9
$USERR2
 40
0.0
  9
$USERR3
 40
0.0
  9
$USERR4
 40
0.0
  9
$USERR5
 40
0.0
  9
$WORLDVIEW
 70
     1
  9
$SHADEDGE
 70
     3
  9
$SHADEDIF
 70
    70
  9
$TILEMODE
 70
     1
  9
$MAXACTVP
 70
    48
  9
$PINSBASE
 10
0.0
 20
0.0
 30
0.0
  9
$PLIMCHECK
 70
     0
  9
$PEXTMIN
 10
1.000000000000000E+20
 20
1.000000000000000E+20
 30
1.000000000000000E+20
  9
$PEXTMAX
 10
-1.000000000000000E+20
 20
-1.000000000000000E+20
 30
-1.000000000000000E+20
  9
$PLIMMIN
 10
0.0
 20
0.0
  9
$PLIMMAX
 10
420.0
 20
297.0
  9
$UNITMODE
 70
     0
  9
$VISRETAIN
 70
     1
  9
$PLINEGEN
 70
     0
  9
$PSLTSCALE
 70
     1
  9
$TREEDEPTH
 70
  3020
  9
$PICKSTYLE
 70
     1
  9
$CMLSTYLE
  2
STANDARD
  9
$CMLJUST
 70
     0
  9
$CMLSCALE
 40
20.0
  9
$PROXYGRAPHICS
 70
     1
  9
$MEASUREMENT
 70
     0
  0
ENDSEC
  0
SECTION
  2
CLASSES
  0
CLASS
  1
ACDBDICTIONARYWDFLT
  2
AcDbDictionaryWithDefault
  3
AutoCAD 2000
 90
        0
280
     0
281
     0
  0
CLASS
  1
ACDBPLACEHOLDER
  2
AcDbPlaceHolder
  3
AutoCAD 2000
 90
        0
280
     0
281
     0
  0
CLASS
  1
LAYOUT
  2
AcDbLayout
  3
AutoCAD 2000
 90
        0
280
     0
281
     0
  0
CLASS
  1
DICTIONARYVAR
  2
AcDbDictionaryVar
  3
AutoCAD 2000
 90
        0
280
     0
281
     0
  0
CLASS
  1
PLOTSETTINGS
  2
AcDbPlotSettings
  3
AutoCAD 2000
 90
        0
280
     0
281
     0
  0
CLASS
  1
LONG_TRANSACTION
  2
AcDbLongTransaction
  3
AutoCAD 2000
 90
        0
280
     0
281
     0
  0
CLASS
  1
LWPOLYLINE
  2
AcDbPolyline
  3
AutoCAD 2000
 90
        0
280
     0
281
     1
  0
CLASS
  1
HATCH
  2
AcDbHatch
  3
AutoCAD 2000
 90
        0
280
     0
281
     1
  0
CLASS
  1
XRECORD
  2
AcDbXrecord
  3
AutoCAD 2000
 90
        0
280
     0
281
     0
  0
CLASS
  1
LONG_TRANSACTION
  2
AcDbLongTransaction
  3
AutoCAD 2000
 90
        0
280
     0
281
     0
  0
CLASS
  1
LWPOLYLINE
  2
AcDbPolyline
  3
AutoCAD 2000
 90
        0
280
     0
281
     1
  0
CLASS
  1
HATCH
  2
AcDbHatch
  3
AutoCAD 2000
 90
        0
280
     0
281
     1
  0
CLASS
  1
XRECORD
  2
AcDbXrecord
  3
AutoCAD 2000
 90
        0
280
     0
281
     0
  0
CLASS
  1
LONG_TRANSACTION
  2
AcDbLongTransaction
  3
AutoCAD 2000
 90
        0
280
     0
281
     0
  0
CLASS
  1
LWPOLYLINE
  2
AcDbPolyline
  3
AutoCAD 2000
 90
        0
280
     0
281
     1
  0
CLASS
  1
HATCH
  2
AcDbHatch
  3
AutoCAD 2000
 90
        0
280
     0
281
     1
  0
CLASS
  1
XRECORD
  2
AcDbXrecord
  3
AutoCAD 2000
 90
        0
280
     0
281
     0
  0
CLASS
  1
LONG_TRANSACTION
  2
AcDbLongTransaction
  3
AutoCAD 2000
 90
        0
280
     0
281
     0
  0
CLASS
  1
LWPOLYLINE
  2
AcDbPolyline
  3
AutoCAD 2000
 90
        0
280
     0
281
     1
  0
CLASS
  1
HATCH
  2
AcDbHatch
  3
AutoCAD 2000
 90
        0
280
     0
281
     1
  0
CLASS
  1
XRECORD
  2
AcDbXrecord
  3
AutoCAD 2000
 90
        0
280
     0
281
     0
  0
CLASS
  1
LONG_TRANSACTION
  2
AcDbLongTransaction
  3
AutoCAD 2000
 90
        0
280
     0
281
     0
  0
CLASS
  1
LWPOLYLINE
  2
AcDbPolyline
  3
AutoCAD 2000
 90
        0
280
     0
281
     1
  0
CLASS
  1
HATCH
  2
AcDbHatch
  3
AutoCAD 2000
 90
        0
280
     0
281
     1
  0
CLASS
  1
XRECORD
  2
AcDbXrecord
  3
AutoCAD 2000
 90
        0
280
     0
281
     0
  0
ENDSEC
  0
SECTION
  2
TABLES
  0
TABLE
  2
VPORT
  5
8
330
0
100
AcDbSymbolTable
 70
     2
  0
VPORT
  5
2AF18
330
8
100
AcDbSymbolTableRecord
100
AcDbViewportTableRecord
  2
*ACTIVE
 70
     0
 10
0.0
 20
0.0
 11
1.0
 21
1.0
 12
245.1139146584383
 22
81.20187439245855
 13
0.0
 23
0.0
 14
10.0
 24
10.0
 15
10.0
 25
10.0
 16
0.0
 26
0.0
 36
1.0
 17
0.0
 27
0.0
 37
0.0
 40
239.0666494514168
 41
1.714285714285714
 42
50.0
 43
0.0
 44
0.0
 50
0.0
 51
0.0
 71
     0
 72
 20000
 73
     1
 74
     0
 75
     0
 76
     0
 77
     0
 78
     1
  0
ENDTAB
  0
TABLE
  2
LTYPE
  5
5
330
0
100
AcDbSymbolTable
 70
     3
  0
LTYPE
  5
14
330
5
100
AcDbSymbolTableRecord
100
AcDbLinetypeTableRecord
  2
BYBLOCK
 70
     0
  3

 72
    65
 73
     0
 40
0.0
  0
LTYPE
  5
15
330
5
100
AcDbSymbolTableRecord
100
AcDbLinetypeTableRecord
  2
BYLAYER
 70
     0
  3

 72
    65
 73
     0
 40
0.0
  0
LTYPE
  5
16
330
5
100
AcDbSymbolTableRecord
100
AcDbLinetypeTableRecord
  2
CONTINUOUS
 70
     0
  3
Solid line
 72
    65
 73
     0
 40
0.0
  0
LTYPE
  5
2D
330
5
100
AcDbSymbolTableRecord
100
AcDbLinetypeTableRecord
  2
CENTER2
 70
     0
  3
Center (.5x) ___ _ ___ _ ___ _ ___ _ ___ _ ___
 72
    65
 73
     4
 40
28.57499999999999
 49
19.05
 74
     0
 49
-3.174999999999998
 74
     0
 49
3.174999999999998
 74
     0
 49
-3.174999999999998
 74
     0
  0
LTYPE
  5
2E
330
5
100
AcDbSymbolTableRecord
100
AcDbLinetypeTableRecord
  2
DASHED2
 70
     0
  3
Dashed (.5x) _ _ _ _ _ _ _ _ _ _ _ _ _ _ _ _ _
 72
    65
 73
     2
 40
9.524999999999996
 49
6.349999999999998
 74
     0
 49
-3.174999999999998
 74
     0
  0
ENDTAB
  0
TABLE
  2
LAYER
  5
2
102
{ACAD_XDICTIONARY
360
DDEF
102
}
330
0
100
AcDbSymbolTable
 70
     4
  0
LAYER
  5
10
330
2
100
AcDbSymbolTableRecord
100
AcDbLayerTableRecord
  2
0
 70
     0
 62
     7
  6
CONTINUOUS
  0
LAYER
  5
8B8
330
2
100
AcDbSymbolTableRecord
100
AcDbLayerTableRecord
  2
DEFPOINTS
 70
     0
 62
     7
  6
CONTINUOUS
  0
LAYER
  5
22864
330
2
100
AcDbSymbolTableRecord
100
AcDbLayerTableRecord
  2
\M+2B5EA\M+2BD75
 70
     0
 62
     6
  6
DASHED2
  0
LAYER
  5
2771B
330
2
100
AcDbSymbolTableRecord
100
AcDbLayerTableRecord
  2
\M+2A4A4\M+2A4DF\M+2BD75
 70
     0
 62
     4
  6
CENTER2
  0
ENDTAB
  0
TABLE
  2
STYLE
  5
3
330
0
100
AcDbSymbolTable
 70
     2
  0
STYLE
  5
11
330
3
100
AcDbSymbolTableRecord
100
AcDbTextStyleTableRecord
  2
STANDARD
 70
     0
 40
0.0
 41
1.0
 50
0.0
 71
     0
 42
2.5
  3
isocp.shx
  4
chineset.shx
  0
STYLE
  5
58
330
3
100
AcDbSymbolTableRecord
100
AcDbTextStyleTableRecord
  2
\M+2ABAC\M+2A6A12
 70
     0
 40
0.0
 41
1.0
 50
0.0
 71
     0
 42
2.5
  3

  4

1001
ACAD
1000
DFKai-SB
1071
    34881
  0
ENDTAB
  0
TABLE
  2
VIEW
  5
6
330
0
100
AcDbSymbolTable
 70
     0
  0
ENDTAB
  0
TABLE
  2
UCS
  5
7
330
0
100
AcDbSymbolTable
 70
     0
  0
ENDTAB
  0
TABLE
  2
APPID
  5
9
330
0
100
AcDbSymbolTable
 70
     3
  0
APPID
  5
12
330
9
100
AcDbSymbolTableRecord
100
AcDbRegAppTableRecord
  2
ACAD
 70
     0
  0
APPID
  5
131A7
330
9
100
AcDbSymbolTableRecord
100
AcDbRegAppTableRecord
  2
CONTENTBLOCKICON
 70
     0
  0
APPID
  5
1B726
330
9
100
AcDbSymbolTableRecord
100
AcDbRegAppTableRecord
  2
TCAD
 70
     0
  0
ENDTAB
  0
TABLE
  2
DIMSTYLE
  5
A
330
0
100
AcDbSymbolTable
 70
     2
  0
DIMSTYLE
105
27
330
A
100
AcDbSymbolTableRecord
100
AcDbDimStyleTableRecord
  2
ISO-25
 70
     0
  3

  4

  5

  6

  7

 40
1.0
 41
1.0
 42
0.7
 43
3.75
 44
0.3
 45
0.0
 46
0.0
 47
0.0
 48
0.0
140
1.199999999999999
141
2.5
142
0.0
143
0.03937007874016
144
1.0
145
0.0
146
1.0
147
0.5
 71
     0
 72
     0
 73
     0
 74
     0
 75
     0
 76
     0
 77
     1
 78
     8
170
     0
171
     3
172
     1
173
     0
174
     0
175
     0
176
     3
177
     3
178
     2
270
     2
271
     2
272
     2
273
     2
274
     3
340
11
275
     0
280
     0
281
     0
282
     0
283
     0
284
     8
285
     0
286
     0
287
     3
288
     0
  0
DIMSTYLE
105
13235
330
A
100
AcDbSymbolTableRecord
100
AcDbDimStyleTableRecord
  2
STANDARD
 70
     0
  3

  4

  5

  6

  7

 40
1.0
 41
0.18
 42
0.0625
 43
0.38
 44
0.18
 45
0.0
 46
0.0
 47
0.0
 48
0.0
140
0.18
141
0.09
142
0.0
143
25.4
144
1.0
145
0.0
146
1.0
147
0.09
 71
     0
 72
     0
 73
     1
 74
     1
 75
     0
 76
     0
 77
     0
 78
     0
170
     0
171
     2
172
     0
173
     0
174
     0
175
     0
176
     0
177
     0
178
     0
270
     2
271
     4
272
     4
273
     2
274
     2
340
11
275
     0
280
     0
281
     0
282
     0
283
     1
284
     0
285
     0
286
     0
287
     3
288
     0
  0
ENDTAB
  0
TABLE
  2
BLOCK_RECORD
  5
1
330
0
100
AcDbSymbolTable
 70
     0
  0
BLOCK_RECORD
  5
1F
102
{ACAD_XDICTIONARY
360
131A3
102
}
330
1
100
AcDbSymbolTableRecord
100
AcDbBlockTableRecord
  2
*MODEL_SPACE
  0
BLOCK_RECORD
  5
1B
102
{ACAD_XDICTIONARY
360
131A1
102
}
330
1
100
AcDbSymbolTableRecord
100
AcDbBlockTableRecord
  2
*PAPER_SPACE
  0
ENDTAB
  0
ENDSEC
  0
SECTION
  2
BLOCKS
  0
BLOCK
  5
20
330
1F
100
AcDbEntity
  8
0
100
AcDbBlockBegin
  2
*MODEL_SPACE
 70
     0
 10
0.0
 20
0.0
 30
0.0
  3
*MODEL_SPACE
  1

  0
ENDBLK
  5
21
330
1F
100
AcDbEntity
  8
0
100
AcDbBlockEnd
  0
BLOCK
  5
1C
330
1B
100
AcDbEntity
 67
     1
  8
0
100
AcDbBlockBegin
  2
*PAPER_SPACE
 70
     0
 10
0.0
 20
0.0
 30
0.0
  3
*PAPER_SPACE
  1

  0
ENDBLK
  5
1D
330
1B
100
AcDbEntity
 67
     1
  8
0
100
AcDbBlockEnd
  0
ENDSEC
  0
SECTION
  2
ENTITIES
  0
TEXT
  5
16C44
330
1F
100
AcDbEntity
  8
0
100
AcDbText
 10
402.536416146175
 20
72.20378957660409
 30
0.0
 40
13.8518250193501
  1
HGR35R
  7
\M+2ABAC\M+2A6A12
100
AcDbText
  0
LINE
  5
27F8D
330
1F
100
AcDbEntity
  8
0
100
AcDbLine
 10
133.6809163131518
 20
75.2277906085319
 30
-0.0000000000000142
 11
333.6809163131518
 21
75.22779060853167
 31
-0.0000000000000142
  0
LINE
  5
27F8E
330
1F
100
AcDbEntity
  8
0
100
AcDbLine
 10
133.6809163131519
 20
69.72781060853185
 30
-0.0000000000000142
 11
333.6809163131518
 21
69.72781060853185
 31
-0.0000000000000142
  0
LINE
  5
27F8F
330
1F
100
AcDbEntity
  8
0
100
AcDbLine
 10
133.6809163131517
 20
68.22781060853208
 30
-0.0000000000000142
 11
333.6809163131519
 21
68.2278106085314
 31
-0.0000000000000142
  0
LINE
  5
27F92
330
1F
100
AcDbEntity
  8
\M+2A4A4\M+2A4DF\M+2BD75
 48
0.3
100
AcDbLine
 10
153.6809163131518
 20
65.9278106085319
 30
-0.0000000000000142
 11
153.6809163131518
 21
99.52781060853205
 31
-0.0000000000000142
  0
LINE
  5
27F93
330
1F
100
AcDbEntity
  8
0
  6
CONTINUOUS
 62
     0
 48
0.3
100
AcDbLine
 10
133.6809163131518
 20
68.22781060853208
 30
-0.0000000000000142
 11
133.6809163131518
 21
97.22781060853186
 31
-0.0000000000000142
  0
LINE
  5
27F94
330
1F
100
AcDbEntity
  8
\M+2A4A4\M+2A4DF\M+2BD75
 48
0.3
100
AcDbLine
 10
153.6809163131518
 20
65.9278106085319
 30
-0.0000000000000142
 11
153.6809163131518
 21
99.52781060853205
 31
-0.0000000000000142
  0
LINE
  5
27F9E
330
1F
100
AcDbEntity
  8
\M+2A4A4\M+2A4DF\M+2BD75
 48
0.3
100
AcDbLine
 10
313.6809163131518
 20
65.9278106085319
 30
-0.0000000000000142
 11
313.6809163131518
 21
99.52781060853205
 31
-0.0000000000000142
  0
LINE
  5
27F9F
330
1F
100
AcDbEntity
  8
0
  6
CONTINUOUS
 62
     0
 48
0.3
100
AcDbLine
 10
333.6809163131518
 20
68.22781060853185
 30
-0.0000000000000142
 11
333.6809163131518
 21
97.22781060853186
 31
-0.0000000000000142
  0
LINE
  5
27FA5
330
1F
100
AcDbEntity
  8
\M+2B5EA\M+2BD75
 48
0.3
100
AcDbLine
 10
318.1809163131028
 20
84.92781060853189
 30
-0.0000000000000142
 11
318.1809163131028
 21
69.4278106085319
 31
-0.0000000000000142
  0
LINE
  5
27FA6
330
1F
100
AcDbEntity
  8
\M+2B5EA\M+2BD75
 48
0.3
100
AcDbLine
 10
318.1809163132008
 20
84.92781060853189
 30
-0.0000000000000142
 11
318.1809163132008
 21
69.4278106085319
 31
-0.0000000000000142
  0
LINE
  5
27FA7
330
1F
100
AcDbEntity
  8
\M+2B5EA\M+2BD75
 48
0.3
100
AcDbLine
 10
320.6809163132008
 20
96.827810608532
 30
-0.0000000000000142
 11
320.6809163132008
 21
85.22781060853185
 31
-0.0000000000000142
  0
LINE
  5
27FA8
330
1F
100
AcDbEntity
  8
\M+2B5EA\M+2BD75
 48
0.3
100
AcDbLine
 10
320.6809163131028
 20
96.827810608532
 30
-0.0000000000000142
 11
320.6809163131028
 21
85.22781060853185
 31
-0.0000000000000142
  0
LINE
  5
27FA9
330
1F
100
AcDbEntity
  8
\M+2B5EA\M+2BD75
 48
0.3
100
AcDbLine
 10
306.6809163132008
 20
85.22781060853185
 30
-0.0000000000000142
 11
320.6809163132008
 21
85.22781060853185
 31
-0.0000000000000142
  0
LINE
  5
27FAA
330
1F
100
AcDbEntity
  8
\M+2B5EA\M+2BD75
 48
0.3
100
AcDbLine
 10
320.6809163131028
 20
85.22781060853185
 30
-0.0000000000000142
 11
306.6809163131028
 21
85.22781060853185
 31
-0.0000000000000142
  0
LINE
  5
27FAB
330
1F
100
AcDbEntity
  8
\M+2B5EA\M+2BD75
 48
0.3
100
AcDbLine
 10
309.1809163132008
 20
84.92781060853189
 30
-0.0000000000000142
 11
318.1809163132008
 21
84.92781060853189
 31
-0.0000000000000142
  0
LINE
  5
27FAC
330
1F
100
AcDbEntity
  8
\M+2B5EA\M+2BD75
 48
0.3
100
AcDbLine
 10
318.1809163131028
 20
84.92781060853189
 30
-0.0000000000000142
 11
309.1809163131028
 21
84.92781060853189
 31
-0.0000000000000142
  0
LINE
  5
27FAD
330
1F
100
AcDbEntity
  8
\M+2B5EA\M+2BD75
 48
0.3
100
AcDbLine
 10
318.4809163132009
 20
85.22781060853185
 30
-0.0000000000000142
 11
318.1809163132008
 21
84.92781060853189
 31
-0.0000000000000142
  0
LINE
  5
27FAE
330
1F
100
AcDbEntity
  8
\M+2B5EA\M+2BD75
 48
0.3
100
AcDbLine
 10
318.4809163131029
 20
85.22781060853185
 30
-0.0000000000000142
 11
318.1809163131028
 21
84.92781060853189
 31
-0.0000000000000142
  0
LINE
  5
27FAF
330
1F
100
AcDbEntity
  8
\M+2B5EA\M+2BD75
 48
0.3
100
AcDbLine
 10
306.6809163132008
 20
96.827810608532
 30
-0.0000000000000142
 11
306.6809163132008
 21
85.22781060853185
 31
-0.0000000000000142
  0
LINE
  5
27FB0
330
1F
100
AcDbEntity
  8
\M+2B5EA\M+2BD75
 48
0.3
100
AcDbLine
 10
306.6809163131028
 20
96.827810608532
 30
-0.0000000000000142
 11
306.6809163131028
 21
85.22781060853185
 31
-0.0000000000000142
  0
LINE
  5
27FB1
330
1F
100
AcDbEntity
  8
\M+2B5EA\M+2BD75
 48
0.3
100
AcDbLine
 10
308.8809163132007
 20
85.22781060853185
 30
-0.0000000000000142
 11
309.1809163132008
 21
84.92781060853189
 31
-0.0000000000000142
  0
LINE
  5
27FB2
330
1F
100
AcDbEntity
  8
\M+2B5EA\M+2BD75
 48
0.3
100
AcDbLine
 10
308.8809163131027
 20
85.22781060853185
 30
-0.0000000000000142
 11
309.1809163131028
 21
84.92781060853189
 31
-0.0000000000000142
  0
LINE
  5
27FB3
330
1F
100
AcDbEntity
  8
\M+2B5EA\M+2BD75
 48
0.3
100
AcDbLine
 10
309.1809163131028
 20
84.92781060853189
 30
-0.0000000000000142
 11
309.1809163131028
 21
69.4278106085319
 31
-0.0000000000000142
  0
LINE
  5
27FB4
330
1F
100
AcDbEntity
  8
\M+2B5EA\M+2BD75
 48
0.3
100
AcDbLine
 10
309.1809163132008
 20
84.92781060853189
 30
-0.0000000000000142
 11
309.1809163132008
 21
69.4278106085319
 31
-0.0000000000000142
  0
LINE
  5
27FB5
330
1F
100
AcDbEntity
  8
\M+2B5EA\M+2BD75
 48
0.3
100
AcDbLine
 10
320.6809163132008
 20
96.827810608532
 30
-0.0000000000000142
 11
306.6809163132008
 21
96.827810608532
 31
-0.0000000000000142
  0
LINE
  5
27FB6
330
1F
100
AcDbEntity
  8
\M+2B5EA\M+2BD75
 48
0.3
100
AcDbLine
 10
306.6809163131028
 20
96.827810608532
 30
-0.0000000000000142
 11
320.6809163131028
 21
96.827810608532
 31
-0.0000000000000142
  0
LINE
  5
27FB7
330
1F
100
AcDbEntity
  8
\M+2B5EA\M+2BD75
 48
0.3
100
AcDbLine
 10
320.6809163132008
 20
96.827810608532
 30
-0.0000000000000142
 11
320.9118564208767
 21
97.22781060853186
 31
-0.0000000000000142
  0
LINE
  5
27FB8
330
1F
100
AcDbEntity
  8
\M+2B5EA\M+2BD75
 48
0.3
100
AcDbLine
 10
320.6809163131028
 20
96.827810608532
 30
-0.0000000000000142
 11
320.9118564207787
 21
97.22781060853186
 31
-0.0000000000000142
  0
LINE
  5
27FB9
330
1F
100
AcDbEntity
  8
\M+2B5EA\M+2BD75
 48
0.3
100
AcDbLine
 10
306.6809163132008
 20
96.827810608532
 30
-0.0000000000000142
 11
306.4499762055249
 21
97.22781060853186
 31
-0.0000000000000142
  0
LINE
  5
27FBA
330
1F
100
AcDbEntity
  8
\M+2B5EA\M+2BD75
 48
0.3
100
AcDbLine
 10
306.6809163131028
 20
96.827810608532
 30
-0.0000000000000142
 11
306.4499762054269
 21
97.22781060853186
 31
-0.0000000000000142
  0
LINE
  5
27FBB
330
1F
100
AcDbEntity
  8
\M+2B5EA\M+2BD75
 48
0.3
100
AcDbLine
 10
309.1809163132008
 20
69.4278106085319
 30
-0.0000000000000142
 11
318.1809163132008
 21
69.4278106085319
 31
-0.0000000000000142
  0
LINE
  5
27FBC
330
1F
100
AcDbEntity
  8
\M+2B5EA\M+2BD75
 48
0.3
100
AcDbLine
 10
318.1809163131028
 20
69.4278106085319
 30
-0.0000000000000142
 11
309.1809163131028
 21
69.4278106085319
 31
-0.0000000000000142
  0
LINE
  5
27FBD
330
1F
100
AcDbEntity
  8
\M+2B5EA\M+2BD75
 48
0.3
100
AcDbLine
 10
318.1809163132008
 20
69.4278106085319
 30
-0.0000000000000142
 11
319.3809180274891
 21
68.22781060853185
 31
-0.0000000000000142
  0
LINE
  5
27FBE
330
1F
100
AcDbEntity
  8
\M+2B5EA\M+2BD75
 48
0.3
100
AcDbLine
 10
307.9809145989126
 20
68.22781060853185
 30
-0.0000000000000142
 11
309.1809163132008
 21
69.4278106085319
 31
-0.0000000000000142
  0
LINE
  5
27FD9
330
1F
100
AcDbEntity
  8
\M+2B5EA\M+2BD75
 48
0.3
100
AcDbLine
 10
158.1809163131028
 20
84.92781060853189
 30
-0.0000000000000142
 11
158.1809163131028
 21
69.4278106085319
 31
-0.0000000000000142
  0
LINE
  5
27FDA
330
1F
100
AcDbEntity
  8
\M+2B5EA\M+2BD75
 48
0.3
100
AcDbLine
 10
158.1809163132008
 20
84.92781060853189
 30
-0.0000000000000142
 11
158.1809163132008
 21
69.4278106085319
 31
-0.0000000000000142
  0
LINE
  5
27FDB
330
1F
100
AcDbEntity
  8
\M+2B5EA\M+2BD75
 48
0.3
100
AcDbLine
 10
160.6809163132008
 20
96.827810608532
 30
-0.0000000000000142
 11
160.6809163132008
 21
85.22781060853185
 31
-0.0000000000000142
  0
LINE
  5
27FDC
330
1F
100
AcDbEntity
  8
\M+2B5EA\M+2BD75
 48
0.3
100
AcDbLine
 10
160.6809163131028
 20
96.827810608532
 30
-0.0000000000000142
 11
160.6809163131028
 21
85.22781060853185
 31
-0.0000000000000142
  0
LINE
  5
27FDD
330
1F
100
AcDbEntity
  8
\M+2B5EA\M+2BD75
 48
0.3
100
AcDbLine
 10
146.6809163132008
 20
85.22781060853185
 30
-0.0000000000000142
 11
160.6809163132008
 21
85.22781060853185
 31
-0.0000000000000142
  0
LINE
  5
27FDE
330
1F
100
AcDbEntity
  8
\M+2B5EA\M+2BD75
 48
0.3
100
AcDbLine
 10
160.6809163131028
 20
85.22781060853185
 30
-0.0000000000000142
 11
146.6809163131028
 21
85.22781060853185
 31
-0.0000000000000142
  0
LINE
  5
27FDF
330
1F
100
AcDbEntity
  8
\M+2B5EA\M+2BD75
 48
0.3
100
AcDbLine
 10
149.1809163132008
 20
84.92781060853189
 30
-0.0000000000000142
 11
158.1809163132008
 21
84.92781060853189
 31
-0.0000000000000142
  0
LINE
  5
27FE0
330
1F
100
AcDbEntity
  8
\M+2B5EA\M+2BD75
 48
0.3
100
AcDbLine
 10
158.1809163131028
 20
84.92781060853189
 30
-0.0000000000000142
 11
149.1809163131028
 21
84.92781060853189
 31
-0.0000000000000142
  0
LINE
  5
27FE1
330
1F
100
AcDbEntity
  8
\M+2B5EA\M+2BD75
 48
0.3
100
AcDbLine
 10
158.4809163132009
 20
85.22781060853185
 30
-0.0000000000000142
 11
158.1809163132008
 21
84.92781060853189
 31
-0.0000000000000142
  0
LINE
  5
27FE2
330
1F
100
AcDbEntity
  8
\M+2B5EA\M+2BD75
 48
0.3
100
AcDbLine
 10
158.4809163131029
 20
85.22781060853185
 30
-0.0000000000000142
 11
158.1809163131028
 21
84.92781060853189
 31
-0.0000000000000142
  0
LINE
  5
27FE3
330
1F
100
AcDbEntity
  8
\M+2B5EA\M+2BD75
 48
0.3
100
AcDbLine
 10
149.1809163131028
 20
84.92781060853189
 30
-0.0000000000000142
 11
149.1809163131028
 21
69.4278106085319
 31
-0.0000000000000142
  0
LINE
  5
27FE4
330
1F
100
AcDbEntity
  8
\M+2B5EA\M+2BD75
 48
0.3
100
AcDbLine
 10
149.1809163132008
 20
84.92781060853189
 30
-0.0000000000000142
 11
149.1809163132008
 21
69.4278106085319
 31
-0.0000000000000142
  0
LINE
  5
27FE5
330
1F
100
AcDbEntity
  8
\M+2B5EA\M+2BD75
 48
0.3
100
AcDbLine
 10
146.6809163132008
 20
96.827810608532
 30
-0.0000000000000142
 11
146.6809163132008
 21
85.22781060853185
 31
-0.0000000000000142
  0
LINE
  5
27FE6
330
1F
100
AcDbEntity
  8
\M+2B5EA\M+2BD75
 48
0.3
100
AcDbLine
 10
146.6809163131028
 20
96.827810608532
 30
-0.0000000000000142
 11
146.6809163131028
 21
85.22781060853185
 31
-0.0000000000000142
  0
LINE
  5
27FE7
330
1F
100
AcDbEntity
  8
\M+2B5EA\M+2BD75
 48
0.3
100
AcDbLine
 10
148.8809163132007
 20
85.22781060853185
 30
-0.0000000000000142
 11
149.1809163132008
 21
84.92781060853189
 31
-0.0000000000000142
  0
LINE
  5
27FE8
330
1F
100
AcDbEntity
  8
\M+2B5EA\M+2BD75
 48
0.3
100
AcDbLine
 10
148.8809163131027
 20
85.22781060853185
 30
-0.0000000000000142
 11
149.1809163131028
 21
84.92781060853189
 31
-0.0000000000000142
  0
LINE
  5
27FE9
330
1F
100
AcDbEntity
  8
\M+2B5EA\M+2BD75
 48
0.3
100
AcDbLine
 10
149.1809163132008
 20
69.4278106085319
 30
-0.0000000000000142
 11
158.1809163132008
 21
69.4278106085319
 31
-0.0000000000000142
  0
LINE
  5
27FEA
330
1F
100
AcDbEntity
  8
\M+2B5EA\M+2BD75
 48
0.3
100
AcDbLine
 10
158.1809163131028
 20
69.4278106085319
 30
-0.0000000000000142
 11
149.1809163131028
 21
69.4278106085319
 31
-0.0000000000000142
  0
LINE
  5
27FEB
330
1F
100
AcDbEntity
  8
\M+2B5EA\M+2BD75
 48
0.3
100
AcDbLine
 10
158.1809163132008
 20
69.4278106085319
 30
-0.0000000000000142
 11
159.3809180274889
 21
68.22781060853185
 31
-0.0000000000000142
  0
LINE
  5
27FEC
330
1F
100
AcDbEntity
  8
\M+2B5EA\M+2BD75
 48
0.3
100
AcDbLine
 10
147.9809145989127
 20
68.22781060853185
 30
-0.0000000000000142
 11
149.1809163132008
 21
69.4278106085319
 31
-0.0000000000000142
  0
LINE
  5
27FED
330
1F
100
AcDbEntity
  8
\M+2B5EA\M+2BD75
 48
0.3
100
AcDbLine
 10
160.6809163132008
 20
96.827810608532
 30
-0.0000000000000142
 11
146.6809163132008
 21
96.827810608532
 31
-0.0000000000000142
  0
LINE
  5
27FEE
330
1F
100
AcDbEntity
  8
\M+2B5EA\M+2BD75
 48
0.3
100
AcDbLine
 10
146.6809163131028
 20
96.827810608532
 30
-0.0000000000000142
 11
160.6809163131028
 21
96.827810608532
 31
-0.0000000000000142
  0
LINE
  5
27FEF
330
1F
100
AcDbEntity
  8
\M+2B5EA\M+2BD75
 48
0.3
100
AcDbLine
 10
160.6809163132008
 20
96.827810608532
 30
-0.0000000000000142
 11
160.9118564208767
 21
97.22781060853186
 31
-0.0000000000000142
  0
LINE
  5
27FF0
330
1F
100
AcDbEntity
  8
\M+2B5EA\M+2BD75
 48
0.3
100
AcDbLine
 10
160.6809163131028
 20
96.827810608532
 30
-0.0000000000000142
 11
160.9118564207787
 21
97.22781060853186
 31
-0.0000000000000142
  0
LINE
  5
27FF1
330
1F
100
AcDbEntity
  8
\M+2B5EA\M+2BD75
 48
0.3
100
AcDbLine
 10
146.6809163132008
 20
96.827810608532
 30
-0.0000000000000142
 11
146.4499762055249
 21
97.22781060853186
 31
-0.0000000000000142
  0
LINE
  5
27FF2
330
1F
100
AcDbEntity
  8
\M+2B5EA\M+2BD75
 48
0.3
100
AcDbLine
 10
146.6809163131028
 20
96.827810608532
 30
-0.0000000000000142
 11
146.4499762054269
 21
97.22781060853186
 31
-0.0000000000000142
  0
LINE
  5
28000
330
1F
100
AcDbEntity
  8
0
 48
0.3
100
AcDbLine
 10
70.22039088386669
 20
85.90781060853215
 30
0.0
 11
70.22039088386669
 21
80.42781060853213
 31
0.0
  0
LINE
  5
28002
330
1F
100
AcDbEntity
  8
0
100
AcDbLine
 10
70.22039089966665
 20
85.90781060853215
 30
0.0
 11
70.22039089966665
 21
80.42781060853213
 31
0.0
  0
LINE
  5
28027
330
1F
100
AcDbEntity
  8
0
 48
0.3
100
AcDbLine
 10
71.53039088386663
 20
97.22781060853208
 30
0.0
 11
45.3103908838666
 21
97.22781060853208
 31
0.0
  0
LINE
  5
2802A
330
1F
100
AcDbEntity
  8
0
100
AcDbLine
 10
45.31039086806663
 20
97.22781060853208
 30
0.0
 11
71.53039089966672
 21
97.22781060853208
 31
0.0
  0
LINE
  5
28064
330
1F
100
AcDbEntity
  8
0
 48
0.3
100
AcDbLine
 10
72.07447987872888
 20
96.68372161367006
 30
0.0
 11
71.53039088386663
 21
97.22781060853208
 31
0.0
  0
LINE
  5
28065
330
1F
100
AcDbEntity
  8
0
100
AcDbLine
 10
72.07447989456671
 20
96.68372161373213
 30
0.0
 11
71.53039089966672
 21
97.22781060853208
 31
0.0
  0
LINE
  5
2807C
330
1F
100
AcDbEntity
  8
0
 48
0.3
100
AcDbLine
 10
75.42039088386662
 20
93.33781060853221
 30
0.0
 11
74.87430188900441
 21
93.88389960339441
 31
0.0
  0
LINE
  5
2807E
330
1F
100
AcDbEntity
  8
0
100
AcDbLine
 10
75.42039089966658
 20
93.33781060853221
 30
0.0
 11
74.87430190476664
 21
93.88389960343216
 31
0.0
  0
LINE
  5
280BB
330
1F
100
AcDbEntity
  8
\M+2A4A4\M+2A4DF\M+2BD75
 48
0.2
100
AcDbLine
 10
58.42039088386627
 20
99.22781060853209
 30
0.0
 11
58.42039088386627
 21
62.88369875768921
 31
0.0
  0
LINE
  5
280BC
330
1F
100
AcDbEntity
  8
\M+2B5EA\M+2BD75
 48
0.3
100
AcDbLine
 10
65.42039088391527
 20
96.827810608532
 30
0.0
 11
65.42039088391527
 21
85.22781060853208
 31
0.0
  0
LINE
  5
280BD
330
1F
100
AcDbEntity
  8
\M+2B5EA\M+2BD75
 48
0.3
100
AcDbLine
 10
65.42039088381727
 20
96.827810608532
 30
0.0
 11
65.42039088381727
 21
85.22781060853208
 31
0.0
  0
LINE
  5
280BE
330
1F
100
AcDbEntity
  8
\M+2B5EA\M+2BD75
 48
0.3
100
AcDbLine
 10
51.42039088391527
 20
96.827810608532
 30
0.0
 11
51.42039088391527
 21
85.22781060853208
 31
0.0
  0
LINE
  5
280BF
330
1F
100
AcDbEntity
  8
\M+2B5EA\M+2BD75
 48
0.3
100
AcDbLine
 10
51.42039088381728
 20
96.827810608532
 30
0.0
 11
51.42039088381728
 21
85.22781060853208
 31
0.0
  0
LINE
  5
280C8
330
1F
100
AcDbEntity
  8
0
 48
0.3
100
AcDbLine
 10
49.67039088391527
 20
68.22781060853208
 30
0.0
 11
42.92039088391527
 21
68.22781060853208
 31
0.0
  0
LINE
  5
280C9
330
1F
100
AcDbEntity
  8
0
 48
0.3
100
AcDbLine
 10
49.67039088381728
 20
68.22781060853208
 30
0.0
 11
42.92039088381727
 21
68.22781060853208
 31
0.0
  0
LINE
  5
280CA
330
1F
100
AcDbEntity
  8
0
 48
0.3
100
AcDbLine
 10
41.42039088381728
 20
75.22779060853213
 30
0.0
 11
46.6203908838172
 21
80.42781060853213
 31
0.0
  0
LINE
  5
280CB
330
1F
100
AcDbEntity
  8
0
 48
0.3
100
AcDbLine
 10
41.42039088391527
 20
69.72781060853208
 30
0.0
 11
42.92039088391527
 21
68.22781060853208
 31
0.0
  0
LINE
  5
280CC
330
1F
100
AcDbEntity
  8
0
 48
0.3
100
AcDbLine
 10
41.42039088381728
 20
69.72781060853208
 30
0.0
 11
42.92039088381727
 21
68.22781060853208
 31
0.0
  0
LINE
  5
280CD
330
1F
100
AcDbEntity
  8
0
 48
0.3
100
AcDbLine
 10
41.42039088391527
 20
75.22779060853213
 30
0.0
 11
41.42039088391527
 21
69.72781060853208
 31
0.0
  0
LINE
  5
280CE
330
1F
100
AcDbEntity
  8
0
 48
0.3
100
AcDbLine
 10
41.42039088381728
 20
75.22779060853213
 30
0.0
 11
41.42039088381728
 21
69.72781060853208
 31
0.0
  0
LINE
  5
280D3
330
1F
100
AcDbEntity
  8
\M+2B5EA\M+2BD75
 48
0.3
100
AcDbLine
 10
51.42039088391527
 20
85.22781060853208
 30
0.0
 11
65.42039088391527
 21
85.22781060853208
 31
0.0
  0
LINE
  5
280D4
330
1F
100
AcDbEntity
  8
\M+2B5EA\M+2BD75
 48
0.3
100
AcDbLine
 10
65.42039088381727
 20
85.22781060853208
 30
0.0
 11
51.42039088381728
 21
85.22781060853208
 31
0.0
  0
LINE
  5
280D5
330
1F
100
AcDbEntity
  8
0
 48
0.3
100
AcDbLine
 10
66.67039088391527
 20
68.72781060853208
 30
0.0
 11
62.17039088391527
 21
68.72781060853208
 31
0.0
  0
LINE
  5
280D6
330
1F
100
AcDbEntity
  8
0
 48
0.3
100
AcDbLine
 10
66.67039088381727
 20
68.72781060853208
 30
0.0
 11
62.17039088381728
 21
68.72781060853208
 31
0.0
  0
LINE
  5
280D7
330
1F
100
AcDbEntity
  8
\M+2B5EA\M+2BD75
 48
0.3
100
AcDbLine
 10
53.92039088381728
 20
84.92781060853213
 30
0.0
 11
53.92039088381728
 21
69.42781060853213
 31
0.0
  0
LINE
  5
280D8
330
1F
100
AcDbEntity
  8
\M+2B5EA\M+2BD75
 48
0.3
100
AcDbLine
 10
62.92039088381727
 20
84.92781060853213
 30
0.0
 11
62.92039088381727
 21
69.42781060853213
 31
0.0
  0
LINE
  5
280D9
330
1F
100
AcDbEntity
  8
\M+2B5EA\M+2BD75
 48
0.3
100
AcDbLine
 10
53.92039088391527
 20
84.92781060853213
 30
0.0
 11
53.92039088391527
 21
69.42781060853213
 31
0.0
  0
LINE
  5
280DA
330
1F
100
AcDbEntity
  8
\M+2B5EA\M+2BD75
 48
0.3
100
AcDbLine
 10
62.92039088391527
 20
84.92781060853213
 30
0.0
 11
62.92039088391527
 21
69.42781060853213
 31
0.0
  0
LINE
  5
280DB
330
1F
100
AcDbEntity
  8
\M+2B5EA\M+2BD75
 48
0.3
100
AcDbLine
 10
53.92039088391527
 20
69.42781060853213
 30
0.0
 11
62.92039088391527
 21
69.42781060853213
 31
0.0
  0
LINE
  5
280DC
330
1F
100
AcDbEntity
  8
\M+2B5EA\M+2BD75
 48
0.3
100
AcDbLine
 10
62.92039088381727
 20
69.42781060853213
 30
0.0
 11
53.92039088381728
 21
69.42781060853213
 31
0.0
  0
LINE
  5
280DD
330
1F
100
AcDbEntity
  8
0
 48
0.3
100
AcDbLine
 10
55.17039088391527
 20
68.22781060853208
 30
0.0
 11
61.67039088391527
 21
68.22781060853208
 31
0.0
  0
LINE
  5
280DE
330
1F
100
AcDbEntity
  8
0
 48
0.3
100
AcDbLine
 10
61.67039088381727
 20
68.22781060853208
 30
0.0
 11
55.17039088381728
 21
68.22781060853208
 31
0.0
  0
LINE
  5
280DF
330
1F
100
AcDbEntity
  8
0
 48
0.3
100
AcDbLine
 10
50.17039088391527
 20
68.72781060853208
 30
0.0
 11
54.67039088391527
 21
68.72781060853208
 31
0.0
  0
LINE
  5
280E0
330
1F
100
AcDbEntity
  8
0
 48
0.3
100
AcDbLine
 10
50.17039088381728
 20
68.72781060853208
 30
0.0
 11
54.67039088381728
 21
68.72781060853208
 31
0.0
  0
LINE
  5
280E1
330
1F
100
AcDbEntity
  8
0
 48
0.3
100
AcDbLine
 10
49.67039088391527
 20
68.22781060853208
 30
0.0
 11
50.17039088391527
 21
68.72781060853208
 31
0.0
  0
LINE
  5
280E2
330
1F
100
AcDbEntity
  8
0
 48
0.3
100
AcDbLine
 10
49.67039088381728
 20
68.22781060853208
 30
0.0
 11
50.17039088381728
 21
68.72781060853208
 31
0.0
  0
LINE
  5
280E3
330
1F
100
AcDbEntity
  8
\M+2B5EA\M+2BD75
 48
0.3
100
AcDbLine
 10
53.22039088391523
 20
68.72781160853219
 30
0.0
 11
53.92039088391527
 21
69.42781060853213
 31
0.0
  0
LINE
  5
280E4
330
1F
100
AcDbEntity
  8
\M+2B5EA\M+2BD75
 48
0.3
100
AcDbLine
 10
53.92039088381728
 20
69.42781060853213
 30
0.0
 11
53.22039088381723
 21
68.72781160853219
 31
0.0
  0
LINE
  5
280E5
330
1F
100
AcDbEntity
  8
0
 48
0.3
100
AcDbLine
 10
54.67039088391527
 20
68.72781060853208
 30
0.0
 11
55.17039088391527
 21
68.22781060853208
 31
0.0
  0
LINE
  5
280E6
330
1F
100
AcDbEntity
  8
0
 48
0.3
100
AcDbLine
 10
54.67039088381728
 20
68.72781060853208
 30
0.0
 11
55.17039088381728
 21
68.22781060853208
 31
0.0
  0
LINE
  5
280E7
330
1F
100
AcDbEntity
  8
\M+2B5EA\M+2BD75
 48
0.3
100
AcDbLine
 10
62.92039088391527
 20
69.42781060853213
 30
0.0
 11
63.62039088391532
 21
68.72781160853219
 31
0.0
  0
LINE
  5
280E8
330
1F
100
AcDbEntity
  8
\M+2B5EA\M+2BD75
 48
0.3
100
AcDbLine
 10
63.62039088381732
 20
68.72781160853219
 30
0.0
 11
62.92039088381727
 21
69.42781060853213
 31
0.0
  0
LINE
  5
280E9
330
1F
100
AcDbEntity
  8
0
 48
0.3
100
AcDbLine
 10
62.17039088391527
 20
68.72781060853208
 30
0.0
 11
61.67039088391527
 21
68.22781060853208
 31
0.0
  0
LINE
  5
280EA
330
1F
100
AcDbEntity
  8
0
 48
0.3
100
AcDbLine
 10
62.17039088381728
 20
68.72781060853208
 30
0.0
 11
61.67039088381727
 21
68.22781060853208
 31
0.0
  0
LINE
  5
280EB
330
1F
100
AcDbEntity
  8
\M+2B5EA\M+2BD75
 48
0.3
100
AcDbLine
 10
53.92039088391527
 20
84.92781060853213
 30
0.0
 11
62.92039088391527
 21
84.92781060853213
 31
0.0
  0
LINE
  5
280EC
330
1F
100
AcDbEntity
  8
\M+2B5EA\M+2BD75
 48
0.3
100
AcDbLine
 10
62.92039088381727
 20
84.92781060853213
 30
0.0
 11
53.92039088381728
 21
84.92781060853213
 31
0.0
  0
LINE
  5
280ED
330
1F
100
AcDbEntity
  8
\M+2B5EA\M+2BD75
 48
0.3
100
AcDbLine
 10
53.6203908839152
 20
85.22781060853208
 30
0.0
 11
53.92039088391527
 21
84.92781060853213
 31
0.0
  0
LINE
  5
280EE
330
1F
100
AcDbEntity
  8
\M+2B5EA\M+2BD75
 48
0.3
100
AcDbLine
 10
53.6203908838172
 20
85.22781060853208
 30
0.0
 11
53.92039088381728
 21
84.92781060853213
 31
0.0
  0
LINE
  5
280EF
330
1F
100
AcDbEntity
  8
\M+2B5EA\M+2BD75
 48
0.3
100
AcDbLine
 10
63.22039088391534
 20
85.22781060853208
 30
0.0
 11
62.92039088391527
 21
84.92781060853213
 31
0.0
  0
LINE
  5
280F0
330
1F
100
AcDbEntity
  8
\M+2B5EA\M+2BD75
 48
0.3
100
AcDbLine
 10
63.22039088381735
 20
85.22781060853208
 30
0.0
 11
62.92039088381727
 21
84.92781060853213
 31
0.0
  0
LINE
  5
280F1
330
1F
100
AcDbEntity
  8
0
 48
0.3
100
AcDbLine
 10
75.42039088381727
 20
75.22779060853213
 30
0.0
 11
70.22039088381735
 21
80.42781060853213
 31
0.0
  0
LINE
  5
280F2
330
1F
100
AcDbEntity
  8
0
 48
0.3
100
AcDbLine
 10
67.17039088391527
 20
68.22781060853208
 30
0.0
 11
73.92039088391527
 21
68.22781060853208
 31
0.0
  0
LINE
  5
280F3
330
1F
100
AcDbEntity
  8
0
 48
0.3
100
AcDbLine
 10
67.17039088381728
 20
68.22781060853208
 30
0.0
 11
73.92039088381728
 21
68.22781060853208
 31
0.0
  0
LINE
  5
280F4
330
1F
100
AcDbEntity
  8
0
 48
0.3
100
AcDbLine
 10
67.17039088391527
 20
68.22781060853208
 30
0.0
 11
66.67039088391527
 21
68.72781060853208
 31
0.0
  0
LINE
  5
280F5
330
1F
100
AcDbEntity
  8
0
 48
0.3
100
AcDbLine
 10
67.17039088381728
 20
68.22781060853208
 30
0.0
 11
66.67039088381727
 21
68.72781060853208
 31
0.0
  0
LINE
  5
280F6
330
1F
100
AcDbEntity
  8
0
 48
0.3
100
AcDbLine
 10
75.42039088391527
 20
69.72781060853208
 30
0.0
 11
73.92039088391527
 21
68.22781060853208
 31
0.0
  0
LINE
  5
280F7
330
1F
100
AcDbEntity
  8
0
 48
0.3
100
AcDbLine
 10
75.42039088381727
 20
69.72781060853208
 30
0.0
 11
73.92039088381728
 21
68.22781060853208
 31
0.0
  0
LINE
  5
280F8
330
1F
100
AcDbEntity
  8
0
 48
0.3
100
AcDbLine
 10
75.42039088391527
 20
75.22779060853213
 30
0.0
 11
75.42039088391527
 21
69.72781060853208
 31
0.0
  0
LINE
  5
280F9
330
1F
100
AcDbEntity
  8
0
 48
0.3
100
AcDbLine
 10
75.42039088381727
 20
75.22779060853213
 30
0.0
 11
75.42039088381727
 21
69.72781060853208
 31
0.0
  0
LINE
  5
280FA
330
1F
100
AcDbEntity
  8
0
100
AcDbLine
 10
70.22039089971531
 20
85.90781060853215
 30
0.0
 11
70.22039089971531
 21
80.42781060853213
 31
0.0
  0
LINE
  5
280FB
330
1F
100
AcDbEntity
  8
0
100
AcDbLine
 10
70.22039089961731
 20
85.90781060853215
 30
0.0
 11
70.22039089961731
 21
80.42781060853213
 31
0.0
  0
LINE
  5
280FC
330
1F
100
AcDbEntity
  8
0
 48
0.3
100
AcDbLine
 10
70.22039088381735
 20
85.90781060853215
 30
0.0
 11
70.22039088381735
 21
80.42781060853213
 31
0.0
  0
LINE
  5
280FD
330
1F
100
AcDbEntity
  8
0
 48
0.3
100
AcDbLine
 10
70.22039088391534
 20
85.90781060853215
 30
0.0
 11
70.22039088391534
 21
80.42781060853213
 31
0.0
  0
LINE
  5
280FE
330
1F
100
AcDbEntity
  8
0
 48
0.3
100
AcDbLine
 10
45.31039088391525
 20
97.22781060853208
 30
0.0
 11
71.53039088391529
 21
97.22781060853208
 31
0.0
  0
LINE
  5
280FF
330
1F
100
AcDbEntity
  8
0
100
AcDbLine
 10
71.53039089971525
 20
97.22781060853208
 30
0.0
 11
45.31039086811517
 21
97.22781060853208
 31
0.0
  0
LINE
  5
28100
330
1F
100
AcDbEntity
  8
0
100
AcDbLine
 10
45.31039086801729
 20
97.22781060853208
 30
0.0
 11
71.53039089961737
 21
97.22781060853208
 31
0.0
  0
LINE
  5
28101
330
1F
100
AcDbEntity
  8
0
 48
0.3
100
AcDbLine
 10
71.53039088381729
 20
97.22781060853208
 30
0.0
 11
45.31039088381726
 21
97.22781060853208
 31
0.0
  0
LINE
  5
2811A
330
1F
100
AcDbEntity
  8
\M+2B5EA\M+2BD75
 48
0.3
100
AcDbLine
 10
65.42039088391527
 20
96.827810608532
 30
0.0
 11
51.42039088391527
 21
96.827810608532
 31
0.0
  0
LINE
  5
2811B
330
1F
100
AcDbEntity
  8
\M+2B5EA\M+2BD75
 48
0.3
100
AcDbLine
 10
51.42039088381728
 20
96.827810608532
 30
0.0
 11
65.42039088381727
 21
96.827810608532
 31
0.0
  0
LINE
  5
2811C
330
1F
100
AcDbEntity
  8
\M+2B5EA\M+2BD75
 48
0.3
100
AcDbLine
 10
51.42039088391527
 20
96.827810608532
 30
0.0
 11
51.18945077623937
 21
97.22781060853208
 31
0.0
  0
LINE
  5
2811D
330
1F
100
AcDbEntity
  8
\M+2B5EA\M+2BD75
 48
0.3
100
AcDbLine
 10
51.42039088381728
 20
96.827810608532
 30
0.0
 11
51.18945077614137
 21
97.22781060853208
 31
0.0
  0
ARC
  5
28124
330
1F
100
AcDbEntity
  8
0
100
AcDbCircle
 10
76.8028720553691
 20
98.61229178831832
 30
0.0
 40
5.106622565384762
100
AcDbArc
 50
202.1877282892314
 51
247.8122720340826
  0
LINE
  5
28126
330
1F
100
AcDbEntity
  8
\M+2B5EA\M+2BD75
 48
0.3
100
AcDbLine
 10
65.42039088391527
 20
96.827810608532
 30
0.0
 11
65.65133099159118
 21
97.22781060853208
 31
0.0
  0
LINE
  5
28127
330
1F
100
AcDbEntity
  8
\M+2B5EA\M+2BD75
 48
0.3
100
AcDbLine
 10
65.42039088381727
 20
96.827810608532
 30
0.0
 11
65.65133099149318
 21
97.22781060853208
 31
0.0
  0
LINE
  5
28128
330
1F
100
AcDbEntity
  8
0
 48
0.3
100
AcDbLine
 10
72.07447987877742
 20
96.68372161366983
 30
0.0
 11
71.53039088391529
 21
97.22781060853208
 31
0.0
  0
LINE
  5
28129
330
1F
100
AcDbEntity
  8
0
100
AcDbLine
 10
72.07447989461536
 20
96.68372161373213
 30
0.0
 11
71.53039089971537
 21
97.22781060853208
 31
0.0
  0
LINE
  5
2812A
330
1F
100
AcDbEntity
  8
0
100
AcDbLine
 10
72.07447989451736
 20
96.68372161373213
 30
0.0
 11
71.53039089961737
 21
97.22781060853208
 31
0.0
  0
LINE
  5
2812B
330
1F
100
AcDbEntity
  8
0
 48
0.3
100
AcDbLine
 10
72.07447987867954
 20
96.68372161366983
 30
0.0
 11
71.53039088381729
 21
97.22781060853208
 31
0.0
  0
LINE
  5
2812C
330
1F
100
AcDbEntity
  8
0
 48
0.3
100
AcDbLine
 10
75.42039088391527
 20
93.33781060853221
 30
0.0
 11
74.87430188905307
 21
93.88389960339441
 31
0.0
  0
LINE
  5
2812D
330
1F
100
AcDbEntity
  8
0
100
AcDbLine
 10
75.42039089971524
 20
93.33781060853221
 30
0.0
 11
74.87430190481529
 21
93.88389960343216
 31
0.0
  0
LINE
  5
2812E
330
1F
100
AcDbEntity
  8
0
100
AcDbLine
 10
75.42039089961725
 20
93.33781060853221
 30
0.0
 11
74.8743019047173
 21
93.88389960343216
 31
0.0
  0
LINE
  5
28133
330
1F
100
AcDbEntity
  8
0
 48
0.3
100
AcDbLine
 10
75.42039088381727
 20
93.33781060853221
 30
0.0
 11
75.42039088381727
 21
91.10781060853218
 31
0.0
  0
ARC
  5
2813C
330
1F
100
AcDbEntity
  8
0
100
AcDbCircle
 10
76.8028720553691
 20
85.83332942874562
 30
0.0
 40
5.106622565384762
100
AcDbArc
 50
112.1877279659174
 51
157.8122717107685
  0
LINE
  5
2813E
330
1F
100
AcDbEntity
  8
0
100
AcDbLine
 10
75.42039089961725
 20
91.10781060853174
 30
0.0
 11
74.8743019047173
 21
90.56172161363178
 31
0.0
  0
LINE
  5
2813F
330
1F
100
AcDbEntity
  8
0
100
AcDbLine
 10
75.42039089971524
 20
91.10781060853174
 30
0.0
 11
74.87430190481529
 21
90.56172161363178
 31
0.0
  0
LINE
  5
28140
330
1F
100
AcDbEntity
  8
0
 48
0.3
100
AcDbLine
 10
75.42039088391527
 20
91.10781060853174
 30
0.0
 11
74.87430188905307
 21
90.56172161366953
 31
0.0
  0
LINE
  5
28141
330
1F
100
AcDbEntity
  8
0
100
AcDbLine
 10
75.42039089966658
 20
91.10781060853174
 30
0.0
 11
74.87430190476664
 21
90.56172161363178
 31
0.0
  0
LINE
  5
28142
330
1F
100
AcDbEntity
  8
0
 48
0.3
100
AcDbLine
 10
75.42039088386662
 20
91.10781060853174
 30
0.0
 11
74.87430188900441
 21
90.56172161366953
 31
0.0
  0
LINE
  5
28145
330
1F
100
AcDbEntity
  8
0
100
AcDbLine
 10
72.07447989451736
 20
87.76189960333182
 30
0.0
 11
71.53039089961737
 21
87.21781060853187
 31
0.0
  0
LINE
  5
28146
330
1F
100
AcDbEntity
  8
0
100
AcDbLine
 10
72.07447989461536
 20
87.76189960333182
 30
0.0
 11
71.53039089971537
 21
87.21781060853187
 31
0.0
  0
LINE
  5
28147
330
1F
100
AcDbEntity
  8
0
 48
0.3
100
AcDbLine
 10
72.07447987877742
 20
87.76189960339412
 30
0.0
 11
71.53039088391529
 21
87.21781060853187
 31
0.0
  0
LINE
  5
28148
330
1F
100
AcDbEntity
  8
0
100
AcDbLine
 10
72.07447989456671
 20
87.76189960333182
 30
0.0
 11
71.53039089966672
 21
87.21781060853187
 31
0.0
  0
LINE
  5
28149
330
1F
100
AcDbEntity
  8
0
 48
0.3
100
AcDbLine
 10
72.07447987872888
 20
87.76189960339388
 30
0.0
 11
70.22039088391534
 21
85.90781060858104
 31
0.0
  0
LINE
  5
2814C
330
1F
100
AcDbEntity
  8
0
 48
0.3
100
AcDbLine
 10
44.76630189356126
 20
87.76189960339388
 30
0.0
 11
46.6203908883748
 21
85.90781060858104
 31
0.0
  0
LINE
  5
28152
330
1F
100
AcDbEntity
  8
0
 48
0.3
100
AcDbLine
 10
46.6203908883748
 20
85.90781060853215
 30
0.0
 11
46.6203908883748
 21
80.42781060853213
 31
0.0
  0
LINE
  5
28153
330
1F
100
AcDbEntity
  8
0
 48
0.3
100
AcDbLine
 10
46.62039088847279
 20
85.90781060853215
 30
0.0
 11
46.62039088847279
 21
80.42781060853213
 31
0.0
  0
LINE
  5
28154
330
1F
100
AcDbEntity
  8
0
100
AcDbLine
 10
46.62039087267283
 20
85.90781060853215
 30
0.0
 11
46.62039087267283
 21
80.42781060853213
 31
0.0
  0
LINE
  5
28155
330
1F
100
AcDbEntity
  8
0
100
AcDbLine
 10
46.62039087257483
 20
85.90781060853215
 30
0.0
 11
46.62039087257483
 21
80.42781060853213
 31
0.0
  0
LINE
  5
28159
330
1F
100
AcDbEntity
  8
0
100
AcDbLine
 10
46.62039087262349
 20
85.90781060853215
 30
0.0
 11
46.62039087262349
 21
80.42781060853213
 31
0.0
  0
LINE
  5
2815B
330
1F
100
AcDbEntity
  8
0
 48
0.3
100
AcDbLine
 10
46.62039088842345
 20
85.90781060853215
 30
0.0
 11
46.62039088842345
 21
80.42781060853213
 31
0.0
  0
ARC
  5
2815D
330
1F
100
AcDbEntity
  8
0
100
AcDbCircle
 10
40.03790971692104
 20
85.83332942874562
 30
0.0
 40
5.106622565384762
100
AcDbArc
 50
22.18772828923145
 51
67.8122720340826
  0
ARC
  5
28161
330
1F
100
AcDbEntity
  8
0
100
AcDbCircle
 10
40.03790971692104
 20
98.61229178831832
 30
0.0
 40
5.106622565384762
100
AcDbArc
 50
292.1877279659174
 51
337.8122717107685
  0
LINE
  5
28162
330
1F
100
AcDbEntity
  8
0
 48
0.3
100
AcDbLine
 10
41.42039088842352
 20
91.10781060853174
 30
0.0
 11
41.96647988328573
 21
90.56172161366953
 31
0.0
  0
LINE
  5
28163
330
1F
100
AcDbEntity
  8
0
100
AcDbLine
 10
41.42039087262344
 20
91.10781060853174
 30
0.0
 11
41.9664798675235
 21
90.56172161363178
 31
0.0
  0
LINE
  5
28164
330
1F
100
AcDbEntity
  8
0
 48
0.3
100
AcDbLine
 10
41.42039088837487
 20
91.10781060853174
 30
0.0
 11
41.96647988323706
 21
90.56172161366953
 31
0.0
  0
LINE
  5
28165
330
1F
100
AcDbEntity
  8
0
100
AcDbLine
 10
41.42039087257479
 20
91.10781060853174
 30
0.0
 11
41.96647986747485
 21
90.56172161363178
 31
0.0
  0
LINE
  5
28166
330
1F
100
AcDbEntity
  8
0
100
AcDbLine
 10
41.42039087267278
 20
91.10781060853174
 30
0.0
 11
41.96647986757284
 21
90.56172161363178
 31
0.0
  0
LINE
  5
2816B
330
1F
100
AcDbEntity
  8
0
 48
0.3
100
AcDbLine
 10
41.42039088847286
 20
93.33781060853221
 30
0.0
 11
41.42039088847286
 21
91.10781060853218
 31
0.0
  0
LINE
  5
2816C
330
1F
100
AcDbEntity
  8
0
100
AcDbLine
 10
41.42039087267278
 20
93.33781060853221
 30
0.0
 11
41.96647986757284
 21
93.88389960343216
 31
0.0
  0
LINE
  5
2816D
330
1F
100
AcDbEntity
  8
0
100
AcDbLine
 10
41.42039087257479
 20
93.33781060853221
 30
0.0
 11
41.96647986747485
 21
93.88389960343216
 31
0.0
  0
LINE
  5
2816E
330
1F
100
AcDbEntity
  8
0
 48
0.3
100
AcDbLine
 10
41.42039088837487
 20
93.33781060853221
 30
0.0
 11
41.96647988323706
 21
93.88389960339441
 31
0.0
  0
LINE
  5
2816F
330
1F
100
AcDbEntity
  8
0
100
AcDbLine
 10
41.42039087262344
 20
93.33781060853221
 30
0.0
 11
41.9664798675235
 21
93.88389960343216
 31
0.0
  0
LINE
  5
28170
330
1F
100
AcDbEntity
  8
0
 48
0.3
100
AcDbLine
 10
41.42039088842352
 20
93.33781060853221
 30
0.0
 11
41.96647988328573
 21
93.88389960339441
 31
0.0
  0
LINE
  5
28175
330
1F
100
AcDbEntity
  8
0
 48
0.3
100
AcDbLine
 10
44.7663018936106
 20
96.68372161366983
 30
0.0
 11
45.31039088847285
 21
97.22781060853208
 31
0.0
  0
LINE
  5
28176
330
1F
100
AcDbEntity
  8
0
100
AcDbLine
 10
44.76630187777277
 20
96.68372161373213
 30
0.0
 11
45.31039087267276
 21
97.22781060853208
 31
0.0
  0
LINE
  5
28177
330
1F
100
AcDbEntity
  8
0
100
AcDbLine
 10
44.76630187767478
 20
96.68372161373213
 30
0.0
 11
45.31039087257477
 21
97.22781060853208
 31
0.0
  0
LINE
  5
28178
330
1F
100
AcDbEntity
  8
0
 48
0.3
100
AcDbLine
 10
44.76630189351271
 20
96.68372161366983
 30
0.0
 11
45.31039088837485
 21
97.22781060853208
 31
0.0
  0
LINE
  5
28179
330
1F
100
AcDbEntity
  8
0
100
AcDbLine
 10
44.76630187772343
 20
96.68372161373213
 30
0.0
 11
45.31039087262342
 21
97.22781060853208
 31
0.0
  0
LINE
  5
2817A
330
1F
100
AcDbEntity
  8
0
 48
0.3
100
AcDbLine
 10
44.76630189356126
 20
96.68372161367006
 30
0.0
 11
45.31039088842351
 21
97.22781060853208
 31
0.0
  0
LINE
  5
28180
330
1F
100
AcDbEntity
  8
0
100
AcDbLine
 10
133.6809163131519
 20
96.68381421116761
 30
0.0
 11
333.6809163131518
 21
96.68381421116761
 31
0.0
  0
LINE
  5
28181
330
1F
100
AcDbEntity
  8
0
100
AcDbLine
 10
133.6809163131519
 20
97.22781060853208
 30
-0.0000000000000142
 11
333.6809163131518
 21
97.22781060853186
 31
-0.0000000000000142
  0
LINE
  5
28182
330
1F
100
AcDbEntity
  8
0
100
AcDbLine
 10
133.6809163131519
 20
93.88389960343237
 30
0.0
 11
333.6809163131518
 21
93.88389960343237
 31
0.0
  0
LINE
  5
28183
330
1F
100
AcDbEntity
  8
0
100
AcDbLine
 10
133.6809163131518
 20
90.56172161367021
 30
0.0
 11
333.6809163131518
 21
90.56172161367021
 31
0.0
  0
LINE
  5
28184
330
1F
100
AcDbEntity
  8
0
100
AcDbLine
 10
133.6809163131518
 20
87.76189960333203
 30
0.0
 11
333.6809163131518
 21
87.76189960333203
 31
0.0
  0
LINE
  5
28185
330
1F
100
AcDbEntity
  8
0
100
AcDbLine
 10
133.6809163131518
 20
85.90781060853169
 30
-0.0000000000000142
 11
333.6809163131518
 21
85.90781060853169
 31
-0.0000000000000142
  0
LINE
  5
28186
330
1F
100
AcDbEntity
  8
0
100
AcDbLine
 10
133.6809163131518
 20
80.4278106085319
 30
-0.0000000000000142
 11
333.6809163131518
 21
80.42781060853213
 31
-0.0000000000000142
  0
LINE
  5
2AEF2
330
1F
100
AcDbEntity
  8
\M+2B5EA\M+2BD75
 48
0.3
100
AcDbLine
 10
226.6809163131028
 20
96.827810608532
 30
-0.0000000000000142
 11
240.6809163131028
 21
96.827810608532
 31
-0.0000000000000142
  0
LINE
  5
2AEF3
330
1F
100
AcDbEntity
  8
\M+2B5EA\M+2BD75
 48
0.3
100
AcDbLine
 10
240.6809163132008
 20
96.827810608532
 30
-0.0000000000000142
 11
226.6809163132008
 21
96.827810608532
 31
-0.0000000000000142
  0
LINE
  5
2AEF4
330
1F
100
AcDbEntity
  8
\M+2B5EA\M+2BD75
 48
0.3
100
AcDbLine
 10
238.1809163131028
 20
69.4278106085319
 30
-0.0000000000000142
 11
229.1809163131028
 21
69.4278106085319
 31
-0.0000000000000142
  0
LINE
  5
2AEF5
330
1F
100
AcDbEntity
  8
\M+2B5EA\M+2BD75
 48
0.3
100
AcDbLine
 10
229.1809163132008
 20
69.4278106085319
 30
-0.0000000000000142
 11
238.1809163132008
 21
69.4278106085319
 31
-0.0000000000000142
  0
LINE
  5
2AEF6
330
1F
100
AcDbEntity
  8
\M+2B5EA\M+2BD75
 48
0.3
100
AcDbLine
 10
238.1809163131028
 20
84.92781060853189
 30
-0.0000000000000142
 11
229.1809163131028
 21
84.92781060853189
 31
-0.0000000000000142
  0
LINE
  5
2AEF7
330
1F
100
AcDbEntity
  8
\M+2B5EA\M+2BD75
 48
0.3
100
AcDbLine
 10
229.1809163132008
 20
84.92781060853189
 30
-0.0000000000000142
 11
238.1809163132008
 21
84.92781060853189
 31
-0.0000000000000142
  0
LINE
  5
2AEF8
330
1F
100
AcDbEntity
  8
\M+2B5EA\M+2BD75
 48
0.3
100
AcDbLine
 10
240.6809163131028
 20
85.22781060853185
 30
-0.0000000000000142
 11
226.6809163131028
 21
85.22781060853185
 31
-0.0000000000000142
  0
LINE
  5
2AEF9
330
1F
100
AcDbEntity
  8
\M+2B5EA\M+2BD75
 48
0.3
100
AcDbLine
 10
226.6809163132008
 20
85.22781060853185
 30
-0.0000000000000142
 11
240.6809163132008
 21
85.22781060853185
 31
-0.0000000000000142
  0
LINE
  5
2AEFA
330
1F
100
AcDbEntity
  8
\M+2B5EA\M+2BD75
 48
0.3
100
AcDbLine
 10
229.1809163132008
 20
84.92781060853189
 30
-0.0000000000000142
 11
229.1809163132008
 21
69.4278106085319
 31
-0.0000000000000142
  0
LINE
  5
2AEFB
330
1F
100
AcDbEntity
  8
\M+2B5EA\M+2BD75
 48
0.3
100
AcDbLine
 10
229.1809163131028
 20
84.92781060853189
 30
-0.0000000000000142
 11
229.1809163131028
 21
69.4278106085319
 31
-0.0000000000000142
  0
LINE
  5
2AEFC
330
1F
100
AcDbEntity
  8
\M+2A4A4\M+2A4DF\M+2BD75
 48
0.3
100
AcDbLine
 10
233.6809163131518
 20
65.9278106085319
 30
-0.0000000000000142
 11
233.6809163131518
 21
99.52781060853205
 31
-0.0000000000000142
  0
LINE
  5
2AEFD
330
1F
100
AcDbEntity
  8
\M+2A4A4\M+2A4DF\M+2BD75
 48
0.3
100
AcDbLine
 10
233.6809163131518
 20
65.9278106085319
 30
-0.0000000000000142
 11
233.6809163131518
 21
99.52781060853205
 31
-0.0000000000000142
  0
LINE
  5
2AEFE
330
1F
100
AcDbEntity
  8
\M+2B5EA\M+2BD75
 48
0.3
100
AcDbLine
 10
227.9809145989127
 20
68.22781060853185
 30
-0.0000000000000142
 11
229.1809163132008
 21
69.4278106085319
 31
-0.0000000000000142
  0
LINE
  5
2AEFF
330
1F
100
AcDbEntity
  8
\M+2B5EA\M+2BD75
 48
0.3
100
AcDbLine
 10
226.6809163131028
 20
96.827810608532
 30
-0.0000000000000142
 11
226.4499762054269
 21
97.22781060853186
 31
-0.0000000000000142
  0
LINE
  5
2AF00
330
1F
100
AcDbEntity
  8
\M+2B5EA\M+2BD75
 48
0.3
100
AcDbLine
 10
226.6809163132008
 20
96.827810608532
 30
-0.0000000000000142
 11
226.4499762055249
 21
97.22781060853186
 31
-0.0000000000000142
  0
LINE
  5
2AF01
330
1F
100
AcDbEntity
  8
\M+2B5EA\M+2BD75
 48
0.3
100
AcDbLine
 10
228.8809163131027
 20
85.22781060853185
 30
-0.0000000000000142
 11
229.1809163131028
 21
84.92781060853189
 31
-0.0000000000000142
  0
LINE
  5
2AF02
330
1F
100
AcDbEntity
  8
\M+2B5EA\M+2BD75
 48
0.3
100
AcDbLine
 10
228.8809163132007
 20
85.22781060853185
 30
-0.0000000000000142
 11
229.1809163132008
 21
84.92781060853189
 31
-0.0000000000000142
  0
LINE
  5
2AF03
330
1F
100
AcDbEntity
  8
\M+2B5EA\M+2BD75
 48
0.3
100
AcDbLine
 10
226.6809163131028
 20
96.827810608532
 30
-0.0000000000000142
 11
226.6809163131028
 21
85.22781060853185
 31
-0.0000000000000142
  0
LINE
  5
2AF04
330
1F
100
AcDbEntity
  8
\M+2B5EA\M+2BD75
 48
0.3
100
AcDbLine
 10
226.6809163132008
 20
96.827810608532
 30
-0.0000000000000142
 11
226.6809163132008
 21
85.22781060853185
 31
-0.0000000000000142
  0
LINE
  5
2AF05
330
1F
100
AcDbEntity
  8
\M+2B5EA\M+2BD75
 48
0.3
100
AcDbLine
 10
238.1809163132008
 20
84.92781060853189
 30
-0.0000000000000142
 11
238.1809163132008
 21
69.4278106085319
 31
-0.0000000000000142
  0
LINE
  5
2AF06
330
1F
100
AcDbEntity
  8
\M+2B5EA\M+2BD75
 48
0.3
100
AcDbLine
 10
238.1809163131028
 20
84.92781060853189
 30
-0.0000000000000142
 11
238.1809163131028
 21
69.4278106085319
 31
-0.0000000000000142
  0
LINE
  5
2AF07
330
1F
100
AcDbEntity
  8
\M+2B5EA\M+2BD75
 48
0.3
100
AcDbLine
 10
238.1809163132008
 20
69.4278106085319
 30
-0.0000000000000142
 11
239.3809180274889
 21
68.22781060853185
 31
-0.0000000000000142
  0
LINE
  5
2AF08
330
1F
100
AcDbEntity
  8
\M+2B5EA\M+2BD75
 48
0.3
100
AcDbLine
 10
240.6809163131028
 20
96.827810608532
 30
-0.0000000000000142
 11
240.9118564207787
 21
97.22781060853186
 31
-0.0000000000000142
  0
LINE
  5
2AF09
330
1F
100
AcDbEntity
  8
\M+2B5EA\M+2BD75
 48
0.3
100
AcDbLine
 10
240.6809163132008
 20
96.827810608532
 30
-0.0000000000000142
 11
240.9118564208767
 21
97.22781060853186
 31
-0.0000000000000142
  0
LINE
  5
2AF0A
330
1F
100
AcDbEntity
  8
\M+2B5EA\M+2BD75
 48
0.3
100
AcDbLine
 10
238.4809163131029
 20
85.22781060853185
 30
-0.0000000000000142
 11
238.1809163131028
 21
84.92781060853189
 31
-0.0000000000000142
  0
LINE
  5
2AF0B
330
1F
100
AcDbEntity
  8
\M+2B5EA\M+2BD75
 48
0.3
100
AcDbLine
 10
238.4809163132008
 20
85.22781060853185
 30
-0.0000000000000142
 11
238.1809163132008
 21
84.92781060853189
 31
-0.0000000000000142
  0
LINE
  5
2AF0C
330
1F
100
AcDbEntity
  8
\M+2B5EA\M+2BD75
 48
0.3
100
AcDbLine
 10
240.6809163131028
 20
96.827810608532
 30
-0.0000000000000142
 11
240.6809163131028
 21
85.22781060853185
 31
-0.0000000000000142
  0
LINE
  5
2AF0D
330
1F
100
AcDbEntity
  8
\M+2B5EA\M+2BD75
 48
0.3
100
AcDbLine
 10
240.6809163132008
 20
96.827810608532
 30
-0.0000000000000142
 11
240.6809163132008
 21
85.22781060853185
 31
-0.0000000000000142
  0
ENDSEC
  0
SECTION
  2
OBJECTS
  0
DICTIONARY
  5
C
330
0
100
AcDbDictionary
  3
ACAD_COLOR
350
13437
  3
ACAD_GROUP
350
D
  3
ACAD_LAYOUT
350
1A
  3
ACAD_MATERIAL
350
13436
  3
ACAD_MLINESTYLE
350
17
  3
ACAD_PLOTSETTINGS
350
19
  3
ACAD_PLOTSTYLENAME
350
E
  3
ACDBHEADERROUNDTRIPXREC
350
2AF19
  3
ACDBVARIABLEDICTIONARY
350
4E
  0
DICTIONARY
  5
DDEF
330
2
100
AcDbDictionary
280
     1
  3
ACAD_LAYERFILTERS
360
E68E
  3
ACAD_LAYERSTATES
360
DDF0
  0
DICTIONARY
  5
131A3
330
1F
100
AcDbDictionary
280
     1
  3
ACAD_LAYOUTSELFREF
360
2AF3A
  0
DICTIONARY
  5
131A1
330
1B
100
AcDbDictionary
280
     1
  3
ACAD_LAYOUTSELFREF
360
2AF39
  0
DICTIONARY
  5
13437
102
{ACAD_REACTORS
330
C
102
}
330
C
100
AcDbDictionary
  0
DICTIONARY
  5
D
102
{ACAD_REACTORS
330
C
102
}
330
C
100
AcDbDictionary
  3
*A1
350
DDE2
  3
*A10
350
14FE2
  3
*A11
350
14FE3
  3
*A12
350
14FD9
  3
*A13
350
167FE
  3
*A14
350
DDEB
  3
*A15
350
DDEE
  3
*A16
350
145F0
  3
*A17
350
167FF
  3
*A18
350
16800
  3
*A19
350
16801
  3
*A2
350
14FDE
  3
*A20
350
16802
  3
*A21
350
13CCB
  3
*A22
350
13CCD
  3
*A23
350
14FDA
  3
*A24
350
16803
  3
*A25
350
16804
  3
*A26
350
DDE7
  3
*A27
350
16805
  3
*A28
350
13CD2
  3
*A29
350
145E5
  3
*A3
350
14FDF
  3
*A30
350
16806
  3
*A31
350
16807
  3
*A32
350
13CC7
  3
*A33
350
16808
  3
*A34
350
145E9
  3
*A35
350
145EB
  3
*A36
350
16809
  3
*A37
350
1680A
  3
*A38
350
13CCE
  3
*A39
350
DDE8
  3
*A4
350
145EF
  3
*A40
350
145F1
  3
*A41
350
DDE9
  3
*A42
350
DDEA
  3
*A43
350
145E6
  3
*A44
350
13CC8
  3
*A45
350
14FDB
  3
*A46
350
13CC9
  3
*A47
350
13CCA
  3
*A48
350
145EC
  3
*A49
350
13CCF
  3
*A5
350
14FE0
  3
*A50
350
13CD0
  3
*A51
350
13CD1
  3
*A52
350
DDE5
  3
*A53
350
145E7
  3
*A54
350
DDE4
  3
*A55
350
145E8
  3
*A56
350
DDED
  3
*A57
350
145ED
  3
*A58
350
DDEC
  3
*A59
350
145EE
  3
*A6
350
DDE3
  3
*A60
350
14FD7
  3
*A61
350
13CCC
  3
*A62
350
14FD8
  3
*A63
350
14FDC
  3
*A64
350
13CD3
  3
*A65
350
14FDD
  3
*A7
350
DDE6
  3
*A8
350
145EA
  3
*A9
350
14FE1
  0
DICTIONARY
  5
1A
102
{ACAD_REACTORS
330
C
102
}
330
C
100
AcDbDictionary
  0
DICTIONARY
  5
13436
102
{ACAD_REACTORS
330
C
102
}
330
C
100
AcDbDictionary
  0
DICTIONARY
  5
17
102
{ACAD_REACTORS
330
C
102
}
330
C
100
AcDbDictionary
  3
STANDARD
350
18
  0
DICTIONARY
  5
19
102
{ACAD_REACTORS
330
C
102
}
330
C
100
AcDbDictionary
  3
LANSRO
350
1AB
  0
ACDBDICTIONARYWDFLT
  5
E
102
{ACAD_REACTORS
330
C
102
}
330
C
100
AcDbDictionary
281
     1
  3
Normal
350
F
100
AcDbDictionaryWithDefault
340
F
  0
DICTIONARY
  5
2AF19
102
{ACAD_REACTORS
330
C
102
}
330
C
100
AcDbDictionary
  3
CEPSNTYPE
350
2AF23
  3
FINGERPRINTGUID
350
2AF24
  3
HYPERLINKBASE
350
2AF1C
  3
INSUNITS
350
2AF22
  3
LAYOUTDICT
350
2AF1E
  3
LWETCUNION
350
2AF21
  3
PLOTSETDICT
350
2AF1F
  3
PLOTSTYLNAMDICT
350
2AF20
  3
PSVPSCALE
350
2AF26
  3
PUCSBASE
350
2AF29
  3
PUCSORGBACK
350
2AF2F
  3
PUCSORGBOTTOM
350
2AF2B
  3
PUCSORGFRONT
350
2AF2E
  3
PUCSORGLEFT
350
2AF2C
  3
PUCSORGRIGHT
350
2AF2D
  3
PUCSORGTOP
350
2AF2A
  3
PUCSORTHOREF
350
2AF27
  3
PUCSORTHOVIEW
350
2AF28
  3
STYLESHEET
350
2AF1D
  3
TSTACKALIGN
350
2AF1A
  3
TSTACKSIZE
350
2AF1B
  3
UCSBASE
350
2AF32
  3
UCSORGBACK
350
2AF38
  3
UCSORGBOTTOM
350
2AF34
  3
UCSORGFRONT
350
2AF37
  3
UCSORGLEFT
350
2AF35
  3
UCSORGRIGHT
350
2AF36
  3
UCSORGTOP
350
2AF33
  3
UCSORTHOREF
350
2AF30
  3
UCSORTHOVIEW
350
2AF31
  3
VERSIONGUID
350
2AF25
  0
DICTIONARY
  5
4E
102
{ACAD_REACTORS
330
C
102
}
330
C
100
AcDbDictionary
  3
DIMASSOC
350
1350B
  3
PROJECTNAME
350
1350C
  3
SORTENTS
350
4F
  0
DICTIONARY
  5
E68E
102
{ACAD_REACTORS
330
DDEF
102
}
330
DDEF
100
AcDbDictionary
280
     1
  0
DICTIONARY
  5
DDF0
102
{ACAD_REACTORS
330
DDEF
102
}
330
DDEF
100
AcDbDictionary
  0
XRECORD
  5
2AF3A
102
{ACAD_REACTORS
330
131A3
102
}
330
131A3
100
AcDbXrecord
340
1F
  0
XRECORD
  5
2AF39
102
{ACAD_REACTORS
330
131A1
102
}
330
131A1
100
AcDbXrecord
340
1B
  0
GROUP
  5
DDE2
102
{ACAD_REACTORS
330
D
102
}
330
D
100
AcDbGroup
300

 70
     1
 71
     1
  0
GROUP
  5
14FE2
102
{ACAD_REACTORS
330
D
102
}
330
D
100
AcDbGroup
300

 70
     1
 71
     1
  0
GROUP
  5
14FE3
102
{ACAD_REACTORS
330
D
102
}
330
D
100
AcDbGroup
300

 70
     1
 71
     1
  0
GROUP
  5
14FD9
102
{ACAD_REACTORS
330
D
102
}
330
D
100
AcDbGroup
300

 70
     1
 71
     1
  0
GROUP
  5
167FE
102
{ACAD_REACTORS
330
D
102
}
330
D
100
AcDbGroup
300

 70
     1
 71
     1
  0
GROUP
  5
DDEB
102
{ACAD_REACTORS
330
D
102
}
330
D
100
AcDbGroup
300

 70
     1
 71
     1
  0
GROUP
  5
DDEE
102
{ACAD_REACTORS
330
D
102
}
330
D
100
AcDbGroup
300

 70
     1
 71
     1
  0
GROUP
  5
145F0
102
{ACAD_REACTORS
330
D
102
}
330
D
100
AcDbGroup
300

 70
     1
 71
     1
  0
GROUP
  5
167FF
102
{ACAD_REACTORS
330
D
102
}
330
D
100
AcDbGroup
300

 70
     1
 71
     1
  0
GROUP
  5
16800
102
{ACAD_REACTORS
330
D
102
}
330
D
100
AcDbGroup
300

 70
     1
 71
     1
  0
GROUP
  5
16801
102
{ACAD_REACTORS
330
D
102
}
330
D
100
AcDbGroup
300

 70
     1
 71
     1
  0
GROUP
  5
14FDE
102
{ACAD_REACTORS
330
D
102
}
330
D
100
AcDbGroup
300

 70
     1
 71
     1
  0
GROUP
  5
16802
102
{ACAD_REACTORS
330
D
102
}
330
D
100
AcDbGroup
300

 70
     1
 71
     1
  0
GROUP
  5
13CCB
102
{ACAD_REACTORS
330
D
102
}
330
D
100
AcDbGroup
300

 70
     1
 71
     1
  0
GROUP
  5
13CCD
102
{ACAD_REACTORS
330
D
102
}
330
D
100
AcDbGroup
300

 70
     1
 71
     1
  0
GROUP
  5
14FDA
102
{ACAD_REACTORS
330
D
102
}
330
D
100
AcDbGroup
300

 70
     1
 71
     1
  0
GROUP
  5
16803
102
{ACAD_REACTORS
330
D
102
}
330
D
100
AcDbGroup
300

 70
     1
 71
     1
  0
GROUP
  5
16804
102
{ACAD_REACTORS
330
D
102
}
330
D
100
AcDbGroup
300

 70
     1
 71
     1
  0
GROUP
  5
DDE7
102
{ACAD_REACTORS
330
D
102
}
330
D
100
AcDbGroup
300

 70
     1
 71
     1
  0
GROUP
  5
16805
102
{ACAD_REACTORS
330
D
102
}
330
D
100
AcDbGroup
300

 70
     1
 71
     1
  0
GROUP
  5
13CD2
102
{ACAD_REACTORS
330
D
102
}
330
D
100
AcDbGroup
300

 70
     1
 71
     1
  0
GROUP
  5
145E5
102
{ACAD_REACTORS
330
D
102
}
330
D
100
AcDbGroup
300

 70
     1
 71
     1
  0
GROUP
  5
14FDF
102
{ACAD_REACTORS
330
D
102
}
330
D
100
AcDbGroup
300

 70
     1
 71
     1
  0
GROUP
  5
16806
102
{ACAD_REACTORS
330
D
102
}
330
D
100
AcDbGroup
300

 70
     1
 71
     1
  0
GROUP
  5
16807
102
{ACAD_REACTORS
330
D
102
}
330
D
100
AcDbGroup
300

 70
     1
 71
     1
  0
GROUP
  5
13CC7
102
{ACAD_REACTORS
330
D
102
}
330
D
100
AcDbGroup
300

 70
     1
 71
     1
  0
GROUP
  5
16808
102
{ACAD_REACTORS
330
D
102
}
330
D
100
AcDbGroup
300

 70
     1
 71
     1
  0
GROUP
  5
145E9
102
{ACAD_REACTORS
330
D
102
}
330
D
100
AcDbGroup
300

 70
     1
 71
     1
  0
GROUP
  5
145EB
102
{ACAD_REACTORS
330
D
102
}
330
D
100
AcDbGroup
300

 70
     1
 71
     1
  0
GROUP
  5
16809
102
{ACAD_REACTORS
330
D
102
}
330
D
100
AcDbGroup
300

 70
     1
 71
     1
  0
GROUP
  5
1680A
102
{ACAD_REACTORS
330
D
102
}
330
D
100
AcDbGroup
300

 70
     1
 71
     1
  0
GROUP
  5
13CCE
102
{ACAD_REACTORS
330
D
102
}
330
D
100
AcDbGroup
300

 70
     1
 71
     1
  0
GROUP
  5
DDE8
102
{ACAD_REACTORS
330
D
102
}
330
D
100
AcDbGroup
300

 70
     1
 71
     1
  0
GROUP
  5
145EF
102
{ACAD_REACTORS
330
D
102
}
330
D
100
AcDbGroup
300

 70
     1
 71
     1
  0
GROUP
  5
145F1
102
{ACAD_REACTORS
330
D
102
}
330
D
100
AcDbGroup
300

 70
     1
 71
     1
  0
GROUP
  5
DDE9
102
{ACAD_REACTORS
330
D
102
}
330
D
100
AcDbGroup
300

 70
     1
 71
     1
  0
GROUP
  5
DDEA
102
{ACAD_REACTORS
330
D
102
}
330
D
100
AcDbGroup
300

 70
     1
 71
     1
  0
GROUP
  5
145E6
102
{ACAD_REACTORS
330
D
102
}
330
D
100
AcDbGroup
300

 70
     1
 71
     1
  0
GROUP
  5
13CC8
102
{ACAD_REACTORS
330
D
102
}
330
D
100
AcDbGroup
300

 70
     1
 71
     1
  0
GROUP
  5
14FDB
102
{ACAD_REACTORS
330
D
102
}
330
D
100
AcDbGroup
300

 70
     1
 71
     1
  0
GROUP
  5
13CC9
102
{ACAD_REACTORS
330
D
102
}
330
D
100
AcDbGroup
300

 70
     1
 71
     1
  0
GROUP
  5
13CCA
102
{ACAD_REACTORS
330
D
102
}
330
D
100
AcDbGroup
300

 70
     1
 71
     1
  0
GROUP
  5
145EC
102
{ACAD_REACTORS
330
D
102
}
330
D
100
AcDbGroup
300

 70
     1
 71
     1
  0
GROUP
  5
13CCF
102
{ACAD_REACTORS
330
D
102
}
330
D
100
AcDbGroup
300

 70
     1
 71
     1
  0
GROUP
  5
14FE0
102
{ACAD_REACTORS
330
D
102
}
330
D
100
AcDbGroup
300

 70
     1
 71
     1
  0
GROUP
  5
13CD0
102
{ACAD_REACTORS
330
D
102
}
330
D
100
AcDbGroup
300

 70
     1
 71
     1
  0
GROUP
  5
13CD1
102
{ACAD_REACTORS
330
D
102
}
330
D
100
AcDbGroup
300

 70
     1
 71
     1
  0
GROUP
  5
DDE5
102
{ACAD_REACTORS
330
D
102
}
330
D
100
AcDbGroup
300

 70
     1
 71
     1
  0
GROUP
  5
145E7
102
{ACAD_REACTORS
330
D
102
}
330
D
100
AcDbGroup
300

 70
     1
 71
     1
  0
GROUP
  5
DDE4
102
{ACAD_REACTORS
330
D
102
}
330
D
100
AcDbGroup
300

 70
     1
 71
     1
  0
GROUP
  5
145E8
102
{ACAD_REACTORS
330
D
102
}
330
D
100
AcDbGroup
300

 70
     1
 71
     1
  0
GROUP
  5
DDED
102
{ACAD_REACTORS
330
D
102
}
330
D
100
AcDbGroup
300

 70
     1
 71
     1
  0
GROUP
  5
145ED
102
{ACAD_REACTORS
330
D
102
}
330
D
100
AcDbGroup
300

 70
     1
 71
     1
  0
GROUP
  5
DDEC
102
{ACAD_REACTORS
330
D
102
}
330
D
100
AcDbGroup
300

 70
     1
 71
     1
  0
GROUP
  5
145EE
102
{ACAD_REACTORS
330
D
102
}
330
D
100
AcDbGroup
300

 70
     1
 71
     1
  0
GROUP
  5
DDE3
102
{ACAD_REACTORS
330
D
102
}
330
D
100
AcDbGroup
300

 70
     1
 71
     1
  0
GROUP
  5
14FD7
102
{ACAD_REACTORS
330
D
102
}
330
D
100
AcDbGroup
300

 70
     1
 71
     1
  0
GROUP
  5
13CCC
102
{ACAD_REACTORS
330
D
102
}
330
D
100
AcDbGroup
300

 70
     1
 71
     1
  0
GROUP
  5
14FD8
102
{ACAD_REACTORS
330
D
102
}
330
D
100
AcDbGroup
300

 70
     1
 71
     1
  0
GROUP
  5
14FDC
102
{ACAD_REACTORS
330
D
102
}
330
D
100
AcDbGroup
300

 70
     1
 71
     1
  0
GROUP
  5
13CD3
102
{ACAD_REACTORS
330
D
102
}
330
D
100
AcDbGroup
300

 70
     1
 71
     1
  0
GROUP
  5
14FDD
102
{ACAD_REACTORS
330
D
102
}
330
D
100
AcDbGroup
300

 70
     1
 71
     1
  0
GROUP
  5
DDE6
102
{ACAD_REACTORS
330
D
102
}
330
D
100
AcDbGroup
300

 70
     1
 71
     1
  0
GROUP
  5
145EA
102
{ACAD_REACTORS
330
D
102
}
330
D
100
AcDbGroup
300

 70
     1
 71
     1
  0
GROUP
  5
14FE1
102
{ACAD_REACTORS
330
D
102
}
330
D
100
AcDbGroup
300

 70
     1
 71
     1
  0
MLINESTYLE
  5
18
102
{ACAD_REACTORS
330
17
102
}
330
17
100
AcDbMlineStyle
  2
STANDARD
 70
     0
  3

 62
   256
 51
90.0
 52
90.0
 71
     2
 49
0.5
 62
   256
  6
BYLAYER
 49
-0.5
 62
   256
  6
BYLAYER
  0
PLOTSETTINGS
  5
1AB
102
{ACAD_XDICTIONARY
360
13503
102
}
102
{ACAD_REACTORS
330
19
102
}
330
19
100
AcDbPlotSettings
  1
LANSRO
  2
\\1260\HP2200
  4
A4
  6

 40
6.043083190917967
 41
6.762742042541503
 42
7.736419677734375
 43
5.027069091796875
 44
209.9733276367186
 45
296.9683227539062
 46
5.15
 47
0.0
 48
0.0
 49
0.0
140
0.0
141
0.0
142
1.0
143
0.8829829263240881
 70
  1716
 72
     1
 73
     1
 74
     0
  7
AAA.ctb
 75
     0
147
1.132524729739748
148
-132.2970149058029
149
-71.78507365635891
  0
ACDBPLACEHOLDER
  5
F
102
{ACAD_REACTORS
330
E
102
}
330
E
100
AcDbPlaceHolder
280
     0
  0
XRECORD
  5
2AF23
102
{ACAD_REACTORS
330
2AF19
102
}
330
2AF19
100
AcDbXrecord
 90
        0
  0
XRECORD
  5
2AF24
102
{ACAD_REACTORS
330
2AF19
102
}
330
2AF19
100
AcDbXrecord
  1
{39E6D4C8-9137-4BAE-85E5-615910EF8948}
  0
XRECORD
  5
2AF1C
102
{ACAD_REACTORS
330
2AF19
102
}
330
2AF19
100
AcDbXrecord
  1

  0
XRECORD
  5
2AF22
102
{ACAD_REACTORS
330
2AF19
102
}
330
2AF19
100
AcDbXrecord
 90
        4
  0
XRECORD
  5
2AF1E
102
{ACAD_REACTORS
330
2AF19
102
}
330
2AF19
100
AcDbXrecord
340
1A
  0
XRECORD
  5
2AF21
102
{ACAD_REACTORS
330
2AF19
102
}
330
2AF19
100
AcDbXrecord
 90
    10783
  0
XRECORD
  5
2AF1F
102
{ACAD_REACTORS
330
2AF19
102
}
330
2AF19
100
AcDbXrecord
340
19
  0
XRECORD
  5
2AF20
102
{ACAD_REACTORS
330
2AF19
102
}
330
2AF19
100
AcDbXrecord
340
E
  0
XRECORD
  5
2AF26
102
{ACAD_REACTORS
330
2AF19
102
}
330
2AF19
100
AcDbXrecord
 40
0.0
  0
XRECORD
  5
2AF29
102
{ACAD_REACTORS
330
2AF19
102
}
330
2AF19
100
AcDbXrecord
340
0
  0
XRECORD
  5
2AF2F
102
{ACAD_REACTORS
330
2AF19
102
}
330
2AF19
100
AcDbXrecord
 10
0.0
 20
0.0
 30
0.0
  0
XRECORD
  5
2AF2B
102
{ACAD_REACTORS
330
2AF19
102
}
330
2AF19
100
AcDbXrecord
 10
0.0
 20
0.0
 30
0.0
  0
XRECORD
  5
2AF2E
102
{ACAD_REACTORS
330
2AF19
102
}
330
2AF19
100
AcDbXrecord
 10
0.0
 20
0.0
 30
0.0
  0
XRECORD
  5
2AF2C
102
{ACAD_REACTORS
330
2AF19
102
}
330
2AF19
100
AcDbXrecord
 10
0.0
 20
0.0
 30
0.0
  0
XRECORD
  5
2AF2D
102
{ACAD_REACTORS
330
2AF19
102
}
330
2AF19
100
AcDbXrecord
 10
0.0
 20
0.0
 30
0.0
  0
XRECORD
  5
2AF2A
102
{ACAD_REACTORS
330
2AF19
102
}
330
2AF19
100
AcDbXrecord
 10
0.0
 20
0.0
 30
0.0
  0
XRECORD
  5
2AF27
102
{ACAD_REACTORS
330
2AF19
102
}
330
2AF19
100
AcDbXrecord
340
0
  0
XRECORD
  5
2AF28
102
{ACAD_REACTORS
330
2AF19
102
}
330
2AF19
100
AcDbXrecord
 70
     0
  0
XRECORD
  5
2AF1D
102
{ACAD_REACTORS
330
2AF19
102
}
330
2AF19
100
AcDbXrecord
  1
AAA.ctb
  0
XRECORD
  5
2AF1A
102
{ACAD_REACTORS
330
2AF19
102
}
330
2AF19
100
AcDbXrecord
 90
        1
  0
XRECORD
  5
2AF1B
102
{ACAD_REACTORS
330
2AF19
102
}
330
2AF19
100
AcDbXrecord
 90
       70
  0
XRECORD
  5
2AF32
102
{ACAD_REACTORS
330
2AF19
102
}
330
2AF19
100
AcDbXrecord
340
0
  0
XRECORD
  5
2AF38
102
{ACAD_REACTORS
330
2AF19
102
}
330
2AF19
100
AcDbXrecord
 10
0.0
 20
0.0
 30
0.0
  0
XRECORD
  5
2AF34
102
{ACAD_REACTORS
330
2AF19
102
}
330
2AF19
100
AcDbXrecord
 10
0.0
 20
0.0
 30
0.0
  0
XRECORD
  5
2AF37
102
{ACAD_REACTORS
330
2AF19
102
}
330
2AF19
100
AcDbXrecord
 10
0.0
 20
0.0
 30
0.0
  0
XRECORD
  5
2AF35
102
{ACAD_REACTORS
330
2AF19
102
}
330
2AF19
100
AcDbXrecord
 10
0.0
 20
0.0
 30
0.0
  0
XRECORD
  5
2AF36
102
{ACAD_REACTORS
330
2AF19
102
}
330
2AF19
100
AcDbXrecord
 10
0.0
 20
0.0
 30
0.0
  0
XRECORD
  5
2AF33
102
{ACAD_REACTORS
330
2AF19
102
}
330
2AF19
100
AcDbXrecord
 10
0.0
 20
0.0
 30
0.0
  0
XRECORD
  5
2AF30
102
{ACAD_REACTORS
330
2AF19
102
}
330
2AF19
100
AcDbXrecord
340
0
  0
XRECORD
  5
2AF31
102
{ACAD_REACTORS
330
2AF19
102
}
330
2AF19
100
AcDbXrecord
 70
     0
  0
XRECORD
  5
2AF25
102
{ACAD_REACTORS
330
2AF19
102
}
330
2AF19
100
AcDbXrecord
  1
{B812F922-66B0-11D8-88CD-00A024540C4A}
  0
DICTIONARYVAR
  5
1350B
102
{ACAD_REACTORS
330
4E
102
}
330
4E
100
DictionaryVariables
280
     0
  1
1
  0
DICTIONARYVAR
  5
1350C
102
{ACAD_REACTORS
330
4E
102
}
330
4E
100
DictionaryVariables
280
     0
  1

  0
DICTIONARYVAR
  5
4F
102
{ACAD_REACTORS
330
4E
102
}
330
4E
100
DictionaryVariables
280
     0
  1
96
  0
DICTIONARY
  5
13503
330
1AB
100
AcDbDictionary
280
     1
  3
ACAD_XREC_ROUNDTRIP
360
13504
  0
XRECORD
  5
13504
102
{ACAD_REACTORS
330
13503
102
}
330
13503
100
AcDbXrecord
102
SHADEPLOT
 70
     0
102
SHADEPLOTRESLEVEL
 70
     2
102
SHADEPLOTCUSTOMDPI
 70
   300
  0
ENDSEC
  0
EOF
