  0
SECTION
  2
HEADER
  9
$ACADVER
  1
AC1015
  9
$ACADMAINTVER
 70
    20
  9
$DWGCODEPAGE
  3
ANSI_950
  9
$INSBASE
 10
0.0
 20
0.0
 30
0.0
  9
$EXTMIN
 10
-58.98675190076687
 20
-70.64157408456094
 30
-0.0015258207003583
  9
$EXTMAX
 10
517.7050237744688
 20
227.6522183423521
 30
0.0000000349246037
  9
$LIMMIN
 10
-10.0
 20
-15.0
  9
$LIMMAX
 10
120.0
 20
90.0
  9
$ORTHOMODE
 70
     1
  9
$REGENMODE
 70
     0
  9
$FILLMODE
 70
     1
  9
$QTEXTMODE
 70
     0
  9
$MIRRTEXT
 70
     0
  9
$LTSCALE
 40
3.0
  9
$ATTMODE
 70
     1
  9
$TEXTSIZE
 40
3.0
  9
$TRACEWID
 40
1.0
  9
$TEXTSTYLE
  7
STANDARD
  9
$CLAYER
  8
0
  9
$CELTYPE
  6
ByLayer
  9
$CECOLOR
 62
   256
  9
$CELTSCALE
 40
1.0
  9
$DISPSILH
 70
     0
  9
$DIMSCALE
 40
1.0
  9
$DIMASZ
 40
3.0
  9
$DIMEXO
 40
1.0
  9
$DIMDLI
 40
6.0
  9
$DIMRND
 40
0.0
  9
$DIMDLE
 40
0.0
  9
$DIMEXE
 40
1.0
  9
$DIMTP
 40
0.0
  9
$DIMTM
 40
0.0
  9
$DIMTXT
 40
3.0
  9
$DIMCEN
 40
1.5
  9
$DIMTSZ
 40
0.0
  9
$DIMTOL
 70
     0
  9
$DIMLIM
 70
     0
  9
$DIMTIH
 70
     1
  9
$DIMTOH
 70
     1
  9
$DIMSE1
 70
     0
  9
$DIMSE2
 70
     0
  9
$DIMTAD
 70
     0
  9
$DIMZIN
 70
     0
  9
$DIMBLK
  1

  9
$DIMASO
 70
     1
  9
$DIMSHO
 70
     0
  9
$DIMPOST
  1

  9
$DIMAPOST
  1

  9
$DIMALT
 70
     0
  9
$DIMALTD
 70
     2
  9
$DIMALTF
 40
25.4
  9
$DIMLFAC
 40
1.0
  9
$DIMTOFL
 70
     1
  9
$DIMTVP
 40
0.0
  9
$DIMTIX
 70
     0
  9
$DIMSOXD
 70
     0
  9
$DIMSAH
 70
     0
  9
$DIMBLK1
  1

  9
$DIMBLK2
  1

  9
$DIMSTYLE
  2
Standard
  9
$DIMCLRD
 70
     0
  9
$DIMCLRE
 70
     0
  9
$DIMCLRT
 70
     0
  9
$DIMTFAC
 40
1.0
  9
$DIMGAP
 40
0.09
  9
$DIMJUST
 70
     0
  9
$DIMSD1
 70
     0
  9
$DIMSD2
 70
     0
  9
$DIMTOLJ
 70
     1
  9
$DIMTZIN
 70
     0
  9
$DIMALTZ
 70
     0
  9
$DIMALTTZ
 70
     0
  9
$DIMUPT
 70
     0
  9
$DIMDEC
 70
     8
  9
$DIMTDEC
 70
     8
  9
$DIMALTU
 70
     2
  9
$DIMALTTD
 70
     2
  9
$DIMTXSTY
  7
STANDARD
  9
$DIMAUNIT
 70
     0
  9
$DIMADEC
 70
     0
  9
$DIMALTRND
 40
0.0
  9
$DIMAZIN
 70
     0
  9
$DIMDSEP
 70
    46
  9
$DIMATFIT
 70
     3
  9
$DIMFRAC
 70
     0
  9
$DIMLDRBLK
  1

  9
$DIMLUNIT
 70
     2
  9
$DIMLWD
 70
    -2
  9
$DIMLWE
 70
    -2
  9
$DIMTMOVE
 70
     2
  9
$LUNITS
 70
     2
  9
$LUPREC
 70
     4
  9
$SKETCHINC
 40
0.5
  9
$FILLETRAD
 40
0.0
  9
$AUNITS
 70
     0
  9
$AUPREC
 70
     0
  9
$MENU
  1
ACAD
  9
$ELEVATION
 40
0.0
  9
$PELEVATION
 40
0.0
  9
$THICKNESS
 40
0.0
  9
$LIMCHECK
 70
     0
  9
$CHAMFERA
 40
0.0
  9
$CHAMFERB
 40
0.0
  9
$CHAMFERC
 40
0.0
  9
$CHAMFERD
 40
0.0
  9
$SKPOLY
 70
     0
  9
$TDCREATE
 40
2444975.333333334
  9
$TDUCREATE
 40
2444975.000000000
  9
$TDUPDATE
 40
2454358.493897257
  9
$TDUUPDATE
 40
2454358.160563923
  9
$TDINDWG
 40
0.1620605324
  9
$TDUSRTIMER
 40
0.0000000000
  9
$USRTIMER
 70
     0
  9
$ANGBASE
 50
0.0
  9
$ANGDIR
 70
     0
  9
$PDMODE
 70
   171
  9
$PDSIZE
 40
0.001
  9
$PLINEWID
 40
0.0
  9
$SPLFRAME
 70
     0
  9
$SPLINETYPE
 70
     6
  9
$SPLINESEGS
 70
     8
  9
$HANDSEED
  5
6B5C
  9
$SURFTAB1
 70
     6
  9
$SURFTAB2
 70
     6
  9
$SURFTYPE
 70
     6
  9
$SURFU
 70
     6
  9
$SURFV
 70
     6
  9
$UCSBASE
  2

  9
$UCSNAME
  2

  9
$UCSORG
 10
0.0
 20
0.0
 30
0.0
  9
$UCSXDIR
 10
1.0
 20
0.0
 30
0.0
  9
$UCSYDIR
 10
0.0
 20
1.0
 30
0.0
  9
$UCSORTHOREF
  2

  9
$UCSORTHOVIEW
 70
     0
  9
$UCSORGTOP
 10
0.0
 20
0.0
 30
0.0
  9
$UCSORGBOTTOM
 10
0.0
 20
0.0
 30
0.0
  9
$UCSORGLEFT
 10
0.0
 20
0.0
 30
0.0
  9
$UCSORGRIGHT
 10
0.0
 20
0.0
 30
0.0
  9
$UCSORGFRONT
 10
0.0
 20
0.0
 30
0.0
  9
$UCSORGBACK
 10
0.0
 20
0.0
 30
0.0
  9
$PUCSBASE
  2

  9
$PUCSNAME
  2

  9
$PUCSORG
 10
0.0
 20
0.0
 30
0.0
  9
$PUCSXDIR
 10
1.0
 20
0.0
 30
0.0
  9
$PUCSYDIR
 10
0.0
 20
1.0
 30
0.0
  9
$PUCSORTHOREF
  2

  9
$PUCSORTHOVIEW
 70
     0
  9
$PUCSORGTOP
 10
0.0
 20
0.0
 30
0.0
  9
$PUCSORGBOTTOM
 10
0.0
 20
0.0
 30
0.0
  9
$PUCSORGLEFT
 10
0.0
 20
0.0
 30
0.0
  9
$PUCSORGRIGHT
 10
0.0
 20
0.0
 30
0.0
  9
$PUCSORGFRONT
 10
0.0
 20
0.0
 30
0.0
  9
$PUCSORGBACK
 10
0.0
 20
0.0
 30
0.0
  9
$USERI1
 70
     0
  9
$USERI2
 70
     0
  9
$USERI3
 70
     0
  9
$USERI4
 70
     0
  9
$USERI5
 70
     0
  9
$USERR1
 40
0.0
  9
$USERR2
 40
0.0
  9
$USERR3
 40
0.0
  9
$USERR4
 40
0.0
  9
$USERR5
 40
0.0
  9
$WORLDVIEW
 70
     1
  9
$SHADEDGE
 70
     3
  9
$SHADEDIF
 70
    70
  9
$TILEMODE
 70
     1
  9
$MAXACTVP
 70
    48
  9
$PINSBASE
 10
0.0
 20
0.0
 30
0.0
  9
$PLIMCHECK
 70
     0
  9
$PEXTMIN
 10
1.000000000000000E+20
 20
1.000000000000000E+20
 30
1.000000000000000E+20
  9
$PEXTMAX
 10
-1.000000000000000E+20
 20
-1.000000000000000E+20
 30
-1.000000000000000E+20
  9
$PLIMMIN
 10
0.0
 20
0.0
  9
$PLIMMAX
 10
12.0
 20
9.0
  9
$UNITMODE
 70
     0
  9
$VISRETAIN
 70
     1
  9
$PLINEGEN
 70
     0
  9
$PSLTSCALE
 70
     0
  9
$TREEDEPTH
 70
  3020
  9
$CMLSTYLE
  2
Standard
  9
$CMLJUST
 70
     0
  9
$CMLSCALE
 40
1.0
  9
$PROXYGRAPHICS
 70
     1
  9
$MEASUREMENT
 70
     0
  9
$CELWEIGHT
370
    -1
  9
$ENDCAPS
280
     0
  9
$JOINSTYLE
280
     0
  9
$LWDISPLAY
290
     0
  9
$INSUNITS
 70
     0
  9
$HYPERLINKBASE
  1

  9
$STYLESHEET
  1

  9
$XEDIT
290
     1
  9
$CEPSNTYPE
380
     0
  9
$PSTYLEMODE
290
     1
  9
$FINGERPRINTGUID
  2
{77095E5F-9CE7-11D7-970D-0040F4541FA8}
  9
$VERSIONGUID
  2
{10AEA320-BBCE-4548-84E6-FDA72E903AC6}
  9
$EXTNAMES
290
     1
  9
$PSVPSCALE
 40
0.0
  9
$OLESTARTUP
290
     0
  0
ENDSEC
  0
SECTION
  2
CLASSES
  0
CLASS
  1
ACDBDICTIONARYWDFLT
  2
AcDbDictionaryWithDefault
  3
ObjectDBX Classes
 90
        0
280
     0
281
     0
  0
CLASS
  1
ACDBPLACEHOLDER
  2
AcDbPlaceHolder
  3
ObjectDBX Classes
 90
        0
280
     0
281
     0
  0
CLASS
  1
LAYOUT
  2
AcDbLayout
  3
ObjectDBX Classes
 90
        0
280
     0
281
     0
  0
CLASS
  1
DICTIONARYVAR
  2
AcDbDictionaryVar
  3
ObjectDBX Classes
 90
        0
280
     0
281
     0
  0
CLASS
  1
PLOTSETTINGS
  2
AcDbPlotSettings
  3
ObjectDBX Classes
 90
        0
280
     0
281
     0
  0
CLASS
  1
TABLESTYLE
  2
AcDbTableStyle
  3
ObjectDBX Classes
 90
     4095
280
     0
281
     0
  0
CLASS
  1
MATERIAL
  2
AcDbMaterial
  3
ObjectDBX Classes
 90
     1024
280
     0
281
     0
  0
CLASS
  1
VISUALSTYLE
  2
AcDbVisualStyle
  3
ObjectDBX Classes
 90
     4095
280
     0
281
     0
  0
ENDSEC
  0
SECTION
  2
TABLES
  0
TABLE
  2
VPORT
  5
8
330
0
100
AcDbSymbolTable
 70
     1
  0
VPORT
  5
6ADB
330
8
100
AcDbSymbolTableRecord
100
AcDbViewportTableRecord
  2
*Active
 70
     0
 10
0.0
 20
0.0
 11
1.0
 21
1.0
 12
229.3591359368509
 22
78.50532212889554
 13
457.9999999999997
 23
1082.0
 14
10.0
 24
10.0
 15
10.0
 25
10.0
 16
0.0
 26
0.0
 36
1.0
 17
0.0
 27
0.0
 37
0.0
 40
301.5777607839065
 41
1.981617647058823
 42
1.0
 43
0.0
 44
0.0
 50
0.0
 51
0.0
 71
     0
 72
 20000
 73
     1
 74
     1
 75
     0
 76
     0
 77
     0
 78
     0
281
     0
 65
     1
110
0.0
120
0.0
130
0.0
111
1.0
121
0.0
131
0.0
112
0.0
122
1.0
132
0.0
 79
     0
146
0.0
  0
ENDTAB
  0
TABLE
  2
LTYPE
  5
5
330
0
100
AcDbSymbolTable
 70
     6
  0
LTYPE
  5
13
330
5
100
AcDbSymbolTableRecord
100
AcDbLinetypeTableRecord
  2
ByBlock
 70
     0
  3

 72
    65
 73
     0
 40
0.0
  0
LTYPE
  5
14
330
5
100
AcDbSymbolTableRecord
100
AcDbLinetypeTableRecord
  2
ByLayer
 70
     0
  3

 72
    65
 73
     0
 40
0.0
  0
LTYPE
  5
15
330
5
100
AcDbSymbolTableRecord
100
AcDbLinetypeTableRecord
  2
CONTINUOUS
 70
     0
  3
連續線 ________________________
 72
    65
 73
     2
 40
200000.0
 49
200000.0
 74
     0
 49
0.0
 74
     0
  0
LTYPE
  5
225
330
5
100
AcDbSymbolTableRecord
100
AcDbLinetypeTableRecord
  2
BYBLOCK
 70
     0
  3
Solid line
 72
    65
 73
     0
 40
0.0
  0
LTYPE
  5
226
330
5
100
AcDbSymbolTableRecord
100
AcDbLinetypeTableRecord
  2
BYLAYER
 70
     0
  3
Solid line
 72
    65
 73
     0
 40
0.0
  0
LTYPE
  5
413C
330
5
100
AcDbSymbolTableRecord
100
AcDbLinetypeTableRecord
  2
CENTER2
 70
     0
  3
Center (.5x) ___ _ ___ _ ___ _ ___ _ ___ _ ___
 72
    65
 73
     4
 40
28.575
 49
19.05
 74
     0
 49
-3.174999999999999
 74
     0
 49
3.174999999999999
 74
     0
 49
-3.174999999999999
 74
     0
  0
LTYPE
  5
413D
330
5
100
AcDbSymbolTableRecord
100
AcDbLinetypeTableRecord
  2
DASHED2
 70
     0
  3
Dashed (.5x) _ _ _ _ _ _ _ _ _ _ _ _ _ _ _ _ _
 72
    65
 73
     2
 40
9.524999999999998
 49
6.349999999999999
 74
     0
 49
-3.174999999999999
 74
     0
  0
ENDTAB
  0
TABLE
  2
LAYER
  5
2
102
{ACAD_XDICTIONARY
360
43C2
102
}
330
0
100
AcDbSymbolTable
 70
     8
  0
LAYER
  5
10
330
2
100
AcDbSymbolTableRecord
100
AcDbLayerTableRecord
  2
0
 70
     0
 62
     7
  6
CONTINUOUS
370
    -3
390
F
  0
LAYER
  5
413E
330
2
100
AcDbSymbolTableRecord
100
AcDbLayerTableRecord
  2
指線
 70
     0
 62
     3
  6
CONTINUOUS
370
    15
390
F
  0
LAYER
  5
413F
330
2
100
AcDbSymbolTableRecord
100
AcDbLayerTableRecord
  2
中心線
 70
     0
 62
     4
  6
CENTER2
370
    20
390
F
  0
LAYER
  5
4140
330
2
100
AcDbSymbolTableRecord
100
AcDbLayerTableRecord
  2
虛線
 70
     0
 62
     6
  6
DASHED2
290
     0
370
    -3
390
F
  0
LAYER
  5
43B4
330
2
100
AcDbSymbolTableRecord
100
AcDbLayerTableRecord
  2
建構線
 70
     0
 62
     1
  6
CONTINUOUS
370
    -3
390
F
  0
LAYER
  5
5C64
330
2
100
AcDbSymbolTableRecord
100
AcDbLayerTableRecord
  2
AM4
 70
     0
 62
     3
  6
CONTINUOUS
370
    15
390
F
  0
LAYER
  5
5C66
330
2
100
AcDbSymbolTableRecord
100
AcDbLayerTableRecord
  2
AM7
 70
     0
 62
     4
  6
CENTER2
370
    20
390
F
  0
LAYER
  5
5C67
330
2
100
AcDbSymbolTableRecord
100
AcDbLayerTableRecord
  2
DEFPOINTS
 70
     0
 62
    -7
  6
CONTINUOUS
290
     0
370
    -3
390
F
  0
ENDTAB
  0
TABLE
  2
STYLE
  5
3
330
0
100
AcDbSymbolTable
 70
     1
  0
STYLE
  5
11
330
3
100
AcDbSymbolTableRecord
100
AcDbTextStyleTableRecord
  2
STANDARD
 70
     0
 40
0.0
 41
1.0
 50
0.0
 71
     0
 42
3.0
  3

  4

  0
ENDTAB
  0
TABLE
  2
VIEW
  5
6
330
0
100
AcDbSymbolTable
 70
     0
  0
ENDTAB
  0
TABLE
  2
UCS
  5
7
330
0
100
AcDbSymbolTable
 70
     0
  0
ENDTAB
  0
TABLE
  2
APPID
  5
9
330
0
100
AcDbSymbolTable
 70
     5
  0
APPID
  5
12
330
9
100
AcDbSymbolTableRecord
100
AcDbRegAppTableRecord
  2
ACAD
 70
     0
  0
APPID
  5
230
330
9
100
AcDbSymbolTableRecord
100
AcDbRegAppTableRecord
  2
TCAD
 70
     0
  0
APPID
  5
4142
330
9
100
AcDbSymbolTableRecord
100
AcDbRegAppTableRecord
  2
CONTENTBLOCKICON
 70
     0
  0
APPID
  5
5A4E
330
9
100
AcDbSymbolTableRecord
100
AcDbRegAppTableRecord
  2
pntflag
 70
     0
  0
APPID
  5
6AFE
330
9
100
AcDbSymbolTableRecord
100
AcDbRegAppTableRecord
  2
ACAD_EXEMPT_FROM_CAD_STANDARDS
 70
     0
  0
ENDTAB
  0
TABLE
  2
DIMSTYLE
  5
A
330
0
100
AcDbSymbolTable
 70
     4
100
AcDbDimStyleTable
 71
     3
340
3C9D
340
5F95
340
5F94
  0
DIMSTYLE
105
3C9D
330
A
100
AcDbSymbolTableRecord
100
AcDbDimStyleTableRecord
  2
Standard
 70
     0
271
     8
272
     8
340
11
  0
DIMSTYLE
105
5F94
330
A
100
AcDbSymbolTableRecord
100
AcDbDimStyleTableRecord
  2
ISO-25
 70
     0
 41
1.5
 42
0.7
 43
3.75
 44
0.3
 73
     0
 74
     0
 77
     1
 78
     8
140
2.299999999999999
141
2.5
143
0.03937007874016
147
0.5
171
     3
172
     1
176
     3
177
     3
178
     2
271
     8
272
     8
274
     3
283
     0
284
     8
340
11
  0
DIMSTYLE
105
5F95
330
A
100
AcDbSymbolTableRecord
100
AcDbDimStyleTableRecord
  2
複本 ISO-25
 70
     0
 41
2.0
 42
0.7
 43
3.75
 44
0.3
 73
     0
 74
     0
 77
     1
 78
     8
140
3.0
141
2.5
143
0.03937007874016
147
0.5
171
     3
172
     1
176
     3
177
     3
178
     2
271
     8
272
     8
274
     3
283
     0
284
     8
340
11
  0
ENDTAB
  0
TABLE
  2
BLOCK_RECORD
  5
1
330
0
100
AcDbSymbolTable
 70
     1
  0
BLOCK_RECORD
  5
1E
102
{ACAD_XDICTIONARY
360
3D1E
102
}
330
1
100
AcDbSymbolTableRecord
100
AcDbBlockTableRecord
  2
*Model_Space
340
21
  0
BLOCK_RECORD
  5
1A
102
{ACAD_XDICTIONARY
360
3D20
102
}
330
1
100
AcDbSymbolTableRecord
100
AcDbBlockTableRecord
  2
*Paper_Space
340
1D
  0
ENDTAB
  0
ENDSEC
  0
SECTION
  2
BLOCKS
  0
BLOCK
  5
254
330
1E
100
AcDbEntity
  8
0
100
AcDbBlockBegin
  2
*Model_Space
 70
     0
 10
0.0
 20
0.0
 30
0.0
  3
*Model_Space
  1

  0
ENDBLK
  5
255
330
1E
100
AcDbEntity
  8
0
100
AcDbBlockEnd
  0
BLOCK
  5
252
330
1A
100
AcDbEntity
 67
     1
  8
0
100
AcDbBlockBegin
  2
*Paper_Space
 70
     0
 10
0.0
 20
0.0
 30
0.0
  3
*Paper_Space
  1

  0
ENDBLK
  5
253
330
1A
100
AcDbEntity
 67
     1
  8
0
100
AcDbBlockEnd
  0
ENDSEC
  0
SECTION
  2
ENTITIES
  0
MTEXT
  5
413A
330
1E
100
AcDbEntity
  8
0
100
AcDbMText
 10
-49.4501290674857
 20
-32.23863191955258
 30
0.0
 40
7.800000159341863
 41
100.6095
 71
     1
 72
     5
  1
\A1;{\fTimes New Roman|b0|i0|c0|p18;HG\fTimes New Roman|b0|i0|c238|p18;L\fTimes New Roman|b0|i0|c0|p18;55HA\PC : 14210 kgf\PC\fProxy 1|b0|i0|c0|p2;\H0.7x;\S^ 0;\fTimes New Roman|b0|i0|c0|p18;\H1.429x;: 30720 kgf}
 73
     1
 44
1.0
1001
ACAD
1000
MTEXTBEGIN
1070
    73
1070
     1
1070
    44
1040
1.0
1070
    74
1070
     0
1000
MTEXTEND
  0
LINE
  5
587E
330
1E
100
AcDbEntity
  8
0
 48
0.27
100
AcDbLine
 10
517.6874242696036
 20
-13.00000000000813
 30
0.0
 11
97.68742426960352
 21
-13.00000000000807
 31
0.0
  0
LINE
  5
587F
330
1E
100
AcDbEntity
  8
0
 48
0.27
100
AcDbLine
 10
517.6874242696035
 20
6.999999999991917
 30
0.0
 11
381.8342135766298
 21
6.999999999991985
 31
0.0
  0
LINE
  5
5880
330
1E
100
AcDbEntity
  8
0
 48
0.27
100
AcDbLine
 10
517.6874242696035
 20
12.99999999999182
 30
0.0
 11
382.2668253777091
 21
12.99999999999193
 31
0.0
  0
LINE
  5
5881
330
1E
100
AcDbEntity
  8
0
 48
0.27
100
AcDbLine
 10
517.6874242696035
 20
14.48812884918939
 30
0.0
 11
382.33421357663
 21
14.48812884918948
 31
0.0
  0
LINE
  5
5882
330
1E
100
AcDbEntity
  8
0
 48
0.27
100
AcDbLine
 10
517.6874242696035
 20
18.36584469454476
 30
0.0
 11
382.1298966233412
 21
18.36584469454482
 31
0.0
  0
LINE
  5
5883
330
1E
100
AcDbEntity
  8
0
 48
0.27
100
AcDbLine
 10
517.6874242696035
 20
20.80000554972255
 30
0.0
 11
381.8342135766298
 21
20.80000554972258
 31
0.0
  0
LINE
  5
5884
330
1E
100
AcDbEntity
  8
0
 48
0.27
100
AcDbLine
 10
517.6874242696035
 20
23.6999789999919
 30
0.0
 11
381.8342135766298
 21
23.69997899999197
 31
0.0
  0
LINE
  5
5885
330
1E
100
AcDbEntity
  8
0
 48
0.27
100
AcDbLine
 10
517.6874242696035
 20
26.13295083717809
 30
0.0
 11
381.8342135766298
 21
26.13295083717816
 31
0.0
  0
LINE
  5
5886
330
1E
100
AcDbEntity
  8
0
 48
0.27
100
AcDbLine
 10
517.6874242696035
 20
30.01203528845328
 30
0.0
 11
381.8342135766298
 21
30.01203528845332
 31
0.0
  0
LINE
  5
5887
330
1E
100
AcDbEntity
  8
0
 48
0.27
100
AcDbLine
 10
517.6874242696035
 20
-10.69999240400342
 30
0.0
 11
167.9134385163338
 21
-10.69999240400334
 31
0.0
  0
LINE
  5
5888
330
1E
100
AcDbEntity
  8
0
 48
0.27
100
AcDbLine
 10
517.6874242696035
 20
-0.8000010400082159
 30
0.0
 11
168.5349518463071
 21
-0.8000010400080483
 31
0.0
  0
LINE
  5
5889
330
1E
100
AcDbEntity
  8
0
 48
0.27
100
AcDbLine
 10
517.6874242696035
 20
30.99999999999193
 30
0.0
 11
381.8342135766298
 21
30.99999999999194
 31
0.0
  0
LINE
  5
588A
330
1E
100
AcDbEntity
  8
中心線
 48
0.27
100
AcDbLine
 10
247.6874242696035
 20
-14.85132957384218
 30
0.0
 11
247.6874242696035
 21
1.403427213008399
 31
0.0
  0
LINE
  5
5899
330
1E
100
AcDbEntity
  8
中心線
 48
0.27
100
AcDbLine
 10
487.6874242696035
 20
-14.85132957384223
 30
0.0
 11
487.6874242696035
 21
33.46054206324663
 31
0.0
  0
LINE
  5
589A
330
1E
100
AcDbEntity
  8
中心線
 48
0.27
100
AcDbLine
 10
127.6874242696035
 20
-14.85132957384218
 30
0.0
 11
127.6874242696035
 21
33.46054206324669
 31
0.0
  0
LINE
  5
589B
330
1E
100
AcDbEntity
  8
0
 48
0.27
100
AcDbLine
 10
517.6874242696035
 20
-13.00000000000813
 30
0.0
 11
517.6874242696034
 21
30.99999999999198
 31
0.0
  0
LINE
  5
589C
330
1E
100
AcDbEntity
  8
0
 48
0.27
100
AcDbLine
 10
97.68742426960352
 20
-13.00000000000807
 30
0.0
 11
97.68742426960352
 21
30.99999999999176
 31
0.0
  0
LINE
  5
589D
330
1E
100
AcDbEntity
  8
0
 48
0.27
100
AcDbLine
 10
139.1874242696037
 20
10.99999999999198
 30
0.0
 11
139.1874242696037
 21
30.59999999999195
 31
0.0
  0
LINE
  5
589E
330
1E
100
AcDbEntity
  8
0
 48
0.27
100
AcDbLine
 10
116.1874242696037
 20
10.99999999999198
 30
0.0
 11
116.1874242696037
 21
30.59999999999195
 31
0.0
  0
LINE
  5
589F
330
1E
100
AcDbEntity
  8
0
 48
0.27
100
AcDbLine
 10
135.6874242696037
 20
10.49999999999198
 30
0.0
 11
119.6874242696037
 21
10.49999999999198
 31
0.0
  0
LINE
  5
58A0
330
1E
100
AcDbEntity
  8
0
 48
0.27
100
AcDbLine
 10
139.1874242696037
 20
10.99999999999198
 30
0.0
 11
116.1874242696037
 21
10.99999999999198
 31
0.0
  0
LINE
  5
58A1
330
1E
100
AcDbEntity
  8
0
 48
0.27
100
AcDbLine
 10
119.6874242696037
 20
-12.50000000000796
 30
0.0
 11
119.6874242696037
 21
10.49999999999198
 31
0.0
  0
LINE
  5
58A2
330
1E
100
AcDbEntity
  8
0
 48
0.27
100
AcDbLine
 10
119.1874242696037
 20
10.99999999999198
 30
0.0
 11
119.6874242696037
 21
10.49999999999198
 31
0.0
  0
LINE
  5
58A3
330
1E
100
AcDbEntity
  8
0
 48
0.27
100
AcDbLine
 10
135.6874242696037
 20
-12.50000000000796
 30
0.0
 11
135.6874242696037
 21
10.49999999999198
 31
0.0
  0
LINE
  5
58A4
330
1E
100
AcDbEntity
  8
0
 48
0.27
100
AcDbLine
 10
135.6874242696037
 20
10.49999999999198
 30
0.0
 11
136.1874242696037
 21
10.99999999999198
 31
0.0
  0
LINE
  5
58A5
330
1E
100
AcDbEntity
  8
0
 48
0.27
100
AcDbLine
 10
139.1874242696037
 20
30.59999999999195
 30
0.0
 11
116.1874242696037
 21
30.59999999999195
 31
0.0
  0
LINE
  5
58A6
330
1E
100
AcDbEntity
  8
0
 48
0.27
100
AcDbLine
 10
139.1874242696037
 20
30.59999999999195
 30
0.0
 11
139.4183643772794
 21
30.99999999999182
 31
0.0
  0
LINE
  5
58A7
330
1E
100
AcDbEntity
  8
0
 48
0.27
100
AcDbLine
 10
115.956484161928
 20
30.99999999999176
 30
0.0
 11
116.1874242696037
 21
30.59999999999195
 31
0.0
  0
LINE
  5
58A8
330
1E
100
AcDbEntity
  8
0
 48
0.27
100
AcDbLine
 10
119.6874242696037
 20
-12.50000000000796
 30
0.0
 11
135.6874242696037
 21
-12.50000000000796
 31
0.0
  0
LINE
  5
58A9
330
1E
100
AcDbEntity
  8
0
 48
0.27
100
AcDbLine
 10
136.1874242696037
 20
-13.00000000000807
 30
0.0
 11
135.6874242696037
 21
-12.50000000000796
 31
0.0
  0
LINE
  5
58AA
330
1E
100
AcDbEntity
  8
0
 48
0.27
100
AcDbLine
 10
119.1874242696035
 20
-13.00000000000801
 30
0.0
 11
119.6874242696037
 21
-12.50000000000796
 31
0.0
  0
LINE
  5
58AB
330
1E
100
AcDbEntity
  8
建構線
 48
0.27
100
AcDbLine
 10
167.7350828838998
 20
30.99999999999182
 30
0.0
 11
166.5893650331106
 21
27.9231995472722
 31
0.0
  0
LINE
  5
58AC
330
1E
100
AcDbEntity
  8
建構線
 48
0.27
100
AcDbLine
 10
166.5893650331106
 20
27.9231995472722
 30
0.0
 11
169.312472494621
 21
21.840831156116
 31
0.0
  0
LINE
  5
58AD
330
1E
100
AcDbEntity
  8
建構線
 48
0.27
100
AcDbLine
 10
169.312472494621
 20
21.840831156116
 30
0.0
 11
166.7495474288613
 21
11.43678006527125
 31
0.0
  0
LINE
  5
58AE
330
1E
100
AcDbEntity
  8
建構線
 48
0.27
100
AcDbLine
 10
166.7495474288613
 20
11.43678006527125
 30
0.0
 11
170.1133869985301
 21
3.433663421317369
 31
0.0
  0
LINE
  5
58AF
330
1E
100
AcDbEntity
  8
建構線
 48
0.27
100
AcDbLine
 10
170.1133869985301
 20
3.433663421317369
 30
0.0
 11
167.0699130620813
 21
-4.729514790702118
 31
0.0
  0
LINE
  5
58B0
330
1E
100
AcDbEntity
  8
建構線
 48
0.27
100
AcDbLine
 10
167.0699130620813
 20
-4.729514790702118
 30
0.0
 11
168.2383898984278
 21
-13.00000000000807
 31
0.0
  0
LINE
  5
58B1
330
1E
100
AcDbEntity
  8
虛線
 48
0.27
100
AcDbLine
 10
255.6874242696038
 20
-12.50000000000796
 30
0.0
 11
255.6874242696038
 21
-0.0021141776763898
 31
0.0
  0
LINE
  5
58B2
330
1E
100
AcDbEntity
  8
虛線
 48
0.27
100
AcDbLine
 10
239.6874242696037
 20
-12.50000000000796
 30
0.0
 11
239.6874242696037
 21
-0.0021141776763898
 31
0.0
  0
LINE
  5
58BC
330
1E
100
AcDbEntity
  8
虛線
 48
0.27
100
AcDbLine
 10
239.6874242696037
 20
-12.50000000000796
 30
0.0
 11
255.6874242696038
 21
-12.50000000000796
 31
0.0
  0
LINE
  5
58BD
330
1E
100
AcDbEntity
  8
虛線
 48
0.27
100
AcDbLine
 10
256.1874242696037
 20
-13.00000000000807
 30
0.0
 11
255.6874242696038
 21
-12.50000000000796
 31
0.0
  0
LINE
  5
58BE
330
1E
100
AcDbEntity
  8
虛線
 48
0.27
100
AcDbLine
 10
239.1874242696035
 20
-13.00000000000801
 30
0.0
 11
239.6874242696037
 21
-12.50000000000796
 31
0.0
  0
LINE
  5
58BF
330
1E
100
AcDbEntity
  8
虛線
 48
0.27
100
AcDbLine
 10
495.6874242696036
 20
-12.50000000000801
 30
0.0
 11
495.6874242696036
 21
10.49999999999193
 31
0.0
  0
LINE
  5
58C0
330
1E
100
AcDbEntity
  8
虛線
 48
0.27
100
AcDbLine
 10
479.6874242696036
 20
-12.50000000000801
 30
0.0
 11
479.6874242696036
 21
10.49999999999193
 31
0.0
  0
LINE
  5
58C1
330
1E
100
AcDbEntity
  8
虛線
 48
0.27
100
AcDbLine
 10
476.1874242696036
 20
10.99999999999193
 30
0.0
 11
476.1874242696036
 21
30.59999999999189
 31
0.0
  0
LINE
  5
58C2
330
1E
100
AcDbEntity
  8
虛線
 48
0.27
100
AcDbLine
 10
499.1874242696036
 20
10.99999999999193
 30
0.0
 11
499.1874242696036
 21
30.59999999999189
 31
0.0
  0
LINE
  5
58C3
330
1E
100
AcDbEntity
  8
虛線
 48
0.27
100
AcDbLine
 10
499.1874242696036
 20
10.99999999999193
 30
0.0
 11
476.1874242696036
 21
10.99999999999193
 31
0.0
  0
LINE
  5
58C4
330
1E
100
AcDbEntity
  8
虛線
 48
0.27
100
AcDbLine
 10
495.6874242696036
 20
10.49999999999193
 30
0.0
 11
479.6874242696036
 21
10.49999999999193
 31
0.0
  0
LINE
  5
58C5
330
1E
100
AcDbEntity
  8
虛線
 48
0.27
100
AcDbLine
 10
479.1874242696036
 20
10.99999999999193
 30
0.0
 11
479.6874242696036
 21
10.49999999999193
 31
0.0
  0
LINE
  5
58C6
330
1E
100
AcDbEntity
  8
虛線
 48
0.27
100
AcDbLine
 10
495.6874242696036
 20
10.49999999999193
 30
0.0
 11
496.1874242696036
 21
10.99999999999193
 31
0.0
  0
LINE
  5
58C7
330
1E
100
AcDbEntity
  8
虛線
 48
0.27
100
AcDbLine
 10
499.1874242696036
 20
30.59999999999189
 30
0.0
 11
476.1874242696036
 21
30.59999999999189
 31
0.0
  0
LINE
  5
58C8
330
1E
100
AcDbEntity
  8
虛線
 48
0.27
100
AcDbLine
 10
499.1874242696036
 20
30.59999999999189
 30
0.0
 11
499.4183643772792
 21
30.99999999999175
 31
0.0
  0
LINE
  5
58C9
330
1E
100
AcDbEntity
  8
虛線
 48
0.27
100
AcDbLine
 10
475.9564841619279
 20
30.9999999999917
 30
0.0
 11
476.1874242696036
 21
30.59999999999189
 31
0.0
  0
LINE
  5
58CA
330
1E
100
AcDbEntity
  8
虛線
 48
0.27
100
AcDbLine
 10
479.6874242696036
 20
-12.50000000000801
 30
0.0
 11
495.6874242696036
 21
-12.50000000000801
 31
0.0
  0
LINE
  5
58CB
330
1E
100
AcDbEntity
  8
虛線
 48
0.27
100
AcDbLine
 10
496.1874242696036
 20
-13.00000000000813
 30
0.0
 11
495.6874242696036
 21
-12.50000000000801
 31
0.0
  0
LINE
  5
58CC
330
1E
100
AcDbEntity
  8
虛線
 48
0.27
100
AcDbLine
 10
479.1874242696036
 20
-13.00000000000807
 30
0.0
 11
479.6874242696036
 21
-12.50000000000801
 31
0.0
  0
LINE
  5
58E6
330
1E
100
AcDbEntity
  8
0
 48
0.27
100
AcDbLine
 10
178.0342135766301
 20
30.01203528845328
 30
0.0
 11
167.3671913604312
 21
30.01203528845327
 31
0.0
  0
LINE
  5
58E7
330
1E
100
AcDbEntity
  8
0
 48
0.27
100
AcDbLine
 10
178.0342135766301
 20
30.99999999999184
 30
0.0
 11
97.68742426960352
 21
30.99999999999176
 31
0.0
  0
LINE
  5
58E8
330
1E
100
AcDbEntity
  8
0
 48
0.27
100
AcDbLine
 10
178.0342135766301
 20
26.13295083717817
 30
0.0
 11
167.3908685440628
 21
26.13295083717817
 31
0.0
  0
LINE
  5
58E9
330
1E
100
AcDbEntity
  8
0
 48
0.27
100
AcDbLine
 10
178.0342135766301
 20
23.69997899999198
 30
0.0
 11
168.4801224888123
 21
23.69997899999198
 31
0.0
  0
LINE
  5
58EA
330
1E
100
AcDbEntity
  8
0
 48
0.27
100
AcDbLine
 10
178.0342135766301
 20
20.80000554972254
 30
0.0
 11
169.0560764030968
 21
20.80000554972254
 31
0.0
  0
LINE
  5
58EB
330
1E
100
AcDbEntity
  8
0
 48
0.27
100
AcDbLine
 10
177.7385305299188
 20
18.36584469454483
 30
0.0
 11
168.4564472956124
 21
18.36584469454482
 31
0.0
  0
LINE
  5
58EC
330
1E
100
AcDbEntity
  8
0
 48
0.27
100
AcDbLine
 10
177.5342135766301
 20
14.48812884918952
 30
0.0
 11
167.5012140839358
 21
14.48812884918954
 31
0.0
  0
LINE
  5
58ED
330
1E
100
AcDbEntity
  8
0
 48
0.27
100
AcDbLine
 10
177.6016017755509
 20
12.99999999999198
 30
0.0
 11
167.134629693357
 21
12.99999999999199
 31
0.0
  0
LINE
  5
58EE
330
1E
100
AcDbEntity
  8
0
 48
0.27
100
AcDbLine
 10
178.0342135766301
 20
6.999999999991992
 30
0.0
 11
168.6143979626567
 21
6.999999999991992
 31
0.0
  0
LINE
  5
59F1
330
1E
100
AcDbEntity
  8
0
 48
0.27
100
AcDbLine
 10
202.03421357663
 20
0.0
 30
0.0
 11
357.83421357663
 21
0.0
 31
0.0
  0
LINE
  5
59F2
330
1E
100
AcDbEntity
  8
0
 48
0.27
100
AcDbLine
 10
202.03421357663
 20
57.00000000000014
 30
0.0
 11
357.8342135766299
 21
57.00000000000011
 31
0.0
  0
LINE
  5
59F3
330
1E
100
AcDbEntity
  8
0
 48
0.27
100
AcDbLine
 10
376.83421357663
 20
3.000000000000056
 30
0.0
 11
183.0342135766301
 21
3.000000000000056
 31
0.0
  0
LINE
  5
59F4
330
1E
100
AcDbEntity
  8
0
 48
0.27
100
AcDbLine
 10
202.03421357663
 20
55.04999999999992
 30
0.0
 11
357.8342135766299
 21
55.0499999999999
 31
0.0
  0
LINE
  5
59F5
330
1E
100
AcDbEntity
  8
0
 48
0.27
100
AcDbLine
 10
202.03421357663
 20
57.00000000000015
 30
0.0
 11
202.0342135766301
 21
0.0
 31
0.0
  0
LINE
  5
5A09
330
1E
100
AcDbEntity
  8
中心線
 48
0.27
100
AcDbLine
 10
232.43421357663
 20
59.00000000000023
 30
0.0
 11
232.43421357663
 21
29.46597600000018
 31
0.0
  0
LINE
  5
5A0A
330
1E
100
AcDbEntity
  8
中心線
 48
0.27
100
AcDbLine
 10
327.4342135766299
 20
59.00000000000023
 30
0.0
 11
327.4342135766299
 21
29.46597600000016
 31
0.0
  0
LINE
  5
5A0B
330
1E
100
AcDbEntity
  8
0
 48
0.27
100
AcDbLine
 10
357.8342135766299
 20
57.00000000000011
 30
0.0
 11
357.83421357663
 21
0.0
 31
0.0
  0
LINE
  5
5D40
330
1E
100
AcDbEntity
  8
AM7
100
AcDbLine
 10
180.1080304367844
 20
171.3132596304778
 30
0.0
 11
389.4541787907082
 21
171.3132596304778
 31
0.0
  0
LINE
  5
5D41
330
1E
100
AcDbEntity
  8
AM7
100
AcDbLine
 10
240.1890012338385
 20
133.8132596304777
 30
0.0
 11
224.9998895778638
 21
133.8132596304778
 31
0.0
  0
ARC
  5
5D42
330
1E
100
AcDbEntity
  8
AM4
100
AcDbCircle
 10
232.43421357663
 20
133.8132596304777
 30
0.0
 40
6.0
100
AcDbArc
 50
180.0
 51
89.99999999999998
  0
CIRCLE
  5
5D43
330
1E
100
AcDbEntity
  8
0
100
AcDbCircle
 10
232.43421357663
 20
133.8132596304777
 30
0.0
 40
5.099999999999999
  0
LINE
  5
5D44
330
1E
100
AcDbEntity
  8
0
100
AcDbLine
 10
202.0342135766298
 20
160.3132596304778
 30
0.0
 11
357.8342135766299
 21
160.3132596304777
 31
0.0
  0
LINE
  5
5D45
330
1E
100
AcDbEntity
  8
0
100
AcDbLine
 10
202.0342135766298
 20
146.8132596304778
 30
0.0
 11
357.8342135766299
 21
146.8132596304777
 31
0.0
  0
LINE
  5
5D46
330
1E
100
AcDbEntity
  8
0
100
AcDbLine
 10
202.0342135766298
 20
195.8132596304777
 30
0.0
 11
357.8342135766299
 21
195.8132596304777
 31
0.0
  0
LINE
  5
5D47
330
1E
100
AcDbEntity
  8
0
100
AcDbLine
 10
202.0342135766298
 20
182.3132596304778
 30
0.0
 11
357.8342135766299
 21
182.3132596304777
 31
0.0
  0
LINE
  5
5D48
330
1E
100
AcDbEntity
  8
0
100
AcDbLine
 10
202.0342135766298
 20
121.3132596304778
 30
0.0
 11
357.8342135766299
 21
121.3132596304777
 31
0.0
  0
LINE
  5
5D49
330
1E
100
AcDbEntity
  8
0
100
AcDbLine
 10
202.0342135766298
 20
123.3132596304778
 30
0.0
 11
357.8342135766299
 21
123.3132596304777
 31
0.0
  0
LINE
  5
5D4A
330
1E
100
AcDbEntity
  8
0
100
AcDbLine
 10
202.0342135766298
 20
145.8132596304778
 30
0.0
 11
357.8342135766299
 21
145.8132596304777
 31
0.0
  0
LINE
  5
5D4B
330
1E
100
AcDbEntity
  8
0
100
AcDbLine
 10
202.0342135766298
 20
161.3132596304778
 30
0.0
 11
357.8342135766299
 21
161.3132596304777
 31
0.0
  0
LINE
  5
5D4C
330
1E
100
AcDbEntity
  8
0
100
AcDbLine
 10
202.0342135766298
 20
181.3132596304777
 30
0.0
 11
357.8342135766299
 21
181.3132596304777
 31
0.0
  0
LINE
  5
5D4D
330
1E
100
AcDbEntity
  8
0
100
AcDbLine
 10
202.0342135766298
 20
196.8132596304777
 30
0.0
 11
357.8342135766299
 21
196.8132596304777
 31
0.0
  0
LINE
  5
5D4E
330
1E
100
AcDbEntity
  8
AM7
100
AcDbLine
 10
240.1890012338385
 20
208.8132596304777
 30
0.0
 11
224.9998895778638
 21
208.8132596304777
 31
0.0
  0
LINE
  5
5D4F
330
1E
100
AcDbEntity
  8
0
100
AcDbLine
 10
202.0342135766298
 20
221.3132596304777
 30
0.0
 11
357.8342135766299
 21
221.3132596304777
 31
0.0
  0
LINE
  5
5D50
330
1E
100
AcDbEntity
  8
0
100
AcDbLine
 10
202.0342135766298
 20
219.3632596304775
 30
0.0
 11
357.8342135766299
 21
219.3632596304775
 31
0.0
  0
CIRCLE
  5
5D51
330
1E
100
AcDbEntity
  8
0
100
AcDbCircle
 10
232.43421357663
 20
208.8132596304777
 30
0.0
 40
5.099999999999999
  0
ARC
  5
5D52
330
1E
100
AcDbEntity
  8
AM4
100
AcDbCircle
 10
232.43421357663
 20
208.8132596304777
 30
0.0
 40
6.0
100
AcDbArc
 50
180.0
 51
89.99999999999998
  0
LINE
  5
5D54
330
1E
100
AcDbEntity
  8
0
100
AcDbLine
 10
202.0342135766298
 20
221.3132596304777
 30
0.0
 11
202.0342135766299
 21
121.3132596304778
 31
0.0
  0
LINE
  5
5D9F
330
1E
100
AcDbEntity
  8
AM7
100
AcDbLine
 10
279.9342135766299
 20
227.6431149993315
 30
0.0
 11
279.9342135766299
 21
115.5535970062579
 31
0.0
  0
LINE
  5
5DA0
330
1E
100
AcDbEntity
  8
AM7
100
AcDbLine
 10
232.43421357663
 20
216.4085308191885
 30
0.0
 11
232.43421357663
 21
201.0950723206243
 31
0.0
  0
LINE
  5
5DA1
330
1E
100
AcDbEntity
  8
AM7
100
AcDbLine
 10
232.43421357663
 20
126.217988441767
 30
0.0
 11
232.43421357663
 21
141.5314469403312
 31
0.0
  0
LINE
  5
5DA3
330
1E
100
AcDbEntity
  8
0
100
AcDbLine
 10
357.8342135766299
 20
221.3132596304777
 30
0.0
 11
357.8342135766298
 21
121.3132596304777
 31
0.0
  0
LINE
  5
5DA4
330
1E
100
AcDbEntity
  8
AM7
100
AcDbLine
 10
319.6794259194212
 20
208.8132596304777
 30
0.0
 11
335.3383352914195
 21
208.8132596304777
 31
0.0
  0
CIRCLE
  5
5DA5
330
1E
100
AcDbEntity
  8
0
100
AcDbCircle
 10
327.4342135766298
 20
208.8132596304777
 30
0.0
 40
5.099999999999999
  0
ARC
  5
5DA6
330
1E
100
AcDbEntity
  8
AM4
100
AcDbCircle
 10
327.4342135766298
 20
208.8132596304777
 30
0.0
 40
6.0
100
AcDbArc
 50
180.0
 51
89.99999999999998
  0
LINE
  5
5DA7
330
1E
100
AcDbEntity
  8
AM7
100
AcDbLine
 10
327.4342135766298
 20
216.4085308191885
 30
0.0
 11
327.4342135766298
 21
201.0950723206243
 31
0.0
  0
LINE
  5
5DCA
330
1E
100
AcDbEntity
  8
AM7
100
AcDbLine
 10
319.6794259194212
 20
133.8132596304777
 30
0.0
 11
335.5020971465472
 21
133.8132596304777
 31
0.0
  0
CIRCLE
  5
5DCB
330
1E
100
AcDbEntity
  8
0
100
AcDbCircle
 10
327.4342135766298
 20
133.8132596304777
 30
0.0
 40
5.099999999999999
  0
ARC
  5
5DCC
330
1E
100
AcDbEntity
  8
AM4
100
AcDbCircle
 10
327.4342135766298
 20
133.8132596304777
 30
0.0
 40
6.0
100
AcDbArc
 50
180.0
 51
89.99999999999998
  0
LINE
  5
5DCD
330
1E
100
AcDbEntity
  8
AM7
100
AcDbLine
 10
327.4342135766298
 20
126.217988441767
 30
0.0
 11
327.4342135766298
 21
141.5314469403312
 31
0.0
  0
LINE
  5
5E7B
330
1E
100
AcDbEntity
  8
0
 48
0.27
100
AcDbLine
 10
183.0342135766301
 20
122.8132596304776
 30
0.0
 11
183.0342135766301
 21
219.8132596304778
 31
0.0
  0
LINE
  5
5E7C
330
1E
100
AcDbEntity
  8
0
100
AcDbLine
 10
180.83421357663
 20
122.8132596304776
 30
0.0
 11
180.83421357663
 21
219.8132596304778
 31
0.0
  0
LINE
  5
5E7D
330
1E
100
AcDbEntity
  8
中心線
 48
0.27
100
AcDbLine
 10
111.6193542660901
 20
171.3132596304778
 30
0.0
 11
143.7554942731169
 21
171.3132596304778
 31
0.0
  0
CIRCLE
  5
5E7E
330
1E
100
AcDbEntity
  8
0
100
AcDbCircle
 10
127.6874242696035
 20
171.3132596304778
 30
0.0
 40
8.000000000000227
  0
CIRCLE
  5
5E7F
330
1E
100
AcDbEntity
  8
0
100
AcDbCircle
 10
127.6874242696035
 20
171.3132596304778
 30
0.0
 40
11.50000000000023
  0
LINE
  5
5E80
330
1E
100
AcDbEntity
  8
0
100
AcDbLine
 10
97.68742426960347
 20
197.8132596304779
 30
0.0
 11
178.0654266913447
 21
197.8132596304778
 31
0.0
  0
LINE
  5
5E81
330
1E
100
AcDbEntity
  8
0
100
AcDbLine
 10
97.68742426960352
 20
144.8132596304776
 30
0.0
 11
178.0654266913448
 21
144.8132596304776
 31
0.0
  0
LINE
  5
5E82
330
1E
100
AcDbEntity
  8
0
 48
0.27
100
AcDbLine
 10
97.68742426960352
 20
144.8132596304776
 30
0.0
 11
97.68742426960347
 21
197.8132596304779
 31
0.0
  0
LINE
  5
5E83
330
1E
100
AcDbEntity
  8
中心線
 48
0.27
100
AcDbLine
 10
127.6874242696035
 20
155.2451896269643
 30
0.0
 11
127.6874242696035
 21
187.3813296339912
 31
0.0
  0
LINE
  5
5E89
330
1E
100
AcDbEntity
  8
0
 48
0.27
100
AcDbLine
 10
202.0342135766299
 20
122.8132596304775
 30
0.0
 11
180.83421357663
 21
122.8132596304776
 31
0.0
  0
LINE
  5
5EAE
330
1E
100
AcDbEntity
  8
0
 48
0.27
100
AcDbLine
 10
180.83421357663
 20
219.8132596304778
 30
0.0
 11
202.0342135766299
 21
219.8132596304778
 31
0.0
  0
LINE
  5
5EB4
330
1E
100
AcDbEntity
  8
0
100
AcDbLine
 10
517.6874242696032
 20
144.8132596304776
 30
0.0
 11
381.8030004619144
 21
144.8132596304776
 31
0.0
  0
LINE
  5
5EB5
330
1E
100
AcDbEntity
  8
0
100
AcDbLine
 10
517.6874242696032
 20
197.8132596304778
 30
0.0
 11
381.8030004619148
 21
197.8132596304778
 31
0.0
  0
LINE
  5
5EB6
330
1E
100
AcDbEntity
  8
中心線
 48
0.27
100
AcDbLine
 10
470.8046145734749
 20
171.3132596304777
 30
0.0
 11
502.9407545805017
 21
171.3132596304777
 31
0.0
  0
CIRCLE
  5
5EB7
330
1E
100
AcDbEntity
  8
0
100
AcDbCircle
 10
487.6874242696034
 20
171.3132596304777
 30
0.0
 40
11.50000000000023
  0
LINE
  5
5EB8
330
1E
100
AcDbEntity
  8
0
100
AcDbLine
 10
379.0342135766294
 20
122.8132596304777
 30
0.0
 11
379.0342135766294
 21
219.8132596304779
 31
0.0
  0
LINE
  5
5EB9
330
1E
100
AcDbEntity
  8
0
 48
0.27
100
AcDbLine
 10
376.8342135766294
 20
122.8132596304777
 30
0.0
 11
376.8342135766294
 21
219.8132596304779
 31
0.0
  0
LINE
  5
5EBA
330
1E
100
AcDbEntity
  8
中心線
 48
0.27
100
AcDbLine
 10
487.6874242696034
 20
155.2451896269643
 30
0.0
 11
487.6874242696034
 21
187.3813296339911
 31
0.0
  0
LINE
  5
5EBB
330
1E
100
AcDbEntity
  8
0
 48
0.27
100
AcDbLine
 10
357.8342135766296
 20
122.8132596304776
 30
0.0
 11
379.0342135766294
 21
122.8132596304777
 31
0.0
  0
CIRCLE
  5
5EC3
330
1E
100
AcDbEntity
  8
0
100
AcDbCircle
 10
487.6874242696034
 20
171.3132596304777
 30
0.0
 40
8.000000000000227
  0
LINE
  5
5EC4
330
1E
100
AcDbEntity
  8
0
 48
0.27
100
AcDbLine
 10
379.0342135766294
 20
219.8132596304779
 30
0.0
 11
357.8342135766296
 21
219.8132596304779
 31
0.0
  0
LINE
  5
5ECC
330
1E
100
AcDbEntity
  8
0
 48
0.27
100
AcDbLine
 10
517.6874242696032
 20
144.8132596304776
 30
0.0
 11
517.6874242696032
 21
197.8132596304778
 31
0.0
  0
LINE
  5
5F39
330
1E
100
AcDbEntity
  8
中心線
 48
0.27
100
AcDbLine
 10
367.6874242696035
 20
-14.85132957384272
 30
0.0
 11
367.6874242696035
 21
1.403427213007852
 31
0.0
  0
LINE
  5
5F3A
330
1E
100
AcDbEntity
  8
虛線
 48
0.27
100
AcDbLine
 10
375.6874242696038
 20
-12.5000000000085
 30
0.0
 11
375.6874242696038
 21
-0.0021141776769369
 31
0.0
  0
LINE
  5
5F3B
330
1E
100
AcDbEntity
  8
虛線
 48
0.27
100
AcDbLine
 10
359.6874242696038
 20
-12.5000000000085
 30
0.0
 11
359.6874242696038
 21
-0.0021141776769369
 31
0.0
  0
LINE
  5
5F3C
330
1E
100
AcDbEntity
  8
虛線
 48
0.27
100
AcDbLine
 10
359.1874242696035
 20
-13.00000000000856
 30
0.0
 11
359.6874242696038
 21
-12.5000000000085
 31
0.0
  0
LINE
  5
5F3D
330
1E
100
AcDbEntity
  8
虛線
 48
0.27
100
AcDbLine
 10
359.6874242696038
 20
-12.5000000000085
 30
0.0
 11
375.6874242696038
 21
-12.5000000000085
 31
0.0
  0
LINE
  5
5F3E
330
1E
100
AcDbEntity
  8
虛線
 48
0.27
100
AcDbLine
 10
376.1874242696038
 20
-13.00000000000862
 30
0.0
 11
375.6874242696038
 21
-12.5000000000085
 31
0.0
  0
LINE
  5
5F3F
330
1E
100
AcDbEntity
  8
0
100
AcDbLine
 10
517.6874242696032
 20
144.8132596304776
 30
0.0
 11
517.6874242696032
 21
197.8132596304778
 31
0.0
  0
LINE
  5
65E0
330
1E
100
AcDbEntity
  8
建構線
100
AcDbLine
 10
177.7811118059943
 20
45.0004571768301
 30
0.0
 11
178.2277734204266
 21
45.00045660217099
 31
0.0
  0
ARC
  5
65E1
330
1E
100
AcDbEntity
  8
0
 48
0.27
100
AcDbCircle
 10
180.4987348266298
 20
47.50047838788273
 30
0.0
 40
3.69263874999997
100
AcDbArc
 50
137.3886784721726
 51
222.6118639138376
  0
LINE
  5
65E2
330
1E
100
AcDbEntity
  8
0
 48
0.27
100
AcDbLine
 10
176.80609607663
 20
45.00045843125022
 30
0.0
 11
176.8060960766298
 21
50.00047838788273
 31
0.0
  0
LINE
  5
65E3
330
1E
100
AcDbEntity
  8
0
100
AcDbLine
 10
381.8342135766294
 20
197.813259630478
 30
0.0
 11
381.8342135766294
 21
176.6465929638112
 31
0.0
  0
LINE
  5
65E4
330
1E
100
AcDbEntity
  8
0
100
AcDbLine
 10
381.8342135766294
 20
190.7997180332278
 30
0.0
 11
379.0342135766294
 21
192.0144789613279
 31
0.0
  0
LINE
  5
65E5
330
1E
100
AcDbEntity
  8
0
100
AcDbLine
 10
381.8342135766294
 20
197.780567322828
 30
0.0
 11
379.0342135766294
 21
200.7132596304278
 31
0.0
  0
LINE
  5
65E6
330
1E
100
AcDbEntity
  8
0
100
AcDbLine
 10
381.8342135766294
 20
144.8459519381279
 30
0.0
 11
379.0342135766294
 21
141.913259630528
 31
0.0
  0
LINE
  5
65E7
330
1E
100
AcDbEntity
  8
0
100
AcDbLine
 10
381.8342135766294
 20
151.826801227728
 30
0.0
 11
379.0342135766294
 21
150.6120402996279
 31
0.0
  0
LINE
  5
65E8
330
1E
100
AcDbEntity
  8
0
100
AcDbLine
 10
381.8342135766294
 20
144.8132596304778
 30
0.0
 11
381.8342135766294
 21
176.6465929638112
 31
0.0
  0
LINE
  5
65E9
330
1E
100
AcDbEntity
  8
0
100
AcDbLine
 10
178.0342135766301
 20
197.8132596304778
 30
0.0
 11
178.0342135766301
 21
176.6465929638111
 31
0.0
  0
LINE
  5
65EA
330
1E
100
AcDbEntity
  8
0
100
AcDbLine
 10
178.0342135766301
 20
190.7997180332276
 30
0.0
 11
180.8342135766299
 21
192.0144789613277
 31
0.0
  0
LINE
  5
65EB
330
1E
100
AcDbEntity
  8
0
100
AcDbLine
 10
178.0342135766301
 20
197.7805673228278
 30
0.0
 11
180.8342135766299
 21
200.7132596304276
 31
0.0
  0
LINE
  5
65EC
330
1E
100
AcDbEntity
  8
0
100
AcDbLine
 10
178.0342135766301
 20
144.8459519381277
 30
0.0
 11
180.8342135766299
 21
141.9132596305279
 31
0.0
  0
LINE
  5
65ED
330
1E
100
AcDbEntity
  8
0
100
AcDbLine
 10
178.0342135766301
 20
151.8268012277278
 30
0.0
 11
180.8342135766299
 21
150.6120402996277
 31
0.0
  0
LINE
  5
65EE
330
1E
100
AcDbEntity
  8
0
100
AcDbLine
 10
178.0342135766301
 20
144.8132596304776
 30
0.0
 11
178.0342135766301
 21
165.9799262971443
 31
0.0
  0
ARC
  5
65F0
330
1E
100
AcDbEntity
  8
0
100
AcDbCircle
 10
380.3342135766294
 20
128.2984668310712
 30
0.0
 40
2.0
100
AcDbArc
 50
0.0
 51
0.4237863506471682
  0
LINE
  5
65F3
330
1E
100
AcDbEntity
  8
0
100
AcDbLine
 10
382.3342135766294
 20
132.2984668310708
 30
0.0
 11
382.3342135766294
 21
128.3280524298846
 31
0.0
  0
LINE
  5
65F4
330
1E
100
AcDbEntity
  8
0
100
AcDbLine
 10
380.3342135766296
 20
126.3280524298846
 30
0.0
 11
379.0326346565925
 21
126.3280524298846
 31
0.0
  0
LINE
  5
65F5
330
1E
100
AcDbEntity
  8
0
100
AcDbLine
 10
380.3342135766294
 20
134.2984668310708
 30
0.0
 11
379.0326346565925
 21
134.2984668310708
 31
0.0
  0
ARC
  5
65F6
330
1E
100
AcDbEntity
  8
0
100
AcDbCircle
 10
380.3342135766294
 20
132.2984668310708
 30
0.0
 40
2.0
100
AcDbArc
 50
0.0
 51
90.0
  0
ARC
  5
65F7
330
1E
100
AcDbEntity
  8
0
100
AcDbCircle
 10
380.3342135766294
 20
128.3280524298846
 30
0.0
 40
2.0
100
AcDbArc
 50
270.0000000000033
 51
0.0
  0
LINE
  5
65F8
330
1E
100
AcDbEntity
  8
中心線
100
AcDbLine
 10
384.4296954984863
 20
130.3132596304777
 30
0.0
 11
373.7844699705571
 21
130.3132596304777
 31
0.0
  0
ARC
  5
65FA
330
1E
100
AcDbEntity
  8
0
100
AcDbCircle
 10
380.3342135766294
 20
214.3280524298849
 30
0.0
 40
2.0
100
AcDbArc
 50
359.5762136493529
 51
0.0
  0
LINE
  5
65FE
330
1E
100
AcDbEntity
  8
0
100
AcDbLine
 10
382.3342135766294
 20
214.2984668310715
 30
0.0
 11
382.3342135766294
 21
210.3280524298853
 31
0.0
  0
LINE
  5
65FF
330
1E
100
AcDbEntity
  8
0
100
AcDbLine
 10
380.3342135766296
 20
208.3280524298853
 30
0.0
 11
379.0326346565925
 21
208.3280524298853
 31
0.0
  0
LINE
  5
6600
330
1E
100
AcDbEntity
  8
0
100
AcDbLine
 10
380.3342135766294
 20
216.2984668310715
 30
0.0
 11
379.0326346565925
 21
216.2984668310715
 31
0.0
  0
ARC
  5
6601
330
1E
100
AcDbEntity
  8
0
100
AcDbCircle
 10
380.3342135766294
 20
214.2984668310715
 30
0.0
 40
2.0
100
AcDbArc
 50
0.0
 51
90.0
  0
ARC
  5
6602
330
1E
100
AcDbEntity
  8
0
100
AcDbCircle
 10
380.3342135766294
 20
210.3280524298853
 30
0.0
 40
2.0
100
AcDbArc
 50
270.0000000000033
 51
0.0
  0
LINE
  5
6603
330
1E
100
AcDbEntity
  8
中心線
100
AcDbLine
 10
384.1310679319469
 20
212.313259630478
 30
0.0
 11
373.4858424040177
 21
212.313259630478
 31
0.0
  0
ARC
  5
6605
330
1E
100
AcDbEntity
  8
0
100
AcDbCircle
 10
179.5342135766301
 20
214.3280524298849
 30
0.0
 40
2.0
100
AcDbArc
 50
180.0
 51
180.4237863506472
  0
LINE
  5
6609
330
1E
100
AcDbEntity
  8
0
100
AcDbLine
 10
177.5342135766301
 20
214.2984668310714
 30
0.0
 11
177.5342135766301
 21
210.3280524298852
 31
0.0
  0
LINE
  5
660A
330
1E
100
AcDbEntity
  8
0
100
AcDbLine
 10
179.53421357663
 20
208.3280524298852
 30
0.0
 11
180.8357924966671
 21
208.3280524298852
 31
0.0
  0
LINE
  5
660B
330
1E
100
AcDbEntity
  8
0
100
AcDbLine
 10
179.5342135766301
 20
216.2984668310714
 30
0.0
 11
180.8357924966671
 21
216.2984668310714
 31
0.0
  0
ARC
  5
660C
330
1E
100
AcDbEntity
  8
0
100
AcDbCircle
 10
179.5342135766301
 20
214.2984668310714
 30
0.0
 40
2.0
100
AcDbArc
 50
90.0
 51
180.0
  0
ARC
  5
660D
330
1E
100
AcDbEntity
  8
0
100
AcDbCircle
 10
179.5342135766301
 20
210.3280524298852
 30
0.0
 40
2.0
100
AcDbArc
 50
180.0
 51
269.9999999999968
  0
ARC
  5
660F
330
1E
100
AcDbEntity
  8
0
100
AcDbCircle
 10
179.5342135766301
 20
128.298466831071
 30
0.0
 40
2.0
100
AcDbArc
 50
179.5762136493528
 51
180.0
  0
LINE
  5
6612
330
1E
100
AcDbEntity
  8
0
100
AcDbLine
 10
177.5342135766301
 20
132.2984668310707
 30
0.0
 11
177.5342135766301
 21
128.3280524298845
 31
0.0
  0
LINE
  5
6613
330
1E
100
AcDbEntity
  8
0
100
AcDbLine
 10
179.53421357663
 20
126.3280524298845
 30
0.0
 11
180.8357924966671
 21
126.3280524298845
 31
0.0
  0
LINE
  5
6614
330
1E
100
AcDbEntity
  8
0
100
AcDbLine
 10
179.5342135766301
 20
134.2984668310707
 30
0.0
 11
180.8357924966671
 21
134.2984668310707
 31
0.0
  0
ARC
  5
6615
330
1E
100
AcDbEntity
  8
0
100
AcDbCircle
 10
179.5342135766301
 20
132.2984668310707
 30
0.0
 40
2.0
100
AcDbArc
 50
90.0
 51
180.0
  0
ARC
  5
6616
330
1E
100
AcDbEntity
  8
0
100
AcDbCircle
 10
179.5342135766301
 20
128.3280524298845
 30
0.0
 40
2.0
100
AcDbArc
 50
180.0
 51
269.9999999999968
  0
ARC
  5
661A
330
1E
100
AcDbEntity
  8
0
100
AcDbCircle
 10
380.3342135766299
 20
13.51479279940702
 30
0.0
 40
2.0
100
AcDbArc
 50
270.0000000000033
 51
0.0
  0
ARC
  5
661B
330
1E
100
AcDbEntity
  8
0
100
AcDbCircle
 10
380.3342135766299
 20
17.48520720059309
 30
0.0
 40
2.0
100
AcDbArc
 50
0.0
 51
90.0
  0
ARC
  5
661C
330
1E
100
AcDbEntity
  8
0
100
AcDbCircle
 10
179.5342135766301
 20
13.51479279940704
 30
0.0
 40
2.0
100
AcDbArc
 50
180.0
 51
269.9999999999968
  0
ARC
  5
661D
330
1E
100
AcDbEntity
  8
0
100
AcDbCircle
 10
179.5342135766301
 20
17.48520720059312
 30
0.0
 40
2.0
100
AcDbArc
 50
90.0
 51
180.0
  0
LINE
  5
6620
330
1E
100
AcDbEntity
  8
0
100
AcDbLine
 10
381.8342135766298
 20
18.8098710323344
 30
0.0
 11
381.8342135766299
 21
27.46109029590014
 31
0.0
  0
LINE
  5
6626
330
1E
100
AcDbEntity
  8
中心線
100
AcDbLine
 10
384.3030338445607
 20
15.50000000000011
 30
0.0
 11
377.1225373069462
 21
15.50000000000011
 31
0.0
  0
LINE
  5
6627
330
1E
100
AcDbEntity
  8
中心線
100
AcDbLine
 10
382.3342135766299
 20
15.50000000000011
 30
0.0
 11
371.6889880487008
 21
15.50000000000011
 31
0.0
  0
LINE
  5
6628
330
1E
100
AcDbEntity
  8
中心線
100
AcDbLine
 10
380.0326346565928
 20
15.50000000000011
 30
0.0
 11
375.8326346565927
 21
15.50000000000011
 31
0.0
  0
LINE
  5
6629
330
1E
100
AcDbEntity
  8
0
100
AcDbLine
 10
382.3342135766299
 20
17.48520720059309
 30
0.0
 11
382.3342135766299
 21
13.51479279940702
 31
0.0
  0
LINE
  5
662A
330
1E
100
AcDbEntity
  8
0
100
AcDbLine
 10
380.3342135766299
 20
11.51479279940702
 30
0.0
 11
379.0326346565927
 21
11.5147927994069
 31
0.0
  0
LINE
  5
662B
330
1E
100
AcDbEntity
  8
0
100
AcDbLine
 10
380.3342135766299
 20
19.48520720059309
 30
0.0
 11
379.0326346565927
 21
19.48520720059309
 31
0.0
  0
LINE
  5
662C
330
1E
100
AcDbEntity
  8
0
 48
0.27
100
AcDbLine
 10
176.80609607663
 20
45.00045843125022
 30
0.0
 11
176.80609607663
 21
40.0004738726582
 31
0.0
  0
LINE
  5
6631
330
1E
100
AcDbEntity
  8
0
100
AcDbLine
 10
178.0342135766301
 20
18.8098710323342
 30
0.0
 11
178.0342135766301
 21
27.46109029590016
 31
0.0
  0
LINE
  5
6632
330
1E
100
AcDbEntity
  8
0
100
AcDbLine
 10
179.5342135766302
 20
19.48520720059312
 30
0.0
 11
180.8357924966672
 21
19.48520720059312
 31
0.0
  0
LINE
  5
6633
330
1E
100
AcDbEntity
  8
0
100
AcDbLine
 10
179.53421357663
 20
11.51479279940704
 30
0.0
 11
180.8357924966672
 21
11.51479279940693
 31
0.0
  0
LINE
  5
6634
330
1E
100
AcDbEntity
  8
0
100
AcDbLine
 10
1.828730918937253
 20
-12.00000000000511
 30
0.0
 11
9.032958733477585
 21
-12.00000000000432
 31
0.0
  0
LINE
  5
6635
330
1E
100
AcDbEntity
  8
0
100
AcDbLine
 10
-19.76704108127092
 20
-12.00000000000739
 30
0.0
 11
-26.97126889581739
 21
-12.00000000000807
 31
0.0
  0
LINE
  5
6636
330
1E
100
AcDbEntity
  8
0
100
AcDbLine
 10
10.03295730421541
 20
-13.00000000000807
 30
0.0
 11
15.52871544101526
 21
-13.00000000000796
 31
0.0
  0
LINE
  5
6637
330
1E
100
AcDbEntity
  8
0
100
AcDbLine
 10
-27.97126746655215
 20
-13.00000000000852
 30
0.0
 11
-33.46702560335064
 21
-13.00000000000852
 31
0.0
  0
LINE
  5
6638
330
1E
100
AcDbEntity
  8
0
100
AcDbLine
 10
-18.76704002770975
 20
-13.00000000000841
 30
0.0
 11
0.8287298653743846
 21
-13.00000000000818
 31
0.0
  0
LINE
  5
6649
330
1E
100
AcDbEntity
  8
中心線
100
AcDbLine
 10
175.7373592213127
 20
212.3132596304778
 30
0.0
 11
186.3825847492418
 21
212.3132596304778
 31
0.0
  0
LINE
  5
664B
330
1E
100
AcDbEntity
  8
中心線
100
AcDbLine
 10
175.4387316547733
 20
130.3132596304776
 30
0.0
 11
186.0839571827024
 21
130.3132596304776
 31
0.0
  0
LINE
  5
6674
330
1E
100
AcDbEntity
  8
0
  6
Continuous
100
AcDbLine
 10
169.8588535476537
 20
155.5319714555145
 30
0.0
 11
172.7174467550315
 21
158.3905646628922
 31
0.0
  0
LINE
  5
6675
330
1E
100
AcDbEntity
  8
0
  6
Continuous
100
AcDbLine
 10
165.0342135766302
 20
157.5304027650797
 30
0.0
 11
169.8588535476537
 21
155.5319714555145
 31
0.0
  0
LINE
  5
6676
330
1E
100
AcDbEntity
  8
0
  6
Continuous
100
AcDbLine
 10
178.819883632776
 20
177.4465929638111
 30
0.0
 11
180.8342135766299
 21
177.4465929638111
 31
0.0
  0
LINE
  5
6677
330
1E
100
AcDbEntity
  8
0
  6
Continuous
100
AcDbLine
 10
178.819883632776
 20
174.3799260315632
 30
0.0
 11
180.8342135766299
 21
174.3799260315631
 31
0.0
  0
ARC
  5
6678
330
1E
100
AcDbEntity
  8
0
  6
Continuous
100
AcDbCircle
 10
181.1928935460249
 20
175.9132597632683
 30
0.0
 40
2.825346636061327
100
AcDbArc
 50
147.1327799989407
 51
212.8672200010593
  0
LINE
  5
6679
330
1E
100
AcDbEntity
  8
0
  6
Continuous
100
AcDbLine
 10
173.5694684799834
 20
176.6465929638111
 30
0.0
 11
178.4643763606502
 21
176.6465929638111
 31
0.0
  0
LINE
  5
667A
330
1E
100
AcDbEntity
  8
0
  6
Continuous
100
AcDbLine
 10
178.819883632776
 20
168.2465932293922
 30
0.0
 11
180.8342135766299
 21
168.2465932293922
 31
0.0
  0
LINE
  5
667B
330
1E
100
AcDbEntity
  8
0
  6
Continuous
100
AcDbLine
 10
178.819883632776
 20
165.1799262971444
 30
0.0
 11
180.8342135766299
 21
165.1799262971444
 31
0.0
  0
ARC
  5
667C
330
1E
100
AcDbEntity
  8
0
  6
Continuous
100
AcDbCircle
 10
181.1928935460249
 20
166.7132594976872
 30
0.0
 40
2.825346636061327
100
AcDbArc
 50
147.1327799989407
 51
212.8672200010593
  0
LINE
  5
667D
330
1E
100
AcDbEntity
  8
0
  6
Continuous
100
AcDbLine
 10
175.9761760494366
 20
163.0998688305686
 30
0.0
 11
176.7390025739243
 21
164.9414949717249
 31
0.0
  0
LINE
  5
667E
330
1E
100
AcDbEntity
  8
0
  6
Continuous
100
AcDbLine
 10
173.4971554252323
 20
164.126793168705
 30
0.0
 11
174.2599251165864
 21
165.9682821025393
 31
0.0
  0
ARC
  5
667F
330
1E
100
AcDbEntity
  8
0
  6
Continuous
100
AcDbCircle
 10
174.4237873254394
 20
173.3757677737683
 30
0.0
 40
9.295339642905963
100
AcDbArc
 50
230.7213499979104
 51
264.2786500020895
  0
LINE
  5
6680
330
1E
100
AcDbEntity
  8
0
  6
Continuous
100
AcDbLine
 10
168.539002363477
 20
166.1805274112056
 30
0.0
 11
169.3017720548312
 21
168.0220163450401
 31
0.0
  0
ARC
  5
6681
330
1E
100
AcDbEntity
  8
0
  6
Continuous
100
AcDbCircle
 10
168.3751401546242
 20
158.7730417399765
 30
0.0
 40
9.295339642905963
100
AcDbArc
 50
50.7213499979104
 51
84.27865000208958
  0
LINE
  5
6682
330
1E
100
AcDbEntity
  8
0
  6
Continuous
100
AcDbLine
 10
166.0599254032107
 20
167.2073947103146
 30
0.0
 11
166.8226950945649
 21
169.048883644149
 31
0.0
  0
ARC
  5
6683
330
1E
100
AcDbEntity
  8
0
  6
Continuous
100
AcDbCircle
 10
168.0940612999581
 20
168.6122895278243
 30
0.0
 40
2.472178306553662
100
AcDbArc
 50
214.632779998934
 51
280.367220001064
  0
ARC
  5
6684
330
1E
100
AcDbEntity
  8
0
  6
Continuous
100
AcDbCircle
 10
164.3619120751053
 20
164.9679374611578
 30
0.0
 40
2.746231479756806
100
AcDbArc
 50
335.8479011650582
 51
45.84790116506007
  0
ARC
  5
6685
330
1E
100
AcDbEntity
  8
0
  6
Continuous
100
AcDbCircle
 10
169.3685659165034
 20
160.2154092064276
 30
0.0
 40
3.813798694049015
100
AcDbArc
 50
331.4135141737369
 51
16.4135141737392
  0
LINE
  5
6686
330
1E
100
AcDbEntity
  8
0
  6
Continuous
100
AcDbLine
 10
165.0342135766302
 20
157.5304027650797
 30
0.0
 11
165.0342135766302
 21
161.5730640482611
 31
0.0
  0
LINE
  5
6687
330
1E
100
AcDbEntity
  8
0
  6
Continuous
100
AcDbLine
 10
165.0342135766302
 20
161.5730640482611
 30
0.0
 11
172.7174467550315
 21
158.3905646628922
 31
0.0
  0
ARC
  5
6688
330
1E
100
AcDbEntity
  8
0
  6
Continuous
100
AcDbCircle
 10
168.6925898782841
 20
160.4954076492972
 30
0.0
 40
3.813798694049016
100
AcDbArc
 50
118.5864858262631
 51
163.5864858262608
  0
LINE
  5
6689
330
1E
100
AcDbEntity
  8
0
  6
Continuous
100
AcDbLine
 10
167.1141132100851
 20
163.7422395725278
 30
0.0
 11
172.780574342821
 21
161.3951145206886
 31
0.0
  0
LINE
  5
668A
330
1E
100
AcDbEntity
  8
0
  6
Continuous
100
AcDbLine
 10
167.1479996201877
 20
166.328294589681
 30
0.0
 11
174.5852300715979
 21
163.2476928702125
 31
0.0
  0
LINE
  5
668B
330
1E
100
AcDbEntity
  8
0
  6
Continuous
100
AcDbLine
 10
168.2136974084655
 20
168.9011166435323
 30
0.0
 11
175.6509278598758
 21
165.820514924064
 31
0.0
  0
ARC
  5
668C
330
1E
100
AcDbEntity
  8
0
  6
Continuous
100
AcDbCircle
 10
175.5312917513683
 20
165.531687808356
 30
0.0
 40
2.472178306553662
100
AcDbArc
 50
214.632779998934
 51
280.367220001064
  0
ARC
  5
668D
330
1E
100
AcDbEntity
  8
0
  6
Continuous
100
AcDbCircle
 10
175.5933737172908
 20
160.3157137236914
 30
0.0
 40
2.746231479756806
100
AcDbArc
 50
89.1520988349392
 51
159.1520988349398
  0
ARC
  5
668E
330
1E
100
AcDbEntity
  8
0
  6
Continuous
100
AcDbCircle
 10
174.7048661801053
 20
163.5365199859207
 30
0.0
 40
2.472178306553662
100
AcDbArc
 50
34.632779998934
 51
100.3672200010639
  0
LINE
  5
668F
330
1E
100
AcDbEntity
  8
0
  6
Continuous
100
AcDbLine
 10
175.0809395475043
 20
165.9799262971443
 30
0.0
 11
178.4643763606502
 21
165.9799262971443
 31
0.0
  0
ARC
  5
6690
330
1E
100
AcDbEntity
  8
0
  6
Continuous
100
AcDbCircle
 10
173.5694684799834
 20
171.3132596304777
 30
0.0
 40
5.333333333333332
100
AcDbArc
 50
90.0
 51
210.8352048940846
  0
ARC
  5
6691
330
1E
100
AcDbEntity
  8
0
  6
Continuous
100
AcDbCircle
 10
167.2676357286951
 20
166.617121705389
 30
0.0
 40
2.472178306553662
100
AcDbArc
 50
34.632779998934
 51
100.3672200010639
  0
ARC
  5
6692
330
1E
100
AcDbEntity
  8
0
  6
Continuous
100
AcDbCircle
 10
188.9907922161418
 20
171.3132596304777
 30
0.0
 40
10.62324530617824
100
AcDbArc
 50
163.2213499979155
 51
196.7786500020845
  0
LINE
  5
6693
330
1E
100
AcDbEntity
  8
0
  6
Continuous
100
AcDbLine
 10
178.3675469099636
 20
166.7132594976872
 30
0.0
 11
178.3675469099636
 21
175.9132597632683
 31
0.0
  0
POINT
  5
6694
330
1E
100
AcDbEntity
  8
0
100
AcDbPoint
 10
3.228645963724034
 20
44.9999999999942
 30
0.0
1001
pntflag
1000
endpoint
  0
LINE
  5
6695
330
1E
100
AcDbEntity
  8
中心線
 48
0.27
100
AcDbLine
 10
4.728645963724034
 20
44.9999999999942
 30
0.0
 11
-17.03000270822031
 21
44.9999999999942
 31
0.0
  0
LINE
  5
6696
330
1E
100
AcDbEntity
  8
0
 48
0.27
100
AcDbLine
 10
-1.11272586166001
 20
47.39225239987535
 30
0.0
 11
-1.049282540939998
 21
47.43408090348566
 31
0.0
  0
LINE
  5
6697
330
1E
100
AcDbEntity
  8
0
 48
0.27
100
AcDbLine
 10
-1.378379528149253
 20
42.57989366108643
 30
0.0
 11
-1.317937198555341
 21
42.57732687015777
 31
0.0
  0
LINE
  5
6698
330
1E
100
AcDbEntity
  8
0
 48
0.27
100
AcDbLine
 10
-1.11272586166001
 20
42.60774593011274
 30
0.0
 11
-1.049282540939998
 21
42.56591742650243
 31
0.0
  0
LINE
  5
6699
330
1E
100
AcDbEntity
  8
0
 48
0.27
100
AcDbLine
 10
-0.4840090666643846
 20
44.9999999999942
 30
0.0
 11
-0.4605388789948393
 21
45.62267640298114
 31
0.0
  0
LINE
  5
669A
330
1E
100
AcDbEntity
  8
0
 48
0.27
100
AcDbLine
 10
1.514545714844302
 20
44.9999999999942
 30
0.0
 11
1.531013590219458
 21
45.43692057245993
 31
0.0
  0
LINE
  5
669B
330
1E
100
AcDbEntity
  8
0
 48
0.27
100
AcDbLine
 10
1.531013590219458
 20
44.56307942752846
 30
0.0
 11
1.514545714844302
 21
44.9999999999942
 31
0.0
  0
LINE
  5
669C
330
1E
100
AcDbEntity
  8
0
 48
0.27
100
AcDbLine
 10
-0.4605388789948393
 20
44.37732192700695
 30
0.0
 11
-0.4840090666643846
 21
44.9999999999942
 31
0.0
  0
LINE
  5
669D
330
1E
100
AcDbEntity
  8
0
 48
0.27
100
AcDbLine
 10
1.531013590219458
 20
45.43692057245993
 30
0.0
 11
1.579785956114392
 21
45.85704928937139
 31
0.0
  0
LINE
  5
669E
330
1E
100
AcDbEntity
  8
0
 48
0.27
100
AcDbLine
 10
-0.4605388789948393
 20
45.62267640298114
 30
0.0
 11
-0.3910334563873903
 21
46.22142503822215
 31
0.0
  0
LINE
  5
669F
330
1E
100
AcDbEntity
  8
0
 48
0.27
100
AcDbLine
 10
1.579785956114392
 20
44.14294904061671
 30
0.0
 11
1.531013590219458
 21
44.56307942752846
 31
0.0
  0
LINE
  5
66A0
330
1E
100
AcDbEntity
  8
0
 48
0.27
100
AcDbLine
 10
-0.3910334563873903
 20
43.77857329176594
 30
0.0
 11
-0.4605388789948393
 21
44.37732192700695
 31
0.0
  0
LINE
  5
66A1
330
1E
100
AcDbEntity
  8
0
 48
0.27
100
AcDbLine
 10
1.579785956114392
 20
45.85704928937139
 30
0.0
 11
1.658985731965799
 21
46.24424392565799
 31
0.0
  0
LINE
  5
66A2
330
1E
100
AcDbEntity
  8
0
 48
0.27
100
AcDbLine
 10
-0.3910334563873903
 20
46.22142503822215
 30
0.0
 11
-0.2781614595378414
 21
46.77323496799942
 31
0.0
  0
LINE
  5
66A3
330
1E
100
AcDbEntity
  8
0
 48
0.27
100
AcDbLine
 10
1.658985731965799
 20
43.75575607433041
 30
0.0
 11
1.579785956114392
 21
44.14294904061671
 31
0.0
  0
LINE
  5
66A4
330
1E
100
AcDbEntity
  8
0
 48
0.27
100
AcDbLine
 10
-0.2781614595378414
 20
43.22676336186361
 30
0.0
 11
-0.3910334563873903
 21
43.77857329176594
 31
0.0
  0
LINE
  5
66A5
330
1E
100
AcDbEntity
  8
0
 48
0.27
100
AcDbLine
 10
1.658985731965799
 20
46.24424392565799
 30
0.0
 11
1.765570176765322
 21
46.583621436209
 31
0.0
  0
LINE
  5
66A6
330
1E
100
AcDbEntity
  8
0
 48
0.27
100
AcDbLine
 10
-0.2781614595378414
 20
46.77323496799942
 30
0.0
 11
-0.1262615500454558
 21
47.25690052577158
 31
0.0
  0
LINE
  5
66A7
330
1E
100
AcDbEntity
  8
0
 48
0.27
100
AcDbLine
 10
1.765570176765322
 20
43.4163768937791
 30
0.0
 11
1.658985731965799
 21
43.75575607433041
 31
0.0
  0
LINE
  5
66A8
330
1E
100
AcDbEntity
  8
0
 48
0.27
100
AcDbLine
 10
-0.1262615500454558
 20
42.74309947421682
 30
0.0
 11
-0.2781614595378414
 21
43.22676336186361
 31
0.0
  0
LINE
  5
66A9
330
1E
100
AcDbEntity
  8
0
 48
0.27
100
AcDbLine
 10
1.765570176765322
 20
46.583621436209
 30
0.0
 11
1.895444449079377
 21
46.86214245709698
 31
0.0
  0
LINE
  5
66AA
330
1E
100
AcDbEntity
  8
0
 48
0.27
100
AcDbLine
 10
-0.1262615500454558
 20
47.25690052577158
 30
0.0
 11
0.0588296203646905
 21
47.65383293518425
 31
0.0
  0
LINE
  5
66AB
330
1E
100
AcDbEntity
  8
0
 48
0.27
100
AcDbLine
 10
1.895444449079377
 20
43.13785587289112
 30
0.0
 11
1.765570176765322
 21
43.4163768937791
 31
0.0
  0
LINE
  5
66AC
330
1E
100
AcDbEntity
  8
0
 48
0.27
100
AcDbLine
 10
1.895444449079377
 20
46.86214245709698
 30
0.0
 11
2.043616917324129
 21
47.06910061453402
 31
0.0
  0
LINE
  5
66AD
330
1E
100
AcDbEntity
  8
0
 48
0.27
100
AcDbLine
 10
0.0588296203646905
 20
42.34616539480384
 30
0.0
 11
-0.1262615500454558
 21
42.74309947421682
 31
0.0
  0
LINE
  5
66AE
330
1E
100
AcDbEntity
  8
0
 48
0.27
100
AcDbLine
 10
-1.864037396504045
 20
44.9999999999942
 30
0.0
 11
-1.846103260634095
 21
45.47584828508582
 31
0.0
  0
LINE
  5
66AF
330
1E
100
AcDbEntity
  8
0
 48
0.27
100
AcDbLine
 10
-1.846103260634095
 20
44.52415004490228
 30
0.0
 11
-1.864037396504045
 21
44.9999999999942
 31
0.0
  0
LINE
  5
66B0
330
1E
100
AcDbEntity
  8
0
 48
0.27
100
AcDbLine
 10
-1.846103260634095
 20
45.47584828508582
 30
0.0
 11
-1.792985553388461
 21
45.93341006424862
 31
0.0
  0
LINE
  5
66B1
330
1E
100
AcDbEntity
  8
0
 48
0.27
100
AcDbLine
 10
-5.836629681551926
 20
44.9999999999942
 30
0.0
 11
-5.809054632571928
 21
45.73158882841949
 31
0.0
  0
LINE
  5
66B2
330
1E
100
AcDbEntity
  8
0
 48
0.27
100
AcDbLine
 10
-5.809054632571928
 20
44.26841117144386
 30
0.0
 11
-5.836629681551926
 21
44.9999999999942
 31
0.0
  0
LINE
  5
66B3
330
1E
100
AcDbEntity
  8
0
 48
0.27
100
AcDbLine
 10
-1.792985553388461
 20
44.06658826573948
 30
0.0
 11
-1.846103260634095
 21
44.52415004490228
 31
0.0
  0
LINE
  5
66B4
330
1E
100
AcDbEntity
  8
0
 48
0.27
100
AcDbLine
 10
-1.792985553388461
 20
45.93341006424862
 30
0.0
 11
-1.706730025233696
 21
46.35510190179616
 31
0.0
  0
LINE
  5
66B5
330
1E
100
AcDbEntity
  8
0
 48
0.27
100
AcDbLine
 10
0.0588296203646905
 20
47.65383293518425
 30
0.0
 11
0.2699978491298225
 21
47.94878175131578
 31
0.0
  0
LINE
  5
66B6
330
1E
100
AcDbEntity
  8
0
 48
0.27
100
AcDbLine
 10
2.043616917324129
 20
42.93089771545408
 30
0.0
 11
1.895444449079377
 21
43.13785587289112
 31
0.0
  0
LINE
  5
66B7
330
1E
100
AcDbEntity
  8
0
 48
0.27
100
AcDbLine
 10
2.043616917324129
 20
47.06910061453402
 30
0.0
 11
2.204394549799076
 21
47.19654670606746
 31
0.0
  0
LINE
  5
66B8
330
1E
100
AcDbEntity
  8
0
 48
0.27
100
AcDbLine
 10
-5.809054632571928
 20
45.73158882841949
 30
0.0
 11
-5.727391605934258
 21
46.43506319777475
 31
0.0
  0
LINE
  5
66B9
330
1E
100
AcDbEntity
  8
0
 48
0.27
100
AcDbLine
 10
-5.727391605934258
 20
43.56493680221364
 30
0.0
 11
-5.809054632571928
 21
44.26841117144386
 31
0.0
  0
LINE
  5
66BA
330
1E
100
AcDbEntity
  8
0
 48
0.27
100
AcDbLine
 10
-1.706730025233696
 20
43.64489642819194
 30
0.0
 11
-1.792985553388461
 21
44.06658826573948
 31
0.0
  0
LINE
  5
66BB
330
1E
100
AcDbEntity
  8
0
 48
0.27
100
AcDbLine
 10
0.2699978491298225
 20
42.05121657867232
 30
0.0
 11
0.0588296203646905
 21
42.34616539480384
 31
0.0
  0
LINE
  5
66BC
330
1E
100
AcDbEntity
  8
0
 48
0.27
100
AcDbLine
 10
-1.706730025233696
 20
46.35510190179616
 30
0.0
 11
-1.59064828734813
 21
46.72471811227217
 31
0.0
  0
LINE
  5
66BD
330
1E
100
AcDbEntity
  8
0
 48
0.27
100
AcDbLine
 10
-5.727391605934258
 20
46.43506319777475
 30
0.0
 11
-5.594778532787813
 21
47.0833874691699
 31
0.0
  0
LINE
  5
66BE
330
1E
100
AcDbEntity
  8
0
 48
0.27
100
AcDbLine
 10
-5.594778532787813
 20
42.91661086081819
 30
0.0
 11
-5.727391605934258
 21
43.56493680221364
 31
0.0
  0
LINE
  5
66BF
330
1E
100
AcDbEntity
  8
0
 48
0.27
100
AcDbLine
 10
-1.59064828734813
 20
43.27528021771605
 30
0.0
 11
-1.706730025233696
 21
43.64489642819194
 31
0.0
  0
LINE
  5
66C0
330
1E
100
AcDbEntity
  8
0
 48
0.27
100
AcDbLine
 10
2.204394549799076
 20
47.19654670606746
 30
0.0
 11
2.371596674221791
 21
47.23957928012896
 31
0.0
  0
LINE
  5
66C1
330
1E
100
AcDbEntity
  8
0
 48
0.27
100
AcDbLine
 10
0.2699978491298225
 20
47.94878175131578
 30
0.0
 11
0.4991286038946328
 21
48.13041101052283
 31
0.0
  0
LINE
  5
66C2
330
1E
100
AcDbEntity
  8
0
 48
0.27
100
AcDbLine
 10
2.043616917324129
 20
42.93089771545408
 30
0.0
 11
2.204394549799076
 21
42.80345162392063
 31
0.0
  0
LINE
  5
66C3
330
1E
100
AcDbEntity
  8
0
 48
0.27
100
AcDbLine
 10
-1.59064828734813
 20
46.72471811227217
 30
0.0
 11
-1.449202581351642
 21
47.02805367117912
 31
0.0
  0
LINE
  5
66C4
330
1E
100
AcDbEntity
  8
0
 48
0.27
100
AcDbLine
 10
0.2699978491298225
 20
42.05121657867232
 30
0.0
 11
0.4991286038946328
 21
41.86958898946556
 31
0.0
  0
LINE
  5
66C5
330
1E
100
AcDbEntity
  8
0
 48
0.27
100
AcDbLine
 10
-1.449202581351642
 20
42.97194465880898
 30
0.0
 11
-1.59064828734813
 21
43.27528021771605
 31
0.0
  0
LINE
  5
66C6
330
1E
100
AcDbEntity
  8
0
 48
0.27
100
AcDbLine
 10
-5.594778532787813
 20
47.0833874691699
 30
0.0
 11
-5.416308914608407
 21
47.65165024444479
 31
0.0
  0
LINE
  5
66C7
330
1E
100
AcDbEntity
  8
0
 48
0.27
100
AcDbLine
 10
-5.416308914608407
 20
42.34834808554331
 30
0.0
 11
-5.594778532787813
 21
42.91661086081819
 31
0.0
  0
LINE
  5
66C8
330
1E
100
AcDbEntity
  8
0
 48
0.27
100
AcDbLine
 10
-1.449202581351642
 20
47.02805367117912
 30
0.0
 11
-1.287827088651965
 21
47.25345197457068
 31
0.0
  0
LINE
  5
66C9
330
1E
100
AcDbEntity
  8
0
 48
0.27
100
AcDbLine
 10
-0.5684275941372335
 20
47.72288745759135
 30
0.0
 11
-0.3568485451785364
 21
47.89060227234972
 31
0.0
  0
LINE
  5
66CA
330
1E
100
AcDbEntity
  8
0
 48
0.27
100
AcDbLine
 10
0.4991286038946328
 20
48.13041101052283
 30
0.0
 11
0.7374176415638658
 21
48.19173844051454
 31
0.0
  0
LINE
  5
66CB
330
1E
100
AcDbEntity
  8
0
 48
0.27
100
AcDbLine
 10
2.371596674221791
 20
47.23957928012896
 30
0.0
 11
2.538798798769562
 21
47.19654670606746
 31
0.0
  0
LINE
  5
66CC
330
1E
100
AcDbEntity
  8
0
 48
0.27
100
AcDbLine
 10
2.204394549799076
 20
42.80345162392063
 30
0.0
 11
2.371596674221791
 21
42.76041904985913
 31
0.0
  0
LINE
  5
66CD
330
1E
100
AcDbEntity
  8
0
 48
0.27
100
AcDbLine
 10
-1.287827088651965
 20
42.74654635541742
 30
0.0
 11
-1.449202581351642
 21
42.97194465880898
 31
0.0
  0
LINE
  5
66CE
330
1E
100
AcDbEntity
  8
0
 48
0.27
100
AcDbLine
 10
-6.058634544001733
 20
44.9999999999942
 30
0.0
 11
-5.230100513886554
 21
48.74999958249407
 31
0.0
  0
LINE
  5
66CF
330
1E
100
AcDbEntity
  8
0
 48
0.27
100
AcDbLine
 10
-5.230100513886554
 20
41.24999874749403
 30
0.0
 11
-6.058634544001733
 21
44.9999999999942
 31
0.0
  0
LINE
  5
66D0
330
1E
100
AcDbEntity
  8
0
 48
0.27
100
AcDbLine
 10
-0.3568485451785364
 20
47.89060227234972
 30
0.0
 11
0.0506917076306763
 21
48.09622609931398
 31
0.0
  0
LINE
  5
66D1
330
1E
100
AcDbEntity
  8
0
 48
0.27
100
AcDbLine
 10
0.0506917076306763
 20
48.09622609931398
 30
0.0
 11
0.2863772144901304
 21
48.15688552906909
 31
0.0
  0
LINE
  5
66D2
330
1E
100
AcDbEntity
  8
0
 48
0.27
100
AcDbLine
 10
0.4991286038946328
 20
41.86958898946556
 30
0.0
 11
0.7374176415638658
 21
41.80825988947356
 31
0.0
  0
LINE
  5
66D3
330
1E
100
AcDbEntity
  8
0
 48
0.27
100
AcDbLine
 10
-5.416308914608407
 20
47.65165024444479
 30
0.0
 11
-5.198844783666913
 21
48.11801125645207
 31
0.0
  0
LINE
  5
66D4
330
1E
100
AcDbEntity
  8
0
 48
0.27
100
AcDbLine
 10
-5.198844783666913
 20
41.88198707353604
 30
0.0
 11
-5.416308914608407
 21
42.34834808554331
 31
0.0
  0
LINE
  5
66D5
330
1E
100
AcDbEntity
  8
0
 48
0.27
100
AcDbLine
 10
-1.287827088651965
 20
47.25345197457068
 30
0.0
 11
-1.11272586166001
 21
47.39225239987535
 31
0.0
  0
LINE
  5
66D6
330
1E
100
AcDbEntity
  8
0
 48
0.27
100
AcDbLine
 10
-1.049282540939998
 20
47.43408090348566
 30
0.0
 11
-0.3568485451785364
 21
47.89060227234972
 31
0.0
  0
LINE
  5
66D7
330
1E
100
AcDbEntity
  8
0
 48
0.27
100
AcDbLine
 10
0.0506917076306763
 20
41.90377223067412
 30
0.0
 11
0.2863772144901304
 21
41.84311447079426
 31
0.0
  0
LINE
  5
66D8
330
1E
100
AcDbEntity
  8
0
 48
0.27
100
AcDbLine
 10
-0.3568485451785364
 20
42.10939605763826
 30
0.0
 11
0.0506917076306763
 21
41.90377223067412
 31
0.0
  0
LINE
  5
66D9
330
1E
100
AcDbEntity
  8
0
 48
0.27
100
AcDbLine
 10
-1.287827088651965
 20
42.74654635541742
 30
0.0
 11
-1.11272586166001
 21
42.60774593011274
 31
0.0
  0
LINE
  5
66DA
330
1E
100
AcDbEntity
  8
0
 48
0.27
100
AcDbLine
 10
0.2863772144901304
 20
48.15688552906909
 30
0.0
 11
0.7374176415638658
 21
48.19173844051454
 31
0.0
  0
LINE
  5
66DB
330
1E
100
AcDbEntity
  8
0
 48
0.27
100
AcDbLine
 10
0.7374176415638658
 20
48.19173844051454
 30
0.0
 11
0.9757050092329109
 21
48.13041101052283
 31
0.0
  0
LINE
  5
66DC
330
1E
100
AcDbEntity
  8
0
 48
0.27
100
AcDbLine
 10
2.538798798769562
 20
47.19654670606746
 30
0.0
 11
2.699574761244207
 21
47.06910061453402
 31
0.0
  0
LINE
  5
66DD
330
1E
100
AcDbEntity
  8
0
 48
0.27
100
AcDbLine
 10
0.9757050092329109
 20
48.13041101052283
 30
0.0
 11
2.538798798769562
 21
47.19654670606746
 31
0.0
  0
LINE
  5
66DE
330
1E
100
AcDbEntity
  8
0
 48
0.27
100
AcDbLine
 10
2.371596674221791
 20
42.76041904985913
 30
0.0
 11
2.538798798769562
 21
42.80345162392063
 31
0.0
  0
LINE
  5
66DF
330
1E
100
AcDbEntity
  8
0
 48
0.27
100
AcDbLine
 10
-1.049282540939998
 20
42.56591742650243
 30
0.0
 11
-0.3568485451785364
 21
42.10939605763826
 31
0.0
  0
LINE
  5
66E0
330
1E
100
AcDbEntity
  8
0
 48
0.27
100
AcDbLine
 10
0.2863772144901304
 20
41.84311447079426
 30
0.0
 11
0.7374176415638658
 21
41.80825988947356
 31
0.0
  0
LINE
  5
66E1
330
1E
100
AcDbEntity
  8
0
 48
0.27
100
AcDbLine
 10
0.7374176415638658
 20
41.80825988947356
 30
0.0
 11
0.9757050092329109
 21
41.86958898946556
 31
0.0
  0
LINE
  5
66E2
330
1E
100
AcDbEntity
  8
0
 48
0.27
100
AcDbLine
 10
-5.198844783666913
 20
48.11801125645207
 30
0.0
 11
-4.950741152858654
 21
48.4645480594487
 31
0.0
  0
LINE
  5
66E3
330
1E
100
AcDbEntity
  8
0
 48
0.27
100
AcDbLine
 10
-4.950741152858654
 20
41.53545027053939
 30
0.0
 11
-5.198844783666913
 21
41.88198707353604
 31
0.0
  0
LINE
  5
66E4
330
1E
100
AcDbEntity
  8
0
 48
0.27
100
AcDbLine
 10
-7.340618811843114
 20
41.24999874749403
 30
0.0
 11
-8.169152841958293
 21
44.9999999999942
 31
0.0
  0
LINE
  5
66E5
330
1E
100
AcDbEntity
  8
0
 48
0.27
100
AcDbLine
 10
-8.169152841958293
 20
44.9999999999942
 30
0.0
 11
-6.058634544001733
 21
44.9999999999942
 31
0.0
  0
LINE
  5
66E6
330
1E
100
AcDbEntity
  8
0
 48
0.27
100
AcDbLine
 10
-8.169152841958293
 20
44.9999999999942
 30
0.0
 11
-7.340618811843114
 21
48.74999958249407
 31
0.0
  0
LINE
  5
66E7
330
1E
100
AcDbEntity
  8
0
 48
0.27
100
AcDbLine
 10
2.847747229488959
 20
46.86214245709698
 30
0.0
 11
2.699574761244207
 21
47.06910061453402
 31
0.0
  0
LINE
  5
66E8
330
1E
100
AcDbEntity
  8
0
 48
0.27
100
AcDbLine
 10
2.538798798769562
 20
42.80345162392063
 30
0.0
 11
2.699574761244207
 21
42.93089771545408
 31
0.0
  0
LINE
  5
66E9
330
1E
100
AcDbEntity
  8
0
 48
0.27
100
AcDbLine
 10
0.9757050092329109
 20
41.86958898946556
 30
0.0
 11
2.538798798769562
 21
42.80345162392063
 31
0.0
  0
LINE
  5
66EA
330
1E
100
AcDbEntity
  8
0
 48
0.27
100
AcDbLine
 10
-1.317937198555341
 20
47.42267312983062
 30
0.0
 11
-1.049282540939998
 21
47.43408090348566
 31
0.0
  0
LINE
  5
66EB
330
1E
100
AcDbEntity
  8
0
 48
0.27
100
AcDbLine
 10
-1.317937198555341
 20
42.57732687015777
 30
0.0
 11
-1.049282540939998
 21
42.56591742650243
 31
0.0
  0
LINE
  5
66EC
330
1E
100
AcDbEntity
  8
0
 48
0.27
100
AcDbLine
 10
-4.950741152858654
 20
48.4645480594487
 30
0.0
 11
-4.681533725025929
 21
48.67794406896087
 31
0.0
  0
LINE
  5
66ED
330
1E
100
AcDbEntity
  8
0
 48
0.27
100
AcDbLine
 10
-4.950741152858654
 20
41.53545027053939
 30
0.0
 11
-4.681533725025929
 21
41.32205426102723
 31
0.0
  0
LINE
  5
66EE
330
1E
100
AcDbEntity
  8
0
 48
0.27
100
AcDbLine
 10
2.977621501803014
 20
46.583621436209
 30
0.0
 11
2.847747229488959
 21
46.86214245709698
 31
0.0
  0
LINE
  5
66EF
330
1E
100
AcDbEntity
  8
0
 48
0.27
100
AcDbLine
 10
2.699574761244207
 20
42.93089771545408
 30
0.0
 11
2.847747229488959
 21
43.13785587289112
 31
0.0
  0
LINE
  5
66F0
330
1E
100
AcDbEntity
  8
0
 48
0.27
100
AcDbLine
 10
-1.619340566764662
 20
47.545675349872
 30
0.0
 11
-1.317937198555341
 21
47.42267312983062
 31
0.0
  0
LINE
  5
66F1
330
1E
100
AcDbEntity
  8
0
 48
0.27
100
AcDbLine
 10
-1.619340566764662
 20
42.4543229801161
 30
0.0
 11
-1.317937198555341
 21
42.57732687015777
 31
0.0
  0
LINE
  5
66F2
330
1E
100
AcDbEntity
  8
0
 48
0.27
100
AcDbLine
 10
3.084207616602839
 20
46.24424392565799
 30
0.0
 11
2.977621501803014
 21
46.583621436209
 31
0.0
  0
LINE
  5
66F3
330
1E
100
AcDbEntity
  8
0
 48
0.27
100
AcDbLine
 10
2.847747229488959
 20
43.13785587289112
 30
0.0
 11
2.977621501803014
 21
43.4163768937791
 31
0.0
  0
LINE
  5
66F4
330
1E
100
AcDbEntity
  8
0
 48
0.27
100
AcDbLine
 10
-4.681533725025929
 20
48.67794406896087
 30
0.0
 11
-4.401566483771375
 21
48.74999958249407
 31
0.0
  0
LINE
  5
66F5
330
1E
100
AcDbEntity
  8
0
 48
0.27
100
AcDbLine
 10
-4.681533725025929
 20
41.32205426102723
 30
0.0
 11
-4.401566483771375
 21
41.24999874749403
 31
0.0
  0
LINE
  5
66F6
330
1E
100
AcDbEntity
  8
0
 48
0.27
100
AcDbLine
 10
3.163407392454246
 20
45.85704928937139
 30
0.0
 11
3.084207616602839
 21
46.24424392565799
 31
0.0
  0
LINE
  5
66F7
330
1E
100
AcDbEntity
  8
0
 48
0.27
100
AcDbLine
 10
2.028428262412717
 20
42.9521134023721
 30
0.0
 11
2.030801333183944
 21
42.95327405269097
 31
0.0
  0
LINE
  5
66F8
330
1E
100
AcDbEntity
  8
0
 48
0.27
100
AcDbLine
 10
2.977621501803014
 20
43.4163768937791
 30
0.0
 11
3.084207616602839
 21
43.75575607433041
 31
0.0
  0
LINE
  5
66F9
330
1E
100
AcDbEntity
  8
0
 48
0.27
100
AcDbLine
 10
3.212178088348878
 20
45.43692057245993
 30
0.0
 11
3.163407392454246
 21
45.85704928937139
 31
0.0
  0
LINE
  5
66FA
330
1E
100
AcDbEntity
  8
0
 48
0.27
100
AcDbLine
 10
3.084207616602839
 20
43.75575607433041
 30
0.0
 11
3.163407392454246
 21
44.14294904061671
 31
0.0
  0
LINE
  5
66FB
330
1E
100
AcDbEntity
  8
0
 48
0.27
100
AcDbLine
 10
-4.121599242516936
 20
48.67794406896087
 30
0.0
 11
-1.619340566764662
 21
47.545675349872
 31
0.0
  0
LINE
  5
66FC
330
1E
100
AcDbEntity
  8
0
 48
0.27
100
AcDbLine
 10
-4.401566483771375
 20
48.74999958249407
 30
0.0
 11
-4.121599242516936
 21
48.67794406896087
 31
0.0
  0
LINE
  5
66FD
330
1E
100
AcDbEntity
  8
0
 48
0.27
100
AcDbLine
 10
-4.401566483771375
 20
41.24999874749403
 30
0.0
 11
-4.121599242516936
 21
41.32205426102723
 31
0.0
  0
LINE
  5
66FE
330
1E
100
AcDbEntity
  8
0
 48
0.27
100
AcDbLine
 10
3.228645963724034
 20
44.9999999999942
 30
0.0
 11
3.212178088348878
 21
45.43692057245993
 31
0.0
  0
LINE
  5
66FF
330
1E
100
AcDbEntity
  8
0
 48
0.27
100
AcDbLine
 10
3.163407392454246
 20
44.14294904061671
 30
0.0
 11
3.212178088348878
 21
44.56307942752846
 31
0.0
  0
LINE
  5
6700
330
1E
100
AcDbEntity
  8
0
 48
0.27
100
AcDbLine
 10
3.212178088348878
 20
44.56307942752846
 30
0.0
 11
3.228645963724034
 21
44.9999999999942
 31
0.0
  0
LINE
  5
6701
330
1E
100
AcDbEntity
  8
0
 48
0.27
100
AcDbLine
 10
-4.121599242516936
 20
41.32205426102723
 30
0.0
 11
-1.619340566764662
 21
42.4543229801161
 31
0.0
  0
LINE
  5
6702
330
1E
100
AcDbEntity
  8
0
 48
0.27
100
AcDbLine
 10
-7.340618811843114
 20
48.74999958249407
 30
0.0
 11
-3.57303245365631
 21
48.74999958249407
 31
0.0
  0
LINE
  5
6703
330
1E
100
AcDbEntity
  8
0
 48
0.27
100
AcDbLine
 10
-3.57303245365631
 20
41.24999874749403
 30
0.0
 11
-3.494408828026053
 21
41.60585749354743
 31
0.0
  0
LINE
  5
6704
330
1E
100
AcDbEntity
  8
0
 48
0.27
100
AcDbLine
 10
-3.494408828026053
 20
48.39414083644067
 30
0.0
 11
-3.57303245365631
 21
48.74999958249407
 31
0.0
  0
LINE
  5
6705
330
1E
100
AcDbEntity
  8
0
 48
0.27
100
AcDbLine
 10
-7.340618811843114
 20
41.24999874749403
 30
0.0
 11
-3.57303245365631
 21
41.24999874749403
 31
0.0
  0
LINE
  5
6706
330
1E
100
AcDbEntity
  8
0
 48
0.27
100
AcDbLine
 10
-5.359061295923083
 20
41.24999874749403
 30
0.0
 11
-6.080748691194912
 21
39.9999983299939
 31
0.0
  0
LINE
  5
6707
330
1E
100
AcDbEntity
  8
0
 48
0.27
100
AcDbLine
 10
-6.080748691194912
 20
39.9999983299939
 30
0.0
 11
-11.8542528633701
 21
39.9999983299939
 31
0.0
  0
LINE
  5
6708
330
1E
100
AcDbEntity
  8
0
 48
0.27
100
AcDbLine
 10
-14.74100411445749
 20
44.9999999999942
 30
0.0
 11
-11.8542528633701
 21
39.9999983299939
 31
0.0
  0
LINE
  5
6709
330
1E
100
AcDbEntity
  8
0
 48
0.27
100
AcDbLine
 10
-11.8542528633701
 20
49.9999999999942
 30
0.0
 11
-14.74100411445749
 21
44.9999999999942
 31
0.0
  0
LINE
  5
670A
330
1E
100
AcDbEntity
  8
0
 48
0.27
100
AcDbLine
 10
-11.8542528633701
 20
49.9999999999942
 30
0.0
 11
-6.0807503611951
 21
49.9999999999942
 31
0.0
  0
LINE
  5
670B
330
1E
100
AcDbEntity
  8
0
 48
0.27
100
AcDbLine
 10
-5.359061295923083
 20
48.74999958249407
 30
0.0
 11
-6.0807503611951
 21
49.9999999999942
 31
0.0
  0
ARC
  5
670C
330
1E
100
AcDbEntity
  8
0
 48
0.27
100
AcDbCircle
 10
-8.967501612282603
 20
44.9999999999942
 30
0.0
 40
5.0
100
AcDbArc
 50
48.59037799889873
 51
311.4096220031988
  0
LWPOLYLINE
  5
670D
330
1E
100
AcDbEntity
  8
0
 48
0.27
100
AcDbPolyline
 90
       17
 70
     0
 43
0.0
 10
2.22210991550753
 20
44.9999999999942
 10
2.264045299260828
 20
44.72870340156271
 10
2.305159042626769
 20
44.65007309593135
 10
2.350871967510784
 20
44.61314604388951
 10
2.393343421353506
 20
44.61353014395377
 10
2.438959486221392
 20
44.65128551625889
 10
2.478139369014456
 20
44.72599800061084
 10
2.514872701023932
 20
44.88858925363854
 10
2.521081763060919
 20
44.9999999999942
 10
2.479148049307923
 20
45.27129492842539
 10
2.438032635941567
 20
45.34992523405674
 10
2.392319711057552
 20
45.38685228609859
 10
2.349849927215132
 20
45.38646818590939
 10
2.304232192346944
 20
45.34871281360426
 10
2.265053979554181
 20
45.2740003292522
 10
2.228318977544404
 20
45.11140907634955
 10
2.22210991550753
 20
44.9999999999942
  0
ARC
  5
670E
330
1E
100
AcDbEntity
  8
0
 48
0.27
100
AcDbCircle
 10
-8.967501612282603
 20
44.9999999999942
 30
0.0
 40
6.562501095937681
100
AcDbArc
 50
30.24329777399846
 51
329.7566907592986
  0
ARC
  5
670F
330
1E
100
AcDbEntity
  8
0
 48
0.27
100
AcDbCircle
 10
180.4987348266299
 20
42.50047387265832
 30
0.0
 40
3.69263874999997
100
AcDbArc
 50
137.3889352727286
 51
222.6114069975993
  0
LINE
  5
6710
330
1E
100
AcDbEntity
  8
0
 48
0.27
100
AcDbLine
 10
168.97519857663
 20
45.0004738726582
 30
0.0
 11
168.9354410766301
 21
44.56355387265822
 31
0.0
  0
LINE
  5
6711
330
1E
100
AcDbEntity
  8
0
 48
0.27
100
AcDbLine
 10
168.9354410766301
 20
44.56355387265822
 30
0.0
 11
168.81769732663
 21
44.14342387265825
 31
0.0
  0
LINE
  5
6712
330
1E
100
AcDbEntity
  8
0
 48
0.27
100
AcDbLine
 10
168.9354410766301
 20
45.43739387265818
 30
0.0
 11
168.97519857663
 21
45.0004738726582
 31
0.0
  0
LINE
  5
6713
330
1E
100
AcDbEntity
  8
0
 48
0.27
100
AcDbLine
 10
168.81769732663
 20
44.14342387265825
 30
0.0
 11
168.6264923266301
 21
43.75623012265819
 31
0.0
  0
LINE
  5
6714
330
1E
100
AcDbEntity
  8
0
 48
0.27
100
AcDbLine
 10
168.81769732663
 20
45.85752387265816
 30
0.0
 11
168.9354410766301
 21
45.43739387265818
 31
0.0
  0
LINE
  5
6715
330
1E
100
AcDbEntity
  8
0
 48
0.27
100
AcDbLine
 10
168.6264923266301
 20
43.75623012265819
 30
0.0
 11
168.3691723266302
 21
43.41685137265827
 31
0.0
  0
LINE
  5
6716
330
1E
100
AcDbEntity
  8
0
 48
0.27
100
AcDbLine
 10
168.6264923266301
 20
46.24471762265821
 30
0.0
 11
168.81769732663
 21
45.85752387265816
 31
0.0
  0
LINE
  5
6717
330
1E
100
AcDbEntity
  8
0
 48
0.27
100
AcDbLine
 10
168.0556285766301
 20
43.13833137265819
 30
0.0
 11
168.3691723266302
 21
43.41685137265827
 31
0.0
  0
LINE
  5
6718
330
1E
100
AcDbEntity
  8
0
 48
0.27
100
AcDbLine
 10
168.3691723266302
 20
46.58409512265817
 30
0.0
 11
168.6264923266301
 21
46.24471762265821
 31
0.0
  0
LINE
  5
6719
330
1E
100
AcDbEntity
  8
0
 48
0.27
100
AcDbLine
 10
170.5317785766301
 20
45.0004738726582
 30
0.0
 11
170.47511857663
 21
44.37779637265819
 31
0.0
  0
LINE
  5
671A
330
1E
100
AcDbEntity
  8
0
 48
0.27
100
AcDbLine
 10
170.47511857663
 20
44.37779637265819
 30
0.0
 11
170.3073148266301
 21
43.77904762265816
 31
0.0
  0
LINE
  5
671B
330
1E
100
AcDbEntity
  8
0
 48
0.27
100
AcDbLine
 10
170.47511857663
 20
45.62315137265821
 30
0.0
 11
170.5317785766301
 21
45.0004738726582
 31
0.0
  0
LINE
  5
671C
330
1E
100
AcDbEntity
  8
0
 48
0.27
100
AcDbLine
 10
167.6979073266301
 20
42.93137137265822
 30
0.0
 11
168.0556285766301
 21
43.13833137265819
 31
0.0
  0
LINE
  5
671D
330
1E
100
AcDbEntity
  8
0
 48
0.27
100
AcDbLine
 10
168.0556285766301
 20
46.86261637265821
 30
0.0
 11
168.3691723266302
 21
46.58409512265817
 31
0.0
  0
LINE
  5
671E
330
1E
100
AcDbEntity
  8
0
 48
0.27
100
AcDbLine
 10
170.3073148266301
 20
43.77904762265816
 30
0.0
 11
170.03481857663
 21
43.2272388726582
 31
0.0
  0
LINE
  5
671F
330
1E
100
AcDbEntity
  8
0
 48
0.27
100
AcDbLine
 10
170.3073148266301
 20
46.22189887265816
 30
0.0
 11
170.47511857663
 21
45.62315137265821
 31
0.0
  0
LINE
  5
6720
330
1E
100
AcDbEntity
  8
0
 48
0.27
100
AcDbLine
 10
170.03481857663
 20
43.2272388726582
 30
0.0
 11
169.66809982663
 21
42.74357387265811
 31
0.0
  0
LINE
  5
6721
330
1E
100
AcDbEntity
  8
0
 48
0.27
100
AcDbLine
 10
170.03481857663
 20
46.7737088726582
 30
0.0
 11
170.3073148266301
 21
46.22189887265816
 31
0.0
  0
LINE
  5
6722
330
1E
100
AcDbEntity
  8
0
 48
0.27
100
AcDbLine
 10
167.3097585766301
 20
42.80392637265814
 30
0.0
 11
167.6979073266301
 21
42.93137137265822
 31
0.0
  0
LINE
  5
6723
330
1E
100
AcDbEntity
  8
0
 48
0.27
100
AcDbLine
 10
167.6979073266301
 20
47.06957512265811
 30
0.0
 11
168.0556285766301
 21
46.86261637265821
 31
0.0
  0
LINE
  5
6724
330
1E
100
AcDbEntity
  8
0
 48
0.27
100
AcDbLine
 10
169.2212510766301
 20
42.34664012265821
 30
0.0
 11
169.66809982663
 21
42.74357387265811
 31
0.0
  0
LINE
  5
6725
330
1E
100
AcDbEntity
  8
0
 48
0.27
100
AcDbLine
 10
169.66809982663
 20
47.25737387265818
 30
0.0
 11
170.03481857663
 21
46.7737088726582
 31
0.0
  0
LINE
  5
6726
330
1E
100
AcDbEntity
  8
0
 48
0.27
100
AcDbLine
 10
170.68640357663
 20
45.0004738726582
 30
0.0
 11
170.6303623266301
 21
44.38459637265819
 31
0.0
  0
LINE
  5
6727
330
1E
100
AcDbEntity
  8
0
 48
0.27
100
AcDbLine
 10
166.90609732663
 20
42.76089387265827
 30
0.0
 11
167.3097585766301
 21
42.80392637265814
 31
0.0
  0
LINE
  5
6728
330
1E
100
AcDbEntity
  8
0
 48
0.27
100
AcDbLine
 10
167.3097585766301
 20
47.19702012265819
 30
0.0
 11
167.6979073266301
 21
47.06957512265811
 31
0.0
  0
LINE
  5
6729
330
1E
100
AcDbEntity
  8
0
 48
0.27
100
AcDbLine
 10
170.6303623266301
 20
44.38459637265819
 30
0.0
 11
170.4643923266301
 21
43.79238637265816
 31
0.0
  0
LINE
  5
672A
330
1E
100
AcDbEntity
  8
0
 48
0.27
100
AcDbLine
 10
170.6303623266301
 20
45.61635137265821
 30
0.0
 11
170.68640357663
 21
45.0004738726582
 31
0.0
  0
LINE
  5
672B
330
1E
100
AcDbEntity
  8
0
 48
0.27
100
AcDbLine
 10
168.71144607663
 20
42.05169137265821
 30
0.0
 11
169.2212510766301
 21
42.34664012265821
 31
0.0
  0
LINE
  5
672C
330
1E
100
AcDbEntity
  8
0
 48
0.27
100
AcDbLine
 10
169.2212510766301
 20
47.65430762265819
 30
0.0
 11
169.66809982663
 21
47.25737387265818
 31
0.0
  0
LINE
  5
672D
330
1E
100
AcDbEntity
  8
0
 48
0.27
100
AcDbLine
 10
170.4643923266301
 20
43.79238637265816
 30
0.0
 11
170.19487107663
 21
43.24660262265823
 31
0.0
  0
LINE
  5
672E
330
1E
100
AcDbEntity
  8
0
 48
0.27
100
AcDbLine
 10
170.4643923266301
 20
46.20856137265824
 30
0.0
 11
170.6303623266301
 21
45.61635137265821
 31
0.0
  0
LINE
  5
672F
330
1E
100
AcDbEntity
  8
0
 48
0.27
100
AcDbLine
 10
170.19487107663
 20
43.24660262265823
 30
0.0
 11
169.83215732663
 21
42.76821887265819
 31
0.0
  0
LINE
  5
6730
330
1E
100
AcDbEntity
  8
0
 48
0.27
100
AcDbLine
 10
170.19487107663
 20
46.75434512265818
 30
0.0
 11
170.4643923266301
 21
46.20856137265824
 31
0.0
  0
LINE
  5
6731
330
1E
100
AcDbEntity
  8
0
 48
0.27
100
AcDbLine
 10
168.1582748266301
 20
41.87006262265813
 30
0.0
 11
168.71144607663
 21
42.05169137265821
 31
0.0
  0
LINE
  5
6732
330
1E
100
AcDbEntity
  8
0
 48
0.27
100
AcDbLine
 10
168.71144607663
 20
47.94925637265819
 30
0.0
 11
169.2212510766301
 21
47.65430762265819
 31
0.0
  0
LINE
  5
6733
330
1E
100
AcDbEntity
  8
0
 48
0.27
100
AcDbLine
 10
166.5024348266302
 20
42.80392637265814
 30
0.0
 11
166.90609732663
 21
42.76089387265827
 31
0.0
  0
LINE
  5
6734
330
1E
100
AcDbEntity
  8
0
 48
0.27
100
AcDbLine
 10
166.90609732663
 20
47.24005262265817
 30
0.0
 11
167.3097585766301
 21
47.19702012265819
 31
0.0
  0
LINE
  5
6735
330
1E
100
AcDbEntity
  8
0
 48
0.27
100
AcDbLine
 10
169.39018857663
 20
42.37562012265826
 30
0.0
 11
169.83215732663
 21
42.76821887265819
 31
0.0
  0
LINE
  5
6736
330
1E
100
AcDbEntity
  8
0
 48
0.27
100
AcDbLine
 10
169.83215732663
 20
47.23272887265821
 30
0.0
 11
170.19487107663
 21
46.75434512265818
 31
0.0
  0
LINE
  5
6737
330
1E
100
AcDbEntity
  8
0
 48
0.27
100
AcDbLine
 10
167.5829960766301
 20
41.80873512265819
 30
0.0
 11
168.1582748266301
 21
41.87006262265813
 31
0.0
  0
LINE
  5
6738
330
1E
100
AcDbEntity
  8
0
 48
0.27
100
AcDbLine
 10
168.1582748266301
 20
41.87006262265813
 30
0.0
 11
168.3388198266301
 21
41.90424762265823
 31
0.0
  0
LINE
  5
6739
330
1E
100
AcDbEntity
  8
0
 48
0.27
100
AcDbLine
 10
168.1582748266301
 20
48.13088387265807
 30
0.0
 11
168.71144607663
 21
47.94925637265819
 31
0.0
  0
LINE
  5
673A
330
1E
100
AcDbEntity
  8
0
 48
0.27
100
AcDbLine
 10
166.1142860766301
 20
42.93137137265822
 30
0.0
 11
166.5024348266302
 21
42.80392637265814
 31
0.0
  0
LINE
  5
673B
330
1E
100
AcDbEntity
  8
0
 48
0.27
100
AcDbLine
 10
166.5024348266302
 20
47.19702012265819
 30
0.0
 11
166.90609732663
 21
47.24005262265817
 31
0.0
  0
LINE
  5
673C
330
1E
100
AcDbEntity
  8
0
 48
0.27
100
AcDbLine
 10
168.8859498266301
 20
42.08389262265828
 30
0.0
 11
169.39018857663
 21
42.37562012265826
 31
0.0
  0
LINE
  5
673D
330
1E
100
AcDbEntity
  8
0
 48
0.27
100
AcDbLine
 10
169.39018857663
 20
47.62532762265815
 30
0.0
 11
169.83215732663
 21
47.23272887265821
 31
0.0
  0
LINE
  5
673E
330
1E
100
AcDbEntity
  8
0
 48
0.27
100
AcDbLine
 10
168.3388198266301
 20
41.90424762265823
 30
0.0
 11
168.8859498266301
 21
42.08389262265828
 31
0.0
  0
LINE
  5
673F
330
1E
100
AcDbEntity
  8
0
 48
0.27
100
AcDbLine
 10
168.8859498266301
 20
47.91705512265813
 30
0.0
 11
169.39018857663
 21
47.62532762265815
 31
0.0
  0
LINE
  5
6740
330
1E
100
AcDbEntity
  8
0
 48
0.27
100
AcDbLine
 10
167.0077173266302
 20
41.87006262265813
 30
0.0
 11
167.5829960766301
 21
41.80873512265819
 31
0.0
  0
LINE
  5
6741
330
1E
100
AcDbEntity
  8
0
 48
0.27
100
AcDbLine
 10
167.5829960766301
 20
48.19221262265822
 30
0.0
 11
168.1582748266301
 21
48.13088387265807
 31
0.0
  0
LINE
  5
6742
330
1E
100
AcDbEntity
  8
0
 48
0.27
100
AcDbLine
 10
168.1582748266301
 20
48.13088387265807
 30
0.0
 11
168.3388198266301
 21
48.09670012265818
 31
0.0
  0
LINE
  5
6743
330
1E
100
AcDbEntity
  8
0
 48
0.27
100
AcDbLine
 10
165.7565648266302
 20
43.13833137265819
 30
0.0
 11
166.1142860766301
 21
42.93137137265822
 31
0.0
  0
LINE
  5
6744
330
1E
100
AcDbEntity
  8
0
 48
0.27
100
AcDbLine
 10
166.1142860766301
 20
47.06957512265811
 30
0.0
 11
166.5024348266302
 21
47.19702012265819
 31
0.0
  0
LINE
  5
6745
330
1E
100
AcDbEntity
  8
0
 48
0.27
100
AcDbLine
 10
168.3388198266301
 20
48.09670012265818
 30
0.0
 11
168.8859498266301
 21
47.91705512265813
 31
0.0
  0
LINE
  5
6746
330
1E
100
AcDbEntity
  8
0
 48
0.27
100
AcDbLine
 10
165.4430210766302
 20
43.41685137265827
 30
0.0
 11
165.7565648266302
 21
43.13833137265819
 31
0.0
  0
LINE
  5
6747
330
1E
100
AcDbEntity
  8
0
 48
0.27
100
AcDbLine
 10
165.7565648266302
 20
46.86261637265821
 30
0.0
 11
166.1142860766301
 21
47.06957512265811
 31
0.0
  0
LINE
  5
6748
330
1E
100
AcDbEntity
  8
0
 48
0.27
100
AcDbLine
 10
166.4545460766301
 20
42.05169137265821
 30
0.0
 11
167.0077173266302
 21
41.87006262265813
 31
0.0
  0
LINE
  5
6749
330
1E
100
AcDbEntity
  8
0
 48
0.27
100
AcDbLine
 10
167.0077173266302
 20
48.13088387265807
 30
0.0
 11
167.5829960766301
 21
48.19221262265822
 31
0.0
  0
LINE
  5
674A
330
1E
100
AcDbEntity
  8
0
 48
0.27
100
AcDbLine
 10
165.1857010766301
 20
43.75623012265819
 30
0.0
 11
165.4430210766302
 21
43.41685137265827
 31
0.0
  0
LINE
  5
674B
330
1E
100
AcDbEntity
  8
0
 48
0.27
100
AcDbLine
 10
165.4430210766302
 20
46.58409512265817
 30
0.0
 11
165.7565648266302
 21
46.86261637265821
 31
0.0
  0
LINE
  5
674C
330
1E
100
AcDbEntity
  8
0
 48
0.27
100
AcDbLine
 10
165.9447398266301
 20
42.34664012265821
 30
0.0
 11
166.4545460766301
 21
42.05169137265821
 31
0.0
  0
LINE
  5
674D
330
1E
100
AcDbEntity
  8
0
 48
0.27
100
AcDbLine
 10
166.4545460766301
 20
47.94925637265819
 30
0.0
 11
167.0077173266302
 21
48.13088387265807
 31
0.0
  0
LINE
  5
674E
330
1E
100
AcDbEntity
  8
0
 48
0.27
100
AcDbLine
 10
164.9944960766302
 20
44.14342387265825
 30
0.0
 11
165.1857010766301
 21
43.75623012265819
 31
0.0
  0
LINE
  5
674F
330
1E
100
AcDbEntity
  8
0
 48
0.27
100
AcDbLine
 10
165.4430210766302
 20
46.58409512265817
 30
0.0
 11
165.1857010766301
 21
46.24471762265821
 31
0.0
  0
LINE
  5
6750
330
1E
100
AcDbEntity
  8
0
 48
0.27
100
AcDbLine
 10
165.4978923266301
 20
42.74357387265811
 30
0.0
 11
165.9447398266301
 21
42.34664012265821
 31
0.0
  0
LINE
  5
6751
330
1E
100
AcDbEntity
  8
0
 48
0.27
100
AcDbLine
 10
165.9447398266301
 20
47.65430762265819
 30
0.0
 11
166.4545460766301
 21
47.94925637265819
 31
0.0
  0
LINE
  5
6752
330
1E
100
AcDbEntity
  8
0
 48
0.27
100
AcDbLine
 10
164.8767523266301
 20
44.56355387265822
 30
0.0
 11
164.9944960766302
 21
44.14342387265825
 31
0.0
  0
LINE
  5
6753
330
1E
100
AcDbEntity
  8
0
 48
0.27
100
AcDbLine
 10
165.1857010766301
 20
46.24471762265821
 30
0.0
 11
164.9944960766302
 21
45.85752387265816
 31
0.0
  0
LINE
  5
6754
330
1E
100
AcDbEntity
  8
0
 48
0.27
100
AcDbLine
 10
164.8369948266302
 20
45.0004738726582
 30
0.0
 11
164.8767523266301
 21
44.56355387265822
 31
0.0
  0
LINE
  5
6755
330
1E
100
AcDbEntity
  8
0
 48
0.27
100
AcDbLine
 10
164.9944960766302
 20
45.85752387265816
 30
0.0
 11
164.8767523266301
 21
45.43739387265818
 31
0.0
  0
LINE
  5
6756
330
1E
100
AcDbEntity
  8
0
 48
0.27
100
AcDbLine
 10
164.8767523266301
 20
45.43739387265818
 30
0.0
 11
164.8369948266302
 21
45.0004738726582
 31
0.0
  0
LINE
  5
6757
330
1E
100
AcDbEntity
  8
0
 48
0.27
100
AcDbLine
 10
165.1311723266301
 20
43.2272388726582
 30
0.0
 11
165.4978923266301
 21
42.74357387265811
 31
0.0
  0
LINE
  5
6758
330
1E
100
AcDbEntity
  8
0
 48
0.27
100
AcDbLine
 10
165.4978923266301
 20
47.25737387265818
 30
0.0
 11
165.9447398266301
 21
47.65430762265819
 31
0.0
  0
LINE
  5
6759
330
1E
100
AcDbEntity
  8
0
 48
0.27
100
AcDbLine
 10
164.8586760766301
 20
43.77904762265816
 30
0.0
 11
165.1311723266301
 21
43.2272388726582
 31
0.0
  0
LINE
  5
675A
330
1E
100
AcDbEntity
  8
0
 48
0.27
100
AcDbLine
 10
165.4978923266301
 20
47.25737387265818
 30
0.0
 11
165.1311723266301
 21
46.7737088726582
 31
0.0
  0
LINE
  5
675B
330
1E
100
AcDbEntity
  8
0
 48
0.27
100
AcDbLine
 10
164.6908735766301
 20
44.37779637265819
 30
0.0
 11
164.8586760766301
 21
43.77904762265816
 31
0.0
  0
LINE
  5
675C
330
1E
100
AcDbEntity
  8
0
 48
0.27
100
AcDbLine
 10
165.1311723266301
 20
46.7737088726582
 30
0.0
 11
164.8586760766301
 21
46.22189887265816
 31
0.0
  0
LINE
  5
675D
330
1E
100
AcDbEntity
  8
0
 48
0.27
100
AcDbLine
 10
164.6342135766301
 20
45.0004738726582
 30
0.0
 11
164.6908735766301
 21
44.37779637265819
 31
0.0
  0
LINE
  5
675E
330
1E
100
AcDbEntity
  8
0
 48
0.27
100
AcDbLine
 10
164.8586760766301
 20
46.22189887265816
 30
0.0
 11
164.6908735766301
 21
45.62315137265821
 31
0.0
  0
LINE
  5
675F
330
1E
100
AcDbEntity
  8
0
 48
0.27
100
AcDbLine
 10
164.6908735766301
 20
45.62315137265821
 30
0.0
 11
164.6342135766301
 21
45.0004738726582
 31
0.0
  0
LINE
  5
6760
330
1E
100
AcDbEntity
  8
0
 48
0.27
100
AcDbLine
 10
166.0817610766301
 20
42.95018887265817
 30
0.0
 11
166.0854748266301
 21
42.95220887265819
 31
0.0
  0
LINE
  5
6761
330
1E
100
AcDbEntity
  8
0
 48
0.27
100
AcDbLine
 10
166.0817610766301
 20
47.05075762265815
 30
0.0
 11
166.0854748266301
 21
47.04873887265821
 31
0.0
  0
LINE
  5
6762
330
1E
100
AcDbEntity
  8
0
 48
0.27
100
AcDbLine
 10
173.17617982663
 20
45.0004738726582
 30
0.0
 11
173.10960982663
 21
44.26888512265819
 31
0.0
  0
LINE
  5
6763
330
1E
100
AcDbEntity
  8
0
 48
0.27
100
AcDbLine
 10
173.10960982663
 20
45.73206262265822
 30
0.0
 11
173.17617982663
 21
45.0004738726582
 31
0.0
  0
LINE
  5
6764
330
1E
100
AcDbEntity
  8
0
 48
0.27
100
AcDbLine
 10
173.10960982663
 20
44.26888512265819
 30
0.0
 11
172.91245732663
 21
43.56541012265828
 31
0.0
  0
LINE
  5
6765
330
1E
100
AcDbEntity
  8
0
 48
0.27
100
AcDbLine
 10
172.91245732663
 20
46.43553637265816
 30
0.0
 11
173.10960982663
 21
45.73206262265822
 31
0.0
  0
LINE
  5
6766
330
1E
100
AcDbEntity
  8
0
 48
0.27
100
AcDbLine
 10
172.91245732663
 20
43.56541012265828
 30
0.0
 11
172.5922985766301
 21
42.91708512265816
 31
0.0
  0
LINE
  5
6767
330
1E
100
AcDbEntity
  8
0
 48
0.27
100
AcDbLine
 10
172.5922985766301
 20
47.08386137265816
 30
0.0
 11
172.91245732663
 21
46.43553637265816
 31
0.0
  0
LINE
  5
6768
330
1E
100
AcDbEntity
  8
0
 48
0.27
100
AcDbLine
 10
172.5922985766301
 20
42.91708512265816
 30
0.0
 11
172.1614373266301
 21
42.34882262265822
 31
0.0
  0
LINE
  5
6769
330
1E
100
AcDbEntity
  8
0
 48
0.27
100
AcDbLine
 10
172.1614373266301
 20
47.65212387265822
 30
0.0
 11
172.5922985766301
 21
47.08386137265816
 31
0.0
  0
LINE
  5
676A
330
1E
100
AcDbEntity
  8
0
 48
0.27
100
AcDbLine
 10
173.7121473266301
 20
45.0004738726582
 30
0.0
 11
171.7118898266301
 21
41.2504738726582
 31
0.0
  0
LINE
  5
676B
330
1E
100
AcDbEntity
  8
0
 48
0.27
100
AcDbLine
 10
171.7118898266301
 20
48.7504738726582
 30
0.0
 11
173.7121473266301
 21
45.0004738726582
 31
0.0
  0
LINE
  5
676C
330
1E
100
AcDbEntity
  8
0
 48
0.27
100
AcDbLine
 10
171.63643232663
 20
41.8824626226582
 30
0.0
 11
172.1614373266301
 21
42.34882262265822
 31
0.0
  0
LINE
  5
676D
330
1E
100
AcDbEntity
  8
0
 48
0.27
100
AcDbLine
 10
171.63643232663
 20
48.1184851226582
 30
0.0
 11
172.1614373266301
 21
47.65212387265822
 31
0.0
  0
LINE
  5
676E
330
1E
100
AcDbEntity
  8
0
 48
0.27
100
AcDbLine
 10
171.03745732663
 20
41.53592512265825
 30
0.0
 11
171.63643232663
 21
41.8824626226582
 31
0.0
  0
LINE
  5
676F
330
1E
100
AcDbEntity
  8
0
 48
0.27
100
AcDbLine
 10
171.03745732663
 20
48.46502137265819
 30
0.0
 11
171.63643232663
 21
48.1184851226582
 31
0.0
  0
LINE
  5
6770
330
1E
100
AcDbEntity
  8
0
 48
0.27
100
AcDbLine
 10
170.3875323266301
 20
41.32252887265829
 30
0.0
 11
171.03745732663
 21
41.53592512265825
 31
0.0
  0
LINE
  5
6771
330
1E
100
AcDbEntity
  8
0
 48
0.27
100
AcDbLine
 10
170.3875323266301
 20
48.67841887265811
 30
0.0
 11
171.03745732663
 21
48.46502137265819
 31
0.0
  0
LINE
  5
6772
330
1E
100
AcDbEntity
  8
0
 48
0.27
100
AcDbLine
 10
169.7116323266301
 20
41.2504738726582
 30
0.0
 11
170.3875323266301
 21
41.32252887265829
 31
0.0
  0
LINE
  5
6773
330
1E
100
AcDbEntity
  8
0
 48
0.27
100
AcDbLine
 10
169.7116323266301
 20
48.7504738726582
 30
0.0
 11
170.3875323266301
 21
48.67841887265811
 31
0.0
  0
LINE
  5
6774
330
1E
100
AcDbEntity
  8
0
 48
0.27
100
AcDbLine
 10
169.03573232663
 20
41.32252887265829
 30
0.0
 11
169.7116323266301
 21
41.2504738726582
 31
0.0
  0
LINE
  5
6775
330
1E
100
AcDbEntity
  8
0
 48
0.27
100
AcDbLine
 10
169.03573232663
 20
48.67841887265811
 30
0.0
 11
169.7116323266301
 21
48.7504738726582
 31
0.0
  0
LINE
  5
6776
330
1E
100
AcDbEntity
  8
0
 48
0.27
100
AcDbLine
 10
168.3858073266301
 20
41.53592512265825
 30
0.0
 11
169.03573232663
 21
41.32252887265829
 31
0.0
  0
LINE
  5
6777
330
1E
100
AcDbEntity
  8
0
 48
0.27
100
AcDbLine
 10
168.3858073266301
 20
48.46502137265819
 30
0.0
 11
169.03573232663
 21
48.67841887265811
 31
0.0
  0
LINE
  5
6778
330
1E
100
AcDbEntity
  8
0
 48
0.27
100
AcDbLine
 10
167.86272357663
 20
41.83855512265828
 30
0.0
 11
168.3858073266301
 21
41.53592512265825
 31
0.0
  0
LINE
  5
6779
330
1E
100
AcDbEntity
  8
0
 48
0.27
100
AcDbLine
 10
167.86272357663
 20
48.16239137265816
 30
0.0
 11
168.3858073266301
 21
48.46502137265819
 31
0.0
  0
LINE
  5
677A
330
1E
100
AcDbEntity
  8
0
 48
0.27
100
AcDbLine
 10
174.58635232663
 20
45.0004738726582
 30
0.0
 11
172.58609482663
 21
41.2504738726582
 31
0.0
  0
LINE
  5
677B
330
1E
100
AcDbEntity
  8
0
 48
0.27
100
AcDbLine
 10
172.58609482663
 20
41.2504738726582
 30
0.0
 11
167.7113748266301
 21
41.2504738726582
 31
0.0
  0
LINE
  5
677C
330
1E
100
AcDbEntity
  8
0
 48
0.27
100
AcDbLine
 10
172.58609482663
 20
48.7504738726582
 30
0.0
 11
174.58635232663
 21
45.0004738726582
 31
0.0
  0
LINE
  5
677D
330
1E
100
AcDbEntity
  8
0
 48
0.27
100
AcDbLine
 10
173.7121473266301
 20
45.0004738726582
 30
0.0
 11
174.58635232663
 21
45.0004738726582
 31
0.0
  0
LINE
  5
677E
330
1E
100
AcDbEntity
  8
0
 48
0.27
100
AcDbLine
 10
167.7113748266301
 20
48.7504738726582
 30
0.0
 11
167.4033835766302
 21
48.17306512265819
 31
0.0
  0
LINE
  5
677F
330
1E
100
AcDbEntity
  8
0
 48
0.27
100
AcDbLine
 10
167.4033835766302
 20
41.82788262265822
 30
0.0
 11
167.7113748266301
 21
41.2504738726582
 31
0.0
  0
LINE
  5
6780
330
1E
100
AcDbEntity
  8
0
 48
0.27
100
AcDbLine
 10
167.7113748266301
 20
48.7504738726582
 30
0.0
 11
172.58609482663
 21
48.7504738726582
 31
0.0
  0
LINE
  5
6781
330
1E
100
AcDbEntity
  8
0
 48
0.27
100
AcDbLine
 10
172.12067107663
 20
40.0004738726582
 30
0.0
 11
180.83421357663
 21
40.0004738726582
 31
0.0
  0
LINE
  5
6782
330
1E
100
AcDbEntity
  8
0
 48
0.27
100
AcDbLine
 10
180.83421357663
 20
50.0004738726582
 30
0.0
 11
172.12067107663
 21
50.0004738726582
 31
0.0
  0
ARC
  5
6783
330
1E
100
AcDbEntity
  8
0
 48
0.27
100
AcDbCircle
 10
172.12067107663
 20
45.0004738726582
 30
0.0
 40
4.99999999999996
100
AcDbArc
 50
228.5903779973018
 51
270.0
  0
ARC
  5
6784
330
1E
100
AcDbEntity
  8
0
 48
0.27
100
AcDbCircle
 10
172.12067107663
 20
45.0004738726582
 30
0.0
 40
4.99999999999996
100
AcDbArc
 50
90.0
 51
131.4096219996036
  0
LWPOLYLINE
  5
6785
330
1E
100
AcDbEntity
  8
0
 48
0.27
100
AcDbPolyline
 90
       31
 70
     0
 43
0.0
 10
167.6451998266301
 20
45.0004738726582
 10
167.60417732663
 20
45.26329262265815
 10
167.5489935766301
 20
45.39515137265815
 10
167.4702023266301
 20
45.51737512265813
 10
167.3708573266301
 20
45.62251637265823
 10
167.2564935766301
 20
45.70485762265812
 10
167.1340935766301
 20
45.76145887265809
 10
166.9682985766301
 20
45.79763512265813
 10
166.8145373266301
 20
45.7943113726582
 10
166.6808823266301
 20
45.76242887265815
 10
166.5356260766301
 20
45.69271887265816
 10
166.3974135766301
 20
45.58085762265821
 10
166.2871260766301
 20
45.43767012265814
 10
166.2163335766301
 20
45.2878713726582
 10
166.1815198266301
 20
45.15830137265814
 10
166.1669935766301
 20
45.0004738726582
 10
166.2080160766301
 20
44.73765512265825
 10
166.2632010766301
 20
44.60579512265818
 10
166.3419910766301
 20
44.48357262265815
 10
166.4413360766301
 20
44.37843137265818
 10
166.5556998266302
 20
44.29609012265816
 10
166.6780998266301
 20
44.2394888726582
 10
166.8438948266301
 20
44.20331137265807
 10
166.9976560766301
 20
44.2066363726582
 10
167.1313110766301
 20
44.23851762265818
 10
167.2765673266301
 20
44.30822762265816
 10
167.4147798266301
 20
44.42009012265808
 10
167.52506732663
 20
44.56327637265817
 10
167.5958598266301
 20
44.71307512265812
 10
167.6306748266302
 20
44.84264637265826
 10
167.6451998266301
 20
45.0004738726582
  0
LINE
  5
6786
330
1E
100
AcDbEntity
  8
中心線
 48
0.27
100
AcDbLine
 10
163.0492862107715
 20
45.00047613027007
 30
0.0
 11
181.8309947760223
 21
45.00045196639521
 31
0.0
  0
LINE
  5
6788
330
1E
100
AcDbEntity
  8
0
100
AcDbLine
 10
376.8342135766299
 20
55.50000000000011
 30
0.0
 11
379.0342135766299
 21
55.50000000000011
 31
0.0
  0
LINE
  5
6789
330
1E
100
AcDbEntity
  8
0
100
AcDbLine
 10
381.8342135766299
 20
32.64999999999998
 30
0.0
 11
379.0342135766299
 21
33.89999999999998
 31
0.0
  0
LINE
  5
678A
330
1E
100
AcDbEntity
  8
0
100
AcDbLine
 10
381.8342135766299
 20
27.51226790750013
 30
0.0
 11
381.8342135766299
 21
32.64999999999998
 31
0.0
  0
LINE
  5
678B
330
1E
100
AcDbEntity
  8
0
100
AcDbLine
 10
381.8342135766299
 20
0.0
 30
0.0
 11
376.8342135766299
 21
0.0
 31
0.0
  0
LINE
  5
678C
330
1E
100
AcDbEntity
  8
0
100
AcDbLine
 10
376.8342135766299
 20
3.000000000000113
 30
0.0
 11
379.0342135766299
 21
3.000000000000113
 31
0.0
  0
LINE
  5
678D
330
1E
100
AcDbEntity
  8
0
100
AcDbLine
 10
379.0342135766299
 20
0.0
 30
0.0
 11
379.0342135766299
 21
55.50000000000011
 31
0.0
  0
LINE
  5
678E
330
1E
100
AcDbEntity
  8
0
100
AcDbLine
 10
381.8342135766299
 20
0.0
 30
0.0
 11
381.8342135766298
 21
12.1901289676656
 31
0.0
  0
LINE
  5
6792
330
1E
100
AcDbEntity
  8
0
100
AcDbLine
 10
183.0342135766301
 20
55.50000000000014
 30
0.0
 11
180.83421357663
 21
55.50000000000014
 31
0.0
  0
LINE
  5
6793
330
1E
100
AcDbEntity
  8
0
100
AcDbLine
 10
178.0342135766301
 20
32.65000000000001
 30
0.0
 11
180.83421357663
 21
33.90000000000001
 31
0.0
  0
LINE
  5
6794
330
1E
100
AcDbEntity
  8
0
100
AcDbLine
 10
177.5342135766301
 20
17.48520720059312
 30
0.0
 11
177.5342135766301
 21
13.51479279940704
 31
0.0
  0
LINE
  5
6795
330
1E
100
AcDbEntity
  8
中心線
100
AcDbLine
 10
175.8280066825816
 20
15.50000000000003
 30
0.0
 11
188.177860184522
 21
15.50000000000014
 31
0.0
  0
LINE
  5
6796
330
1E
100
AcDbEntity
  8
0
100
AcDbLine
 10
178.0342135766301
 20
27.51226790750016
 30
0.0
 11
178.0342135766301
 21
32.65000000000001
 31
0.0
  0
LINE
  5
6797
330
1E
100
AcDbEntity
  8
0
100
AcDbLine
 10
178.0342135766301
 20
0.0000000000000284
 30
0.0
 11
183.0342135766301
 21
0.0000000000000284
 31
0.0
  0
LINE
  5
6798
330
1E
100
AcDbEntity
  8
0
100
AcDbLine
 10
183.0342135766301
 20
3.000000000000142
 30
0.0
 11
180.83421357663
 21
3.000000000000142
 31
0.0
  0
LINE
  5
6799
330
1E
100
AcDbEntity
  8
0
100
AcDbLine
 10
180.83421357663
 20
0.0000000000000284
 30
0.0
 11
180.83421357663
 21
55.50000000000014
 31
0.0
  0
LINE
  5
679A
330
1E
100
AcDbEntity
  8
0
100
AcDbLine
 10
178.0342135766301
 20
0.0000000000000284
 30
0.0
 11
178.0342135766301
 21
12.19012896766585
 31
0.0
  0
LINE
  5
67A1
330
1E
100
AcDbEntity
  8
0
 48
0.27
100
AcDbLine
 10
357.8342135766301
 20
55.5
 30
0.0
 11
376.8342135766301
 21
55.5
 31
0.0
  0
LINE
  5
67A2
330
1E
100
AcDbEntity
  8
中心線
 48
0.27
100
AcDbLine
 10
368.8342135766301
 20
33.13534057181858
 30
0.0
 11
368.8342135766301
 21
42.86465942818142
 31
0.0
  0
LINE
  5
67AB
330
1E
100
AcDbEntity
  8
0
 48
0.27
100
AcDbLine
 10
357.8342135766301
 20
52.5
 30
0.0
 11
376.8342135766301
 21
52.5
 31
0.0
  0
LINE
  5
67AC
330
1E
100
AcDbEntity
  8
0
 48
0.27
100
AcDbLine
 10
357.8342135766301
 20
0.0
 30
0.0
 11
376.8342135766301
 21
0.0
 31
0.0
  0
CIRCLE
  5
67AD
330
1E
100
AcDbEntity
  8
0
 48
0.27
100
AcDbCircle
 10
368.8342135766301
 20
38.0
 30
0.0
 40
3.9375
  0
CIRCLE
  5
67AE
330
1E
100
AcDbEntity
  8
0
 48
0.27
100
AcDbCircle
 10
368.8342135766301
 20
38.0
 30
0.0
 40
4.25
  0
CIRCLE
  5
67AF
330
1E
100
AcDbEntity
  8
0
 48
0.27
100
AcDbCircle
 10
368.8342135766301
 20
38.0
 30
0.0
 40
4.549999999999999
  0
LINE
  5
67B0
330
1E
100
AcDbEntity
  8
中心線
 48
0.27
100
AcDbLine
 10
363.9695541484486
 20
38.0
 30
0.0
 11
373.6988730048115
 21
38.0
 31
0.0
  0
CIRCLE
  5
67B1
330
1E
100
AcDbEntity
  8
0
 48
0.27
100
AcDbCircle
 10
368.8342135766301
 20
38.0
 30
0.0
 40
0.75
  0
LINE
  5
67B2
330
1E
100
AcDbEntity
  8
0
 48
0.27
100
AcDbLine
 10
357.8342135766301
 20
55.5
 30
0.0
 11
357.8342135766301
 21
0.0
 31
0.0
  0
LINE
  5
67B3
330
1E
100
AcDbEntity
  8
0
 48
0.27
100
AcDbLine
 10
376.8342135766301
 20
55.5
 30
0.0
 11
376.8342135766301
 21
0.0
 31
0.0
  0
LINE
  5
67B4
330
1E
100
AcDbEntity
  8
0
 48
0.27
100
AcDbLine
 10
357.8342135766299
 20
57.00000000000011
 30
0.0
 11
357.8342135766301
 21
0.0
 31
0.0
  0
LINE
  5
67BF
330
1E
100
AcDbEntity
  8
0
 48
0.27
100
AcDbLine
 10
202.0342135766301
 20
55.50000000000003
 30
0.0
 11
183.0342135766301
 21
55.50000000000003
 31
0.0
  0
LINE
  5
67C0
330
1E
100
AcDbEntity
  8
0
 48
0.27
100
AcDbLine
 10
202.0342135766301
 20
52.50000000000003
 30
0.0
 11
183.0342135766301
 21
52.50000000000003
 31
0.0
  0
CIRCLE
  5
67C1
330
1E
100
AcDbEntity
  8
0
 48
0.27
100
AcDbCircle
 10
191.0342135766301
 20
38.00000000000003
 30
0.0
 40
0.75
  0
LINE
  5
67C2
330
1E
100
AcDbEntity
  8
中心線
 48
0.27
100
AcDbLine
 10
186.1695541484487
 20
38.00000000000003
 30
0.0
 11
195.8988730048115
 21
38.00000000000003
 31
0.0
  0
LINE
  5
67C3
330
1E
100
AcDbEntity
  8
中心線
 48
0.27
100
AcDbLine
 10
191.0342135766301
 20
33.1353405718186
 30
0.0
 11
191.0342135766301
 21
42.86465942818145
 31
0.0
  0
CIRCLE
  5
67C4
330
1E
100
AcDbEntity
  8
0
 48
0.27
100
AcDbCircle
 10
191.0342135766301
 20
38.00000000000003
 30
0.0
 40
3.9375
  0
CIRCLE
  5
67C5
330
1E
100
AcDbEntity
  8
0
 48
0.27
100
AcDbCircle
 10
191.0342135766301
 20
38.00000000000003
 30
0.0
 40
4.25
  0
CIRCLE
  5
67C6
330
1E
100
AcDbEntity
  8
0
 48
0.27
100
AcDbCircle
 10
191.0342135766301
 20
38.00000000000003
 30
0.0
 40
4.549999999999999
  0
LINE
  5
67C7
330
1E
100
AcDbEntity
  8
0
 48
0.27
100
AcDbLine
 10
202.0342135766301
 20
0.0000000000000284
 30
0.0
 11
183.0342135766301
 21
0.0000000000000284
 31
0.0
  0
LINE
  5
67C8
330
1E
100
AcDbEntity
  8
0
 48
0.27
100
AcDbLine
 10
183.0342135766301
 20
0.0000000000000284
 30
0.0
 11
183.0342135766301
 21
55.50000000000003
 31
0.0
  0
LINE
  5
67C9
330
1E
100
AcDbEntity
  8
0
 48
0.27
100
AcDbLine
 10
202.0342135766301
 20
0.0000000000000284
 30
0.0
 11
202.0342135766301
 21
55.50000000000003
 31
0.0
  0
LINE
  5
67DC
330
1E
100
AcDbEntity
  8
指線
 48
0.27
100
AcDbLine
 10
-53.16834447003469
 20
14.70153823267037
 30
0.0
 11
-53.16811848216293
 21
13.2405606928445
 31
0.0
  0
LINE
  5
67DD
330
1E
100
AcDbEntity
  8
指線
 48
0.27
100
AcDbLine
 10
-54.76641156109417
 20
14.70129088696478
 30
0.0
 11
-54.76618557354186
 21
13.24031334714573
 31
0.0
  0
ARC
  5
67DE
330
1E
100
AcDbEntity
  8
指線
 48
0.27
100
AcDbCircle
 10
-53.96750161228244
 20
15.50044970877741
 30
0.0
 40
2.397105012956624
100
AcDbArc
 50
199.4791870960494
 51
250.5376787567855
  0
LINE
  5
67DF
330
1E
100
AcDbEntity
  8
指線
 48
0.27
100
AcDbLine
 10
-53.16859166347137
 20
16.29960853059026
 30
0.0
 11
-50.05637858021095
 21
16.30016648148682
 31
0.0
  0
LINE
  5
67E0
330
1E
100
AcDbEntity
  8
指線
 48
0.27
100
AcDbLine
 10
-53.16834447003469
 20
14.70153823267037
 30
0.0
 11
-50.05613138677421
 21
14.70209618356682
 31
0.0
  0
ARC
  5
67E1
330
1E
100
AcDbEntity
  8
指線
 48
0.27
100
AcDbCircle
 10
-53.96750161228289
 20
15.50044970877741
 30
0.0
 40
2.397105012956624
100
AcDbArc
 50
289.4623212432145
 51
340.5208129039506
  0
LINE
  5
67E2
330
1E
100
AcDbEntity
  8
指線
 48
0.27
100
AcDbLine
 10
-53.16881765102334
 20
17.76058607040897
 30
0.0
 11
-53.16859166347137
 21
16.29960853059026
 31
0.0
  0
LINE
  5
67E3
330
1E
100
AcDbEntity
  8
指線
 48
0.27
100
AcDbLine
 10
-54.76688474240228
 20
17.76033872471055
 30
0.0
 11
-54.76665875453051
 21
16.29936118488433
 31
0.0
  0
ARC
  5
67E4
330
1E
100
AcDbEntity
  8
指線
 48
0.27
100
AcDbCircle
 10
-53.96750161228244
 20
15.50044970877741
 30
0.0
 40
2.397105012956624
100
AcDbArc
 50
19.48100010832696
 51
70.53767875679469
  0
ARC
  5
67E5
330
1E
100
AcDbEntity
  8
指線
 48
0.27
100
AcDbCircle
 10
-53.96750161228289
 20
15.50044970877741
 30
0.0
 40
2.397105012956624
100
AcDbArc
 50
109.4623212432053
 51
160.518999891673
  0
LINE
  5
67E6
330
1E
100
AcDbEntity
  8
指線
 48
0.27
100
AcDbLine
 10
-54.76665875453051
 20
16.29936118488433
 30
0.0
 11
-57.88527647633657
 21
16.2989547394327
 31
0.0
  0
LINE
  5
67E7
330
1E
100
AcDbEntity
  8
指線
 48
0.27
100
AcDbLine
 10
-54.76641156109417
 20
14.70129088696478
 30
0.0
 11
-57.88502928290023
 21
14.7008844415127
 31
0.0
  0
CIRCLE
  5
67E8
330
1E
100
AcDbEntity
  8
指線
 48
0.27
100
AcDbCircle
 10
-53.96750161228266
 20
15.50044970877741
 30
0.0
 40
4.0
  0
CIRCLE
  5
67E9
330
1E
100
AcDbEntity
  8
指線
 48
0.27
100
AcDbCircle
 10
-53.96750161228244
 20
15.50044970877741
 30
0.0
 40
4.0
  0
LINE
  5
67EA
330
1E
100
AcDbEntity
  8
指線
 48
0.27
100
AcDbLine
 10
36.83165552996536
 20
14.70153823267026
 30
0.0
 11
36.83188151783702
 21
13.24056069284427
 31
0.0
  0
LINE
  5
67EB
330
1E
100
AcDbEntity
  8
指線
 48
0.27
100
AcDbLine
 10
35.23358843890583
 20
14.70129088696467
 30
0.0
 11
35.23381442645814
 21
13.24031334714561
 31
0.0
  0
ARC
  5
67EC
330
1E
100
AcDbEntity
  8
指線
 48
0.27
100
AcDbCircle
 10
36.03249838771763
 20
15.50044970877718
 30
0.0
 40
2.397105012956624
100
AcDbArc
 50
199.4791870960494
 51
250.5376787567855
  0
LINE
  5
67ED
330
1E
100
AcDbEntity
  8
指線
 48
0.27
100
AcDbLine
 10
36.83140833652863
 20
16.29960853059015
 30
0.0
 11
39.94362141978911
 21
16.30016648148671
 31
0.0
  0
LINE
  5
67EE
330
1E
100
AcDbEntity
  8
指線
 48
0.27
100
AcDbLine
 10
36.83165552996536
 20
14.70153823267026
 30
0.0
 11
39.94386861322573
 21
14.70209618356671
 31
0.0
  0
ARC
  5
67EF
330
1E
100
AcDbEntity
  8
指線
 48
0.27
100
AcDbCircle
 10
36.03249838771717
 20
15.50044970877718
 30
0.0
 40
2.397105012956624
100
AcDbArc
 50
289.4623212432145
 51
340.5208129039506
  0
LINE
  5
67F0
330
1E
100
AcDbEntity
  8
指線
 48
0.27
100
AcDbLine
 10
36.83118234897666
 20
17.76058607040886
 30
0.0
 11
36.83140833652863
 21
16.29960853059015
 31
0.0
  0
LINE
  5
67F1
330
1E
100
AcDbEntity
  8
指線
 48
0.27
100
AcDbLine
 10
35.23311525759778
 20
17.76033872471055
 30
0.0
 11
35.23334124546944
 21
16.29936118488422
 31
0.0
  0
ARC
  5
67F2
330
1E
100
AcDbEntity
  8
指線
 48
0.27
100
AcDbCircle
 10
36.03249838771763
 20
15.50044970877718
 30
0.0
 40
2.397105012956624
100
AcDbArc
 50
19.48100010832696
 51
70.53767875679469
  0
ARC
  5
67F3
330
1E
100
AcDbEntity
  8
指線
 48
0.27
100
AcDbCircle
 10
36.03249838771717
 20
15.50044970877718
 30
0.0
 40
2.397105012956624
100
AcDbArc
 50
109.4623212432053
 51
160.518999891673
  0
LINE
  5
67F4
330
1E
100
AcDbEntity
  8
指線
 48
0.27
100
AcDbLine
 10
35.23334124546944
 20
16.29936118488422
 30
0.0
 11
32.11472352366343
 21
16.29895473943259
 31
0.0
  0
LINE
  5
67F5
330
1E
100
AcDbEntity
  8
指線
 48
0.27
100
AcDbLine
 10
35.23358843890583
 20
14.70129088696467
 30
0.0
 11
32.11497071709971
 21
14.70088444151258
 31
0.0
  0
CIRCLE
  5
67F6
330
1E
100
AcDbEntity
  8
指線
 48
0.27
100
AcDbCircle
 10
36.0324983877174
 20
15.50044970877718
 30
0.0
 40
4.0
  0
CIRCLE
  5
67F7
330
1E
100
AcDbEntity
  8
指線
 48
0.27
100
AcDbCircle
 10
36.03249838771763
 20
15.50044970877718
 30
0.0
 40
4.0
  0
LINE
  5
6804
330
1E
100
AcDbEntity
  8
虛線
 48
0.27
100
AcDbLine
 10
36.13084491883228
 20
56.9999999999942
 30
0.0
 11
34.5308449188326
 21
55.39999999999406
 31
0.0
  0
LINE
  5
6805
330
1E
100
AcDbEntity
  8
虛線
 48
0.27
100
AcDbLine
 10
22.5308449188326
 20
55.39999999999406
 30
0.0
 11
20.93084491883246
 21
56.9999999999942
 31
0.0
  0
LINE
  5
6806
330
1E
100
AcDbEntity
  8
0
 48
0.27
100
AcDbLine
 10
16.5308449188326
 20
56.9999999999942
 30
0.0
 11
15.53084491883214
 21
55.99999999999409
 31
0.0
  0
LINE
  5
6807
330
1E
100
AcDbEntity
  8
0
 48
0.27
100
AcDbLine
 10
39.0808449188321
 20
56.99999999999409
 30
0.0
 11
16.5308449188326
 21
56.9999999999942
 31
0.0
  0
LINE
  5
6808
330
1E
100
AcDbEntity
  8
虛線
 48
0.27
100
AcDbLine
 10
22.5308449188326
 20
55.39999999999406
 30
0.0
 11
34.5308449188326
 21
55.39999999999406
 31
0.0
  0
LINE
  5
6809
330
1E
100
AcDbEntity
  8
0
 48
0.27
100
AcDbLine
 10
2.030844918832144
 20
55.99999999999409
 30
0.0
 11
1.030844918832144
 21
56.9999999999942
 31
0.0
  0
LINE
  5
680A
330
1E
100
AcDbEntity
  8
0
 48
0.27
100
AcDbLine
 10
1.030844918832144
 20
56.9999999999942
 30
0.0
 11
-18.96915508116785
 21
56.9999999999942
 31
0.0
  0
LINE
  5
680B
330
1E
100
AcDbEntity
  8
0
 48
0.27
100
AcDbLine
 10
2.030844918832144
 20
55.99999999999409
 30
0.0
 11
15.53084491883214
 21
55.99999999999409
 31
0.0
  0
LINE
  5
680C
330
1E
100
AcDbEntity
  8
0
 48
0.27
100
AcDbLine
 10
41.03084491883215
 20
55.04999999999404
 30
0.0
 11
39.0808449188321
 21
56.99999999999409
 31
0.0
  0
LINE
  5
680F
330
1E
100
AcDbEntity
  8
虛線
 48
0.27
100
AcDbLine
 10
33.65795909650069
 20
33.7499969999941
 30
0.0
 11
23.40795909650069
 21
33.7499969999941
 31
0.0
  0
LINE
  5
6810
330
1E
100
AcDbEntity
  8
虛線
 48
0.27
100
AcDbLine
 10
34.53295909650023
 20
38.99999999999398
 30
0.0
 11
22.53295909650069
 21
38.99999999999398
 31
0.0
  0
LINE
  5
6811
330
1E
100
AcDbEntity
  8
0
 48
0.27
100
AcDbLine
 10
11.1574171845175
 20
30.32929700707723
 30
0.0
 11
12.84858868371748
 21
31.01781179077716
 31
0.0
  0
LINE
  5
6812
330
1E
100
AcDbEntity
  8
0
 48
0.27
100
AcDbLine
 10
11.21595076571748
 20
32.65044970877716
 30
0.0
 11
12.84858868371748
 21
31.01781179077716
 31
0.0
  0
LINE
  5
6813
330
1E
100
AcDbEntity
  8
0
 48
0.27
100
AcDbLine
 10
11.73371771861752
 20
33.90044970877716
 30
0.0
 11
14.01040178506446
 21
31.62376564233046
 31
0.0
  0
ARC
  5
6814
330
1E
100
AcDbEntity
  8
0
 48
0.27
100
AcDbCircle
 10
13.65684839447112
 20
31.27021225173712
 30
0.0
 40
0.5
100
AcDbArc
 50
345.4078960957279
 51
45.0
  0
LINE
  5
6815
330
1E
100
AcDbEntity
  8
0
 48
0.27
100
AcDbLine
 10
12.84858868371748
 20
31.01781179077716
 30
0.0
 11
14.14426004612096
 21
31.38170163166217
 31
0.0
  0
LINE
  5
6816
330
1E
100
AcDbEntity
  8
虛線
 48
0.27
100
AcDbLine
 10
23.40795909650069
 20
33.74999699999387
 30
0.0
 11
28.53295909650069
 21
30.67058632747774
 31
0.0
  0
LINE
  5
6817
330
1E
100
AcDbEntity
  8
虛線
 48
0.27
100
AcDbLine
 10
33.65795909650069
 20
33.7499969999941
 30
0.0
 11
28.53295909650069
 21
30.67058632747774
 31
0.0
  0
LINE
  5
6818
330
1E
100
AcDbEntity
  8
0
 48
0.27
100
AcDbLine
 10
11.1574171845175
 20
30.32929700707723
 30
0.0
 11
10.51895679051745
 21
30.96775740107728
 31
0.0
  0
LINE
  5
6819
330
1E
100
AcDbEntity
  8
0
 48
0.27
100
AcDbLine
 10
10.51895679051745
 20
30.96775740107728
 30
0.0
 11
11.73371771861752
 21
33.90044970877716
 31
0.0
  0
LINE
  5
681A
330
1E
100
AcDbEntity
  8
0
 48
0.27
100
AcDbLine
 10
39.53249838771763
 20
19.50044970877718
 30
0.0
 11
36.03249838771763
 21
19.50044970877718
 31
0.0
  0
ARC
  5
681B
330
1E
100
AcDbEntity
  8
0
 48
0.27
100
AcDbCircle
 10
16.65726093075182
 20
28.26979971555022
 30
0.0
 40
0.5
100
AcDbArc
 50
44.99999999921008
 51
104.5921039060629
  0
LINE
  5
681C
330
1E
100
AcDbEntity
  8
0
 48
0.27
100
AcDbLine
 10
15.71634568611762
 20
25.77036850557715
 30
0.0
 11
16.4048604697175
 21
27.46154000467732
 31
0.0
  0
LINE
  5
681D
330
1E
100
AcDbEntity
  8
0
 48
0.27
100
AcDbLine
 10
16.4048604697175
 20
27.46154000467732
 30
0.0
 11
16.76875031070187
 21
28.75721136719415
 31
0.0
  0
LINE
  5
681E
330
1E
100
AcDbEntity
  8
0
 48
0.27
100
AcDbLine
 10
17.01081432135004
 20
28.62335310613855
 30
0.0
 11
20.43249838771749
 21
25.20166903967709
 31
0.0
  0
LINE
  5
681F
330
1E
100
AcDbEntity
  8
0
 48
0.27
100
AcDbLine
 10
16.4048604697175
 20
27.46154000467732
 30
0.0
 11
19.18249838771749
 21
24.68390208667722
 31
0.0
  0
LINE
  5
6820
330
1E
100
AcDbEntity
  8
0
 48
0.27
100
AcDbLine
 10
15.71634568611762
 20
18.73053091197721
 30
0.0
 11
17.49980608011765
 21
20.51399130597713
 31
0.0
  0
LINE
  5
6821
330
1E
100
AcDbEntity
  8
0
 48
0.27
100
AcDbLine
 10
17.49980608011765
 20
20.51399130597713
 30
0.0
 11
17.49980608011765
 21
23.98690811157724
 31
0.0
  0
LINE
  5
6822
330
1E
100
AcDbEntity
  8
0
 48
0.27
100
AcDbLine
 10
17.49980608011765
 20
20.51399130597713
 30
0.0
 11
20.43249838771749
 21
19.29923037787705
 31
0.0
  0
LINE
  5
6823
330
1E
100
AcDbEntity
  8
0
 48
0.27
100
AcDbLine
 10
17.49980608011765
 20
23.98690811157724
 30
0.0
 11
20.43249838771749
 21
25.20166903967709
 31
0.0
  0
LINE
  5
6824
330
1E
100
AcDbEntity
  8
0
 48
0.27
100
AcDbLine
 10
17.49980608011765
 20
23.98690811157724
 30
0.0
 11
15.71634568611762
 21
25.77036850557715
 31
0.0
  0
LINE
  5
6825
330
1E
100
AcDbEntity
  8
0
 48
0.27
100
AcDbLine
 10
19.18249838771749
 20
24.68390208667722
 30
0.0
 11
19.18249838771749
 21
19.81699733087714
 31
0.0
  0
LINE
  5
6826
330
1E
100
AcDbEntity
  8
0
 48
0.27
100
AcDbLine
 10
20.43249838771749
 20
25.20166903967709
 30
0.0
 11
20.43249838771749
 21
19.29923037787705
 31
0.0
  0
LINE
  5
6827
330
1E
100
AcDbEntity
  8
0
 48
0.27
100
AcDbLine
 10
39.53249838771763
 20
11.50044970877718
 30
0.0
 11
36.03249838771763
 21
11.50044970877718
 31
0.0
  0
LINE
  5
6828
330
1E
100
AcDbEntity
  8
0
 48
0.27
100
AcDbLine
 10
11.1574171845175
 20
14.17160241047725
 30
0.0
 11
12.84858868371748
 21
13.4830876267772
 31
0.0
  0
ARC
  5
6829
330
1E
100
AcDbEntity
  8
0
 48
0.27
100
AcDbCircle
 10
16.0374983877175
 20
13.8504497087772
 30
0.0
 40
3.209999999999999
100
AcDbArc
 50
83.42849987160022
 51
186.5715001284002
  0
ARC
  5
682A
330
1E
100
AcDbEntity
  8
0
 48
0.27
100
AcDbCircle
 10
16.65726093075182
 20
16.23109970200426
 30
0.0
 40
0.5
100
AcDbArc
 50
255.4078960939371
 51
315.0000000007899
  0
LINE
  5
682B
330
1E
100
AcDbEntity
  8
0
 48
0.27
100
AcDbLine
 10
16.4048604697175
 20
17.03935941287727
 30
0.0
 11
16.76875031070187
 21
15.74368805035999
 31
0.0
  0
ARC
  5
682C
330
1E
100
AcDbEntity
  8
0
 48
0.27
100
AcDbCircle
 10
13.65684839447112
 20
13.23068716581736
 30
0.0
 40
0.5
100
AcDbArc
 50
314.9999999999977
 51
14.59210390426584
  0
ARC
  5
682D
330
1E
100
AcDbEntity
  8
0
 48
0.27
100
AcDbCircle
 10
16.0374983877175
 20
13.8504497087772
 30
0.0
 40
1.959999999999999
100
AcDbArc
 50
75.40789609393702
 51
194.5921039042659
  0
LINE
  5
682E
330
1E
100
AcDbEntity
  8
0
 48
0.27
100
AcDbLine
 10
12.84858868371748
 20
13.4830876267772
 30
0.0
 11
14.14426004612096
 21
13.11919778589231
 31
0.0
  0
LINE
  5
682F
330
1E
100
AcDbEntity
  8
0
 48
0.27
100
AcDbLine
 10
11.68249838771749
 20
12.31699733087725
 30
0.0
 11
11.68249838771749
 21
7.683902086677221
 31
0.0
  0
LINE
  5
6830
330
1E
100
AcDbEntity
  8
0
 48
0.27
100
AcDbLine
 10
12.93249838771749
 20
11.79923037787716
 30
0.0
 11
12.93249838771749
 21
8.201669039677199
 31
0.0
  0
LINE
  5
6831
330
1E
100
AcDbEntity
  8
0
 48
0.27
100
AcDbLine
 10
12.84858868371748
 20
13.4830876267772
 30
0.0
 11
11.68249838771749
 21
12.31699733087725
 31
0.0
  0
LINE
  5
6832
330
1E
100
AcDbEntity
  8
0
 48
0.27
100
AcDbLine
 10
14.01040178506446
 20
12.87713377522414
 30
0.0
 11
12.93249838771749
 21
11.79923037787716
 31
0.0
  0
ARC
  5
6833
330
1E
100
AcDbEntity
  8
0
 48
0.27
100
AcDbCircle
 10
36.03249838771763
 20
15.50044970877718
 30
0.0
 40
4.0
100
AcDbArc
 50
90.0
 51
270.0
  0
LINE
  5
6834
330
1E
100
AcDbEntity
  8
0
 48
0.27
100
AcDbLine
 10
19.18249838771749
 20
19.81699733087714
 30
0.0
 11
16.4048604697175
 21
17.03935941287727
 31
0.0
  0
LINE
  5
6835
330
1E
100
AcDbEntity
  8
0
 48
0.27
100
AcDbLine
 10
20.43249838771749
 20
19.29923037787705
 30
0.0
 11
17.01081432134992
 21
15.87754631141558
 31
0.0
  0
LINE
  5
6836
330
1E
100
AcDbEntity
  8
0
 48
0.27
100
AcDbLine
 10
15.71634568611762
 20
18.73053091197721
 30
0.0
 11
16.4048604697175
 21
17.03935941287727
 31
0.0
  0
LINE
  5
6837
330
1E
100
AcDbEntity
  8
0
 48
0.27
100
AcDbLine
 10
9.99980608011765
 20
13.01399130597724
 30
0.0
 11
9.99980608011765
 21
6.986908111577236
 31
0.0
  0
LINE
  5
6838
330
1E
100
AcDbEntity
  8
0
 48
0.27
100
AcDbLine
 10
9.99980608011765
 20
13.01399130597724
 30
0.0
 11
12.93249838771749
 21
11.79923037787716
 31
0.0
  0
LINE
  5
6839
330
1E
100
AcDbEntity
  8
0
 48
0.27
100
AcDbLine
 10
9.99980608011765
 20
6.986908111577236
 30
0.0
 11
12.93249838771749
 21
8.201669039677199
 31
0.0
  0
LINE
  5
683A
330
1E
100
AcDbEntity
  8
0
 48
0.27
100
AcDbLine
 10
9.99980608011765
 20
13.01399130597724
 30
0.0
 11
11.1574171845175
 21
14.17160241047725
 31
0.0
  0
ARC
  5
683B
330
1E
100
AcDbEntity
  8
0
 48
0.27
100
AcDbCircle
 10
16.0374983877175
 20
30.65044970877716
 30
0.0
 40
1.959999999999999
100
AcDbArc
 50
165.4078960957278
 51
284.5921039060629
  0
ARC
  5
683C
330
1E
100
AcDbEntity
  8
0
 48
0.27
100
AcDbCircle
 10
16.0374983877175
 20
30.65044970877716
 30
0.0
 40
3.209999999999999
100
AcDbArc
 50
173.4284998715998
 51
276.5715001283998
  0
LINE
  5
683D
330
1E
100
AcDbEntity
  8
0
 48
0.27
100
AcDbLine
 10
41.03084491883215
 20
26.99999999999409
 30
0.0
 11
40.03084491883214
 21
25.99999999999409
 31
0.0
  0
LINE
  5
683E
330
1E
100
AcDbEntity
  8
0
 48
0.27
100
AcDbLine
 10
29.97577812777604
 20
0.0004497087771824
 30
0.0
 11
29.97603771382774
 21
-0.0000000000060254
 31
0.0
  0
LINE
  5
683F
330
1E
100
AcDbEntity
  8
0
 48
0.27
100
AcDbLine
 10
16.98671419160052
 20
-0.0000000000059117
 30
0.0
 11
38.03295909650024
 21
-0.0000000000060254
 31
0.0
  0
LINE
  5
6840
330
1E
100
AcDbEntity
  8
0
 48
0.27
100
AcDbLine
 10
39.53249838771763
 20
3.000449708777182
 30
0.0
 11
36.53249838771762
 21
0.0004497087771824
 31
0.0
  0
LINE
  5
6841
330
1E
100
AcDbEntity
  8
0
 48
0.27
100
AcDbLine
 10
40.03084491883214
 20
1.999999999993974
 30
0.0
 11
38.03084491883215
 21
-0.0000000000060254
 31
0.0
  0
LINE
  5
6842
330
1E
100
AcDbEntity
  8
0
 48
0.27
100
AcDbLine
 10
39.53249838771763
 20
52.49999999999295
 30
0.0
 11
39.53249838771763
 21
2.999999999992951
 31
0.0
  0
LINE
  5
6843
330
1E
100
AcDbEntity
  8
0
 48
0.27
100
AcDbLine
 10
40.03084491883214
 20
25.99999999999409
 30
0.0
 11
40.03084491883214
 21
1.999999999993974
 31
0.0
  0
LINE
  5
6844
330
1E
100
AcDbEntity
  8
0
 48
0.27
100
AcDbLine
 10
12.93249838771749
 20
8.201669039677199
 30
0.0
 11
21.13371771861739
 21
0.0004497087771824
 31
0.0
  0
LINE
  5
6845
330
1E
100
AcDbEntity
  8
0
 48
0.27
100
AcDbLine
 10
19.36595076571757
 20
0.0004497087771824
 30
0.0
 11
11.68249838771749
 21
7.683902086677221
 31
0.0
  0
LINE
  5
6846
330
1E
100
AcDbEntity
  8
0
 48
0.27
100
AcDbLine
 10
9.99980608011765
 20
6.986908111577236
 30
0.0
 11
16.98626448281743
 21
0.0004497087771824
 31
0.0
  0
LINE
  5
6847
330
1E
100
AcDbEntity
  8
中心線
 48
0.27
100
AcDbLine
 10
-8.969155081167855
 20
72.16669543874843
 30
0.0
 11
-8.969155081167855
 21
28.96775740107728
 31
0.0
  0
LINE
  5
6848
330
1E
100
AcDbEntity
  8
中心線
 48
0.27
100
AcDbLine
 10
28.5308449188326
 20
58.99999999999398
 30
0.0
 11
28.5308449188326
 21
29.46597599999393
 31
0.0
  0
LINE
  5
6849
330
1E
100
AcDbEntity
  8
0
 48
0.27
100
AcDbLine
 10
41.03084491883215
 20
55.04999999999404
 30
0.0
 11
41.03084491883215
 21
26.99999999999409
 31
0.0
  0
ARC
  5
684A
330
1E
100
AcDbEntity
  8
0
 48
0.27
100
AcDbCircle
 10
36.53249838771762
 20
52.49999999999295
 30
0.0
 40
3.0
100
AcDbArc
 50
0.0
 51
90.0
  0
LINE
  5
684B
330
1E
100
AcDbEntity
  8
虛線
 48
0.27
100
AcDbLine
 10
34.5308449188326
 20
55.39999999999406
 30
0.0
 11
34.53084491883215
 21
38.99999999999398
 31
0.0
  0
LINE
  5
684C
330
1E
100
AcDbEntity
  8
虛線
 48
0.27
100
AcDbLine
 10
33.6558449188326
 20
55.39999999999384
 30
0.0
 11
33.6558449188326
 21
33.7499969999941
 31
0.0
  0
LINE
  5
684D
330
1E
100
AcDbEntity
  8
虛線
 48
0.27
100
AcDbLine
 10
22.5308449188326
 20
55.39999999999406
 30
0.0
 11
22.5308449188326
 21
38.99999999999398
 31
0.0
  0
LINE
  5
684E
330
1E
100
AcDbEntity
  8
虛線
 48
0.27
100
AcDbLine
 10
23.4058449188326
 20
55.39999999999384
 30
0.0
 11
23.4058449188326
 21
33.7499969999941
 31
0.0
  0
SPLINE
  5
684F
330
1E
100
AcDbEntity
  8
0
 48
0.27
100
AcDbSpline
210
0.0
220
0.0
230
1.0
 70
     8
 71
     3
 72
    14
 73
    10
 74
     8
 42
0.0000000001
 43
0.0000000001
 44
0.0000000001
 40
0.0
 40
0.0
 40
0.0
 40
0.0
 40
1.003374800732984
 40
2.010676408934182
 40
3.010409172977842
 40
4.019215736304143
 40
5.018979127672206
 40
6.025582519214641
 40
7.028797203477883
 40
7.028797203477883
 40
7.028797203477883
 40
7.028797203477883
 10
15.71594804991764
 20
25.76939180777731
 30
0.0
 10
15.38292093546007
 20
25.81113815882442
 30
0.0
 10
14.71556337168022
 20
25.89479423943178
 30
0.0
 10
13.77551210517053
 20
26.27582174407625
 30
0.0
 10
12.92859809328504
 20
26.8272053627803
 30
0.0
 10
12.21371815532132
 20
27.54220669429785
 30
0.0
 10
11.6626027463459
 20
28.38903074459479
 30
0.0
 10
11.2817891317451
 20
29.32885191782694
 30
0.0
 10
11.1981763758889
 20
29.99592513211189
 30
0.0
 10
11.15644048671743
 20
30.3288993709773
 30
0.0
 11
15.71594804991764
 21
25.76939180777731
 31
0.0
 11
14.72670063041732
 21
25.93717301577726
 31
0.0
 11
13.78904567951758
 21
26.30522154917731
 31
0.0
 11
12.95263602321756
 21
26.85283864747726
 31
0.0
 11
12.23936277491748
 21
27.56623331767719
 31
0.0
 11
11.69187392071762
 21
28.40276352827732
 31
0.0
 11
11.32417863451746
 21
29.33980705147724
 31
0.0
 11
11.15644048671743
 21
30.3288993709773
 31
0.0
  0
SPLINE
  5
6850
330
1E
100
AcDbEntity
  8
0
 48
0.27
100
AcDbSpline
210
0.0
220
0.0
230
1.0
 70
     8
 71
     3
 72
    14
 73
    10
 74
     8
 42
0.0000000001
 43
0.0000000001
 44
0.0000000001
 40
0.0
 40
0.0
 40
0.0
 40
0.0
 40
1.003374800732536
 40
2.010676408934134
 40
3.010409173061276
 40
4.019215736458486
 40
5.018979127771697
 40
6.025582519220917
 40
7.028797203484383
 40
7.028797203484383
 40
7.028797203484383
 40
7.028797203484383
 10
11.15644048671743
 20
14.17200004657729
 30
0.0
 10
11.19818683776275
 20
14.50502716103591
 30
0.0
 10
11.28184291836657
 20
15.17238472481815
 30
0.0
 10
11.6628704230487
 20
16.11243599133581
 30
0.0
 10
12.214254041686
 20
16.95935000332913
 30
0.0
 10
12.92925537330999
 20
17.67422994125487
 30
0.0
 10
13.77607942363968
 20
18.22534535011005
 30
0.0
 10
14.71590059679048
 20
18.60615896477181
 30
0.0
 10
15.38297381104962
 20
18.6897717206119
 30
0.0
 10
15.71594804991764
 20
18.73150760977728
 30
0.0
 11
11.15644048671743
 21
14.17200004657729
 31
0.0
 11
11.32422169471738
 21
15.16124746607715
 31
0.0
 11
11.69227022811765
 21
16.09890241697724
 31
0.0
 11
12.23988732641737
 21
16.93531207337719
 31
0.0
 11
12.95328199671758
 21
17.64858532167727
 31
0.0
 11
13.78981220731748
 21
18.19607417577731
 31
0.0
 11
14.72685573041735
 21
18.56376946197724
 31
0.0
 11
15.71594804991764
 21
18.73150760977728
 31
0.0
  0
LINE
  5
6851
330
1E
100
AcDbEntity
  8
0
 48
0.27
100
AcDbLine
 10
-33.46915508116786
 20
55.9999999999942
 30
0.0
 11
-19.96915508116785
 21
55.9999999999942
 31
0.0
  0
LINE
  5
6853
330
1E
100
AcDbEntity
  8
0
 48
0.27
100
AcDbLine
 10
-34.46915508116717
 20
56.99999999999386
 30
0.0
 11
-33.46915508116786
 21
55.9999999999942
 31
0.0
  0
LINE
  5
6855
330
1E
100
AcDbEntity
  8
0
 48
0.27
100
AcDbLine
 10
-56.9691550811674
 20
56.9999999999942
 30
0.0
 11
-58.9691550811674
 21
54.9999999999942
 31
0.0
  0
LINE
  5
6856
330
1E
100
AcDbEntity
  8
0
 48
0.27
100
AcDbLine
 10
-34.46915508116717
 20
56.99999999999386
 30
0.0
 11
-56.9691550811674
 21
56.9999999999942
 31
0.0
  0
LINE
  5
6858
330
1E
100
AcDbEntity
  8
0
 48
0.27
100
AcDbLine
 10
-30.78359190818242
 20
31.01781179077716
 30
0.0
 11
-32.07926327064342
 21
31.38170163167831
 31
0.0
  0
LINE
  5
6859
330
1E
100
AcDbEntity
  8
0
 48
0.27
100
AcDbLine
 10
-31.94540500960875
 20
31.62376564225099
 30
0.0
 11
-29.66872094308246
 21
33.90044970877716
 31
0.0
  0
ARC
  5
685A
330
1E
100
AcDbEntity
  8
0
 48
0.27
100
AcDbCircle
 10
-31.59185161901553
 20
31.27021225165777
 30
0.0
 40
0.5
100
AcDbArc
 50
134.9999999999977
 51
194.5921039023604
  0
LINE
  5
685B
330
1E
100
AcDbEntity
  8
0
 48
0.27
100
AcDbLine
 10
-28.45396001498261
 20
30.96775740107728
 30
0.0
 11
-29.09242040898244
 21
30.32929700707723
 31
0.0
  0
LINE
  5
685C
330
1E
100
AcDbEntity
  8
0
 48
0.27
100
AcDbLine
 10
-28.45396001498261
 20
30.96775740107728
 30
0.0
 11
-29.66872094308246
 21
33.90044970877716
 31
0.0
  0
LINE
  5
685D
330
1E
100
AcDbEntity
  8
0
 48
0.27
100
AcDbLine
 10
-29.09242040898244
 20
30.32929700707723
 30
0.0
 11
-30.78359190818242
 21
31.01781179077716
 31
0.0
  0
LINE
  5
685E
330
1E
100
AcDbEntity
  8
0
 48
0.27
100
AcDbLine
 10
-30.78359190818242
 20
31.01781179077716
 30
0.0
 11
-29.15095399018241
 21
32.65044970877716
 31
0.0
  0
LINE
  5
6860
330
1E
100
AcDbEntity
  8
0
 48
0.27
100
AcDbLine
 10
-58.96915508116785
 20
39.49999999999432
 30
0.0
 11
-57.96915508116786
 21
38.4999999999942
 31
0.0
  0
LINE
  5
6864
330
1E
100
AcDbEntity
  8
0
 48
0.27
100
AcDbLine
 10
-37.11750161228247
 20
24.68390208667722
 30
0.0
 11
-34.33986369418244
 21
27.46154000467732
 31
0.0
  0
ARC
  5
6865
330
1E
100
AcDbEntity
  8
0
 48
0.27
100
AcDbCircle
 10
-34.59226415524245
 20
28.2697997155309
 30
0.0
 40
0.5
100
AcDbArc
 50
75.40789609573183
 51
135.0
  0
LINE
  5
6866
330
1E
100
AcDbEntity
  8
0
 48
0.27
100
AcDbLine
 10
-34.33986369418244
 20
27.46154000467732
 30
0.0
 11
-34.7037535351634
 21
28.75721136718153
 31
0.0
  0
LINE
  5
6867
330
1E
100
AcDbEntity
  8
0
 48
0.27
100
AcDbLine
 10
-38.36750161228247
 20
25.2016690396772
 30
0.0
 11
-34.94581754583567
 21
28.62335310612412
 31
0.0
  0
LINE
  5
6868
330
1E
100
AcDbEntity
  8
0
 48
0.27
100
AcDbLine
 10
-35.43480930458259
 20
23.98690811157724
 30
0.0
 11
-35.43480930458259
 21
20.51399130597724
 31
0.0
  0
LINE
  5
6869
330
1E
100
AcDbEntity
  8
0
 48
0.27
100
AcDbLine
 10
-35.43480930458259
 20
20.51399130597724
 30
0.0
 11
-38.36750161228247
 21
19.29923037787716
 31
0.0
  0
LINE
  5
686A
330
1E
100
AcDbEntity
  8
0
 48
0.27
100
AcDbLine
 10
-38.36750161228247
 20
19.29923037787716
 30
0.0
 11
-38.36750161228247
 21
25.2016690396772
 31
0.0
  0
LINE
  5
686B
330
1E
100
AcDbEntity
  8
0
 48
0.27
100
AcDbLine
 10
-37.11750161228247
 20
19.81699733087726
 30
0.0
 11
-37.11750161228247
 21
24.68390208667722
 31
0.0
  0
LINE
  5
686C
330
1E
100
AcDbEntity
  8
0
 48
0.27
100
AcDbLine
 10
-35.43480930458259
 20
23.98690811157724
 30
0.0
 11
-38.36750161228247
 21
25.2016690396772
 31
0.0
  0
LINE
  5
686D
330
1E
100
AcDbEntity
  8
0
 48
0.27
100
AcDbLine
 10
-33.65134891058256
 20
25.77036850557715
 30
0.0
 11
-35.43480930458259
 21
23.98690811157724
 31
0.0
  0
LINE
  5
686E
330
1E
100
AcDbEntity
  8
0
 48
0.27
100
AcDbLine
 10
-35.43480930458259
 20
20.51399130597724
 30
0.0
 11
-33.65134891058256
 21
18.73053091197721
 31
0.0
  0
LINE
  5
686F
330
1E
100
AcDbEntity
  8
0
 48
0.27
100
AcDbLine
 10
-33.65134891058256
 20
25.77036850557715
 30
0.0
 11
-34.33986369418244
 21
27.46154000467732
 31
0.0
  0
LINE
  5
6870
330
1E
100
AcDbEntity
  8
0
 48
0.27
100
AcDbLine
 10
-30.78359190818242
 20
13.4830876267772
 30
0.0
 11
-32.07926327064945
 21
13.11919778587446
 31
0.0
  0
ARC
  5
6871
330
1E
100
AcDbEntity
  8
0
 48
0.27
100
AcDbCircle
 10
-31.59185161901883
 20
13.23068716588318
 30
0.0
 40
0.5
100
AcDbArc
 50
165.4078960973164
 51
224.9999999977914
  0
LINE
  5
6872
330
1E
100
AcDbEntity
  8
0
 48
0.27
100
AcDbLine
 10
-27.93480930458259
 20
13.01399130597724
 30
0.0
 11
-29.09242040898244
 21
14.17160241047725
 31
0.0
  0
LINE
  5
6873
330
1E
100
AcDbEntity
  8
0
 48
0.27
100
AcDbLine
 10
-29.09242040898244
 20
14.17160241047725
 30
0.0
 11
-30.78359190818242
 21
13.4830876267772
 31
0.0
  0
LINE
  5
6874
330
1E
100
AcDbEntity
  8
0
 48
0.27
100
AcDbLine
 10
-30.86750161228247
 20
8.201669039677199
 30
0.0
 11
-30.86750161228247
 21
11.79923037787716
 31
0.0
  0
LINE
  5
6875
330
1E
100
AcDbEntity
  8
0
 48
0.27
100
AcDbLine
 10
-29.61750161228247
 20
7.683902086677221
 30
0.0
 11
-29.61750161228247
 21
12.31699733087725
 31
0.0
  0
LINE
  5
6876
330
1E
100
AcDbEntity
  8
0
 48
0.27
100
AcDbLine
 10
-27.93480930458259
 20
6.986908111577236
 30
0.0
 11
-30.86750161228247
 21
8.201669039677199
 31
0.0
  0
LINE
  5
6877
330
1E
100
AcDbEntity
  8
0
 48
0.27
100
AcDbLine
 10
-30.86750161228247
 20
11.79923037787716
 30
0.0
 11
-31.9454050096258
 21
12.8771337753036
 31
0.0
  0
LINE
  5
6878
330
1E
100
AcDbEntity
  8
0
 48
0.27
100
AcDbLine
 10
-29.61750161228247
 20
12.31699733087725
 30
0.0
 11
-30.78359190818242
 21
13.4830876267772
 31
0.0
  0
LINE
  5
6879
330
1E
100
AcDbEntity
  8
0
 48
0.27
100
AcDbLine
 10
-27.93480930458259
 20
6.986908111577236
 30
0.0
 11
-27.93480930458259
 21
13.01399130597724
 31
0.0
  0
LINE
  5
687A
330
1E
100
AcDbEntity
  8
0
 48
0.27
100
AcDbLine
 10
-27.93480930458259
 20
13.01399130597724
 30
0.0
 11
-30.86750161228247
 21
11.79923037787716
 31
0.0
  0
ARC
  5
687B
330
1E
100
AcDbEntity
  8
0
 48
0.27
100
AcDbCircle
 10
-34.59226415524256
 20
16.2310997020237
 30
0.0
 40
0.5
100
AcDbArc
 50
225.0
 51
284.592103904273
  0
LINE
  5
687C
330
1E
100
AcDbEntity
  8
0
 48
0.27
100
AcDbLine
 10
-34.33986369418244
 20
17.03935941287727
 30
0.0
 11
-34.7037535351634
 21
15.74368805037306
 31
0.0
  0
ARC
  5
687D
330
1E
100
AcDbEntity
  8
0
 48
0.27
100
AcDbCircle
 10
-33.97250161228249
 20
13.8504497087772
 30
0.0
 40
1.959999999999999
100
AcDbArc
 50
345.4078960973165
 51
104.592103904273
  0
ARC
  5
687E
330
1E
100
AcDbEntity
  8
0
 48
0.27
100
AcDbCircle
 10
-33.97250161228249
 20
13.8504497087772
 30
0.0
 40
3.209999999999999
100
AcDbArc
 50
353.4284998715999
 51
96.57150012839977
  0
LINE
  5
687F
330
1E
100
AcDbEntity
  8
0
 48
0.27
100
AcDbLine
 10
-34.33986369418244
 20
17.03935941287727
 30
0.0
 11
-37.11750161228247
 21
19.81699733087726
 31
0.0
  0
LINE
  5
6880
330
1E
100
AcDbEntity
  8
0
 48
0.27
100
AcDbLine
 10
-34.94581754583578
 20
15.87754631143048
 30
0.0
 11
-38.36750161228247
 21
19.29923037787716
 31
0.0
  0
LINE
  5
6881
330
1E
100
AcDbEntity
  8
0
 48
0.27
100
AcDbLine
 10
-33.65134891058256
 20
18.73053091197721
 30
0.0
 11
-34.33986369418244
 21
17.03935941287727
 31
0.0
  0
LINE
  5
6882
330
1E
100
AcDbEntity
  8
0
 48
0.27
100
AcDbLine
 10
-57.46750161228266
 20
19.50044970877741
 30
0.0
 11
-53.96750161228266
 21
19.50044970877741
 31
0.0
  0
LINE
  5
6883
330
1E
100
AcDbEntity
  8
0
 48
0.27
100
AcDbLine
 10
-57.46750161228266
 20
11.50044970877741
 30
0.0
 11
-53.96750161228266
 21
11.50044970877741
 31
0.0
  0
ARC
  5
6884
330
1E
100
AcDbEntity
  8
0
 48
0.27
100
AcDbCircle
 10
-53.96750161228266
 20
15.50044970877741
 30
0.0
 40
4.0
100
AcDbArc
 50
270.0
 51
90.0
  0
ARC
  5
6885
330
1E
100
AcDbEntity
  8
0
 48
0.27
100
AcDbCircle
 10
-33.97250161228249
 20
30.65044970877716
 30
0.0
 40
1.959999999999999
100
AcDbArc
 50
255.4078960957318
 51
14.59210390236046
  0
ARC
  5
6886
330
1E
100
AcDbEntity
  8
0
 48
0.27
100
AcDbCircle
 10
-33.97250161228249
 20
30.65044970877716
 30
0.0
 40
3.209999999999999
100
AcDbArc
 50
263.4284998716002
 51
6.571500128400153
  0
LINE
  5
6887
330
1E
100
AcDbEntity
  8
0
 48
0.27
100
AcDbLine
 10
-47.91015693698648
 20
0.0004497087774098
 30
0.0
 11
-47.91041657647343
 21
-0.000000000005798
 31
0.0
  0
LINE
  5
6888
330
1E
100
AcDbEntity
  8
0
 48
0.27
100
AcDbLine
 10
-54.46750161228266
 20
0.0004497087774098
 30
0.0
 11
-57.46750161228266
 21
3.000449708777409
 31
0.0
  0
LINE
  5
6889
330
1E
100
AcDbEntity
  8
0
 48
0.27
100
AcDbLine
 10
-55.96915508116791
 20
-0.000000000005798
 30
0.0
 11
-57.96915508116791
 21
1.999999999994201
 31
0.0
  0
LINE
  5
688A
330
1E
100
AcDbEntity
  8
0
 48
0.27
100
AcDbLine
 10
-55.96704090349982
 20
-0.000000000005798
 30
0.0
 11
-34.9217174160658
 21
-0.000000000005798
 31
0.0
  0
LINE
  5
688B
330
1E
100
AcDbEntity
  8
0
 48
0.27
100
AcDbLine
 10
-39.06872094308255
 20
0.0004497087772961
 30
0.0
 11
-30.86750161228247
 21
8.201669039677199
 31
0.0
  0
LINE
  5
688C
330
1E
100
AcDbEntity
  8
0
 48
0.27
100
AcDbLine
 10
-37.30095399018251
 20
0.0004497087772961
 30
0.0
 11
-29.61750161228247
 21
7.683902086677221
 31
0.0
  0
LINE
  5
688D
330
1E
100
AcDbEntity
  8
0
 48
0.27
100
AcDbLine
 10
-27.93480930458259
 20
6.986908111577236
 30
0.0
 11
-34.9212677072826
 21
0.0004497087772961
 31
0.0
  0
LINE
  5
688E
330
1E
100
AcDbEntity
  8
0
 48
0.27
100
AcDbLine
 10
-57.46750161228266
 20
2.999999999993065
 30
0.0
 11
-57.4675016122826
 21
52.49999999999307
 31
0.0
  0
LINE
  5
688F
330
1E
100
AcDbEntity
  8
0
 48
0.27
100
AcDbLine
 10
-57.96915508116786
 20
38.49999999999421
 30
0.0
 11
-57.96915508116791
 21
1.999999999994201
 31
0.0
  0
LINE
  5
6890
330
1E
100
AcDbEntity
  8
中心線
 48
0.27
100
AcDbLine
 10
-46.46915508116785
 20
58.9999999999942
 30
0.0
 11
-46.46915508116785
 21
29.46597599999416
 31
0.0
  0
LINE
  5
6891
330
1E
100
AcDbEntity
  8
0
 48
0.27
100
AcDbLine
 10
-58.9691550811674
 20
54.9999999999942
 30
0.0
 11
-58.96915508116785
 21
39.49999999999432
 31
0.0
  0
ARC
  5
6892
330
1E
100
AcDbEntity
  8
0
 48
0.27
100
AcDbCircle
 10
-54.4675016122826
 20
52.49999999999307
 30
0.0
 40
3.0
100
AcDbArc
 50
90.0
 51
180.0
  0
SPLINE
  5
6897
330
1E
100
AcDbEntity
  8
0
 48
0.27
100
AcDbSpline
210
0.0
220
0.0
230
1.0
 70
     8
 71
     3
 72
    14
 73
    10
 74
     8
 42
0.0000000001
 43
0.0000000001
 44
0.0000000001
 40
0.0
 40
0.0
 40
0.0
 40
0.0
 40
1.00337480073276
 40
2.010676408934169
 40
3.01040917306153
 40
4.019215736458418
 40
5.018979127771629
 40
6.025582519221103
 40
7.028797203484325
 40
7.028797203484325
 40
7.028797203484325
 40
7.028797203484325
 10
-29.09144371118259
 20
30.3288993709773
 30
0.0
 10
-29.13319006222793
 20
29.99587225651861
 30
0.0
 10
-29.21684614283174
 20
29.32851469273638
 30
0.0
 10
-29.59787364751361
 20
28.38846342621851
 30
0.0
 10
-30.14925726615111
 20
27.54154941422542
 30
0.0
 10
-30.86425859777499
 20
26.82666947629964
 30
0.0
 10
-31.7110826481047
 20
26.27555406744452
 30
0.0
 10
-32.65090382125547
 20
25.89474045278269
 30
0.0
 10
-33.31797703551464
 20
25.81112769694265
 30
0.0
 10
-33.65095127438258
 20
25.76939180777731
 30
0.0
 11
-29.09144371118259
 21
30.3288993709773
 31
0.0
 11
-29.25922491918255
 21
29.33965195147721
 31
0.0
 11
-29.62727345258258
 21
28.40199700057724
 31
0.0
 11
-30.17489055088254
 21
27.56558734417718
 31
0.0
 11
-30.88828522118252
 21
26.85231409587732
 31
0.0
 11
-31.72481543178242
 21
26.30482524177728
 31
0.0
 11
-32.66185895488252
 21
25.93712995557723
 31
0.0
 11
-33.65095127438258
 21
25.76939180777731
 31
0.0
  0
SPLINE
  5
6898
330
1E
100
AcDbEntity
  8
0
 48
0.27
100
AcDbSpline
210
0.0
220
0.0
230
1.0
 70
     8
 71
     3
 72
    14
 73
    10
 74
     8
 42
0.0000000001
 43
0.0000000001
 44
0.0000000001
 40
0.0
 40
0.0
 40
0.0
 40
0.0
 40
1.00337480073276
 40
2.010676408934169
 40
3.010409172923154
 40
4.019215736320203
 40
5.018979127688075
 40
6.025582519230534
 40
7.028797203493663
 40
7.028797203493663
 40
7.028797203493663
 40
7.028797203493663
 10
-33.65095127438258
 20
18.73150760977728
 30
0.0
 10
-33.31792415992337
 20
18.68976125873258
 30
0.0
 10
-32.65056659614007
 20
18.60610517813003
 30
0.0
 10
-31.71051532967337
 20
18.22507767345611
 30
0.0
 10
-30.8636013176824
 20
17.67369405489188
 30
0.0
 10
-30.14872137982328
 20
16.95869272325014
 30
0.0
 10
-29.59760597080428
 20
16.11186867296682
 30
0.0
 10
-29.21679235621197
 20
15.17204749972579
 30
0.0
 10
-29.13317960035464
 20
14.50497428544207
 30
0.0
 10
-29.09144371118259
 20
14.17200004657729
 30
0.0
 11
-33.65095127438258
 21
18.73150760977728
 31
0.0
 11
-32.66170385488249
 21
18.56372640177733
 31
0.0
 11
-31.72404890398252
 21
18.19567786837729
 31
0.0
 11
-30.8876392476825
 21
17.64806077017715
 31
0.0
 11
-30.17436599938242
 21
16.93466609987718
 31
0.0
 11
-29.62687714518256
 21
16.09813588927727
 31
0.0
 11
-29.25918185898263
 21
15.16109236607724
 31
0.0
 11
-29.09144371118259
 21
14.17200004657729
 31
0.0
  0
LINE
  5
6899
330
1E
100
AcDbEntity
  8
0
 48
0.27
100
AcDbLine
 10
-54.4675016122826
 20
55.49999999999307
 30
0.0
 11
36.53249838771762
 21
55.49999999999295
 31
0.0
  0
LINE
  5
689A
330
1E
100
AcDbEntity
  8
0
 48
0.27
100
AcDbLine
 10
-29.15095399018241
 20
32.65044970877716
 30
0.0
 11
11.21595076571748
 21
32.65044970877716
 31
0.0
  0
LINE
  5
689B
330
1E
100
AcDbEntity
  8
0
 48
0.27
100
AcDbLine
 10
10.51895679051745
 20
30.96775740107728
 30
0.0
 11
-28.45396001498261
 21
30.96775740107728
 31
0.0
  0
LINE
  5
689C
330
1E
100
AcDbEntity
  8
0
 48
0.27
100
AcDbLine
 10
-29.66872094308246
 20
33.90044970877716
 30
0.0
 11
11.73371771861752
 21
33.90044970877716
 31
0.0
  0
LINE
  5
689D
330
1E
100
AcDbEntity
  8
0
 48
0.27
100
AcDbLine
 10
-18.96915508116785
 20
56.9999999999942
 30
0.0
 11
-19.96915508116785
 21
55.9999999999942
 31
0.0
  0
LINE
  5
689E
330
1E
100
AcDbEntity
  8
虛線
 48
0.27
100
AcDbLine
 10
2.741949132298032
 20
30.96775740107728
 30
0.0
 11
2.530844918832144
 21
30.60211417766243
 31
0.0
  0
LINE
  5
689F
330
1E
100
AcDbEntity
  8
0
 48
0.27
100
AcDbLine
 10
11.1574171845175
 20
30.32929700707723
 30
0.0
 11
10.51895679051745
 21
30.96775740107728
 31
0.0
  0
LINE
  5
68A0
330
1E
100
AcDbEntity
  8
0
 48
0.27
100
AcDbLine
 10
15.71634568611762
 20
18.73053091197721
 30
0.0
 11
17.49980608011765
 21
20.51399130597713
 31
0.0
  0
LINE
  5
68A1
330
1E
100
AcDbEntity
  8
0
 48
0.27
100
AcDbLine
 10
17.49980608011765
 20
20.51399130597713
 30
0.0
 11
17.49980608011765
 21
23.98690811157724
 31
0.0
  0
LINE
  5
68A2
330
1E
100
AcDbEntity
  8
0
 48
0.27
100
AcDbLine
 10
17.49980608011765
 20
23.98690811157724
 30
0.0
 11
15.71634568611762
 21
25.77036850557715
 31
0.0
  0
LINE
  5
68A3
330
1E
100
AcDbEntity
  8
虛線
 48
0.27
100
AcDbLine
 10
-0.4691550811678554
 20
11.0021141776624
 30
0.0
 11
-0.9691550811678553
 21
10.5021141776624
 31
0.0
  0
LINE
  5
68A4
330
1E
100
AcDbEntity
  8
0
 48
0.27
100
AcDbLine
 10
9.99980608011765
 20
13.01399130597724
 30
0.0
 11
9.99980608011765
 21
6.986908111577236
 31
0.0
  0
LINE
  5
68A5
330
1E
100
AcDbEntity
  8
虛線
 48
0.27
100
AcDbLine
 10
-16.96915508116785
 20
10.50211417766252
 30
0.0
 11
-17.46915508116785
 21
11.00211417766252
 31
0.0
  0
LINE
  5
68A6
330
1E
100
AcDbEntity
  8
虛線
 48
0.27
100
AcDbLine
 10
-16.96915508116785
 20
10.50211417766252
 30
0.0
 11
-0.9691550811678553
 21
10.5021141776624
 31
0.0
  0
LINE
  5
68A7
330
1E
100
AcDbEntity
  8
0
 48
0.27
100
AcDbLine
 10
9.99980608011765
 20
13.01399130597724
 30
0.0
 11
11.1574171845175
 21
14.17160241047725
 31
0.0
  0
LINE
  5
68A8
330
1E
100
AcDbEntity
  8
虛線
 48
0.27
100
AcDbLine
 10
2.530844918832144
 20
11.0021141776624
 30
0.0
 11
2.530844918832144
 21
30.60211417766243
 31
0.0
  0
LINE
  5
68A9
330
1E
100
AcDbEntity
  8
0
 48
0.27
100
AcDbLine
 10
17.53084491883203
 20
-10.99787722237465
 30
0.0
 11
15.52871544101526
 21
-13.00000000000796
 31
0.0
  0
LINE
  5
68AA
330
1E
100
AcDbEntity
  8
0
 48
0.27
100
AcDbLine
 10
17.53084491883214
 20
-0.5441307272452605
 30
0.0
 11
17.53084491883203
 21
-10.99787722237465
 31
0.0
  0
LINE
  5
68AB
330
1E
100
AcDbEntity
  8
0
 48
0.27
100
AcDbLine
 10
9.032958733477585
 20
-12.00000000000432
 30
0.0
 11
10.03295730421541
 21
-13.00000000000807
 31
0.0
  0
LINE
  5
68AC
330
1E
100
AcDbEntity
  8
0
 48
0.27
100
AcDbLine
 10
1.828730918937253
 20
-12.00000000000511
 30
0.0
 11
0.8287298653743846
 21
-13.00000000000818
 31
0.0
  0
LINE
  5
68AD
330
1E
100
AcDbEntity
  8
虛線
 48
0.27
100
AcDbLine
 10
-0.4691550811678554
 20
-12.99788582233759
 30
0.0
 11
-0.969155081167969
 21
-12.49788582233748
 31
0.0
  0
LINE
  5
68AE
330
1E
100
AcDbEntity
  8
虛線
 48
0.27
100
AcDbLine
 10
-17.46915508116797
 20
-12.99788582233759
 30
0.0
 11
-16.96915508116797
 21
-12.49788582233748
 31
0.0
  0
LINE
  5
68AF
330
1E
100
AcDbEntity
  8
虛線
 48
0.27
100
AcDbLine
 10
-0.969155081167969
 20
-12.49788582233748
 30
0.0
 11
-16.96915508116797
 21
-12.49788582233748
 31
0.0
  0
LINE
  5
68B0
330
1E
100
AcDbEntity
  8
0
 48
0.27
100
AcDbLine
 10
9.99980608011765
 20
6.986908111577236
 30
0.0
 11
17.53084491883214
 21
-0.5441307272452605
 31
0.0
  0
LINE
  5
68B1
330
1E
100
AcDbEntity
  8
虛線
 48
0.27
100
AcDbLine
 10
-0.969155081167969
 20
-12.49788582233748
 30
0.0
 11
-0.9691550811678553
 21
10.5021141776624
 31
0.0
  0
LINE
  5
68B2
330
1E
100
AcDbEntity
  8
虛線
 48
0.27
100
AcDbLine
 10
-16.96915508116797
 20
-12.49788582233748
 30
0.0
 11
-16.96915508116785
 21
10.50211417766252
 31
0.0
  0
LINE
  5
68B3
330
1E
100
AcDbEntity
  8
中心線
 48
0.27
100
AcDbLine
 10
-8.969155081167855
 20
32.96775740107728
 30
0.0
 11
-8.969155081167969
 21
-14.99788582233748
 31
0.0
  0
SPLINE
  5
68B4
330
1E
100
AcDbEntity
  8
0
 48
0.27
100
AcDbSpline
210
0.0
220
0.0
230
1.0
 70
     8
 71
     3
 72
    14
 73
    10
 74
     8
 42
0.0000000001
 43
0.0000000001
 44
0.0000000001
 40
0.0
 40
0.0
 40
0.0
 40
0.0
 40
1.003374800732984
 40
2.010676408934182
 40
3.010409172977842
 40
4.019215736304143
 40
5.018979127672206
 40
6.025582519214641
 40
7.028797203477883
 40
7.028797203477883
 40
7.028797203477883
 40
7.028797203477883
 10
15.71594804991764
 20
25.76939180777731
 30
0.0
 10
15.38292093546007
 20
25.81113815882442
 30
0.0
 10
14.71556337168022
 20
25.89479423943178
 30
0.0
 10
13.77551210517053
 20
26.27582174407625
 30
0.0
 10
12.92859809328504
 20
26.8272053627803
 30
0.0
 10
12.21371815532132
 20
27.54220669429785
 30
0.0
 10
11.6626027463459
 20
28.38903074459479
 30
0.0
 10
11.2817891317451
 20
29.32885191782694
 30
0.0
 10
11.1981763758889
 20
29.99592513211189
 30
0.0
 10
11.15644048671743
 20
30.3288993709773
 30
0.0
 11
15.71594804991764
 21
25.76939180777731
 31
0.0
 11
14.72670063041732
 21
25.93717301577726
 31
0.0
 11
13.78904567951758
 21
26.30522154917731
 31
0.0
 11
12.95263602321756
 21
26.85283864747726
 31
0.0
 11
12.23936277491748
 21
27.56623331767719
 31
0.0
 11
11.69187392071762
 21
28.40276352827732
 31
0.0
 11
11.32417863451746
 21
29.33980705147724
 31
0.0
 11
11.15644048671743
 21
30.3288993709773
 31
0.0
  0
SPLINE
  5
68B5
330
1E
100
AcDbEntity
  8
0
 48
0.27
100
AcDbSpline
210
0.0
220
0.0
230
1.0
 70
     8
 71
     3
 72
    14
 73
    10
 74
     8
 42
0.0000000001
 43
0.0000000001
 44
0.0000000001
 40
0.0
 40
0.0
 40
0.0
 40
0.0
 40
1.003374800732536
 40
2.010676408934134
 40
3.010409173061276
 40
4.019215736458486
 40
5.018979127771697
 40
6.025582519220917
 40
7.028797203484383
 40
7.028797203484383
 40
7.028797203484383
 40
7.028797203484383
 10
11.15644048671743
 20
14.17200004657729
 30
0.0
 10
11.19818683776275
 20
14.50502716103591
 30
0.0
 10
11.28184291836657
 20
15.17238472481815
 30
0.0
 10
11.6628704230487
 20
16.11243599133581
 30
0.0
 10
12.214254041686
 20
16.95935000332913
 30
0.0
 10
12.92925537330999
 20
17.67422994125487
 30
0.0
 10
13.77607942363968
 20
18.22534535011005
 30
0.0
 10
14.71590059679048
 20
18.60615896477181
 30
0.0
 10
15.38297381104962
 20
18.6897717206119
 30
0.0
 10
15.71594804991764
 20
18.73150760977728
 30
0.0
 11
11.15644048671743
 21
14.17200004657729
 31
0.0
 11
11.32422169471738
 21
15.16124746607715
 31
0.0
 11
11.69227022811765
 21
16.09890241697724
 31
0.0
 11
12.23988732641737
 21
16.93531207337719
 31
0.0
 11
12.95328199671758
 21
17.64858532167727
 31
0.0
 11
13.78981220731748
 21
18.19607417577731
 31
0.0
 11
14.72685573041735
 21
18.56376946197724
 31
0.0
 11
15.71594804991764
 21
18.73150760977728
 31
0.0
  0
LINE
  5
68B6
330
1E
100
AcDbEntity
  8
虛線
 48
0.27
100
AcDbLine
 10
-20.46915508116786
 20
30.60211417766243
 30
0.0
 11
-20.68025929463374
 21
30.96775740107728
 31
0.0
  0
LINE
  5
68B7
330
1E
100
AcDbEntity
  8
0
 48
0.27
100
AcDbLine
 10
-28.45396001498261
 20
30.96775740107728
 30
0.0
 11
-29.09242040898244
 21
30.32929700707723
 31
0.0
  0
LINE
  5
68B8
330
1E
100
AcDbEntity
  8
0
 48
0.27
100
AcDbLine
 10
-35.43480930458259
 20
23.98690811157724
 30
0.0
 11
-35.43480930458259
 21
20.51399130597724
 31
0.0
  0
LINE
  5
68B9
330
1E
100
AcDbEntity
  8
0
 48
0.27
100
AcDbLine
 10
-33.65134891058256
 20
25.77036850557715
 30
0.0
 11
-35.43480930458259
 21
23.98690811157724
 31
0.0
  0
LINE
  5
68BA
330
1E
100
AcDbEntity
  8
0
 48
0.27
100
AcDbLine
 10
-35.43480930458259
 20
20.51399130597724
 30
0.0
 11
-33.65134891058256
 21
18.73053091197721
 31
0.0
  0
LINE
  5
68BB
330
1E
100
AcDbEntity
  8
0
 48
0.27
100
AcDbLine
 10
-27.93480930458259
 20
13.01399130597724
 30
0.0
 11
-29.09242040898244
 21
14.17160241047725
 31
0.0
  0
LINE
  5
68BC
330
1E
100
AcDbEntity
  8
0
 48
0.27
100
AcDbLine
 10
-27.93480930458259
 20
6.986908111577236
 30
0.0
 11
-27.93480930458259
 21
13.01399130597724
 31
0.0
  0
LINE
  5
68BD
330
1E
100
AcDbEntity
  8
虛線
 48
0.27
100
AcDbLine
 10
-20.46915508116786
 20
11.00211417766252
 30
0.0
 11
-20.46915508116786
 21
30.60211417766243
 31
0.0
  0
LINE
  5
68BE
330
1E
100
AcDbEntity
  8
0
 48
0.27
100
AcDbLine
 10
-26.97126889581739
 20
-12.00000000000818
 30
0.0
 11
-27.97126746655215
 21
-13.00000000000852
 31
0.0
  0
LINE
  5
68BF
330
1E
100
AcDbEntity
  8
0
 48
0.27
100
AcDbLine
 10
-35.46915508116808
 20
-10.9978772223742
 30
0.0
 11
-33.46702560335064
 21
-13.00000000000852
 31
0.0
  0
LINE
  5
68C0
330
1E
100
AcDbEntity
  8
0
 48
0.27
100
AcDbLine
 10
-35.46915508116808
 20
-10.9978772223742
 30
0.0
 11
-35.46915508116808
 21
-0.5474376651160356
 31
0.0
  0
LINE
  5
68C1
330
1E
100
AcDbEntity
  8
0
 48
0.27
100
AcDbLine
 10
-27.93480930458259
 20
6.986908111577236
 30
0.0
 11
-35.46915508116808
 21
-0.5474376651160356
 31
0.0
  0
SPLINE
  5
68C2
330
1E
100
AcDbEntity
  8
0
 48
0.27
100
AcDbSpline
210
0.0
220
0.0
230
1.0
 70
     8
 71
     3
 72
    14
 73
    10
 74
     8
 42
0.0000000001
 43
0.0000000001
 44
0.0000000001
 40
0.0
 40
0.0
 40
0.0
 40
0.0
 40
1.00337480073276
 40
2.010676408934169
 40
3.01040917306153
 40
4.019215736458418
 40
5.018979127771629
 40
6.025582519221103
 40
7.028797203484325
 40
7.028797203484325
 40
7.028797203484325
 40
7.028797203484325
 10
-29.09144371118259
 20
30.3288993709773
 30
0.0
 10
-29.13319006222793
 20
29.99587225651861
 30
0.0
 10
-29.21684614283174
 20
29.32851469273638
 30
0.0
 10
-29.59787364751361
 20
28.38846342621851
 30
0.0
 10
-30.14925726615111
 20
27.54154941422542
 30
0.0
 10
-30.86425859777499
 20
26.82666947629964
 30
0.0
 10
-31.7110826481047
 20
26.27555406744452
 30
0.0
 10
-32.65090382125547
 20
25.89474045278269
 30
0.0
 10
-33.31797703551464
 20
25.81112769694265
 30
0.0
 10
-33.65095127438258
 20
25.76939180777731
 30
0.0
 11
-29.09144371118259
 21
30.3288993709773
 31
0.0
 11
-29.25922491918255
 21
29.33965195147721
 31
0.0
 11
-29.62727345258258
 21
28.40199700057724
 31
0.0
 11
-30.17489055088254
 21
27.56558734417718
 31
0.0
 11
-30.88828522118252
 21
26.85231409587732
 31
0.0
 11
-31.72481543178242
 21
26.30482524177728
 31
0.0
 11
-32.66185895488252
 21
25.93712995557723
 31
0.0
 11
-33.65095127438258
 21
25.76939180777731
 31
0.0
  0
SPLINE
  5
68C3
330
1E
100
AcDbEntity
  8
0
 48
0.27
100
AcDbSpline
210
0.0
220
0.0
230
1.0
 70
     8
 71
     3
 72
    14
 73
    10
 74
     8
 42
0.0000000001
 43
0.0000000001
 44
0.0000000001
 40
0.0
 40
0.0
 40
0.0
 40
0.0
 40
1.00337480073276
 40
2.010676408934169
 40
3.010409172923154
 40
4.019215736320203
 40
5.018979127688075
 40
6.025582519230534
 40
7.028797203493663
 40
7.028797203493663
 40
7.028797203493663
 40
7.028797203493663
 10
-33.65095127438258
 20
18.73150760977728
 30
0.0
 10
-33.31792415992337
 20
18.68976125873258
 30
0.0
 10
-32.65056659614007
 20
18.60610517813003
 30
0.0
 10
-31.71051532967337
 20
18.22507767345611
 30
0.0
 10
-30.8636013176824
 20
17.67369405489188
 30
0.0
 10
-30.14872137982328
 20
16.95869272325014
 30
0.0
 10
-29.59760597080428
 20
16.11186867296682
 30
0.0
 10
-29.21679235621197
 20
15.17204749972579
 30
0.0
 10
-29.13317960035464
 20
14.50497428544207
 30
0.0
 10
-29.09144371118259
 20
14.17200004657729
 30
0.0
 11
-33.65095127438258
 21
18.73150760977728
 31
0.0
 11
-32.66170385488249
 21
18.56372640177733
 31
0.0
 11
-31.72404890398252
 21
18.19567786837729
 31
0.0
 11
-30.8876392476825
 21
17.64806077017715
 31
0.0
 11
-30.17436599938242
 21
16.93466609987718
 31
0.0
 11
-29.62687714518256
 21
16.09813588927727
 31
0.0
 11
-29.25918185898263
 21
15.16109236607724
 31
0.0
 11
-29.09144371118259
 21
14.17200004657729
 31
0.0
  0
LINE
  5
68C4
330
1E
100
AcDbEntity
  8
0
 48
0.27
100
AcDbLine
 10
10.51895679051745
 20
30.96775740107728
 30
0.0
 11
-28.45396001498261
 21
30.96775740107728
 31
0.0
  0
LINE
  5
68C5
330
1E
100
AcDbEntity
  8
0
 48
0.27
100
AcDbLine
 10
-19.76704108127092
 20
-12.00000000000739
 30
0.0
 11
-18.76704002770975
 21
-13.00000000000841
 31
0.0
  0
LINE
  5
68C6
330
1E
100
AcDbEntity
  8
虛線
 48
0.27
100
AcDbLine
 10
-20.46915508116786
 20
11.00211417766252
 30
0.0
 11
2.530844918832144
 21
11.0021141776624
 31
0.0
  0
LINE
  5
68C7
330
1E
100
AcDbEntity
  8
虛線
 48
0.27
100
AcDbLine
 10
-20.46915508116786
 20
30.60211417766243
 30
0.0
 11
2.530844918832144
 21
30.60211417766243
 31
0.0
  0
LINE
  5
6AD8
330
1E
100
AcDbEntity
  8
0
100
AcDbLine
 10
177.7810769348708
 20
45.00045717687463
 30
0.0
 11
180.83421357663
 21
45.00045324881827
 31
0.0
  0
LINE
  5
6B04
330
1E
100
AcDbEntity
  8
虛線
 48
0.27
100
AcDbLine
 10
-38.86915508116818
 20
56.99999999999411
 30
0.0
 11
-40.46915508116785
 21
55.39999999999397
 31
0.0
  0
LINE
  5
6B05
330
1E
100
AcDbEntity
  8
虛線
 48
0.27
100
AcDbLine
 10
-52.46915508116785
 20
55.39999999999397
 30
0.0
 11
-54.06915508116799
 21
56.99999999999411
 31
0.0
  0
LINE
  5
6B06
330
1E
100
AcDbEntity
  8
虛線
 48
0.27
100
AcDbLine
 10
-52.46915508116785
 20
55.39999999999397
 30
0.0
 11
-40.46915508116785
 21
55.39999999999397
 31
0.0
  0
LINE
  5
6B07
330
1E
100
AcDbEntity
  8
虛線
 48
0.27
100
AcDbLine
 10
-41.34204090349976
 20
33.749996999994
 30
0.0
 11
-51.59204090349977
 21
33.749996999994
 31
0.0
  0
LINE
  5
6B08
330
1E
100
AcDbEntity
  8
虛線
 48
0.27
100
AcDbLine
 10
-40.46704090350021
 20
38.99999999999388
 30
0.0
 11
-52.46704090349976
 21
38.99999999999388
 31
0.0
  0
LINE
  5
6B09
330
1E
100
AcDbEntity
  8
虛線
 48
0.27
100
AcDbLine
 10
-51.59204090349977
 20
33.74999699999378
 30
0.0
 11
-46.46704090349977
 21
30.67058632747765
 31
0.0
  0
LINE
  5
6B0A
330
1E
100
AcDbEntity
  8
虛線
 48
0.27
100
AcDbLine
 10
-41.34204090349976
 20
33.749996999994
 30
0.0
 11
-46.46704090349977
 21
30.67058632747765
 31
0.0
  0
LINE
  5
6B0B
330
1E
100
AcDbEntity
  8
中心線
 48
0.27
100
AcDbLine
 10
-46.46915508116785
 20
58.99999999999388
 30
0.0
 11
-46.46915508116785
 21
29.46597599999384
 31
0.0
  0
LINE
  5
6B0C
330
1E
100
AcDbEntity
  8
虛線
 48
0.27
100
AcDbLine
 10
-40.46915508116785
 20
55.39999999999397
 30
0.0
 11
-40.46915508116831
 21
38.99999999999388
 31
0.0
  0
LINE
  5
6B0D
330
1E
100
AcDbEntity
  8
虛線
 48
0.27
100
AcDbLine
 10
-41.34415508116785
 20
55.39999999999374
 30
0.0
 11
-41.34415508116785
 21
33.749996999994
 31
0.0
  0
LINE
  5
6B0E
330
1E
100
AcDbEntity
  8
虛線
 48
0.27
100
AcDbLine
 10
-52.46915508116785
 20
55.39999999999397
 30
0.0
 11
-52.46915508116785
 21
38.99999999999388
 31
0.0
  0
LINE
  5
6B0F
330
1E
100
AcDbEntity
  8
虛線
 48
0.27
100
AcDbLine
 10
-51.59415508116786
 20
55.39999999999374
 30
0.0
 11
-51.59415508116786
 21
33.749996999994
 31
0.0
  0
LINE
  5
6B10
330
1E
100
AcDbEntity
  8
虛線
 48
0.27
100
AcDbLine
 10
240.0342135766297
 20
57.0000000000002
 30
0.0
 11
238.43421357663
 21
55.40000000000006
 31
0.0
  0
LINE
  5
6B11
330
1E
100
AcDbEntity
  8
虛線
 48
0.27
100
AcDbLine
 10
226.43421357663
 20
55.40000000000006
 30
0.0
 11
224.8342135766299
 21
57.0000000000002
 31
0.0
  0
LINE
  5
6B12
330
1E
100
AcDbEntity
  8
虛線
 48
0.27
100
AcDbLine
 10
226.43421357663
 20
55.40000000000006
 30
0.0
 11
238.43421357663
 21
55.40000000000006
 31
0.0
  0
LINE
  5
6B13
330
1E
100
AcDbEntity
  8
虛線
 48
0.27
100
AcDbLine
 10
237.5613277542981
 20
33.74999700000009
 30
0.0
 11
227.3113277542981
 21
33.74999700000009
 31
0.0
  0
LINE
  5
6B14
330
1E
100
AcDbEntity
  8
虛線
 48
0.27
100
AcDbLine
 10
238.4363277542977
 20
38.99999999999997
 30
0.0
 11
226.4363277542981
 21
38.99999999999997
 31
0.0
  0
LINE
  5
6B15
330
1E
100
AcDbEntity
  8
虛線
 48
0.27
100
AcDbLine
 10
227.3113277542981
 20
33.74999699999987
 30
0.0
 11
232.4363277542981
 21
30.67058632748373
 31
0.0
  0
LINE
  5
6B16
330
1E
100
AcDbEntity
  8
虛線
 48
0.27
100
AcDbLine
 10
237.5613277542981
 20
33.74999700000009
 30
0.0
 11
232.4363277542981
 21
30.67058632748373
 31
0.0
  0
LINE
  5
6B17
330
1E
100
AcDbEntity
  8
中心線
 48
0.27
100
AcDbLine
 10
232.43421357663
 20
58.99999999999997
 30
0.0
 11
232.43421357663
 21
29.46597599999993
 31
0.0
  0
LINE
  5
6B18
330
1E
100
AcDbEntity
  8
虛線
 48
0.27
100
AcDbLine
 10
238.43421357663
 20
55.40000000000006
 30
0.0
 11
238.4342135766296
 21
38.99999999999997
 31
0.0
  0
LINE
  5
6B19
330
1E
100
AcDbEntity
  8
虛線
 48
0.27
100
AcDbLine
 10
237.55921357663
 20
55.39999999999984
 30
0.0
 11
237.55921357663
 21
33.74999700000009
 31
0.0
  0
LINE
  5
6B1A
330
1E
100
AcDbEntity
  8
虛線
 48
0.27
100
AcDbLine
 10
226.43421357663
 20
55.40000000000006
 30
0.0
 11
226.43421357663
 21
38.99999999999997
 31
0.0
  0
LINE
  5
6B1B
330
1E
100
AcDbEntity
  8
虛線
 48
0.27
100
AcDbLine
 10
227.30921357663
 20
55.39999999999984
 30
0.0
 11
227.30921357663
 21
33.74999700000009
 31
0.0
  0
LINE
  5
6B1C
330
1E
100
AcDbEntity
  8
虛線
 48
0.27
100
AcDbLine
 10
335.0342135766295
 20
57.00000000000018
 30
0.0
 11
333.4342135766299
 21
55.40000000000005
 31
0.0
  0
LINE
  5
6B1D
330
1E
100
AcDbEntity
  8
虛線
 48
0.27
100
AcDbLine
 10
321.4342135766299
 20
55.40000000000005
 30
0.0
 11
319.8342135766298
 21
57.00000000000018
 31
0.0
  0
LINE
  5
6B1E
330
1E
100
AcDbEntity
  8
虛線
 48
0.27
100
AcDbLine
 10
321.4342135766299
 20
55.40000000000005
 30
0.0
 11
333.4342135766299
 21
55.40000000000005
 31
0.0
  0
LINE
  5
6B1F
330
1E
100
AcDbEntity
  8
虛線
 48
0.27
100
AcDbLine
 10
332.561327754298
 20
33.74999700000008
 30
0.0
 11
322.311327754298
 21
33.74999700000008
 31
0.0
  0
LINE
  5
6B20
330
1E
100
AcDbEntity
  8
虛線
 48
0.27
100
AcDbLine
 10
333.4363277542975
 20
38.99999999999996
 30
0.0
 11
321.436327754298
 21
38.99999999999996
 31
0.0
  0
LINE
  5
6B21
330
1E
100
AcDbEntity
  8
虛線
 48
0.27
100
AcDbLine
 10
322.311327754298
 20
33.74999699999985
 30
0.0
 11
327.436327754298
 21
30.67058632748372
 31
0.0
  0
LINE
  5
6B22
330
1E
100
AcDbEntity
  8
虛線
 48
0.27
100
AcDbLine
 10
332.561327754298
 20
33.74999700000008
 30
0.0
 11
327.436327754298
 21
30.67058632748372
 31
0.0
  0
LINE
  5
6B23
330
1E
100
AcDbEntity
  8
中心線
 48
0.27
100
AcDbLine
 10
327.4342135766299
 20
58.99999999999995
 30
0.0
 11
327.4342135766299
 21
29.46597599999991
 31
0.0
  0
LINE
  5
6B24
330
1E
100
AcDbEntity
  8
虛線
 48
0.27
100
AcDbLine
 10
333.4342135766299
 20
55.40000000000005
 30
0.0
 11
333.4342135766294
 21
38.99999999999996
 31
0.0
  0
LINE
  5
6B25
330
1E
100
AcDbEntity
  8
虛線
 48
0.27
100
AcDbLine
 10
332.5592135766299
 20
55.39999999999982
 30
0.0
 11
332.5592135766299
 21
33.74999700000008
 31
0.0
  0
LINE
  5
6B26
330
1E
100
AcDbEntity
  8
虛線
 48
0.27
100
AcDbLine
 10
321.4342135766299
 20
55.40000000000005
 30
0.0
 11
321.4342135766299
 21
38.99999999999996
 31
0.0
  0
LINE
  5
6B27
330
1E
100
AcDbEntity
  8
虛線
 48
0.27
100
AcDbLine
 10
322.3092135766299
 20
55.39999999999982
 30
0.0
 11
322.3092135766299
 21
33.74999700000008
 31
0.0
  0
ENDSEC
  0
SECTION
  2
OBJECTS
  0
DICTIONARY
  5
C
330
0
100
AcDbDictionary
281
     1
  3
ACAD_COLOR
350
3D97
  3
ACAD_GROUP
350
D
  3
ACAD_LAYOUT
350
19
  3
ACAD_MATERIAL
350
3D96
  3
ACAD_MLINESTYLE
350
16
  3
ACAD_PLOTSETTINGS
350
18
  3
ACAD_PLOTSTYLENAME
350
E
  3
ACAD_TABLESTYLE
350
6291
  3
ACAD_VISUALSTYLE
350
6AE9
  3
AcDbVariableDictionary
350
3E63
  3
DWGPROPS
350
6B4D
  0
DICTIONARY
  5
43C2
330
2
100
AcDbDictionary
280
     1
281
     1
  3
ACAD_LAYERSTATES
360
43C3
  0
DICTIONARY
  5
3D1E
330
1E
100
AcDbDictionary
280
     1
281
     1
  3
ACAD_LAYOUTSELFREF
360
3D92
  0
DICTIONARY
  5
3D20
330
1A
100
AcDbDictionary
280
     1
281
     1
  3
ACAD_LAYOUTSELFREF
360
3D91
  0
DICTIONARY
  5
3D97
102
{ACAD_REACTORS
330
C
102
}
330
C
100
AcDbDictionary
281
     1
  0
DICTIONARY
  5
D
102
{ACAD_REACTORS
330
C
102
}
330
C
100
AcDbDictionary
281
     1
  3
*A1
350
4143
  3
*A10
350
4145
  3
*A11
350
4376
  3
*A12
350
4237
  3
*A13
350
437A
  3
*A14
350
43B7
  3
*A15
350
43B9
  3
*A16
350
57D9
  3
*A17
350
437B
  3
*A18
350
414D
  3
*A19
350
437C
  3
*A2
350
423E
  3
*A20
350
4146
  3
*A21
350
43BC
  3
*A22
350
43BE
  3
*A23
350
4238
  3
*A24
350
43B5
  3
*A25
350
423A
  3
*A26
350
43B6
  3
*A27
350
414E
  3
*A28
350
43C0
  3
*A29
350
4148
  3
*A3
350
423F
  3
*A30
350
43BA
  3
*A31
350
4241
  3
*A32
350
43BB
  3
*A33
350
4144
  3
*A34
350
414A
  3
*A35
350
5691
  3
*A36
350
4147
  3
*A37
350
4378
  3
*A38
350
43BF
  3
*A39
350
414C
  3
*A4
350
579E
  3
*A40
350
4235
  3
*A41
350
414F
  3
*A42
350
437E
  3
*A43
350
4149
  3
*A44
350
4239
  3
*A45
350
423C
  3
*A46
350
423B
  3
*A47
350
43B8
  3
*A48
350
576A
  3
*A49
350
4240
  3
*A5
350
4374
  3
*A50
350
4373
  3
*A51
350
43BD
  3
*A52
350
4236
  3
*A53
350
4377
  3
*A54
350
4379
  3
*A55
350
43C1
  3
*A56
350
423D
  3
*A6
350
437D
  3
*A7
350
437F
  3
*A8
350
414B
  3
*A9
350
4375
  0
DICTIONARY
  5
19
102
{ACAD_REACTORS
330
C
102
}
330
C
100
AcDbDictionary
281
     1
  3
Model
350
21
  3
配置1
350
1D
  0
DICTIONARY
  5
3D96
102
{ACAD_REACTORS
330
C
102
}
330
C
100
AcDbDictionary
281
     1
  3
ByBlock
350
6AE7
  3
ByLayer
350
6AE6
  3
Global
350
6AE8
  0
DICTIONARY
  5
16
102
{ACAD_REACTORS
330
C
102
}
330
C
100
AcDbDictionary
281
     1
  3
Standard
350
17
  0
DICTIONARY
  5
18
102
{ACAD_REACTORS
330
C
102
}
330
C
100
AcDbDictionary
281
     1
  3
LANSRO
350
4150
  0
ACDBDICTIONARYWDFLT
  5
E
102
{ACAD_REACTORS
330
C
102
}
330
C
100
AcDbDictionary
281
     1
  3
Normal
350
F
100
AcDbDictionaryWithDefault
340
F
  0
DICTIONARY
  5
6291
102
{ACAD_REACTORS
330
C
102
}
330
C
100
AcDbDictionary
281
     1
  3
Standard
350
6292
  0
DICTIONARY
  5
6AE9
102
{ACAD_REACTORS
330
C
102
}
330
C
100
AcDbDictionary
281
     1
  3
2dWireframe
350
6AEF
  3
3D Hidden
350
6AF1
  3
3dWireframe
350
6AF0
  3
Basic
350
6AEE
  3
Brighten
350
6AF5
  3
ColorChange
350
6AF9
  3
Conceptual
350
6AF2
  3
Dim
350
6AF4
  3
Facepattern
350
6AF8
  3
Flat
350
6AEA
  3
FlatWithEdges
350
6AEB
  3
Gouraud
350
6AEC
  3
GouraudWithEdges
350
6AED
  3
Linepattern
350
6AF7
  3
Realistic
350
6AF3
  3
Thicken
350
6AF6
  0
DICTIONARY
  5
3E63
102
{ACAD_REACTORS
330
C
102
}
330
C
100
AcDbDictionary
281
     1
  3
CTABLESTYLE
350
62AC
  3
DIMASSOC
350
3E64
  3
INDEXCTL
350
6B4C
  3
PROJECTNAME
350
3E65
  3
SORTENTS
350
6B4B
  0
XRECORD
  5
6B4D
102
{ACAD_REACTORS
330
C
102
}
330
C
100
AcDbXrecord
280
     1
  1
DWGPROPS COOKIE
  2

  3

  4

  6

  7

  8
tony4321
  9

300
=
301
=
302
=
303
=
304
=
305
=
306
=
307
=
308
=
309
=
 40
0.1620605324074074
 41
2444975.333333334
 42
2454358.493897257
  1

 90
        0
  0
DICTIONARY
  5
43C3
102
{ACAD_REACTORS
330
43C2
102
}
330
43C2
100
AcDbDictionary
281
     1
  0
XRECORD
  5
3D92
102
{ACAD_REACTORS
330
3D1E
102
}
330
3D1E
100
AcDbXrecord
280
     1
340
1E
  0
XRECORD
  5
3D91
102
{ACAD_REACTORS
330
3D20
102
}
330
3D20
100
AcDbXrecord
280
     1
340
1A
  0
GROUP
  5
4143
102
{ACAD_REACTORS
330
D
102
}
330
D
100
AcDbGroup
300

 70
     1
 71
     1
  0
GROUP
  5
4145
102
{ACAD_REACTORS
330
D
102
}
330
D
100
AcDbGroup
300

 70
     1
 71
     1
  0
GROUP
  5
4376
102
{ACAD_REACTORS
330
D
102
}
330
D
100
AcDbGroup
300

 70
     1
 71
     1
  0
GROUP
  5
4237
102
{ACAD_REACTORS
330
D
102
}
330
D
100
AcDbGroup
300

 70
     1
 71
     1
  0
GROUP
  5
437A
102
{ACAD_REACTORS
330
D
102
}
330
D
100
AcDbGroup
300

 70
     1
 71
     1
  0
GROUP
  5
43B7
102
{ACAD_REACTORS
330
D
102
}
330
D
100
AcDbGroup
300

 70
     1
 71
     1
  0
GROUP
  5
43B9
102
{ACAD_REACTORS
330
D
102
}
330
D
100
AcDbGroup
300

 70
     1
 71
     1
  0
GROUP
  5
57D9
102
{ACAD_REACTORS
330
D
102
}
330
D
100
AcDbGroup
300

 70
     1
 71
     1
  0
GROUP
  5
437B
102
{ACAD_REACTORS
330
D
102
}
330
D
100
AcDbGroup
300

 70
     1
 71
     1
  0
GROUP
  5
414D
102
{ACAD_REACTORS
330
D
102
}
330
D
100
AcDbGroup
300

 70
     1
 71
     1
  0
GROUP
  5
437C
102
{ACAD_REACTORS
330
D
102
}
330
D
100
AcDbGroup
300

 70
     1
 71
     1
  0
GROUP
  5
423E
102
{ACAD_REACTORS
330
D
102
}
330
D
100
AcDbGroup
300

 70
     1
 71
     1
  0
GROUP
  5
4146
102
{ACAD_REACTORS
330
D
102
}
330
D
100
AcDbGroup
300

 70
     1
 71
     1
  0
GROUP
  5
43BC
102
{ACAD_REACTORS
330
D
102
}
330
D
100
AcDbGroup
300

 70
     1
 71
     1
  0
GROUP
  5
43BE
102
{ACAD_REACTORS
330
D
102
}
330
D
100
AcDbGroup
300

 70
     1
 71
     1
  0
GROUP
  5
4238
102
{ACAD_REACTORS
330
D
102
}
330
D
100
AcDbGroup
300

 70
     1
 71
     1
  0
GROUP
  5
43B5
102
{ACAD_REACTORS
330
D
102
}
330
D
100
AcDbGroup
300

 70
     1
 71
     1
  0
GROUP
  5
423A
102
{ACAD_REACTORS
330
D
102
}
330
D
100
AcDbGroup
300

 70
     1
 71
     1
  0
GROUP
  5
43B6
102
{ACAD_REACTORS
330
D
102
}
330
D
100
AcDbGroup
300

 70
     1
 71
     1
  0
GROUP
  5
414E
102
{ACAD_REACTORS
330
D
102
}
330
D
100
AcDbGroup
300

 70
     1
 71
     1
  0
GROUP
  5
43C0
102
{ACAD_REACTORS
330
D
102
}
330
D
100
AcDbGroup
300

 70
     1
 71
     1
  0
GROUP
  5
4148
102
{ACAD_REACTORS
330
D
102
}
330
D
100
AcDbGroup
300

 70
     1
 71
     1
  0
GROUP
  5
423F
102
{ACAD_REACTORS
330
D
102
}
330
D
100
AcDbGroup
300

 70
     1
 71
     1
  0
GROUP
  5
43BA
102
{ACAD_REACTORS
330
D
102
}
330
D
100
AcDbGroup
300

 70
     1
 71
     1
  0
GROUP
  5
4241
102
{ACAD_REACTORS
330
D
102
}
330
D
100
AcDbGroup
300

 70
     1
 71
     1
  0
GROUP
  5
43BB
102
{ACAD_REACTORS
330
D
102
}
330
D
100
AcDbGroup
300

 70
     1
 71
     1
  0
GROUP
  5
4144
102
{ACAD_REACTORS
330
D
102
}
330
D
100
AcDbGroup
300

 70
     1
 71
     1
  0
GROUP
  5
414A
102
{ACAD_REACTORS
330
D
102
}
330
D
100
AcDbGroup
300

 70
     1
 71
     1
  0
GROUP
  5
5691
102
{ACAD_REACTORS
330
D
102
}
330
D
100
AcDbGroup
300

 70
     1
 71
     1
  0
GROUP
  5
4147
102
{ACAD_REACTORS
330
D
102
}
330
D
100
AcDbGroup
300

 70
     1
 71
     1
  0
GROUP
  5
4378
102
{ACAD_REACTORS
330
D
102
}
330
D
100
AcDbGroup
300

 70
     1
 71
     1
  0
GROUP
  5
43BF
102
{ACAD_REACTORS
330
D
102
}
330
D
100
AcDbGroup
300

 70
     1
 71
     1
  0
GROUP
  5
414C
102
{ACAD_REACTORS
330
D
102
}
330
D
100
AcDbGroup
300

 70
     1
 71
     1
  0
GROUP
  5
579E
102
{ACAD_REACTORS
330
D
102
}
330
D
100
AcDbGroup
300

 70
     1
 71
     1
  0
GROUP
  5
4235
102
{ACAD_REACTORS
330
D
102
}
330
D
100
AcDbGroup
300

 70
     1
 71
     1
  0
GROUP
  5
414F
102
{ACAD_REACTORS
330
D
102
}
330
D
100
AcDbGroup
300

 70
     1
 71
     1
  0
GROUP
  5
437E
102
{ACAD_REACTORS
330
D
102
}
330
D
100
AcDbGroup
300

 70
     1
 71
     1
  0
GROUP
  5
4149
102
{ACAD_REACTORS
330
D
102
}
330
D
100
AcDbGroup
300

 70
     1
 71
     1
  0
GROUP
  5
4239
102
{ACAD_REACTORS
330
D
102
}
330
D
100
AcDbGroup
300

 70
     1
 71
     1
  0
GROUP
  5
423C
102
{ACAD_REACTORS
330
D
102
}
330
D
100
AcDbGroup
300

 70
     1
 71
     1
  0
GROUP
  5
423B
102
{ACAD_REACTORS
330
D
102
}
330
D
100
AcDbGroup
300

 70
     1
 71
     1
  0
GROUP
  5
43B8
102
{ACAD_REACTORS
330
D
102
}
330
D
100
AcDbGroup
300

 70
     1
 71
     1
  0
GROUP
  5
576A
102
{ACAD_REACTORS
330
D
102
}
330
D
100
AcDbGroup
300

 70
     1
 71
     1
  0
GROUP
  5
4240
102
{ACAD_REACTORS
330
D
102
}
330
D
100
AcDbGroup
300

 70
     1
 71
     1
  0
GROUP
  5
4374
102
{ACAD_REACTORS
330
D
102
}
330
D
100
AcDbGroup
300

 70
     1
 71
     1
  0
GROUP
  5
4373
102
{ACAD_REACTORS
330
D
102
}
330
D
100
AcDbGroup
300

 70
     1
 71
     1
  0
GROUP
  5
43BD
102
{ACAD_REACTORS
330
D
102
}
330
D
100
AcDbGroup
300

 70
     1
 71
     1
  0
GROUP
  5
4236
102
{ACAD_REACTORS
330
D
102
}
330
D
100
AcDbGroup
300

 70
     1
 71
     1
  0
GROUP
  5
4377
102
{ACAD_REACTORS
330
D
102
}
330
D
100
AcDbGroup
300

 70
     1
 71
     1
  0
GROUP
  5
4379
102
{ACAD_REACTORS
330
D
102
}
330
D
100
AcDbGroup
300

 70
     1
 71
     1
  0
GROUP
  5
43C1
102
{ACAD_REACTORS
330
D
102
}
330
D
100
AcDbGroup
300

 70
     1
 71
     1
  0
GROUP
  5
423D
102
{ACAD_REACTORS
330
D
102
}
330
D
100
AcDbGroup
300

 70
     1
 71
     1
  0
GROUP
  5
437D
102
{ACAD_REACTORS
330
D
102
}
330
D
100
AcDbGroup
300

 70
     1
 71
     1
  0
GROUP
  5
437F
102
{ACAD_REACTORS
330
D
102
}
330
D
100
AcDbGroup
300

 70
     1
 71
     1
  0
GROUP
  5
414B
102
{ACAD_REACTORS
330
D
102
}
330
D
100
AcDbGroup
300

 70
     1
 71
     1
  0
GROUP
  5
4375
102
{ACAD_REACTORS
330
D
102
}
330
D
100
AcDbGroup
300

 70
     1
 71
     1
  0
LAYOUT
  5
21
102
{ACAD_XDICTIONARY
360
6B50
102
}
102
{ACAD_REACTORS
330
19
102
}
330
19
100
AcDbPlotSettings
  1

  2
HP 2200
  4

  6

 40
0.0
 41
0.0
 42
0.0
 43
0.0
 44
0.0
 45
0.0
 46
0.0
 47
0.0
 48
0.0
 49
0.0
140
0.0
141
0.0
142
1.0
143
1.0
 70
  1712
 72
     0
 73
     0
 74
     0
  7
AAA.ctb
 75
     0
147
1.0
148
0.0
149
0.0
100
AcDbLayout
  1
Model
 70
     1
 71
     0
 10
0.0
 20
0.0
 11
12.0
 21
9.0
 12
0.0
 22
0.0
 32
0.0
 14
0.0
 24
0.0
 34
0.0
 15
0.0
 25
0.0
 35
0.0
146
0.0
 13
0.0
 23
0.0
 33
0.0
 16
1.0
 26
0.0
 36
0.0
 17
0.0
 27
1.0
 37
0.0
 76
     0
330
1E
331
6ADB
  0
LAYOUT
  5
1D
102
{ACAD_XDICTIONARY
360
6B4E
102
}
102
{ACAD_REACTORS
330
19
102
}
330
19
100
AcDbPlotSettings
  1

  2
HP 2200
  4

  6

 40
0.0
 41
0.0
 42
0.0
 43
0.0
 44
0.0
 45
0.0
 46
0.0
 47
0.0
 48
0.0
 49
0.0
140
0.0
141
0.0
142
1.0
143
1.0
 70
   688
 72
     0
 73
     0
 74
     5
  7
AAA.ctb
 75
    16
147
1.0
148
0.0
149
0.0
100
AcDbLayout
  1
配置1
 70
     0
 71
     1
 10
0.0
 20
0.0
 11
12.0
 21
9.0
 12
0.0
 22
0.0
 32
0.0
 14
1.000000000000000E+20
 24
1.000000000000000E+20
 34
1.000000000000000E+20
 15
-1.000000000000000E+20
 25
-1.000000000000000E+20
 35
-1.000000000000000E+20
146
0.0
 13
0.0
 23
0.0
 33
0.0
 16
1.0
 26
0.0
 36
0.0
 17
0.0
 27
1.0
 37
0.0
 76
     0
330
1A
  0
MATERIAL
  5
6AE7
102
{ACAD_XDICTIONARY
360
6B58
102
}
102
{ACAD_REACTORS
330
3D96
102
}
330
3D96
100
AcDbMaterial
  1
ByBlock
  0
MATERIAL
  5
6AE6
102
{ACAD_XDICTIONARY
360
6B56
102
}
102
{ACAD_REACTORS
330
3D96
102
}
330
3D96
100
AcDbMaterial
  1
ByLayer
  0
MATERIAL
  5
6AE8
102
{ACAD_XDICTIONARY
360
6B5A
102
}
102
{ACAD_REACTORS
330
3D96
102
}
330
3D96
100
AcDbMaterial
  1
Global
  0
MLINESTYLE
  5
17
102
{ACAD_REACTORS
330
16
102
}
330
16
100
AcDbMlineStyle
  2
STANDARD
 70
     0
  3

 62
   256
 51
90.0
 52
90.0
 71
     2
 49
0.5
 62
   256
  6
BYLAYER
 49
-0.5
 62
   256
  6
BYLAYER
  0
PLOTSETTINGS
  5
4150
102
{ACAD_XDICTIONARY
360
6B52
102
}
102
{ACAD_REACTORS
330
18
102
}
330
18
100
AcDbPlotSettings
  1
LANSRO
  2
\\1260\HP2200
  4
A4
  6

 40
6.043083190917968
 41
6.762742042541503
 42
7.736419677734375
 43
5.027069091796875
 44
209.9733276367187
 45
296.9683227539062
 46
5.15
 47
0.0
 48
0.0
 49
0.0
140
0.0
141
0.0
142
1.0
143
0.8829829263240881
 70
  1716
 72
     1
 73
     1
 74
     0
  7
AAA.ctb
 75
     0
147
1.132524729739748
148
-132.297014905803
149
-71.78507365635891
  0
ACDBPLACEHOLDER
  5
F
102
{ACAD_REACTORS
330
E
102
}
330
E
  0
TABLESTYLE
  5
6292
102
{ACAD_XDICTIONARY
360
6B54
102
}
102
{ACAD_REACTORS
330
6291
102
}
330
6291
100
AcDbTableStyle
  3
Standard
 70
     0
 71
     0
 40
0.06
 41
0.06
280
     0
281
     0
  7
STANDARD
140
0.18
170
     2
 62
     0
 63
     7
283
     0
274
    -2
284
     1
 64
     0
275
    -2
285
     1
 65
     0
276
    -2
286
     1
 66
     0
277
    -2
287
     1
 67
     0
278
    -2
288
     1
 68
     0
279
    -2
289
     1
 69
     0
  7
STANDARD
140
0.25
170
     5
 62
     0
 63
     7
283
     0
274
    -2
284
     1
 64
     0
275
    -2
285
     1
 65
     0
276
    -2
286
     1
 66
     0
277
    -2
287
     1
 67
     0
278
    -2
288
     1
 68
     0
279
    -2
289
     1
 69
     0
  7
STANDARD
140
0.18
170
     5
 62
     0
 63
     7
283
     0
274
    -2
284
     1
 64
     0
275
    -2
285
     1
 65
     0
276
    -2
286
     1
 66
     0
277
    -2
287
     1
 67
     0
278
    -2
288
     1
 68
     0
279
    -2
289
     1
 69
     0
1001
ACAD
1000
AcRTDxfName
1000
TABLESTYLE
1000
AcRTDxfName
1000
TABLESTYLE
  0
VISUALSTYLE
  5
6AEF
102
{ACAD_REACTORS
330
6AE9
102
}
330
6AE9
100
AcDbVisualStyle
  2
2dWireframe
 70
     4
 71
     0
 72
     2
 73
     0
 90
        0
 40
-0.6
 41
-30.0
 62
     5
 63
     7
 74
     1
 91
        4
 64
     7
 65
   257
 75
     1
175
     1
 42
1.0
 92
        0
 66
   257
 43
1.0
 76
     1
 77
     6
 78
     2
 67
     7
 79
     5
170
     0
171
     0
290
     0
174
     0
 93
        1
 44
0.0
173
     0
291
     0
 45
0.0
1001
ACAD
1000
AcDbSavedByObjectVersion
1070
     0
  0
VISUALSTYLE
  5
6AF1
102
{ACAD_REACTORS
330
6AE9
102
}
330
6AE9
100
AcDbVisualStyle
  2
3D Hidden
 70
     6
 71
     1
 72
     2
 73
     2
 90
        0
 40
-0.6
 41
-30.0
 62
     5
 63
     7
 74
     2
 91
        2
 64
     7
 65
   257
 75
     2
175
     1
 42
40.0
 92
        0
 66
   257
 43
1.0
 76
     1
 77
     6
 78
     2
 67
     7
 79
     3
170
     0
171
     0
290
     0
174
     0
 93
        1
 44
0.0
173
     0
291
     0
 45
0.0
1001
ACAD
1000
AcDbSavedByObjectVersion
1070
     0
  0
VISUALSTYLE
  5
6AF0
102
{ACAD_REACTORS
330
6AE9
102
}
330
6AE9
100
AcDbVisualStyle
  2
3dWireframe
 70
     5
 71
     0
 72
     2
 73
     0
 90
        0
 40
-0.6
 41
-30.0
 62
     5
 63
     7
 74
     1
 91
        4
 64
     7
 65
   257
 75
     1
175
     1
 42
1.0
 92
        0
 66
   257
 43
1.0
 76
     1
 77
     6
 78
     2
 67
     7
 79
     5
170
     0
171
     0
290
     0
174
     0
 93
        1
 44
0.0
173
     0
291
     0
 45
0.0
1001
ACAD
1000
AcDbSavedByObjectVersion
1070
     0
  0
VISUALSTYLE
  5
6AEE
102
{ACAD_REACTORS
330
6AE9
102
}
330
6AE9
100
AcDbVisualStyle
  2
Basic
 70
     7
 71
     1
 72
     0
 73
     1
 90
        0
 40
-0.6
 41
-30.0
 62
     5
 63
     7
 74
     0
 91
        4
 64
     7
 65
   257
 75
     1
175
     1
 42
1.0
 92
        8
 66
     7
 43
1.0
 76
     1
 77
     6
 78
     2
 67
     7
 79
     5
170
     0
171
     0
290
     0
174
     0
 93
        1
 44
0.0
173
     0
291
     1
 45
0.0
1001
ACAD
1000
AcDbSavedByObjectVersion
1070
     0
  0
VISUALSTYLE
  5
6AF5
102
{ACAD_REACTORS
330
6AE9
102
}
330
6AE9
100
AcDbVisualStyle
  2
Brighten
 70
    12
 71
     2
 72
     2
 73
     0
 90
        0
 40
-0.6
 41
-30.0
 62
     5
 63
     7
 74
     1
 91
        4
 64
     7
 65
   257
 75
     1
175
     1
 42
1.0
 92
        8
 66
     7
 43
1.0
 76
     1
 77
     6
 78
     2
 67
     7
 79
     5
170
     0
171
     0
290
     0
174
     0
 93
        1
 44
50.0
173
     0
291
     1
 45
0.0
1001
ACAD
1000
AcDbSavedByObjectVersion
1070
     0
  0
VISUALSTYLE
  5
6AF9
102
{ACAD_REACTORS
330
6AE9
102
}
330
6AE9
100
AcDbVisualStyle
  2
ColorChange
 70
    16
 71
     2
 72
     2
 73
     3
 90
        0
 40
-0.6
 41
-30.0
 62
     5
 63
     8
 74
     1
 91
        4
 64
     7
 65
   257
 75
     1
175
     1
 42
1.0
 92
        8
 66
     8
 43
1.0
 76
     1
 77
     6
 78
     2
 67
     7
 79
     5
170
     0
171
     0
290
     0
174
     0
 93
        1
 44
0.0
173
     0
291
     1
 45
0.0
1001
ACAD
1000
AcDbSavedByObjectVersion
1070
     0
  0
VISUALSTYLE
  5
6AF2
102
{ACAD_REACTORS
330
6AE9
102
}
330
6AE9
100
AcDbVisualStyle
  2
Conceptual
 70
     9
 71
     3
 72
     2
 73
     0
 90
        0
 40
-0.6
 41
-30.0
 62
     5
 63
     7
 74
     2
 91
        2
 64
     7
 65
   257
 75
     1
175
     1
 42
40.0
 92
        8
 66
     7
 43
1.0
 76
     1
 77
     6
 78
     2
 67
     7
 79
     3
170
     0
171
     0
290
     0
174
     0
 93
        1
 44
0.0
173
     0
291
     0
 45
0.0
1001
ACAD
1000
AcDbSavedByObjectVersion
1070
     0
  0
VISUALSTYLE
  5
6AF4
102
{ACAD_REACTORS
330
6AE9
102
}
330
6AE9
100
AcDbVisualStyle
  2
Dim
 70
    11
 71
     2
 72
     2
 73
     0
 90
        0
 40
-0.6
 41
-30.0
 62
     5
 63
     7
 74
     1
 91
        4
 64
     7
 65
   257
 75
     1
175
     1
 42
1.0
 92
        8
 66
     7
 43
1.0
 76
     1
 77
     6
 78
     2
 67
     7
 79
     5
170
     0
171
     0
290
     0
174
     0
 93
        1
 44
-50.0
173
     0
291
     1
 45
0.0
1001
ACAD
1000
AcDbSavedByObjectVersion
1070
     0
  0
VISUALSTYLE
  5
6AF8
102
{ACAD_REACTORS
330
6AE9
102
}
330
6AE9
100
AcDbVisualStyle
  2
Facepattern
 70
    15
 71
     2
 72
     2
 73
     0
 90
        0
 40
-0.6
 41
-30.0
 62
     5
 63
     7
 74
     1
 91
        4
 64
     7
 65
   257
 75
     1
175
     1
 42
1.0
 92
        8
 66
     7
 43
1.0
 76
     1
 77
     6
 78
     2
 67
     7
 79
     5
170
     0
171
     0
290
     0
174
     0
 93
        1
 44
0.0
173
     0
291
     1
 45
0.0
1001
ACAD
1000
AcDbSavedByObjectVersion
1070
     0
  0
VISUALSTYLE
  5
6AEA
102
{ACAD_REACTORS
330
6AE9
102
}
330
6AE9
100
AcDbVisualStyle
  2
Flat
 70
     0
 71
     2
 72
     1
 73
     1
 90
        2
 40
-0.6
 41
30.0
 62
     5
 63
     7
 74
     0
 91
        4
 64
     7
 65
   257
 75
     1
175
     1
 42
1.0
 92
        8
 66
     7
 43
1.0
 76
     1
 77
     6
 78
     2
 67
     7
 79
     5
170
     0
171
     0
290
     0
174
     0
 93
       13
 44
0.0
173
     0
291
     1
 45
0.0
1001
ACAD
1000
AcDbSavedByObjectVersion
1070
     0
  0
VISUALSTYLE
  5
6AEB
102
{ACAD_REACTORS
330
6AE9
102
}
330
6AE9
100
AcDbVisualStyle
  2
FlatWithEdges
 70
     1
 71
     2
 72
     1
 73
     1
 90
        2
 40
-0.6
 41
30.0
 62
     5
 63
     7
 74
     1
 91
        4
 64
     7
 65
   257
 75
     1
175
     1
 42
1.0
 92
        0
 66
   257
 43
1.0
 76
     1
 77
     6
 78
     2
 67
     7
 79
     5
170
     0
171
     0
290
     0
174
     0
 93
       13
 44
0.0
173
     0
291
     1
 45
0.0
1001
ACAD
1000
AcDbSavedByObjectVersion
1070
     0
  0
VISUALSTYLE
  5
6AEC
102
{ACAD_REACTORS
330
6AE9
102
}
330
6AE9
100
AcDbVisualStyle
  2
Gouraud
 70
     2
 71
     2
 72
     2
 73
     1
 90
        2
 40
-0.6
 41
30.0
 62
     5
 63
     7
 74
     0
 91
        4
 64
     7
 65
   257
 75
     1
175
     1
 42
1.0
 92
        0
 66
     7
 43
1.0
 76
     1
 77
     6
 78
     2
 67
     7
 79
     5
170
     0
171
     0
290
     0
174
     0
 93
       13
 44
0.0
173
     0
291
     1
 45
0.0
1001
ACAD
1000
AcDbSavedByObjectVersion
1070
     0
  0
VISUALSTYLE
  5
6AED
102
{ACAD_REACTORS
330
6AE9
102
}
330
6AE9
100
AcDbVisualStyle
  2
GouraudWithEdges
 70
     3
 71
     2
 72
     2
 73
     1
 90
        2
 40
-0.6
 41
30.0
 62
     5
 63
     7
 74
     1
 91
        4
 64
     7
 65
   257
 75
     1
175
     1
 42
1.0
 92
        0
 66
   257
 43
1.0
 76
     1
 77
     6
 78
     2
 67
     7
 79
     5
170
     0
171
     0
290
     0
174
     0
 93
       13
 44
0.0
173
     0
291
     1
 45
0.0
1001
ACAD
1000
AcDbSavedByObjectVersion
1070
     0
  0
VISUALSTYLE
  5
6AF7
102
{ACAD_REACTORS
330
6AE9
102
}
330
6AE9
100
AcDbVisualStyle
  2
Linepattern
 70
    14
 71
     2
 72
     2
 73
     0
 90
        0
 40
-0.6
 41
-30.0
 62
     5
 63
     7
 74
     1
 91
        4
 64
     7
 65
   257
 75
     7
175
     7
 42
1.0
 92
        8
 66
     7
 43
1.0
 76
     1
 77
     6
 78
     2
 67
     7
 79
     5
170
     0
171
     0
290
     0
174
     0
 93
        1
 44
0.0
173
     0
291
     1
 45
0.0
1001
ACAD
1000
AcDbSavedByObjectVersion
1070
     0
  0
VISUALSTYLE
  5
6AF3
102
{ACAD_REACTORS
330
6AE9
102
}
330
6AE9
100
AcDbVisualStyle
  2
Realistic
 70
     8
 71
     2
 72
     2
 73
     0
 90
        0
 40
-0.6
 41
-30.0
 62
     5
 63
     7
 74
     1
 91
        0
 64
     7
 65
   257
 75
     1
175
     1
 42
1.0
 92
        8
 66
     8
 43
1.0
 76
     1
 77
     6
 78
     2
 67
     7
 79
     5
170
     0
171
     0
290
     0
174
     0
 93
       13
 44
0.0
173
     0
291
     0
 45
0.0
1001
ACAD
1000
AcDbSavedByObjectVersion
1070
     0
  0
VISUALSTYLE
  5
6AF6
102
{ACAD_REACTORS
330
6AE9
102
}
330
6AE9
100
AcDbVisualStyle
  2
Thicken
 70
    13
 71
     2
 72
     2
 73
     0
 90
        0
 40
-0.6
 41
-30.0
 62
     5
 63
     7
 74
     1
 91
        4
 64
     7
 65
   257
 75
     1
175
     1
 42
1.0
 92
       12
 66
     7
 43
1.0
 76
     1
 77
     6
 78
     2
 67
     7
 79
     5
170
     0
171
     0
290
     0
174
     0
 93
        1
 44
0.0
173
     0
291
     1
 45
0.0
1001
ACAD
1000
AcDbSavedByObjectVersion
1070
     0
  0
DICTIONARYVAR
  5
62AC
102
{ACAD_REACTORS
330
3E63
102
}
330
3E63
100
DictionaryVariables
280
     0
  1
STANDARD
  0
DICTIONARYVAR
  5
3E64
102
{ACAD_REACTORS
330
3E63
102
}
330
3E63
100
DictionaryVariables
280
     0
  1
1
  0
DICTIONARYVAR
  5
6B4C
102
{ACAD_REACTORS
330
3E63
102
}
330
3E63
100
DictionaryVariables
280
     0
  1
0
  0
DICTIONARYVAR
  5
3E65
102
{ACAD_REACTORS
330
3E63
102
}
330
3E63
100
DictionaryVariables
280
     0
  1

  0
DICTIONARYVAR
  5
6B4B
102
{ACAD_REACTORS
330
3E63
102
}
330
3E63
100
DictionaryVariables
280
     0
  1
127
  0
DICTIONARY
  5
6B50
330
21
100
AcDbDictionary
280
     1
281
     1
  3
ACAD_XREC_ROUNDTRIP
360
6B51
  0
DICTIONARY
  5
6B4E
330
1D
100
AcDbDictionary
280
     1
281
     1
  3
ACAD_XREC_ROUNDTRIP
360
6B4F
  0
DICTIONARY
  5
6B58
330
6AE7
100
AcDbDictionary
280
     1
281
     1
  3
ACAD_XREC_ROUNDTRIP
360
6B59
  0
DICTIONARY
  5
6B56
330
6AE6
100
AcDbDictionary
280
     1
281
     1
  3
ACAD_XREC_ROUNDTRIP
360
6B57
  0
DICTIONARY
  5
6B5A
330
6AE8
100
AcDbDictionary
280
     1
281
     1
  3
ACAD_XREC_ROUNDTRIP
360
6B5B
  0
DICTIONARY
  5
6B52
330
4150
100
AcDbDictionary
280
     1
281
     1
  3
ACAD_XREC_ROUNDTRIP
360
6B53
  0
DICTIONARY
  5
6B54
330
6292
100
AcDbDictionary
280
     1
281
     1
  3
ACAD_XREC_ROUNDTRIP
360
6B55
  0
XRECORD
  5
6B51
102
{ACAD_REACTORS
330
6B50
102
}
330
6B50
100
AcDbXrecord
280
     1
102
SHADEPLOT
 70
     0
102
SHADEPLOTRESLEVEL
 70
     2
102
SHADEPLOTCUSTOMDPI
 70
   300
  0
XRECORD
  5
6B4F
102
{ACAD_REACTORS
330
6B4E
102
}
330
6B4E
100
AcDbXrecord
280
     1
102
SHADEPLOT
 70
     0
102
SHADEPLOTRESLEVEL
 70
     2
102
SHADEPLOTCUSTOMDPI
 70
   300
  0
XRECORD
  5
6B59
102
{ACAD_REACTORS
330
6B58
102
}
330
6B58
100
AcDbXrecord
280
     1
102
MATERIAL
148
0.0
149
0.0
149
0.0
 93
        0
 94
       63
282
     0
 72
     1
 77
     1
171
     1
175
     1
179
     1
273
     0
  0
XRECORD
  5
6B57
102
{ACAD_REACTORS
330
6B56
102
}
330
6B56
100
AcDbXrecord
280
     1
102
MATERIAL
148
0.0
149
0.0
149
0.0
 93
        0
 94
       63
282
     0
 72
     1
 77
     1
171
     1
175
     1
179
     1
273
     0
  0
XRECORD
  5
6B5B
102
{ACAD_REACTORS
330
6B5A
102
}
330
6B5A
100
AcDbXrecord
280
     1
102
MATERIAL
148
0.0
149
0.0
149
0.0
 93
        0
 94
       63
282
     0
 72
     1
 77
     1
171
     1
175
     1
179
     1
273
     0
  0
XRECORD
  5
6B53
102
{ACAD_REACTORS
330
6B52
102
}
330
6B52
100
AcDbXrecord
280
     1
102
SHADEPLOT
 70
     0
102
SHADEPLOTRESLEVEL
 70
     2
102
SHADEPLOTCUSTOMDPI
 70
   300
  0
XRECORD
  5
6B55
102
{ACAD_REACTORS
330
6B54
102
}
330
6B54
100
AcDbXrecord
280
     1
102
ACAD_ROUNDTRIP_PRE2007_TABLESTYLE
 90
        4
 91
        0
  1

 92
        4
 93
        0
  2

 94
        4
 95
        0
  3

  0
ENDSEC
  0
EOF
