  0
SECTION
  2
HEADER
  9
$ACADVER
  1
AC1015
  9
$ACADMAINTVER
 70
    20
  9
$DWGCODEPAGE
  3
ANSI_950
  9
$INSBASE
 10
0.0
 20
0.0
 30
0.0
  9
$EXTMIN
 10
-30.44784817989637
 20
471.6106556166803
 30
-0.0000000000000153
  9
$EXTMAX
 10
290.2994651614679
 20
697.1338248055835
 30
0.0000000000000153
  9
$LIMMIN
 10
-10.0
 20
-15.0
  9
$LIMMAX
 10
120.0
 20
90.0
  9
$ORTHOMODE
 70
     1
  9
$REGENMODE
 70
     0
  9
$FILLMODE
 70
     1
  9
$QTEXTMODE
 70
     0
  9
$MIRRTEXT
 70
     0
  9
$LTSCALE
 40
2.0
  9
$ATTMODE
 70
     1
  9
$TEXTSIZE
 40
3.0
  9
$TRACEWID
 40
1.0
  9
$TEXTSTYLE
  7
STANDARD
  9
$CLAYER
  8
0
  9
$CELTYPE
  6
ByLayer
  9
$CECOLOR
 62
   256
  9
$CELTSCALE
 40
1.0
  9
$DISPSILH
 70
     0
  9
$DIMSCALE
 40
1.0
  9
$DIMASZ
 40
3.0
  9
$DIMEXO
 40
1.0
  9
$DIMDLI
 40
6.0
  9
$DIMRND
 40
0.0
  9
$DIMDLE
 40
0.0
  9
$DIMEXE
 40
1.0
  9
$DIMTP
 40
0.0
  9
$DIMTM
 40
0.0
  9
$DIMTXT
 40
3.0
  9
$DIMCEN
 40
1.5
  9
$DIMTSZ
 40
0.0
  9
$DIMTOL
 70
     0
  9
$DIMLIM
 70
     0
  9
$DIMTIH
 70
     1
  9
$DIMTOH
 70
     1
  9
$DIMSE1
 70
     0
  9
$DIMSE2
 70
     0
  9
$DIMTAD
 70
     0
  9
$DIMZIN
 70
     0
  9
$DIMBLK
  1

  9
$DIMASO
 70
     1
  9
$DIMSHO
 70
     0
  9
$DIMPOST
  1

  9
$DIMAPOST
  1

  9
$DIMALT
 70
     0
  9
$DIMALTD
 70
     2
  9
$DIMALTF
 40
25.4
  9
$DIMLFAC
 40
1.0
  9
$DIMTOFL
 70
     1
  9
$DIMTVP
 40
0.0
  9
$DIMTIX
 70
     0
  9
$DIMSOXD
 70
     0
  9
$DIMSAH
 70
     0
  9
$DIMBLK1
  1

  9
$DIMBLK2
  1

  9
$DIMSTYLE
  2
Standard
  9
$DIMCLRD
 70
     0
  9
$DIMCLRE
 70
     0
  9
$DIMCLRT
 70
     0
  9
$DIMTFAC
 40
1.0
  9
$DIMGAP
 40
0.09
  9
$DIMJUST
 70
     0
  9
$DIMSD1
 70
     0
  9
$DIMSD2
 70
     0
  9
$DIMTOLJ
 70
     1
  9
$DIMTZIN
 70
     0
  9
$DIMALTZ
 70
     0
  9
$DIMALTTZ
 70
     0
  9
$DIMUPT
 70
     0
  9
$DIMDEC
 70
     8
  9
$DIMTDEC
 70
     8
  9
$DIMALTU
 70
     2
  9
$DIMALTTD
 70
     2
  9
$DIMTXSTY
  7
STANDARD
  9
$DIMAUNIT
 70
     0
  9
$DIMADEC
 70
     0
  9
$DIMALTRND
 40
0.0
  9
$DIMAZIN
 70
     0
  9
$DIMDSEP
 70
    46
  9
$DIMATFIT
 70
     3
  9
$DIMFRAC
 70
     0
  9
$DIMLDRBLK
  1

  9
$DIMLUNIT
 70
     2
  9
$DIMLWD
 70
    -2
  9
$DIMLWE
 70
    -2
  9
$DIMTMOVE
 70
     2
  9
$LUNITS
 70
     2
  9
$LUPREC
 70
     4
  9
$SKETCHINC
 40
0.5
  9
$FILLETRAD
 40
0.0
  9
$AUNITS
 70
     0
  9
$AUPREC
 70
     0
  9
$MENU
  1
ACAD
  9
$ELEVATION
 40
0.0
  9
$PELEVATION
 40
0.0
  9
$THICKNESS
 40
0.0
  9
$LIMCHECK
 70
     0
  9
$CHAMFERA
 40
0.0
  9
$CHAMFERB
 40
0.0
  9
$CHAMFERC
 40
0.0
  9
$CHAMFERD
 40
0.0
  9
$SKPOLY
 70
     0
  9
$TDCREATE
 40
2444975.333333334
  9
$TDUCREATE
 40
2444975.000000000
  9
$TDUPDATE
 40
2454358.449873472
  9
$TDUUPDATE
 40
2454358.116540139
  9
$TDINDWG
 40
0.1330492130
  9
$TDUSRTIMER
 40
0.0000000000
  9
$USRTIMER
 70
     0
  9
$ANGBASE
 50
0.0
  9
$ANGDIR
 70
     0
  9
$PDMODE
 70
   171
  9
$PDSIZE
 40
0.001
  9
$PLINEWID
 40
0.0
  9
$SPLFRAME
 70
     0
  9
$SPLINETYPE
 70
     6
  9
$SPLINESEGS
 70
     8
  9
$HANDSEED
  5
5DC6
  9
$SURFTAB1
 70
     6
  9
$SURFTAB2
 70
     6
  9
$SURFTYPE
 70
     6
  9
$SURFU
 70
     6
  9
$SURFV
 70
     6
  9
$UCSBASE
  2

  9
$UCSNAME
  2

  9
$UCSORG
 10
0.0
 20
0.0
 30
0.0
  9
$UCSXDIR
 10
1.0
 20
0.0
 30
0.0
  9
$UCSYDIR
 10
0.0
 20
1.0
 30
0.0
  9
$UCSORTHOREF
  2

  9
$UCSORTHOVIEW
 70
     1
  9
$UCSORGTOP
 10
0.0
 20
0.0
 30
0.0
  9
$UCSORGBOTTOM
 10
0.0
 20
0.0
 30
0.0
  9
$UCSORGLEFT
 10
0.0
 20
0.0
 30
0.0
  9
$UCSORGRIGHT
 10
0.0
 20
0.0
 30
0.0
  9
$UCSORGFRONT
 10
0.0
 20
0.0
 30
0.0
  9
$UCSORGBACK
 10
0.0
 20
0.0
 30
0.0
  9
$PUCSBASE
  2

  9
$PUCSNAME
  2

  9
$PUCSORG
 10
0.0
 20
0.0
 30
0.0
  9
$PUCSXDIR
 10
1.0
 20
0.0
 30
0.0
  9
$PUCSYDIR
 10
0.0
 20
1.0
 30
0.0
  9
$PUCSORTHOREF
  2

  9
$PUCSORTHOVIEW
 70
     0
  9
$PUCSORGTOP
 10
0.0
 20
0.0
 30
0.0
  9
$PUCSORGBOTTOM
 10
0.0
 20
0.0
 30
0.0
  9
$PUCSORGLEFT
 10
0.0
 20
0.0
 30
0.0
  9
$PUCSORGRIGHT
 10
0.0
 20
0.0
 30
0.0
  9
$PUCSORGFRONT
 10
0.0
 20
0.0
 30
0.0
  9
$PUCSORGBACK
 10
0.0
 20
0.0
 30
0.0
  9
$USERI1
 70
     0
  9
$USERI2
 70
     0
  9
$USERI3
 70
     0
  9
$USERI4
 70
     0
  9
$USERI5
 70
     0
  9
$USERR1
 40
0.0
  9
$USERR2
 40
0.0
  9
$USERR3
 40
0.0
  9
$USERR4
 40
0.0
  9
$USERR5
 40
0.0
  9
$WORLDVIEW
 70
     1
  9
$SHADEDGE
 70
     3
  9
$SHADEDIF
 70
    70
  9
$TILEMODE
 70
     1
  9
$MAXACTVP
 70
    48
  9
$PINSBASE
 10
0.0
 20
0.0
 30
0.0
  9
$PLIMCHECK
 70
     0
  9
$PEXTMIN
 10
1.000000000000000E+20
 20
1.000000000000000E+20
 30
1.000000000000000E+20
  9
$PEXTMAX
 10
-1.000000000000000E+20
 20
-1.000000000000000E+20
 30
-1.000000000000000E+20
  9
$PLIMMIN
 10
0.0
 20
0.0
  9
$PLIMMAX
 10
12.0
 20
9.0
  9
$UNITMODE
 70
     0
  9
$VISRETAIN
 70
     1
  9
$PLINEGEN
 70
     0
  9
$PSLTSCALE
 70
     0
  9
$TREEDEPTH
 70
  3020
  9
$CMLSTYLE
  2
Standard
  9
$CMLJUST
 70
     0
  9
$CMLSCALE
 40
1.0
  9
$PROXYGRAPHICS
 70
     1
  9
$MEASUREMENT
 70
     0
  9
$CELWEIGHT
370
    -1
  9
$ENDCAPS
280
     0
  9
$JOINSTYLE
280
     0
  9
$LWDISPLAY
290
     0
  9
$INSUNITS
 70
     0
  9
$HYPERLINKBASE
  1

  9
$STYLESHEET
  1

  9
$XEDIT
290
     1
  9
$CEPSNTYPE
380
     0
  9
$PSTYLEMODE
290
     1
  9
$FINGERPRINTGUID
  2
{77095E5F-9CE7-11D7-970D-0040F4541FA8}
  9
$VERSIONGUID
  2
{E61F15FC-33FD-496D-887C-14FC39E05F44}
  9
$EXTNAMES
290
     1
  9
$PSVPSCALE
 40
0.0
  9
$OLESTARTUP
290
     0
  0
ENDSEC
  0
SECTION
  2
CLASSES
  0
CLASS
  1
ACDBDICTIONARYWDFLT
  2
AcDbDictionaryWithDefault
  3
ObjectDBX Classes
 90
        0
280
     0
281
     0
  0
CLASS
  1
ACDBPLACEHOLDER
  2
AcDbPlaceHolder
  3
ObjectDBX Classes
 90
        0
280
     0
281
     0
  0
CLASS
  1
LAYOUT
  2
AcDbLayout
  3
ObjectDBX Classes
 90
        0
280
     0
281
     0
  0
CLASS
  1
DICTIONARYVAR
  2
AcDbDictionaryVar
  3
ObjectDBX Classes
 90
        0
280
     0
281
     0
  0
CLASS
  1
PLOTSETTINGS
  2
AcDbPlotSettings
  3
ObjectDBX Classes
 90
        0
280
     0
281
     0
  0
CLASS
  1
TABLESTYLE
  2
AcDbTableStyle
  3
ObjectDBX Classes
 90
     4095
280
     0
281
     0
  0
CLASS
  1
SORTENTSTABLE
  2
AcDbSortentsTable
  3
ObjectDBX Classes
 90
    32768
280
     0
281
     0
  0
CLASS
  1
MATERIAL
  2
AcDbMaterial
  3
ObjectDBX Classes
 90
     1024
280
     0
281
     0
  0
CLASS
  1
VISUALSTYLE
  2
AcDbVisualStyle
  3
ObjectDBX Classes
 90
     4095
280
     0
281
     0
  0
ENDSEC
  0
SECTION
  2
TABLES
  0
TABLE
  2
VPORT
  5
8
330
0
100
AcDbSymbolTable
 70
     1
  0
VPORT
  5
5D6E
330
8
100
AcDbSymbolTableRecord
100
AcDbViewportTableRecord
  2
*Active
 70
     0
 10
0.0
 20
0.0
 11
1.0
 21
1.0
 12
22.85465574657272
 22
643.1859302895936
 13
457.9999999999997
 23
1082.0
 14
10.0
 24
10.0
 15
10.0
 25
10.0
 16
0.0
 26
0.0
 36
1.0
 17
107.071152744213
 27
-58.8136900784616
 37
-31.43770723475032
 40
228.0059930698819
 41
1.981617647058823
 42
1.0
 43
-58.8136900784616
 44
-58.8136900784616
 50
0.0
 51
0.0
 71
     0
 72
 20000
 73
     1
 74
     1
 75
     0
 76
     0
 77
     0
 78
     0
281
     0
 65
     1
110
0.0
120
0.0
130
0.0
111
1.0
121
0.0
131
0.0
112
0.0
122
1.0
132
0.0
 79
     0
146
0.0
  0
ENDTAB
  0
TABLE
  2
LTYPE
  5
5
330
0
100
AcDbSymbolTable
 70
     6
  0
LTYPE
  5
13
330
5
100
AcDbSymbolTableRecord
100
AcDbLinetypeTableRecord
  2
ByBlock
 70
     0
  3

 72
    65
 73
     0
 40
0.0
  0
LTYPE
  5
14
330
5
100
AcDbSymbolTableRecord
100
AcDbLinetypeTableRecord
  2
ByLayer
 70
     0
  3

 72
    65
 73
     0
 40
0.0
  0
LTYPE
  5
15
330
5
100
AcDbSymbolTableRecord
100
AcDbLinetypeTableRecord
  2
CONTINUOUS
 70
     0
  3
連續線 ________________________
 72
    65
 73
     2
 40
200000.0
 49
200000.0
 74
     0
 49
0.0
 74
     0
  0
LTYPE
  5
225
330
5
100
AcDbSymbolTableRecord
100
AcDbLinetypeTableRecord
  2
BYBLOCK
 70
     0
  3
Solid line
 72
    65
 73
     0
 40
0.0
  0
LTYPE
  5
226
330
5
100
AcDbSymbolTableRecord
100
AcDbLinetypeTableRecord
  2
BYLAYER
 70
     0
  3
Solid line
 72
    65
 73
     0
 40
0.0
  0
LTYPE
  5
413C
330
5
100
AcDbSymbolTableRecord
100
AcDbLinetypeTableRecord
  2
CENTER2
 70
     0
  3
Center (.5x) ___ _ ___ _ ___ _ ___ _ ___ _ ___
 72
    65
 73
     4
 40
28.575
 49
19.05
 74
     0
 49
-3.174999999999999
 74
     0
 49
3.174999999999999
 74
     0
 49
-3.174999999999999
 74
     0
  0
LTYPE
  5
413D
330
5
100
AcDbSymbolTableRecord
100
AcDbLinetypeTableRecord
  2
DASHED2
 70
     0
  3
Dashed (.5x) _ _ _ _ _ _ _ _ _ _ _ _ _ _ _ _ _
 72
    65
 73
     2
 40
9.524999999999998
 49
6.349999999999999
 74
     0
 49
-3.174999999999999
 74
     0
  0
ENDTAB
  0
TABLE
  2
LAYER
  5
2
102
{ACAD_XDICTIONARY
360
43C2
102
}
330
0
100
AcDbSymbolTable
 70
     6
  0
LAYER
  5
10
330
2
100
AcDbSymbolTableRecord
100
AcDbLayerTableRecord
  2
0
 70
     0
 62
     7
  6
CONTINUOUS
370
    -3
390
F
  0
LAYER
  5
413E
330
2
100
AcDbSymbolTableRecord
100
AcDbLayerTableRecord
  2
指線
 70
     0
 62
     3
  6
CONTINUOUS
370
    15
390
F
  0
LAYER
  5
413F
330
2
100
AcDbSymbolTableRecord
100
AcDbLayerTableRecord
  2
中心線
 70
     0
 62
     4
  6
CENTER2
370
    20
390
F
  0
LAYER
  5
4140
330
2
100
AcDbSymbolTableRecord
100
AcDbLayerTableRecord
  2
虛線
 70
     0
 62
     6
  6
DASHED2
290
     0
370
    -3
390
F
  0
LAYER
  5
43B4
330
2
100
AcDbSymbolTableRecord
100
AcDbLayerTableRecord
  2
建構線
 70
     0
 62
     1
  6
CONTINUOUS
370
    -3
390
F
  0
LAYER
  5
5520
330
2
100
AcDbSymbolTableRecord
100
AcDbLayerTableRecord
  2
Defpoints
 70
     0
 62
     7
  6
CONTINUOUS
290
     0
370
    -3
390
F
  0
ENDTAB
  0
TABLE
  2
STYLE
  5
3
330
0
100
AcDbSymbolTable
 70
     1
  0
STYLE
  5
11
330
3
100
AcDbSymbolTableRecord
100
AcDbTextStyleTableRecord
  2
STANDARD
 70
     0
 40
0.0
 41
1.0
 50
0.0
 71
     0
 42
3.0
  3

  4

  0
ENDTAB
  0
TABLE
  2
VIEW
  5
6
330
0
100
AcDbSymbolTable
 70
     0
  0
ENDTAB
  0
TABLE
  2
UCS
  5
7
330
0
100
AcDbSymbolTable
 70
     0
  0
ENDTAB
  0
TABLE
  2
APPID
  5
9
330
0
100
AcDbSymbolTable
 70
     4
  0
APPID
  5
12
330
9
100
AcDbSymbolTableRecord
100
AcDbRegAppTableRecord
  2
ACAD
 70
     0
  0
APPID
  5
230
330
9
100
AcDbSymbolTableRecord
100
AcDbRegAppTableRecord
  2
TCAD
 70
     0
  0
APPID
  5
4142
330
9
100
AcDbSymbolTableRecord
100
AcDbRegAppTableRecord
  2
CONTENTBLOCKICON
 70
     0
  0
APPID
  5
530C
330
9
100
AcDbSymbolTableRecord
100
AcDbRegAppTableRecord
  2
pntflag
 70
     0
  0
ENDTAB
  0
TABLE
  2
DIMSTYLE
  5
A
330
0
100
AcDbSymbolTable
 70
     2
100
AcDbDimStyleTable
 71
     1
340
3C9D
  0
DIMSTYLE
105
3C9D
330
A
100
AcDbSymbolTableRecord
100
AcDbDimStyleTableRecord
  2
Standard
 70
     0
271
     8
272
     8
340
11
  0
ENDTAB
  0
TABLE
  2
BLOCK_RECORD
  5
1
330
0
100
AcDbSymbolTable
 70
     1
  0
BLOCK_RECORD
  5
1E
102
{ACAD_XDICTIONARY
360
3D1E
102
}
330
1
100
AcDbSymbolTableRecord
100
AcDbBlockTableRecord
  2
*Model_Space
340
21
  0
BLOCK_RECORD
  5
1A
102
{ACAD_XDICTIONARY
360
3D20
102
}
330
1
100
AcDbSymbolTableRecord
100
AcDbBlockTableRecord
  2
*Paper_Space
340
1D
  0
ENDTAB
  0
ENDSEC
  0
SECTION
  2
BLOCKS
  0
BLOCK
  5
254
330
1E
100
AcDbEntity
  8
0
100
AcDbBlockBegin
  2
*Model_Space
 70
     0
 10
0.0
 20
0.0
 30
0.0
  3
*Model_Space
  1

  0
ENDBLK
  5
255
330
1E
100
AcDbEntity
  8
0
100
AcDbBlockEnd
  0
BLOCK
  5
252
330
1A
100
AcDbEntity
 67
     1
  8
0
100
AcDbBlockBegin
  2
*Paper_Space
 70
     0
 10
0.0
 20
0.0
 30
0.0
  3
*Paper_Space
  1

  0
ENDBLK
  5
253
330
1A
100
AcDbEntity
 67
     1
  8
0
100
AcDbBlockEnd
  0
ENDSEC
  0
SECTION
  2
ENTITIES
  0
MTEXT
  5
413A
330
1E
100
AcDbEntity
  8
0
100
AcDbMText
 10
-16.73181101409989
 20
510.0191217931246
 30
0.0
 40
7.800000159341863
 41
100.6095
 71
     1
 72
     5
  1
\A1;{\fTimes New Roman|b0|i0|c0|p18;HG\fTimes New Roman|b0|i0|c238|p18;L\fTimes New Roman|b0|i0|c0|p18;35CA\PC : 5050 kgf\PC\fProxy 1|b0|i0|c0|p2;\H0.7x;\S^ 0;\fTimes New Roman|b0|i0|c0|p18;\H1.429x;: 10490 kgf}
 73
     1
 44
1.0
1001
ACAD
1000
MTEXTBEGIN
1070
    73
1070
     1
1070
    44
1040
1.0
1070
    74
1070
     0
1000
MTEXTEND
  0
LINE
  5
4F08
330
1E
100
AcDbEntity
  8
0
 48
0.27
100
AcDbLine
 10
124.0020562811432
 20
549.3262751418042
 30
0.0
 11
127.4429809831399
 21
549.3262751418042
 31
0.0
  0
LINE
  5
4F09
330
1E
100
AcDbEntity
  8
0
 48
0.27
100
AcDbLine
 10
125.1901039102912
 20
547.8577275197198
 30
0.0
 11
127.4429809831399
 21
547.8577275197198
 31
0.0
  0
LINE
  5
4F0A
330
1E
100
AcDbEntity
  8
0
 48
0.27
100
AcDbLine
 10
124.0869172678985
 20
545.6277275197199
 30
0.0
 11
127.4429809831399
 21
545.6277275197199
 31
0.0
  0
LINE
  5
4F0B
330
1E
100
AcDbEntity
  8
0
 48
0.27
100
AcDbLine
 10
125.4446858396529
 20
544.1701798976352
 30
0.0
 11
127.4429809831399
 21
544.1701798976352
 31
0.0
  0
LINE
  5
4F0C
330
1E
100
AcDbEntity
  8
0
 48
0.27
100
AcDbLine
 10
122.9837295946012
 20
540.4277275197198
 30
0.0
 11
127.4429809831399
 21
540.4277275197198
 31
0.0
  0
LINE
  5
4F0D
330
1E
100
AcDbEntity
  8
0
 48
0.27
100
AcDbLine
 10
126.0387096542269
 20
534.9477275197199
 30
0.0
 11
127.4429809831399
 21
534.9477275197199
 31
0.0
  0
LINE
  5
4F0E
330
1E
100
AcDbEntity
  8
0
 48
0.27
100
AcDbLine
 10
124.1717772237492
 20
529.7477075197198
 30
0.0
 11
290.2859619617744
 21
529.7477075197198
 31
0.0
  0
LINE
  5
4F0F
330
1E
100
AcDbEntity
  8
0
 48
0.27
100
AcDbLine
 10
125.6144067822591
 20
524.2477275197199
 30
0.0
 11
290.2859619617744
 21
524.2477275197199
 31
0.0
  0
LINE
  5
4F10
330
1E
100
AcDbEntity
  8
0
 48
0.27
100
AcDbLine
 10
90.2859619617743
 20
522.74772751972
 30
0.0
 11
290.2859619617744
 21
522.7477275197195
 31
0.0
  0
LINE
  5
4F11
330
1E
100
AcDbEntity
  8
0
 48
0.27
100
AcDbLine
 10
90.2859619617743
 20
551.7477275197197
 30
0.0
 11
127.4429809831399
 21
551.7477275197197
 31
0.0
  0
LINE
  5
4F12
330
1E
100
AcDbEntity
  8
建構線
 48
0.27
100
AcDbLine
 10
124.1717772237493
 20
529.7477075197198
 30
0.0
 11
125.6144067822592
 21
524.2477275197199
 31
0.0
  0
LINE
  5
4F13
330
1E
100
AcDbEntity
  8
中心線
 48
0.27
100
AcDbLine
 10
110.2859619617743
 20
520.4477275197198
 30
0.0
 11
110.2859619617743
 21
554.0477275197199
 31
0.0
  0
LINE
  5
4F14
330
1E
100
AcDbEntity
  8
0
 48
0.27
100
AcDbLine
 10
90.28596196177435
 20
522.7477275197198
 30
0.0
 11
90.28596196177435
 21
551.7477275197198
 31
0.0
  0
LINE
  5
4F15
330
1E
100
AcDbEntity
  8
中心線
 48
0.27
100
AcDbLine
 10
110.2859619617743
 20
520.4477275197198
 30
0.0
 11
110.2859619617743
 21
554.0477275197199
 31
0.0
  0
LINE
  5
4F16
330
1E
100
AcDbEntity
  8
建構線
 48
0.27
100
AcDbLine
 10
125.6144067822592
 20
524.2477275197199
 30
0.0
 11
125.1052439544404
 21
522.7477275197198
 31
0.0
  0
LINE
  5
4F17
330
1E
100
AcDbEntity
  8
建構線
 48
0.27
100
AcDbLine
 10
126.6327344997059
 20
551.7477275197197
 30
0.0
 11
124.0020562811432
 21
549.3262751418042
 31
0.0
  0
LINE
  5
4F18
330
1E
100
AcDbEntity
  8
建構線
 48
0.27
100
AcDbLine
 10
122.9837295946012
 20
540.4277275197199
 30
0.0
 11
126.0387096542269
 21
534.9477275197199
 31
0.0
  0
LINE
  5
4F19
330
1E
100
AcDbEntity
  8
建構線
 48
0.27
100
AcDbLine
 10
126.0387096542269
 20
534.9477275197199
 30
0.0
 11
124.1717772237493
 21
529.7477075197198
 31
0.0
  0
LINE
  5
4F1A
330
1E
100
AcDbEntity
  8
建構線
 48
0.27
100
AcDbLine
 10
125.4446858396528
 20
544.1701798976352
 30
0.0
 11
122.9837295946012
 21
540.4277275197199
 31
0.0
  0
LINE
  5
4F1B
330
1E
100
AcDbEntity
  8
建構線
 48
0.27
100
AcDbLine
 10
124.0020562811432
 20
549.3262751418042
 30
0.0
 11
125.1901039102912
 21
547.8577275197198
 31
0.0
  0
LINE
  5
4F1C
330
1E
100
AcDbEntity
  8
建構線
 48
0.27
100
AcDbLine
 10
124.0869172678985
 20
545.6277275197199
 30
0.0
 11
125.4446858396528
 21
544.1701798976352
 31
0.0
  0
LINE
  5
4F1D
330
1E
100
AcDbEntity
  8
建構線
 48
0.27
100
AcDbLine
 10
125.1901039102912
 20
547.8577275197198
 30
0.0
 11
124.0869172678985
 21
545.6277275197199
 31
0.0
  0
LINE
  5
4F1E
330
1E
100
AcDbEntity
  8
中心線
 48
0.27
100
AcDbLine
 10
190.2859619617743
 20
520.4477275197198
 30
0.0
 11
190.2859619617743
 21
531.5524598155064
 31
0.0
  0
LINE
  5
4F20
330
1E
100
AcDbEntity
  8
0
 48
0.27
100
AcDbLine
 10
290.2859619617744
 20
522.7477275197197
 30
0.0
 11
290.2859619617744
 21
551.7477275197198
 31
0.0
  0
LINE
  5
4F26
330
1E
100
AcDbEntity
  8
虛線
 48
0.27
100
AcDbLine
 10
274.7859619617254
 20
539.4477275197199
 30
0.0
 11
274.7859619617254
 21
523.9477275197199
 31
0.0
  0
LINE
  5
4F27
330
1E
100
AcDbEntity
  8
虛線
 48
0.27
100
AcDbLine
 10
274.7859619618234
 20
539.4477275197199
 30
0.0
 11
274.7859619618234
 21
523.9477275197199
 31
0.0
  0
LINE
  5
4F28
330
1E
100
AcDbEntity
  8
虛線
 48
0.27
100
AcDbLine
 10
277.2859619618234
 20
551.3477275197199
 30
0.0
 11
277.2859619618234
 21
539.7477275197198
 31
0.0
  0
LINE
  5
4F29
330
1E
100
AcDbEntity
  8
虛線
 48
0.27
100
AcDbLine
 10
277.2859619617254
 20
551.3477275197199
 30
0.0
 11
277.2859619617254
 21
539.7477275197198
 31
0.0
  0
LINE
  5
4F2A
330
1E
100
AcDbEntity
  8
虛線
 48
0.27
100
AcDbLine
 10
263.2859619618234
 20
539.7477275197198
 30
0.0
 11
277.2859619618234
 21
539.7477275197198
 31
0.0
  0
LINE
  5
4F2B
330
1E
100
AcDbEntity
  8
虛線
 48
0.27
100
AcDbLine
 10
277.2859619617254
 20
539.7477275197198
 30
0.0
 11
263.2859619617254
 21
539.7477275197198
 31
0.0
  0
LINE
  5
4F2C
330
1E
100
AcDbEntity
  8
虛線
 48
0.27
100
AcDbLine
 10
265.7859619618234
 20
539.4477275197199
 30
0.0
 11
274.7859619618234
 21
539.4477275197199
 31
0.0
  0
LINE
  5
4F2D
330
1E
100
AcDbEntity
  8
虛線
 48
0.27
100
AcDbLine
 10
274.7859619617254
 20
539.4477275197199
 30
0.0
 11
265.7859619617254
 21
539.4477275197199
 31
0.0
  0
LINE
  5
4F2E
330
1E
100
AcDbEntity
  8
虛線
 48
0.27
100
AcDbLine
 10
275.0859619618235
 20
539.7477275197198
 30
0.0
 11
274.7859619618234
 21
539.4477275197199
 31
0.0
  0
LINE
  5
4F2F
330
1E
100
AcDbEntity
  8
虛線
 48
0.27
100
AcDbLine
 10
275.0859619617255
 20
539.7477275197198
 30
0.0
 11
274.7859619617254
 21
539.4477275197199
 31
0.0
  0
LINE
  5
4F30
330
1E
100
AcDbEntity
  8
虛線
 48
0.27
100
AcDbLine
 10
263.2859619618234
 20
551.3477275197199
 30
0.0
 11
263.2859619618234
 21
539.7477275197198
 31
0.0
  0
LINE
  5
4F31
330
1E
100
AcDbEntity
  8
虛線
 48
0.27
100
AcDbLine
 10
263.2859619617254
 20
551.3477275197199
 30
0.0
 11
263.2859619617254
 21
539.7477275197198
 31
0.0
  0
LINE
  5
4F32
330
1E
100
AcDbEntity
  8
虛線
 48
0.27
100
AcDbLine
 10
265.4859619618233
 20
539.7477275197198
 30
0.0
 11
265.7859619618234
 21
539.4477275197199
 31
0.0
  0
LINE
  5
4F33
330
1E
100
AcDbEntity
  8
虛線
 48
0.27
100
AcDbLine
 10
265.4859619617253
 20
539.7477275197198
 30
0.0
 11
265.7859619617254
 21
539.4477275197199
 31
0.0
  0
LINE
  5
4F34
330
1E
100
AcDbEntity
  8
虛線
 48
0.27
100
AcDbLine
 10
265.7859619617254
 20
539.4477275197199
 30
0.0
 11
265.7859619617254
 21
523.9477275197199
 31
0.0
  0
LINE
  5
4F35
330
1E
100
AcDbEntity
  8
虛線
 48
0.27
100
AcDbLine
 10
265.7859619618234
 20
539.4477275197199
 30
0.0
 11
265.7859619618234
 21
523.9477275197199
 31
0.0
  0
LINE
  5
4F36
330
1E
100
AcDbEntity
  8
虛線
 48
0.27
100
AcDbLine
 10
277.2859619618234
 20
551.3477275197199
 30
0.0
 11
263.2859619618234
 21
551.3477275197199
 31
0.0
  0
LINE
  5
4F37
330
1E
100
AcDbEntity
  8
虛線
 48
0.27
100
AcDbLine
 10
263.2859619617254
 20
551.3477275197199
 30
0.0
 11
277.2859619617254
 21
551.3477275197199
 31
0.0
  0
LINE
  5
4F38
330
1E
100
AcDbEntity
  8
虛線
 48
0.27
100
AcDbLine
 10
277.2859619618234
 20
551.3477275197199
 30
0.0
 11
277.5169020694993
 21
551.7477275197198
 31
0.0
  0
LINE
  5
4F39
330
1E
100
AcDbEntity
  8
虛線
 48
0.27
100
AcDbLine
 10
277.2859619617254
 20
551.3477275197199
 30
0.0
 11
277.5169020694013
 21
551.7477275197198
 31
0.0
  0
LINE
  5
4F3A
330
1E
100
AcDbEntity
  8
虛線
 48
0.27
100
AcDbLine
 10
263.2859619618234
 20
551.3477275197199
 30
0.0
 11
263.0550218541475
 21
551.7477275197198
 31
0.0
  0
LINE
  5
4F3B
330
1E
100
AcDbEntity
  8
虛線
 48
0.27
100
AcDbLine
 10
263.2859619617254
 20
551.3477275197199
 30
0.0
 11
263.0550218540495
 21
551.7477275197198
 31
0.0
  0
LINE
  5
4F3C
330
1E
100
AcDbEntity
  8
虛線
 48
0.27
100
AcDbLine
 10
265.7859619618234
 20
523.9477275197199
 30
0.0
 11
274.7859619618234
 21
523.9477275197199
 31
0.0
  0
LINE
  5
4F3D
330
1E
100
AcDbEntity
  8
虛線
 48
0.27
100
AcDbLine
 10
274.7859619617254
 20
523.9477275197199
 30
0.0
 11
265.7859619617254
 21
523.9477275197199
 31
0.0
  0
LINE
  5
4F3E
330
1E
100
AcDbEntity
  8
虛線
 48
0.27
100
AcDbLine
 10
274.7859619618234
 20
523.9477275197199
 30
0.0
 11
275.9859636761117
 21
522.7477275197197
 31
0.0
  0
LINE
  5
4F3F
330
1E
100
AcDbEntity
  8
虛線
 48
0.27
100
AcDbLine
 10
264.5859602475351
 20
522.7477275197197
 30
0.0
 11
265.7859619618234
 21
523.9477275197199
 31
0.0
  0
LINE
  5
4F40
330
1E
100
AcDbEntity
  8
虛線
 48
0.27
100
AcDbLine
 10
194.7859619617253
 20
530.2477275039871
 30
0.0
 11
194.7859619617253
 21
523.9477275197199
 31
0.0
  0
LINE
  5
4F4A
330
1E
100
AcDbEntity
  8
虛線
 48
0.27
100
AcDbLine
 10
185.7859619617253
 20
530.2477275039871
 30
0.0
 11
185.7859619617253
 21
523.9477275197199
 31
0.0
  0
LINE
  5
4F50
330
1E
100
AcDbEntity
  8
虛線
 48
0.27
100
AcDbLine
 10
185.7859619618233
 20
523.9477275197199
 30
0.0
 11
194.7859619618233
 21
523.9477275197199
 31
0.0
  0
LINE
  5
4F52
330
1E
100
AcDbEntity
  8
虛線
 48
0.27
100
AcDbLine
 10
194.7859619618233
 20
523.9477275197199
 30
0.0
 11
195.9859636761117
 21
522.7477275197197
 31
0.0
  0
LINE
  5
4F53
330
1E
100
AcDbEntity
  8
虛線
 48
0.27
100
AcDbLine
 10
184.585960247535
 20
522.7477275197197
 30
0.0
 11
185.7859619618233
 21
523.9477275197199
 31
0.0
  0
LINE
  5
4F5A
330
1E
100
AcDbEntity
  8
0
 48
0.27
100
AcDbLine
 10
114.7859619617253
 20
539.4477275197199
 30
0.0
 11
114.7859619617253
 21
523.9477275197199
 31
0.0
  0
LINE
  5
4F5B
330
1E
100
AcDbEntity
  8
0
 48
0.27
100
AcDbLine
 10
114.7859619618233
 20
539.4477275197199
 30
0.0
 11
114.7859619618233
 21
523.9477275197199
 31
0.0
  0
LINE
  5
4F5C
330
1E
100
AcDbEntity
  8
0
 48
0.27
100
AcDbLine
 10
117.2859619618233
 20
551.3477275197199
 30
0.0
 11
117.2859619618233
 21
539.7477275197198
 31
0.0
  0
LINE
  5
4F5D
330
1E
100
AcDbEntity
  8
0
 48
0.27
100
AcDbLine
 10
117.2859619617253
 20
551.3477275197199
 30
0.0
 11
117.2859619617253
 21
539.7477275197198
 31
0.0
  0
LINE
  5
4F5E
330
1E
100
AcDbEntity
  8
0
 48
0.27
100
AcDbLine
 10
103.2859619618233
 20
539.7477275197198
 30
0.0
 11
117.2859619618233
 21
539.7477275197198
 31
0.0
  0
LINE
  5
4F5F
330
1E
100
AcDbEntity
  8
0
 48
0.27
100
AcDbLine
 10
117.2859619617253
 20
539.7477275197198
 30
0.0
 11
103.2859619617253
 21
539.7477275197198
 31
0.0
  0
LINE
  5
4F60
330
1E
100
AcDbEntity
  8
0
 48
0.27
100
AcDbLine
 10
105.7859619618233
 20
539.4477275197199
 30
0.0
 11
114.7859619618233
 21
539.4477275197199
 31
0.0
  0
LINE
  5
4F61
330
1E
100
AcDbEntity
  8
0
 48
0.27
100
AcDbLine
 10
114.7859619617253
 20
539.4477275197199
 30
0.0
 11
105.7859619617253
 21
539.4477275197199
 31
0.0
  0
LINE
  5
4F62
330
1E
100
AcDbEntity
  8
0
 48
0.27
100
AcDbLine
 10
115.0859619618234
 20
539.7477275197198
 30
0.0
 11
114.7859619618233
 21
539.4477275197199
 31
0.0
  0
LINE
  5
4F63
330
1E
100
AcDbEntity
  8
0
 48
0.27
100
AcDbLine
 10
115.0859619617254
 20
539.7477275197198
 30
0.0
 11
114.7859619617253
 21
539.4477275197199
 31
0.0
  0
LINE
  5
4F64
330
1E
100
AcDbEntity
  8
0
 48
0.27
100
AcDbLine
 10
105.7859619617253
 20
539.4477275197199
 30
0.0
 11
105.7859619617253
 21
523.9477275197199
 31
0.0
  0
LINE
  5
4F65
330
1E
100
AcDbEntity
  8
0
 48
0.27
100
AcDbLine
 10
105.7859619618233
 20
539.4477275197199
 30
0.0
 11
105.7859619618233
 21
523.9477275197199
 31
0.0
  0
LINE
  5
4F66
330
1E
100
AcDbEntity
  8
0
 48
0.27
100
AcDbLine
 10
103.2859619618233
 20
551.3477275197199
 30
0.0
 11
103.2859619618233
 21
539.7477275197198
 31
0.0
  0
LINE
  5
4F67
330
1E
100
AcDbEntity
  8
0
 48
0.27
100
AcDbLine
 10
103.2859619617253
 20
551.3477275197199
 30
0.0
 11
103.2859619617253
 21
539.7477275197198
 31
0.0
  0
LINE
  5
4F68
330
1E
100
AcDbEntity
  8
0
 48
0.27
100
AcDbLine
 10
105.4859619618232
 20
539.7477275197198
 30
0.0
 11
105.7859619618233
 21
539.4477275197199
 31
0.0
  0
LINE
  5
4F69
330
1E
100
AcDbEntity
  8
0
 48
0.27
100
AcDbLine
 10
105.4859619617253
 20
539.7477275197198
 30
0.0
 11
105.7859619617253
 21
539.4477275197199
 31
0.0
  0
LINE
  5
4F6A
330
1E
100
AcDbEntity
  8
0
 48
0.27
100
AcDbLine
 10
105.7859619618233
 20
523.9477275197199
 30
0.0
 11
114.7859619618233
 21
523.9477275197199
 31
0.0
  0
LINE
  5
4F6B
330
1E
100
AcDbEntity
  8
0
 48
0.27
100
AcDbLine
 10
114.7859619617253
 20
523.9477275197199
 30
0.0
 11
105.7859619617253
 21
523.9477275197199
 31
0.0
  0
LINE
  5
4F6C
330
1E
100
AcDbEntity
  8
0
 48
0.27
100
AcDbLine
 10
114.7859619618233
 20
523.9477275197199
 30
0.0
 11
115.9859636761115
 21
522.7477275197198
 31
0.0
  0
LINE
  5
4F6D
330
1E
100
AcDbEntity
  8
0
 48
0.27
100
AcDbLine
 10
104.5859602475352
 20
522.7477275197198
 30
0.0
 11
105.7859619618233
 21
523.9477275197199
 31
0.0
  0
LINE
  5
4F6E
330
1E
100
AcDbEntity
  8
0
 48
0.27
100
AcDbLine
 10
117.2859619618233
 20
551.3477275197199
 30
0.0
 11
103.2859619618233
 21
551.3477275197199
 31
0.0
  0
LINE
  5
4F6F
330
1E
100
AcDbEntity
  8
0
 48
0.27
100
AcDbLine
 10
103.2859619617253
 20
551.3477275197199
 30
0.0
 11
117.2859619617253
 21
551.3477275197199
 31
0.0
  0
LINE
  5
4F70
330
1E
100
AcDbEntity
  8
0
 48
0.27
100
AcDbLine
 10
117.2859619618233
 20
551.3477275197199
 30
0.0
 11
117.5169020694992
 21
551.7477275197197
 31
0.0
  0
LINE
  5
4F71
330
1E
100
AcDbEntity
  8
0
 48
0.27
100
AcDbLine
 10
117.2859619617253
 20
551.3477275197199
 30
0.0
 11
117.5169020694012
 21
551.7477275197197
 31
0.0
  0
LINE
  5
4F72
330
1E
100
AcDbEntity
  8
0
 48
0.27
100
AcDbLine
 10
103.2859619618233
 20
551.3477275197199
 30
0.0
 11
103.0550218541474
 21
551.7477275197197
 31
0.0
  0
LINE
  5
4F73
330
1E
100
AcDbEntity
  8
0
 48
0.27
100
AcDbLine
 10
103.2859619617253
 20
551.3477275197199
 30
0.0
 11
103.0550218540494
 21
551.7477275197197
 31
0.0
  0
LINE
  5
4F75
330
1E
100
AcDbEntity
  8
中心線
 48
0.27
100
AcDbLine
 10
270.2859619617744
 20
520.4477275197198
 30
0.0
 11
270.2859619617744
 21
554.0477275197199
 31
0.0
  0
LINE
  5
4F76
330
1E
100
AcDbEntity
  8
0
 48
0.27
100
AcDbLine
 10
239.8429809831401
 20
551.7477275197197
 30
0.0
 11
290.2859619617744
 21
551.7477275197197
 31
0.0
  0
LINE
  5
4F77
330
1E
100
AcDbEntity
  8
0
 48
0.27
100
AcDbLine
 10
239.8429809831401
 20
549.3262751418042
 30
0.0
 11
290.2859619617744
 21
549.3262751418041
 31
0.0
  0
LINE
  5
4F78
330
1E
100
AcDbEntity
  8
0
 48
0.27
100
AcDbLine
 10
239.8429809831401
 20
545.6277275197199
 30
0.0
 11
290.2859619617744
 21
545.6277275197199
 31
0.0
  0
LINE
  5
4F79
330
1E
100
AcDbEntity
  8
0
 48
0.27
100
AcDbLine
 10
239.8429809831401
 20
544.1701798976352
 30
0.0
 11
290.2859619617744
 21
544.1701798976352
 31
0.0
  0
LINE
  5
4F7A
330
1E
100
AcDbEntity
  8
0
 48
0.27
100
AcDbLine
 10
239.8429809831401
 20
547.8577275197198
 30
0.0
 11
290.2859619617744
 21
547.8577275197197
 31
0.0
  0
LINE
  5
4F7B
330
1E
100
AcDbEntity
  8
0
 48
0.27
100
AcDbLine
 10
239.8429809831401
 20
540.4277275197198
 30
0.0
 11
290.2859619617744
 21
540.4277275197198
 31
0.0
  0
LINE
  5
4F7C
330
1E
100
AcDbEntity
  8
0
 48
0.27
100
AcDbLine
 10
239.8429809831401
 20
534.9477275197198
 30
0.0
 11
290.2859619617744
 21
534.9477275197198
 31
0.0
  0
LINE
  5
5148
330
1E
100
AcDbEntity
  8
中心線
100
AcDbLine
 10
240.1738975577785
 20
533.9977275196456
 30
0.0
 11
234.4222605833975
 21
533.9977275196456
 31
0.0
  0
LINE
  5
5149
330
1E
100
AcDbEntity
  8
0
100
AcDbLine
 10
239.2743756207656
 20
534.9977275196456
 30
0.0
 11
239.2743756207656
 21
532.9977275196456
 31
0.0
  0
ARC
  5
514A
330
1E
100
AcDbEntity
  8
0
100
AcDbCircle
 10
238.0545239419131
 20
533.0174791576626
 30
0.0
 40
1.220011576012179
100
AcDbArc
 50
285.9630221688287
 51
359.0723572120024
  0
ARC
  5
514B
330
1E
100
AcDbEntity
  8
0
100
AcDbCircle
 10
238.0545239419131
 20
534.9779758816285
 30
0.0
 40
1.220011576012179
100
AcDbArc
 50
0.9276427879976095
 51
74.03697783117127
  0
LINE
  5
514C
330
1E
100
AcDbEntity
  8
0
100
AcDbLine
 10
238.3429809831401
 20
569.2477275197127
 30
-0.0000000000000018
 11
238.3429809831401
 21
530.2477275197126
 31
-0.0000000000000018
  0
LINE
  5
514D
330
1E
100
AcDbEntity
  8
0
100
AcDbLine
 10
239.8429809831401
 20
553.1214275355128
 30
-0.0000000000000018
 11
239.8429809831401
 21
530.2477275197126
 31
-0.0000000000000018
  0
LINE
  5
514E
330
1E
100
AcDbEntity
  8
0
100
AcDbLine
 10
236.6429809831401
 20
530.2477275197126
 30
-0.0000000000000018
 11
239.8429809831401
 21
530.2477275197126
 31
-0.0000000000000018
  0
LINE
  5
5150
330
1E
100
AcDbEntity
  8
0
100
AcDbLine
 10
239.8429809831401
 20
553.1214275355128
 30
-0.0000000000000018
 11
238.3429809831401
 21
553.9874275355128
 31
-0.0000000000000018
  0
LINE
  5
5154
330
1E
100
AcDbEntity
  8
0
100
AcDbLine
 10
236.6429809831401
 20
569.2477275197127
 30
-0.0000000000000018
 11
238.3429809831401
 21
569.2477275197127
 31
-0.0000000000000018
  0
LINE
  5
5155
330
1E
100
AcDbEntity
  8
中心線
100
AcDbLine
 10
127.1120644085015
 20
533.9977275196456
 30
0.0
 11
132.8637013828825
 21
533.9977275196456
 31
0.0
  0
LINE
  5
5156
330
1E
100
AcDbEntity
  8
0
100
AcDbLine
 10
128.0115863455144
 20
534.9977275196456
 30
0.0
 11
128.0115863455144
 21
532.9977275196456
 31
0.0
  0
ARC
  5
5157
330
1E
100
AcDbEntity
  8
0
100
AcDbCircle
 10
129.2314380243669
 20
533.0174791576626
 30
0.0
 40
1.220011576012179
100
AcDbArc
 50
180.9276427879976
 51
254.0369778311712
  0
ARC
  5
5158
330
1E
100
AcDbEntity
  8
0
100
AcDbCircle
 10
129.2314380243669
 20
534.9779758816285
 30
0.0
 40
1.220011576012179
100
AcDbArc
 50
105.9630221688287
 51
179.0723572120024
  0
LINE
  5
5159
330
1E
100
AcDbEntity
  8
0
100
AcDbLine
 10
128.9429809831399
 20
569.2477275197127
 30
-0.0000000000000018
 11
128.9429809831399
 21
530.2477275197126
 31
-0.0000000000000018
  0
LINE
  5
515A
330
1E
100
AcDbEntity
  8
0
100
AcDbLine
 10
127.4429809831399
 20
553.1214275355128
 30
-0.0000000000000018
 11
127.4429809831399
 21
530.2477275197126
 31
-0.0000000000000018
  0
LINE
  5
515B
330
1E
100
AcDbEntity
  8
0
100
AcDbLine
 10
130.6429809831399
 20
530.2477275197126
 30
-0.0000000000000018
 11
127.4429809831399
 21
530.2477275197126
 31
-0.0000000000000018
  0
LINE
  5
515D
330
1E
100
AcDbEntity
  8
0
100
AcDbLine
 10
127.4429809831399
 20
553.1214275355128
 30
-0.0000000000000018
 11
128.9429809831399
 21
553.9874275355128
 31
-0.0000000000000018
  0
LINE
  5
5161
330
1E
100
AcDbEntity
  8
0
100
AcDbLine
 10
130.6429809831399
 20
569.2477275197127
 30
-0.0000000000000018
 11
128.9429809831399
 21
569.2477275197127
 31
-0.0000000000000018
  0
LINE
  5
5162
330
1E
100
AcDbEntity
  8
0
 48
0.27
100
AcDbLine
 10
143.6429809831399
 20
532.2477275197127
 30
-0.0000000000000018
 11
143.6429809831399
 21
567.2477275197127
 31
-0.0000000000000018
  0
LINE
  5
5163
330
1E
100
AcDbEntity
  8
0
 48
0.27
100
AcDbLine
 10
143.6429809831399
 20
570.7477275197186
 30
-0.0000000000000018
 11
143.6429809831399
 21
530.2477275197126
 31
-0.0000000000000018
  0
LINE
  5
5164
330
1E
100
AcDbEntity
  8
0
 48
0.27
100
AcDbLine
 10
130.6429809831399
 20
532.2477275197127
 30
-0.0000000000000018
 11
130.6429809831399
 21
567.2477275197127
 31
-0.0000000000000018
  0
LINE
  5
5165
330
1E
100
AcDbEntity
  8
0
 48
0.27
100
AcDbLine
 10
130.6429809831399
 20
532.2477275197127
 30
-0.0000000000000018
 11
143.6429809831399
 21
532.2477275197127
 31
-0.0000000000000018
  0
LINE
  5
5166
330
1E
100
AcDbEntity
  8
0
 48
0.27
100
AcDbLine
 10
130.6429809831399
 20
530.2477275197126
 30
-0.0000000000000018
 11
143.6429809831399
 21
530.2477275197126
 31
-0.0000000000000018
  0
LINE
  5
5167
330
1E
100
AcDbEntity
  8
0
 48
0.27
100
AcDbLine
 10
130.6429809831399
 20
532.2477275197127
 30
-0.0000000000000018
 11
130.6429809831399
 21
530.2477275197126
 31
-0.0000000000000018
  0
LINE
  5
5168
330
1E
100
AcDbEntity
  8
0
 48
0.27
100
AcDbLine
 10
143.6429809831399
 20
532.2477275197127
 30
-0.0000000000000018
 11
143.6429809831399
 21
530.2477275197126
 31
-0.0000000000000018
  0
LINE
  5
5169
330
1E
100
AcDbEntity
  8
中心線
 48
0.27
100
AcDbLine
 10
136.6429809831399
 20
555.1477391841127
 30
-0.0000000000000018
 11
136.6429809831399
 21
561.1477391841127
 31
-0.0000000000000018
  0
CIRCLE
  5
516A
330
1E
100
AcDbEntity
  8
0
 48
0.27
100
AcDbCircle
 10
-136.6429809831399
 20
558.1477391841128
 30
0.0000000000000018
 40
2.5
210
0.0
220
0.0
230
-1.0
  0
CIRCLE
  5
516B
330
1E
100
AcDbEntity
  8
0
 48
0.27
100
AcDbCircle
 10
-136.6429809831399
 20
558.1477391841128
 30
0.0000000000000018
 40
2.75
210
0.0
220
0.0
230
-1.0
  0
CIRCLE
  5
516C
330
1E
100
AcDbEntity
  8
0
 48
0.27
100
AcDbCircle
 10
136.6429809831399
 20
558.1477391841128
 30
-0.0000000000000018
 40
2.2
  0
LINE
  5
516D
330
1E
100
AcDbEntity
  8
中心線
 48
0.27
100
AcDbLine
 10
133.6429809831399
 20
558.1477391841128
 30
-0.0000000000000018
 11
139.6429809831399
 21
558.1477391841128
 31
-0.0000000000000018
  0
CIRCLE
  5
516E
330
1E
100
AcDbEntity
  8
0
 48
0.27
100
AcDbCircle
 10
-136.6429809831399
 20
558.1477391841128
 30
0.0000000000000018
 40
0.75
210
0.0
220
0.0
230
-1.0
  0
LINE
  5
516F
330
1E
100
AcDbEntity
  8
0
 48
0.27
100
AcDbLine
 10
130.6429809831399
 20
569.2477275197127
 30
-0.0000000000000018
 11
143.6429809831399
 21
569.2477275197127
 31
-0.0000000000000018
  0
LINE
  5
5170
330
1E
100
AcDbEntity
  8
0
 48
0.27
100
AcDbLine
 10
130.6429809831399
 20
567.2477275197127
 30
-0.0000000000000018
 11
143.6429809831399
 21
567.2477275197127
 31
-0.0000000000000018
  0
LINE
  5
5171
330
1E
100
AcDbEntity
  8
0
 48
0.27
100
AcDbLine
 10
130.6429809831399
 20
569.2477275197127
 30
-0.0000000000000018
 11
130.6429809831399
 21
567.2477275197127
 31
-0.0000000000000018
  0
LINE
  5
5172
330
1E
100
AcDbEntity
  8
0
 48
0.27
100
AcDbLine
 10
143.6429809831399
 20
569.2477275197127
 30
-0.0000000000000018
 11
143.6429809831399
 21
567.2477275197127
 31
-0.0000000000000018
  0
LINE
  5
5173
330
1E
100
AcDbEntity
  8
中心線
 48
0.27
100
AcDbLine
 10
158.6429809831399
 20
572.2477275197127
 30
-0.0000000000000018
 11
158.6429809831399
 21
550.9826640102517
 31
-0.0000000000000018
  0
LINE
  5
5174
330
1E
100
AcDbEntity
  8
虛線
 48
0.27
100
AcDbLine
 10
162.6429809831399
 20
569.9477275197128
 30
-0.0000000000000018
 11
162.6429809831399
 21
558.7477275197127
 31
-0.0000000000000018
  0
LINE
  5
5175
330
1E
100
AcDbEntity
  8
虛線
 48
0.27
100
AcDbLine
 10
154.6429809831399
 20
569.9477275197128
 30
-0.0000000000000018
 11
154.6429809831399
 21
558.7477275197127
 31
-0.0000000000000018
  0
LINE
  5
5176
330
1E
100
AcDbEntity
  8
虛線
 48
0.27
100
AcDbLine
 10
162.0429809831398
 20
569.9477275197128
 30
-0.0000000000000018
 11
162.0429809831398
 21
554.9477275197127
 31
-0.0000000000000018
  0
LINE
  5
5177
330
1E
100
AcDbEntity
  8
虛線
 48
0.27
100
AcDbLine
 10
155.2429809831398
 20
569.9477275197128
 30
-0.0000000000000018
 11
155.2429809831398
 21
554.9477275197127
 31
-0.0000000000000018
  0
LINE
  5
5178
330
1E
100
AcDbEntity
  8
虛線
 48
0.27
100
AcDbLine
 10
154.6429809831399
 20
558.7477275197127
 30
-0.0000000000000018
 11
162.6429809831399
 21
558.7477275197127
 31
-0.0000000000000018
  0
LINE
  5
5179
330
1E
100
AcDbEntity
  8
虛線
 48
0.27
100
AcDbLine
 10
162.0429809831398
 20
554.9477275197127
 30
-0.0000000000000018
 11
158.6429809831399
 21
552.984736604468
 31
-0.0000000000000018
  0
LINE
  5
517A
330
1E
100
AcDbEntity
  8
虛線
 48
0.27
100
AcDbLine
 10
162.0429809831398
 20
554.9477275197127
 30
-0.0000000000000018
 11
155.2429809831398
 21
554.9477275197127
 31
-0.0000000000000018
  0
LINE
  5
517B
330
1E
100
AcDbEntity
  8
虛線
 48
0.27
100
AcDbLine
 10
158.6429809831399
 20
552.984736604468
 30
-0.0000000000000018
 11
155.2429809831398
 21
554.9477275197127
 31
-0.0000000000000018
  0
LINE
  5
517C
330
1E
100
AcDbEntity
  8
虛線
 48
0.27
100
AcDbLine
 10
163.4429809831399
 20
570.7477275197127
 30
-0.0000000000000018
 11
162.6429809831399
 21
569.9477275197128
 31
-0.0000000000000018
  0
LINE
  5
517D
330
1E
100
AcDbEntity
  8
虛線
 48
0.27
100
AcDbLine
 10
162.6429809831399
 20
569.9477275197128
 30
-0.0000000000000018
 11
154.6429809831399
 21
569.9477275197128
 31
-0.0000000000000018
  0
LINE
  5
517E
330
1E
100
AcDbEntity
  8
虛線
 48
0.27
100
AcDbLine
 10
153.8429809831397
 20
570.7477275197127
 30
-0.0000000000000018
 11
154.6429809831399
 21
569.9477275197128
 31
-0.0000000000000018
  0
LINE
  5
517F
330
1E
100
AcDbEntity
  8
中心線
 48
0.27
100
AcDbLine
 10
208.64298098314
 20
572.2477275197127
 30
-0.0000000000000018
 11
208.64298098314
 21
550.9826640102517
 31
-0.0000000000000018
  0
LINE
  5
5180
330
1E
100
AcDbEntity
  8
虛線
 48
0.27
100
AcDbLine
 10
204.64298098314
 20
569.9477275197128
 30
-0.0000000000000018
 11
204.64298098314
 21
558.7477275197127
 31
-0.0000000000000018
  0
LINE
  5
5181
330
1E
100
AcDbEntity
  8
虛線
 48
0.27
100
AcDbLine
 10
212.64298098314
 20
569.9477275197128
 30
-0.0000000000000018
 11
212.64298098314
 21
558.7477275197127
 31
-0.0000000000000018
  0
LINE
  5
5182
330
1E
100
AcDbEntity
  8
虛線
 48
0.27
100
AcDbLine
 10
205.2429809831399
 20
569.9477275197128
 30
-0.0000000000000018
 11
205.2429809831399
 21
554.9477275197127
 31
-0.0000000000000018
  0
LINE
  5
5183
330
1E
100
AcDbEntity
  8
虛線
 48
0.27
100
AcDbLine
 10
212.0429809831398
 20
569.9477275197128
 30
-0.0000000000000018
 11
212.0429809831398
 21
554.9477275197127
 31
-0.0000000000000018
  0
LINE
  5
5184
330
1E
100
AcDbEntity
  8
虛線
 48
0.27
100
AcDbLine
 10
204.64298098314
 20
558.7477275197127
 30
-0.0000000000000018
 11
212.64298098314
 21
558.7477275197127
 31
-0.0000000000000018
  0
LINE
  5
5185
330
1E
100
AcDbEntity
  8
虛線
 48
0.27
100
AcDbLine
 10
212.0429809831398
 20
554.9477275197127
 30
-0.0000000000000018
 11
205.2429809831399
 21
554.9477275197127
 31
-0.0000000000000018
  0
LINE
  5
5186
330
1E
100
AcDbEntity
  8
虛線
 48
0.27
100
AcDbLine
 10
208.64298098314
 20
552.984736604468
 30
-0.0000000000000018
 11
205.2429809831399
 21
554.9477275197127
 31
-0.0000000000000018
  0
LINE
  5
5187
330
1E
100
AcDbEntity
  8
虛線
 48
0.27
100
AcDbLine
 10
212.0429809831398
 20
554.9477275197127
 30
-0.0000000000000018
 11
208.64298098314
 21
552.984736604468
 31
-0.0000000000000018
  0
LINE
  5
5188
330
1E
100
AcDbEntity
  8
虛線
 48
0.27
100
AcDbLine
 10
212.64298098314
 20
569.9477275197128
 30
-0.0000000000000018
 11
204.64298098314
 21
569.9477275197128
 31
-0.0000000000000018
  0
LINE
  5
5189
330
1E
100
AcDbEntity
  8
虛線
 48
0.27
100
AcDbLine
 10
203.8429809831398
 20
570.7477275197127
 30
-0.0000000000000018
 11
204.64298098314
 21
569.9477275197128
 31
-0.0000000000000018
  0
LINE
  5
518A
330
1E
100
AcDbEntity
  8
虛線
 48
0.27
100
AcDbLine
 10
213.4429809831399
 20
570.7477275197127
 30
-0.0000000000000018
 11
212.64298098314
 21
569.9477275197128
 31
-0.0000000000000018
  0
LINE
  5
518B
330
1E
100
AcDbEntity
  8
0
 48
0.27
100
AcDbLine
 10
236.6429809831399
 20
532.2477275197127
 30
-0.0000000000000018
 11
236.6429809831399
 21
567.2477275197127
 31
-0.0000000000000018
  0
LINE
  5
518C
330
1E
100
AcDbEntity
  8
0
 48
0.27
100
AcDbLine
 10
236.6429809831399
 20
530.2477275197126
 30
-0.0000000000000018
 11
223.6429809831399
 21
530.2477275197126
 31
-0.0000000000000018
  0
LINE
  5
518D
330
1E
100
AcDbEntity
  8
0
 48
0.27
100
AcDbLine
 10
236.6429809831399
 20
532.2477275197127
 30
-0.0000000000000018
 11
223.6429809831399
 21
532.2477275197127
 31
-0.0000000000000018
  0
LINE
  5
518E
330
1E
100
AcDbEntity
  8
0
 48
0.27
100
AcDbLine
 10
236.6429809831399
 20
532.2477275197127
 30
-0.0000000000000018
 11
236.6429809831399
 21
530.2477275197126
 31
-0.0000000000000018
  0
LINE
  5
518F
330
1E
100
AcDbEntity
  8
中心線
 48
0.27
100
AcDbLine
 10
227.6429809831399
 20
558.1477391841128
 30
-0.0000000000000018
 11
233.64298098314
 21
558.1477391841128
 31
-0.0000000000000018
  0
LINE
  5
5190
330
1E
100
AcDbEntity
  8
0
 48
0.27
100
AcDbLine
 10
236.6429809831399
 20
569.2477275197127
 30
-0.0000000000000018
 11
223.6429809831399
 21
569.2477275197127
 31
-0.0000000000000018
  0
LINE
  5
5191
330
1E
100
AcDbEntity
  8
0
 48
0.27
100
AcDbLine
 10
236.6429809831399
 20
567.2477275197127
 30
-0.0000000000000018
 11
223.6429809831399
 21
567.2477275197127
 31
-0.0000000000000018
  0
CIRCLE
  5
5192
330
1E
100
AcDbEntity
  8
0
 48
0.27
100
AcDbCircle
 10
-230.6429809831399
 20
558.1477391841128
 30
0.0000000000000018
 40
2.5
210
0.0
220
0.0
230
-1.0
  0
CIRCLE
  5
5193
330
1E
100
AcDbEntity
  8
0
 48
0.27
100
AcDbCircle
 10
-230.6429809831399
 20
558.1477391841128
 30
0.0000000000000018
 40
2.75
210
0.0
220
0.0
230
-1.0
  0
CIRCLE
  5
5194
330
1E
100
AcDbEntity
  8
0
 48
0.27
100
AcDbCircle
 10
230.6429809831399
 20
558.1477391841128
 30
-0.0000000000000018
 40
2.2
  0
LINE
  5
5195
330
1E
100
AcDbEntity
  8
中心線
 48
0.27
100
AcDbLine
 10
230.6429809831399
 20
555.1477391841127
 30
-0.0000000000000018
 11
230.6429809831399
 21
561.1477391841127
 31
-0.0000000000000018
  0
CIRCLE
  5
5196
330
1E
100
AcDbEntity
  8
0
 48
0.27
100
AcDbCircle
 10
-230.6429809831399
 20
558.1477391841128
 30
0.0000000000000018
 40
0.75
210
0.0
220
0.0
230
-1.0
  0
LINE
  5
5197
330
1E
100
AcDbEntity
  8
0
 48
0.27
100
AcDbLine
 10
236.6429809831399
 20
569.2477275197127
 30
-0.0000000000000018
 11
236.6429809831399
 21
567.2477275197127
 31
-0.0000000000000018
  0
LINE
  5
5198
330
1E
100
AcDbEntity
  8
0
 48
0.27
100
AcDbLine
 10
143.64298098314
 20
570.7477275197187
 30
0.0
 11
223.64298098314
 21
570.7477275197187
 31
0.0
  0
LINE
  5
5199
330
1E
100
AcDbEntity
  8
0
 48
0.27
100
AcDbLine
 10
143.6429809831399
 20
530.2477275197187
 30
0.0
 11
223.6429809831399
 21
530.2477275197187
 31
0.0
  0
LINE
  5
519A
330
1E
100
AcDbEntity
  8
0
 48
0.27
100
AcDbLine
 10
143.64298098314
 20
569.2477275197187
 30
0.0
 11
223.64298098314
 21
569.2477275197186
 31
0.0
  0
LINE
  5
519B
330
1E
100
AcDbEntity
  8
0
 48
0.27
100
AcDbLine
 10
143.6429809831399
 20
532.7477275197187
 30
0.0
 11
223.6429809831399
 21
532.7477275197187
 31
0.0
  0
LINE
  5
519C
330
1E
100
AcDbEntity
  8
0
 48
0.27
100
AcDbLine
 10
223.64298098314
 20
570.7477275197186
 30
0.0
 11
223.6429809831399
 21
530.2477275197187
 31
0.0
  0
LINE
  5
519D
330
1E
100
AcDbEntity
  8
中心線
 48
0.27
100
AcDbLine
 10
4.561484065748269
 20
553.7477275354472
 30
0.0
 11
4.561484065748269
 21
517.4036156846042
 31
0.0
  0
LINE
  5
519E
330
1E
100
AcDbEntity
  8
虛線
 48
0.27
100
AcDbLine
 10
11.56148406351818
 20
551.3477275354471
 30
0.0
 11
11.56148406351818
 21
539.7477275354471
 31
0.0
  0
LINE
  5
519F
330
1E
100
AcDbEntity
  8
虛線
 48
0.27
100
AcDbLine
 10
11.56148406342018
 20
551.3477275354471
 30
0.0
 11
11.56148406342018
 21
539.7477275354471
 31
0.0
  0
LINE
  5
51A0
330
1E
100
AcDbEntity
  8
虛線
 48
0.27
100
AcDbLine
 10
-2.43851593648182
 20
551.3477275354471
 30
0.0
 11
-2.43851593648182
 21
539.7477275354471
 31
0.0
  0
LINE
  5
51A1
330
1E
100
AcDbEntity
  8
虛線
 48
0.27
100
AcDbLine
 10
-2.438515936579818
 20
551.3477275354471
 30
0.0
 11
-2.438515936579818
 21
539.7477275354471
 31
0.0
  0
LINE
  5
51A2
330
1E
100
AcDbEntity
  8
0
 48
0.27
100
AcDbLine
 10
-9.091008515808397
 20
542.2802201147736
 30
0.0
 11
-7.238515936481888
 21
540.4277275354472
 31
0.0
  0
LINE
  5
51A3
330
1E
100
AcDbEntity
  8
0
 48
0.27
100
AcDbLine
 10
-9.091008531581763
 20
542.2802201148471
 30
0.0
 11
-7.238515952281858
 21
540.427727535447
 31
0.0
  0
LINE
  5
51A4
330
1E
100
AcDbEntity
  8
0
 48
0.27
100
AcDbLine
 10
-9.091008531679761
 20
542.2802201148471
 30
0.0
 11
-7.238515952379856
 21
540.427727535447
 31
0.0
  0
LINE
  5
51A5
330
1E
100
AcDbEntity
  8
0
 48
0.27
100
AcDbLine
 10
-9.091008515906395
 20
542.2802201147735
 30
0.0
 11
-7.238515936579887
 21
540.4277275354472
 31
0.0
  0
LINE
  5
51A6
330
1E
100
AcDbEntity
  8
0
 48
0.27
100
AcDbLine
 10
18.21397664284487
 20
542.2802201147735
 30
0.0
 11
16.36148406351825
 21
540.4277275354472
 31
0.0
  0
LINE
  5
51A7
330
1E
100
AcDbEntity
  8
0
 48
0.27
100
AcDbLine
 10
18.21397665861823
 20
542.2802201148471
 30
0.0
 11
16.36148407931822
 21
540.427727535447
 31
0.0
  0
LINE
  5
51A8
330
1E
100
AcDbEntity
  8
0
 48
0.27
100
AcDbLine
 10
18.21397665852024
 20
542.2802201148471
 30
0.0
 11
16.36148407922022
 21
540.427727535447
 31
0.0
  0
LINE
  5
51A9
330
1E
100
AcDbEntity
  8
0
 48
0.27
100
AcDbLine
 10
18.21397664274687
 20
542.2802201147736
 30
0.0
 11
16.36148406342025
 21
540.4277275354472
 31
0.0
  0
LINE
  5
51AC
330
1E
100
AcDbEntity
  8
0
 48
0.27
100
AcDbLine
 10
-12.43851593657982
 20
529.747707535447
 30
0.0
 11
-7.238515936579887
 21
534.9477275354471
 31
0.0
  0
LINE
  5
51AF
330
1E
100
AcDbEntity
  8
0
 48
0.27
100
AcDbLine
 10
-12.43851593648182
 20
529.7477075354471
 30
0.0
 11
-12.43851593648179
 21
524.2477275197208
 31
0.0
  0
LINE
  5
51B0
330
1E
100
AcDbEntity
  8
0
 48
0.27
100
AcDbLine
 10
-12.43851593657982
 20
529.747707535447
 30
0.0
 11
-12.43851593657982
 21
524.2477275354472
 31
0.0
  0
LINE
  5
51B1
330
1E
100
AcDbEntity
  8
0
 48
0.27
100
AcDbLine
 10
-7.238515952281858
 20
540.427727535447
 30
0.0
 11
-7.238515952281858
 21
534.9477275354471
 31
0.0
  0
LINE
  5
51B2
330
1E
100
AcDbEntity
  8
0
 48
0.27
100
AcDbLine
 10
-7.238515952379856
 20
540.427727535447
 30
0.0
 11
-7.238515952379856
 21
534.9477275354471
 31
0.0
  0
LINE
  5
51B3
330
1E
100
AcDbEntity
  8
0
 48
0.27
100
AcDbLine
 10
-7.238515936579887
 20
540.4277275354472
 30
0.0
 11
-7.238515936579887
 21
534.9477275354471
 31
0.0
  0
LINE
  5
51B4
330
1E
100
AcDbEntity
  8
0
 48
0.27
100
AcDbLine
 10
-7.238515936481888
 20
540.4277275354472
 30
0.0
 11
-7.238515936481888
 21
534.9477275354471
 31
0.0
  0
LINE
  5
51B5
330
1E
100
AcDbEntity
  8
虛線
 48
0.27
100
AcDbLine
 10
-2.43851593648182
 20
539.7477275354471
 30
0.0
 11
11.56148406351818
 21
539.7477275354471
 31
0.0
  0
LINE
  5
51B6
330
1E
100
AcDbEntity
  8
虛線
 48
0.27
100
AcDbLine
 10
11.56148406342018
 20
539.7477275354471
 30
0.0
 11
-2.438515936579818
 21
539.7477275354471
 31
0.0
  0
LINE
  5
51B7
330
1E
100
AcDbEntity
  8
0
 48
0.27
100
AcDbLine
 10
12.81148406351818
 20
523.2477275354471
 30
0.0
 11
8.311484063518179
 21
523.2477275354471
 31
0.0
  0
LINE
  5
51B8
330
1E
100
AcDbEntity
  8
0
 48
0.27
100
AcDbLine
 10
12.81148406342018
 20
523.2477275354471
 30
0.0
 11
8.311484063420181
 21
523.2477275354471
 31
0.0
  0
LINE
  5
51B9
330
1E
100
AcDbEntity
  8
虛線
 48
0.27
100
AcDbLine
 10
0.0614840634201812
 20
539.4477275354471
 30
0.0
 11
0.0614840634201812
 21
523.9477275354471
 31
0.0
  0
LINE
  5
51BA
330
1E
100
AcDbEntity
  8
虛線
 48
0.27
100
AcDbLine
 10
9.061484063420181
 20
539.4477275354471
 30
0.0
 11
9.061484063420181
 21
523.9477275354471
 31
0.0
  0
LINE
  5
51BB
330
1E
100
AcDbEntity
  8
虛線
 48
0.27
100
AcDbLine
 10
0.0614840635181793
 20
539.4477275354471
 30
0.0
 11
0.0614840635181793
 21
523.9477275354471
 31
0.0
  0
LINE
  5
51BC
330
1E
100
AcDbEntity
  8
虛線
 48
0.27
100
AcDbLine
 10
9.061484063518179
 20
539.4477275354471
 30
0.0
 11
9.061484063518179
 21
523.9477275354471
 31
0.0
  0
LINE
  5
51BD
330
1E
100
AcDbEntity
  8
虛線
 48
0.27
100
AcDbLine
 10
0.0614840635181793
 20
523.9477275354471
 30
0.0
 11
9.061484063518179
 21
523.9477275354471
 31
0.0
  0
LINE
  5
51BE
330
1E
100
AcDbEntity
  8
虛線
 48
0.27
100
AcDbLine
 10
9.061484063420181
 20
523.9477275354471
 30
0.0
 11
0.0614840634201812
 21
523.9477275354471
 31
0.0
  0
LINE
  5
51C3
330
1E
100
AcDbEntity
  8
0
 48
0.27
100
AcDbLine
 10
-4.18851593648182
 20
522.7477275354471
 30
0.0
 11
-3.68851593648182
 21
523.2477275354471
 31
0.0
  0
LINE
  5
51C4
330
1E
100
AcDbEntity
  8
0
 48
0.27
100
AcDbLine
 10
-4.188515936579818
 20
522.7477275354471
 30
0.0
 11
-3.688515936579818
 21
523.2477275354471
 31
0.0
  0
LINE
  5
51C5
330
1E
100
AcDbEntity
  8
虛線
 48
0.27
100
AcDbLine
 10
-0.6385159364818663
 20
523.247728535447
 30
0.0
 11
0.0614840635181793
 21
523.9477275354471
 31
0.0
  0
LINE
  5
51C6
330
1E
100
AcDbEntity
  8
虛線
 48
0.27
100
AcDbLine
 10
0.0614840634201812
 20
523.9477275354471
 30
0.0
 11
-0.6385159365798643
 21
523.247728535447
 31
0.0
  0
LINE
  5
51C7
330
1E
100
AcDbEntity
  8
0
 48
0.27
100
AcDbLine
 10
0.8114840635181792
 20
523.2477275354471
 30
0.0
 11
1.311484063518179
 21
522.7477275354471
 31
0.0
  0
LINE
  5
51C8
330
1E
100
AcDbEntity
  8
0
 48
0.27
100
AcDbLine
 10
0.8114840634201812
 20
523.2477275354471
 30
0.0
 11
1.311484079152847
 21
522.7477275197144
 31
0.0
  0
LINE
  5
51C9
330
1E
100
AcDbEntity
  8
虛線
 48
0.27
100
AcDbLine
 10
9.061484063518179
 20
523.9477275354471
 30
0.0
 11
9.761484063518224
 21
523.247728535447
 31
0.0
  0
LINE
  5
51CA
330
1E
100
AcDbEntity
  8
虛線
 48
0.27
100
AcDbLine
 10
9.761484063420226
 20
523.247728535447
 30
0.0
 11
9.061484063420181
 21
523.9477275354471
 31
0.0
  0
LINE
  5
51CB
330
1E
100
AcDbEntity
  8
0
 48
0.27
100
AcDbLine
 10
8.311484063518179
 20
523.2477275354471
 30
0.0
 11
7.811484063518179
 21
522.7477275354471
 31
0.0
  0
LINE
  5
51CC
330
1E
100
AcDbEntity
  8
0
 48
0.27
100
AcDbLine
 10
8.311484063420181
 20
523.2477275354471
 30
0.0
 11
7.811484063420181
 21
522.7477275354471
 31
0.0
  0
LINE
  5
51CD
330
1E
100
AcDbEntity
  8
虛線
 48
0.27
100
AcDbLine
 10
0.0614840635181793
 20
539.4477275354471
 30
0.0
 11
9.061484063518179
 21
539.4477275354471
 31
0.0
  0
LINE
  5
51CE
330
1E
100
AcDbEntity
  8
虛線
 48
0.27
100
AcDbLine
 10
9.061484063420181
 20
539.4477275354471
 30
0.0
 11
0.0614840634201812
 21
539.4477275354471
 31
0.0
  0
LINE
  5
51CF
330
1E
100
AcDbEntity
  8
虛線
 48
0.27
100
AcDbLine
 10
-0.238515936481889
 20
539.7477275354471
 30
0.0
 11
0.0614840635181793
 21
539.4477275354471
 31
0.0
  0
LINE
  5
51D0
330
1E
100
AcDbEntity
  8
虛線
 48
0.27
100
AcDbLine
 10
-0.238515936579887
 20
539.7477275354471
 30
0.0
 11
0.0614840634201812
 21
539.4477275354471
 31
0.0
  0
LINE
  5
51D1
330
1E
100
AcDbEntity
  8
虛線
 48
0.27
100
AcDbLine
 10
9.361484063518247
 20
539.7477275354471
 30
0.0
 11
9.061484063518179
 21
539.4477275354471
 31
0.0
  0
LINE
  5
51D2
330
1E
100
AcDbEntity
  8
虛線
 48
0.27
100
AcDbLine
 10
9.361484063420249
 20
539.7477275354471
 30
0.0
 11
9.061484063420181
 21
539.4477275354471
 31
0.0
  0
LINE
  5
51D3
330
1E
100
AcDbEntity
  8
0
 48
0.27
100
AcDbLine
 10
21.5614840634203
 20
529.7477075354471
 30
0.0
 11
16.36148406342025
 21
534.9477275354471
 31
0.0
  0
LINE
  5
51D6
330
1E
100
AcDbEntity
  8
0
 48
0.27
100
AcDbLine
 10
13.31148406351818
 20
522.7477275354471
 30
0.0
 11
12.81148406351818
 21
523.2477275354471
 31
0.0
  0
LINE
  5
51D7
330
1E
100
AcDbEntity
  8
0
 48
0.27
100
AcDbLine
 10
13.31148406342018
 20
522.7477275354471
 30
0.0
 11
12.81148406342018
 21
523.2477275354471
 31
0.0
  0
LINE
  5
51D8
330
1E
100
AcDbEntity
  8
0
 48
0.27
100
AcDbLine
 10
21.56148406351829
 20
524.2477275354472
 30
0.0
 11
20.0614840635183
 21
522.7477275354471
 31
0.0
  0
LINE
  5
51DA
330
1E
100
AcDbEntity
  8
0
 48
0.27
100
AcDbLine
 10
21.56148406351829
 20
529.747707535447
 30
0.0
 11
21.56148406351829
 21
524.2477275354472
 31
0.0
  0
LINE
  5
51DB
330
1E
100
AcDbEntity
  8
0
 48
0.27
100
AcDbLine
 10
21.5614840634203
 20
529.7477075354471
 30
0.0
 11
21.5614840634203
 21
524.247727535447
 31
0.0
  0
LINE
  5
51DC
330
1E
100
AcDbEntity
  8
0
 48
0.27
100
AcDbLine
 10
16.36148407931822
 20
540.427727535447
 30
0.0
 11
16.36148407931822
 21
534.9477275354471
 31
0.0
  0
LINE
  5
51DD
330
1E
100
AcDbEntity
  8
0
 48
0.27
100
AcDbLine
 10
16.36148407922022
 20
540.427727535447
 30
0.0
 11
16.36148407922022
 21
534.9477275354471
 31
0.0
  0
LINE
  5
51DE
330
1E
100
AcDbEntity
  8
0
 48
0.27
100
AcDbLine
 10
16.36148406342025
 20
540.4277275354472
 30
0.0
 11
16.36148406342025
 21
534.9477275354471
 31
0.0
  0
LINE
  5
51DF
330
1E
100
AcDbEntity
  8
0
 48
0.27
100
AcDbLine
 10
16.36148406351825
 20
540.4277275354472
 30
0.0
 11
16.36148406351825
 21
534.9477275354471
 31
0.0
  0
LINE
  5
51E0
330
1E
100
AcDbEntity
  8
0
 48
0.27
100
AcDbLine
 10
-8.548515936481834
 20
551.7477275354471
 30
0.0
 11
17.67148406351831
 21
551.7477275354471
 31
0.0
  0
LINE
  5
51E1
330
1E
100
AcDbEntity
  8
0
 48
0.27
100
AcDbLine
 10
17.67148407931827
 20
551.7477275354471
 30
0.0
 11
-8.548515952281803
 21
551.7477275354471
 31
0.0
  0
LINE
  5
51E2
330
1E
100
AcDbEntity
  8
0
 48
0.27
100
AcDbLine
 10
-8.548515952379801
 20
551.7477275354471
 30
0.0
 11
17.67148407922028
 21
551.7477275354471
 31
0.0
  0
LINE
  5
51E3
330
1E
100
AcDbEntity
  8
0
 48
0.27
100
AcDbLine
 10
17.67148406342031
 20
551.7477275354471
 30
0.0
 11
-8.548515936579832
 21
551.7477275354471
 31
0.0
  0
LINE
  5
51E4
330
1E
100
AcDbEntity
  8
0
 48
0.27
100
AcDbLine
 10
-12.43851593648182
 20
547.8577275354471
 30
0.0
 11
-11.89242694161962
 21
548.4038165303092
 31
0.0
  0
LINE
  5
51E5
330
1E
100
AcDbEntity
  8
0
 48
0.27
100
AcDbLine
 10
-12.43851595228179
 20
547.8577275354471
 30
0.0
 11
-11.89242695738184
 21
548.403816530347
 31
0.0
  0
LINE
  5
51E6
330
1E
100
AcDbEntity
  8
0
 48
0.27
100
AcDbLine
 10
-12.43851595237979
 20
547.8577275354471
 30
0.0
 11
-11.89242695747984
 21
548.403816530347
 31
0.0
  0
LINE
  5
51E7
330
1E
100
AcDbEntity
  8
0
 48
0.27
100
AcDbLine
 10
-12.43851593657982
 20
547.8577275354471
 30
0.0
 11
-11.89242694171761
 21
548.4038165303092
 31
0.0
  0
ARC
  5
51E8
330
1E
100
AcDbEntity
  8
0
 48
0.27
100
AcDbCircle
 10
-12.3060895296106
 20
551.6173011285759
 30
0.0
 40
3.24
100
AcDbArc
 50
277.3351813687926
 51
352.6648186312073
  0
ARC
  5
51E9
330
1E
100
AcDbEntity
  8
0
 48
0.27
100
AcDbCircle
 10
-12.30608954538181
 20
551.6173011286471
 30
0.0
 40
3.24
100
AcDbArc
 50
277.3351813687991
 51
352.664818631201
  0
ARC
  5
51EA
330
1E
100
AcDbEntity
  8
0
 48
0.27
100
AcDbCircle
 10
-12.30608954547981
 20
551.6173011286471
 30
0.0
 40
3.24
100
AcDbArc
 50
277.3351813687991
 51
352.664818631201
  0
ARC
  5
51EB
330
1E
100
AcDbEntity
  8
0
 48
0.27
100
AcDbCircle
 10
-12.3060895297086
 20
551.6173011285759
 30
0.0
 40
3.24
100
AcDbArc
 50
277.3351813687926
 51
352.6648186312073
  0
ARC
  5
51EC
330
1E
100
AcDbEntity
  8
0
 48
0.27
100
AcDbCircle
 10
-12.3060895296106
 20
541.8791539423182
 30
0.0
 40
3.24
100
AcDbArc
 50
7.110645891652419
 51
82.88935410834389
  0
ARC
  5
51ED
330
1E
100
AcDbEntity
  8
0
 48
0.27
100
AcDbCircle
 10
-12.30608954538181
 20
541.879153942347
 30
0.0
 40
3.24
100
AcDbArc
 50
7.110645891698572
 51
82.88935410830147
  0
ARC
  5
51EE
330
1E
100
AcDbEntity
  8
0
 48
0.27
100
AcDbCircle
 10
-12.30608954547981
 20
541.879153942347
 30
0.0
 40
3.24
100
AcDbArc
 50
7.110645891698572
 51
82.88935410830147
  0
ARC
  5
51EF
330
1E
100
AcDbEntity
  8
0
 48
0.27
100
AcDbCircle
 10
-12.30608952970871
 20
541.8791539423182
 30
0.0
 40
3.24
100
AcDbArc
 50
7.110645891652419
 51
82.88935410834389
  0
LINE
  5
51F0
330
1E
100
AcDbEntity
  8
0
 48
0.27
100
AcDbLine
 10
-12.43851593648182
 20
547.8577275354471
 30
0.0
 11
-12.43851593648182
 21
545.627727535447
 31
0.0
  0
LINE
  5
51F1
330
1E
100
AcDbEntity
  8
0
 48
0.27
100
AcDbLine
 10
-12.43851595228179
 20
547.8577275354471
 30
0.0
 11
-12.43851595228179
 21
545.627727535447
 31
0.0
  0
LINE
  5
51F2
330
1E
100
AcDbEntity
  8
0
 48
0.27
100
AcDbLine
 10
-12.43851595237979
 20
547.8577275354471
 30
0.0
 11
-12.43851595237979
 21
545.627727535447
 31
0.0
  0
LINE
  5
51F3
330
1E
100
AcDbEntity
  8
0
 48
0.27
100
AcDbLine
 10
-12.43851593657982
 20
547.8577275354471
 30
0.0
 11
-12.43851593657982
 21
545.627727535447
 31
0.0
  0
LINE
  5
51F4
330
1E
100
AcDbEntity
  8
0
 48
0.27
100
AcDbLine
 10
-12.43851593648182
 20
545.627727535447
 30
0.0
 11
-11.90502335715527
 21
545.0942349561205
 31
0.0
  0
LINE
  5
51F5
330
1E
100
AcDbEntity
  8
0
 48
0.27
100
AcDbLine
 10
-12.43851595228179
 20
545.627727535447
 30
0.0
 11
-11.90502337298184
 21
545.0942349561471
 31
0.0
  0
LINE
  5
51F6
330
1E
100
AcDbEntity
  8
0
 48
0.27
100
AcDbLine
 10
-12.43851595237979
 20
545.627727535447
 30
0.0
 11
-11.90502337307984
 21
545.0942349561471
 31
0.0
  0
LINE
  5
51F7
330
1E
100
AcDbEntity
  8
0
 48
0.27
100
AcDbLine
 10
-12.43851593657982
 20
545.627727535447
 30
0.0
 11
-11.90502335725327
 21
545.0942349561205
 31
0.0
  0
LINE
  5
51F8
330
1E
100
AcDbEntity
  8
0
 48
0.27
100
AcDbLine
 10
-9.092604931344084
 20
551.2036385405849
 30
0.0
 11
-8.548515936481834
 21
551.7477275354471
 31
0.0
  0
LINE
  5
51F9
330
1E
100
AcDbEntity
  8
0
 48
0.27
100
AcDbLine
 10
-9.092604947181797
 20
551.203638540647
 30
0.0
 11
-8.548515952281803
 21
551.7477275354471
 31
0.0
  0
LINE
  5
51FA
330
1E
100
AcDbEntity
  8
0
 48
0.27
100
AcDbLine
 10
-9.092604947279795
 20
551.203638540647
 30
0.0
 11
-8.548515952379801
 21
551.7477275354471
 31
0.0
  0
LINE
  5
51FB
330
1E
100
AcDbEntity
  8
0
 48
0.27
100
AcDbLine
 10
-9.092604931441968
 20
551.2036385405849
 30
0.0
 11
-8.548515936579832
 21
551.7477275354471
 31
0.0
  0
LINE
  5
51FC
330
1E
100
AcDbEntity
  8
虛線
 48
0.27
100
AcDbLine
 10
11.56148406351818
 20
551.3477275354471
 30
0.0
 11
-2.43851593648182
 21
551.3477275354471
 31
0.0
  0
LINE
  5
51FD
330
1E
100
AcDbEntity
  8
虛線
 48
0.27
100
AcDbLine
 10
-2.438515936579818
 20
551.3477275354471
 30
0.0
 11
11.56148406342018
 21
551.3477275354471
 31
0.0
  0
LINE
  5
51FE
330
1E
100
AcDbEntity
  8
虛線
 48
0.27
100
AcDbLine
 10
-2.43851593648182
 20
551.3477275354471
 30
0.0
 11
-2.669456044157726
 21
551.7477275354471
 31
0.0
  0
LINE
  5
51FF
330
1E
100
AcDbEntity
  8
虛線
 48
0.27
100
AcDbLine
 10
-2.438515936579818
 20
551.3477275354471
 30
0.0
 11
-2.669456044255724
 21
551.7477275354471
 31
0.0
  0
ARC
  5
5200
330
1E
100
AcDbEntity
  8
0
 48
0.27
100
AcDbCircle
 10
21.42905765664719
 20
541.8791539423182
 30
0.0
 40
3.24
100
AcDbArc
 50
97.11064589165609
 51
172.8893541083476
  0
ARC
  5
5201
330
1E
100
AcDbEntity
  8
0
 48
0.27
100
AcDbCircle
 10
21.42905767241828
 20
541.879153942347
 30
0.0
 40
3.24
100
AcDbArc
 50
97.11064589169852
 51
172.8893541083014
  0
ARC
  5
5202
330
1E
100
AcDbEntity
  8
0
 48
0.27
100
AcDbCircle
 10
21.42905767232028
 20
541.879153942347
 30
0.0
 40
3.24
100
AcDbArc
 50
97.11064589169852
 51
172.8893541083014
  0
ARC
  5
5203
330
1E
100
AcDbEntity
  8
0
 48
0.27
100
AcDbCircle
 10
21.42905765654908
 20
541.8791539423182
 30
0.0
 40
3.24
100
AcDbArc
 50
97.11064589165609
 51
172.8893541083476
  0
ARC
  5
5204
330
1E
100
AcDbEntity
  8
0
 48
0.27
100
AcDbCircle
 10
21.42905765664707
 20
551.6173011285759
 30
0.0
 40
3.24
100
AcDbArc
 50
187.3351813687926
 51
262.6648186312074
  0
ARC
  5
5205
330
1E
100
AcDbEntity
  8
0
 48
0.27
100
AcDbCircle
 10
21.42905767241828
 20
551.6173011286471
 30
0.0
 40
3.24
100
AcDbArc
 50
187.3351813687989
 51
262.664818631201
  0
ARC
  5
5206
330
1E
100
AcDbEntity
  8
0
 48
0.27
100
AcDbCircle
 10
21.42905767232028
 20
551.6173011286471
 30
0.0
 40
3.24
100
AcDbArc
 50
187.3351813687989
 51
262.664818631201
  0
ARC
  5
5207
330
1E
100
AcDbEntity
  8
0
 48
0.27
100
AcDbCircle
 10
21.42905765654908
 20
551.6173011285759
 30
0.0
 40
3.24
100
AcDbArc
 50
187.3351813687926
 51
262.6648186312074
  0
LINE
  5
5208
330
1E
100
AcDbEntity
  8
虛線
 48
0.27
100
AcDbLine
 10
11.56148406351818
 20
551.3477275354471
 30
0.0
 11
11.79242417119408
 21
551.7477275354471
 31
0.0
  0
LINE
  5
5209
330
1E
100
AcDbEntity
  8
虛線
 48
0.27
100
AcDbLine
 10
11.56148406342018
 20
551.3477275354471
 30
0.0
 11
11.79242417109608
 21
551.7477275354471
 31
0.0
  0
LINE
  5
520A
330
1E
100
AcDbEntity
  8
0
 48
0.27
100
AcDbLine
 10
18.21557305838044
 20
551.2036385405849
 30
0.0
 11
17.67148406351831
 21
551.7477275354471
 31
0.0
  0
LINE
  5
520B
330
1E
100
AcDbEntity
  8
0
 48
0.27
100
AcDbLine
 10
18.21557307421827
 20
551.203638540647
 30
0.0
 11
17.67148407931827
 21
551.7477275354471
 31
0.0
  0
LINE
  5
520C
330
1E
100
AcDbEntity
  8
0
 48
0.27
100
AcDbLine
 10
18.21557307412027
 20
551.203638540647
 30
0.0
 11
17.67148407922028
 21
551.7477275354471
 31
0.0
  0
LINE
  5
520D
330
1E
100
AcDbEntity
  8
0
 48
0.27
100
AcDbLine
 10
18.21557305828256
 20
551.2036385405849
 30
0.0
 11
17.67148406342031
 21
551.7477275354471
 31
0.0
  0
LINE
  5
520E
330
1E
100
AcDbEntity
  8
0
 48
0.27
100
AcDbLine
 10
21.56148406351829
 20
547.8577275354471
 30
0.0
 11
21.01539506865609
 21
548.4038165303092
 31
0.0
  0
LINE
  5
520F
330
1E
100
AcDbEntity
  8
0
 48
0.27
100
AcDbLine
 10
21.56148407931826
 20
547.8577275354471
 30
0.0
 11
21.01539508441832
 21
548.403816530347
 31
0.0
  0
LINE
  5
5210
330
1E
100
AcDbEntity
  8
0
 48
0.27
100
AcDbLine
 10
21.56148407922026
 20
547.8577275354471
 30
0.0
 11
21.01539508432032
 21
548.403816530347
 31
0.0
  0
LINE
  5
5211
330
1E
100
AcDbEntity
  8
0
 48
0.27
100
AcDbLine
 10
21.5614840634203
 20
547.8577275354471
 30
0.0
 11
21.01539506855809
 21
548.4038165303092
 31
0.0
  0
LINE
  5
5212
330
1E
100
AcDbEntity
  8
0
 48
0.27
100
AcDbLine
 10
21.56148406351829
 20
547.8577275354471
 30
0.0
 11
21.56148406351829
 21
545.627727535447
 31
0.0
  0
LINE
  5
5213
330
1E
100
AcDbEntity
  8
0
 48
0.27
100
AcDbLine
 10
21.56148407931826
 20
547.8577275354471
 30
0.0
 11
21.56148407931826
 21
545.627727535447
 31
0.0
  0
LINE
  5
5214
330
1E
100
AcDbEntity
  8
0
 48
0.27
100
AcDbLine
 10
21.56148407922026
 20
547.8577275354471
 30
0.0
 11
21.56148407922026
 21
545.627727535447
 31
0.0
  0
LINE
  5
5215
330
1E
100
AcDbEntity
  8
0
 48
0.27
100
AcDbLine
 10
21.5614840634203
 20
547.8577275354471
 30
0.0
 11
21.5614840634203
 21
545.627727535447
 31
0.0
  0
LINE
  5
5216
330
1E
100
AcDbEntity
  8
0
 48
0.27
100
AcDbLine
 10
21.56148406351829
 20
545.627727535447
 30
0.0
 11
21.02799148419174
 21
545.0942349561205
 31
0.0
  0
LINE
  5
5217
330
1E
100
AcDbEntity
  8
0
 48
0.27
100
AcDbLine
 10
21.56148407931826
 20
545.627727535447
 30
0.0
 11
21.02799150001832
 21
545.0942349561471
 31
0.0
  0
LINE
  5
5218
330
1E
100
AcDbEntity
  8
0
 48
0.27
100
AcDbLine
 10
21.56148407922026
 20
545.627727535447
 30
0.0
 11
21.02799149992032
 21
545.0942349561471
 31
0.0
  0
LINE
  5
5219
330
1E
100
AcDbEntity
  8
0
 48
0.27
100
AcDbLine
 10
21.5614840634203
 20
545.627727535447
 30
0.0
 11
21.02799148409375
 21
545.0942349561205
 31
0.0
  0
LINE
  5
521A
330
1E
100
AcDbEntity
  8
中心線
 48
0.27
100
AcDbLine
 10
4.561484065748032
 20
580.7477275197202
 30
0.0
 11
4.561484065748089
 21
547.7477275354531
 31
0.0
  0
LINE
  5
521B
330
1E
100
AcDbEntity
  8
0
 48
0.27
100
AcDbLine
 10
39.06148406574809
 20
547.2477275197202
 30
0.0
 11
39.06148406574809
 21
532.7477275197202
 31
0.0
  0
LINE
  5
521C
330
1E
100
AcDbEntity
  8
0
 48
0.27
100
AcDbLine
 10
38.56148406346964
 20
532.2477275196471
 30
0.0
 11
38.56148406346964
 21
567.2477275196471
 31
0.0
  0
LINE
  5
521D
330
1E
100
AcDbEntity
  8
0
 48
0.27
100
AcDbLine
 10
-29.93851593425191
 20
560.0477275179602
 30
0.0
 11
-29.93851593425191
 21
532.7477275197202
 31
0.0
  0
LINE
  5
521E
330
1E
100
AcDbEntity
  8
0
 48
0.27
100
AcDbLine
 10
16.36148406346959
 20
540.4277275354472
 30
0.0
 11
16.36148406346959
 21
534.9477275354471
 31
0.0
  0
LINE
  5
521F
330
1E
100
AcDbEntity
  8
0
 48
0.27
100
AcDbLine
 10
17.73518407926966
 20
539.8587223648369
 30
0.0
 11
17.73518407926966
 21
535.5167311585926
 31
0.0
  0
LINE
  5
5220
330
1E
100
AcDbEntity
  8
0
 48
0.27
100
AcDbLine
 10
16.36148407926956
 20
540.427727535447
 30
0.0
 11
16.36148407926956
 21
534.9477275354471
 31
0.0
  0
LINE
  5
5221
330
1E
100
AcDbEntity
  8
0
 48
0.27
100
AcDbLine
 10
18.60118407926964
 20
539.5000134198356
 30
0.0
 11
17.73518407926966
 21
539.8587223648369
 31
0.0
  0
LINE
  5
5222
330
1E
100
AcDbEntity
  8
0
 48
0.27
100
AcDbLine
 10
20.31505154472612
 20
541.2138808853845
 30
0.0
 11
18.60118407926964
 21
539.5000134198356
 31
0.0
  0
LINE
  5
5223
330
1E
100
AcDbEntity
  8
0
 48
0.27
100
AcDbLine
 10
-7.238515936530546
 20
540.4277275354472
 30
0.0
 11
-7.238515936530546
 21
534.9477275354471
 31
0.0
  0
LINE
  5
5224
330
1E
100
AcDbEntity
  8
0
 48
0.27
100
AcDbLine
 10
-7.238515952330516
 20
540.427727535447
 30
0.0
 11
-7.238515952330516
 21
534.9477275354471
 31
0.0
  0
LINE
  5
5225
330
1E
100
AcDbEntity
  8
0
 48
0.27
100
AcDbLine
 10
-8.612215952330501
 20
539.8587223648369
 30
0.0
 11
-8.612215952330501
 21
535.5167311585926
 31
0.0
  0
LINE
  5
5226
330
1E
100
AcDbEntity
  8
0
 48
0.27
100
AcDbLine
 10
-9.4782159523306
 20
539.5000134198356
 30
0.0
 11
-8.612215952330501
 21
539.8587223648369
 31
0.0
  0
LINE
  5
5227
330
1E
100
AcDbEntity
  8
0
 48
0.27
100
AcDbLine
 10
-11.19208341778696
 20
541.2138808853845
 30
0.0
 11
-9.4782159523306
 21
539.5000134198356
 31
0.0
  0
LINE
  5
5228
330
1E
100
AcDbEntity
  8
0
 48
0.27
100
AcDbLine
 10
-29.43851593653048
 20
532.2477275196471
 30
0.0
 11
-29.43851593653048
 21
567.2477275196471
 31
0.0
  0
LINE
  5
522B
330
1E
100
AcDbEntity
  8
0
 48
0.27
100
AcDbLine
 10
-29.43851593653048
 20
532.2477275196471
 30
0.0
 11
-27.43851593653048
 21
530.2477275196471
 31
0.0
  0
LINE
  5
522C
330
1E
100
AcDbEntity
  8
0
 48
0.27
100
AcDbLine
 10
-8.612215952330501
 20
535.5167311585926
 30
0.0
 11
-7.238515952330516
 21
534.9477275354471
 31
0.0
  0
LINE
  5
522D
330
1E
100
AcDbEntity
  8
0
 48
0.27
100
AcDbLine
 10
-11.93849762203908
 20
530.2477277888859
 30
0.0
 11
-7.238515952330516
 21
534.9477275354471
 31
0.0
  0
LINE
  5
522E
330
1E
100
AcDbEntity
  8
0
 48
0.27
100
AcDbLine
 10
-12.82007426379741
 20
532.5335679632821
 30
0.0
 11
-9.478215952330486
 21
535.8754391280501
 31
0.0
  0
LINE
  5
522F
330
1E
100
AcDbEntity
  8
0
 48
0.27
100
AcDbLine
 10
-13.88119902501759
 20
530.2477278205859
 30
0.0
 11
-8.612215952330501
 21
535.5167311585926
 31
0.0
  0
ARC
  5
5230
330
1E
100
AcDbEntity
  8
0
 48
0.27
100
AcDbCircle
 10
-15.43851593653048
 20
533.9977275196471
 30
0.0
 40
3.0
100
AcDbArc
 50
299.2129235960597
 51
330.7872967719009
  0
LINE
  5
5231
330
1E
100
AcDbEntity
  8
0
 48
0.27
100
AcDbLine
 10
-15.10590559485044
 20
530.2477278405701
 30
0.0
 11
-13.97434630926611
 21
531.3792914783054
 31
0.0
  0
LINE
  5
5232
330
1E
100
AcDbEntity
  8
0
 48
0.27
100
AcDbLine
 10
-9.4782159523306
 20
539.5000134198356
 30
0.0
 11
-9.478215952330486
 21
535.8754391280501
 31
0.0
  0
LINE
  5
5233
330
1E
100
AcDbEntity
  8
0
 48
0.27
100
AcDbLine
 10
-9.478215952330486
 20
535.8754391280501
 30
0.0
 11
-8.612215952330501
 21
535.5167311585926
 31
0.0
  0
LINE
  5
5234
330
1E
100
AcDbEntity
  8
0
 48
0.27
100
AcDbLine
 10
17.73518407926966
 20
535.5167311585926
 30
0.0
 11
16.36148407926956
 21
534.9477275354471
 31
0.0
  0
LINE
  5
5235
330
1E
100
AcDbEntity
  8
0
 48
0.27
100
AcDbLine
 10
21.06146574897824
 20
530.2477277888859
 30
0.0
 11
16.36148407926956
 21
534.9477275354471
 31
0.0
  0
LINE
  5
5236
330
1E
100
AcDbEntity
  8
0
 48
0.27
100
AcDbLine
 10
21.94304239073657
 20
532.5335679632821
 30
0.0
 11
18.60118407926964
 21
535.8754391280501
 31
0.0
  0
LINE
  5
5237
330
1E
100
AcDbEntity
  8
0
 48
0.27
100
AcDbLine
 10
23.00416715195675
 20
530.2477278205859
 30
0.0
 11
17.73518407926966
 21
535.5167311585926
 31
0.0
  0
ARC
  5
5238
330
1E
100
AcDbEntity
  8
0
 48
0.27
100
AcDbCircle
 10
24.56148406802654
 20
533.9977275196471
 30
0.0
 40
3.0
100
AcDbArc
 50
209.2127032280991
 51
240.7870764039403
  0
LINE
  5
5239
330
1E
100
AcDbEntity
  8
0
 48
0.27
100
AcDbLine
 10
24.22887372178948
 20
530.2477278405701
 30
0.0
 11
23.09731443620527
 21
531.3792914783054
 31
0.0
  0
LINE
  5
523A
330
1E
100
AcDbEntity
  8
0
 48
0.27
100
AcDbLine
 10
18.60118407926964
 20
539.5000134198356
 30
0.0
 11
18.60118407926964
 21
535.8754391280501
 31
0.0
  0
LINE
  5
523B
330
1E
100
AcDbEntity
  8
0
 48
0.27
100
AcDbLine
 10
18.60118407926964
 20
535.8754391280501
 30
0.0
 11
17.73518407926966
 21
535.5167311585926
 31
0.0
  0
LINE
  5
523C
330
1E
100
AcDbEntity
  8
0
 48
0.27
100
AcDbLine
 10
38.56148406346964
 20
532.2477275196471
 30
0.0
 11
36.56148406346964
 21
530.2477275196471
 31
0.0
  0
LINE
  5
523D
330
1E
100
AcDbEntity
  8
0
 48
0.27
100
AcDbLine
 10
21.06146600229951
 20
530.2477275197202
 30
0.0
 11
36.56148406574809
 21
530.2477275197202
 31
0.0
  0
LINE
  5
523E
330
1E
100
AcDbEntity
  8
0
 48
0.27
100
AcDbLine
 10
-11.93849787545892
 20
530.2477275197202
 30
0.0
 11
-27.43851593425191
 21
530.2477275197202
 31
0.0
  0
LINE
  5
523F
330
1E
100
AcDbEntity
  8
0
 48
0.27
100
AcDbLine
 10
-27.43851593425191
 20
530.2477275197202
 30
0.0
 11
-29.93851593425191
 21
532.7477275197202
 31
0.0
  0
LINE
  5
5240
330
1E
100
AcDbEntity
  8
0
 48
0.27
100
AcDbLine
 10
39.06148406574809
 20
532.7477275197202
 30
0.0
 11
36.56148406574809
 21
530.2477275197202
 31
0.0
  0
LINE
  5
5241
330
1E
100
AcDbEntity
  8
0
 48
0.27
100
AcDbLine
 10
36.56148406346964
 20
569.2477275196471
 30
0.0
 11
-27.43851593653048
 21
569.2477275196471
 31
0.0
  0
LINE
  5
5243
330
1E
100
AcDbEntity
  8
0
 48
0.27
100
AcDbLine
 10
17.67148406346965
 20
551.7477275354471
 30
0.0
 11
-8.548515936530492
 21
551.7477275354471
 31
0.0
  0
LINE
  5
5244
330
1E
100
AcDbEntity
  8
0
 48
0.27
100
AcDbLine
 10
-9.476230067857017
 20
553.987427535447
 30
0.0
 11
18.59919819479606
 21
553.9874275354471
 31
0.0
  0
LINE
  5
5245
330
1E
100
AcDbEntity
  8
0
 48
0.27
100
AcDbLine
 10
-9.117521122888405
 20
553.1214275354471
 30
0.0
 11
18.24048924982756
 21
553.1214275354471
 31
0.0
  0
LINE
  5
5246
330
1E
100
AcDbEntity
  8
0
 48
0.27
100
AcDbLine
 10
-8.548515952330461
 20
551.7477275354471
 30
0.0
 11
17.67148407926962
 21
551.7477275354471
 31
0.0
  0
ARC
  5
5248
330
1E
100
AcDbEntity
  8
0
 48
0.27
100
AcDbCircle
 10
-12.30608954543046
 20
551.6173011286471
 30
0.0
 40
1.0003
100
AcDbArc
 50
258.3631432639153
 51
11.63685674236763
  0
LINE
  5
5249
330
1E
100
AcDbEntity
  8
0
 48
0.27
100
AcDbLine
 10
-10.44789530028376
 20
551.7910533582962
 30
0.0
 11
-9.092604947230455
 21
551.203638540647
 31
0.0
  0
ARC
  5
524A
330
1E
100
AcDbEntity
  8
0
 48
0.27
100
AcDbCircle
 10
-12.30608954543046
 20
551.6173011286471
 30
0.0
 40
1.8663
100
AcDbArc
 50
264.6580361333635
 51
5.341963871443408
  0
LINE
  5
524B
330
1E
100
AcDbEntity
  8
0
 48
0.27
100
AcDbLine
 10
-9.092604931392628
 20
551.2036385405849
 30
0.0
 11
-8.548515936530492
 21
551.7477275354471
 31
0.0
  0
LINE
  5
524C
330
1E
100
AcDbEntity
  8
0
 48
0.27
100
AcDbLine
 10
-9.092604947230455
 20
551.203638540647
 30
0.0
 11
-8.548515952330461
 21
551.7477275354471
 31
0.0
  0
LINE
  5
524D
330
1E
100
AcDbEntity
  8
0
 48
0.27
100
AcDbLine
 10
-8.612215952330501
 20
539.8587223648369
 30
0.0
 11
-7.238515952330516
 21
540.427727535447
 31
0.0
  0
LINE
  5
524E
330
1E
100
AcDbEntity
  8
0
 48
0.27
100
AcDbLine
 10
-9.091008515857055
 20
542.2802201147735
 30
0.0
 11
-7.238515936530546
 21
540.4277275354472
 31
0.0
  0
LINE
  5
524F
330
1E
100
AcDbEntity
  8
0
 48
0.27
100
AcDbLine
 10
-9.091008531630421
 20
542.2802201148471
 30
0.0
 11
-7.238515952330516
 21
540.427727535447
 31
0.0
  0
LINE
  5
5250
330
1E
100
AcDbEntity
  8
0
 48
0.27
100
AcDbLine
 10
-12.43851593653048
 20
545.627727535447
 30
0.0
 11
-11.90502335720393
 21
545.0942349561205
 31
0.0
  0
LINE
  5
5251
330
1E
100
AcDbEntity
  8
0
 48
0.27
100
AcDbLine
 10
-12.43851595233045
 20
545.627727535447
 30
0.0
 11
-11.9050233730305
 21
545.0942349561471
 31
0.0
  0
ARC
  5
5252
330
1E
100
AcDbEntity
  8
0
 48
0.27
100
AcDbCircle
 10
-12.30608952965937
 20
541.8791539423182
 30
0.0
 40
3.24
100
AcDbArc
 50
7.110645891652625
 51
82.8893541083441
  0
ARC
  5
5253
330
1E
100
AcDbEntity
  8
0
 48
0.27
100
AcDbCircle
 10
-12.30608954543046
 20
541.879153942347
 30
0.0
 40
3.24
100
AcDbArc
 50
7.110645891700214
 51
82.88935410830147
  0
LINE
  5
5254
330
1E
100
AcDbEntity
  8
0
 48
0.27
100
AcDbLine
 10
-13.81221595233055
 20
548.426732706079
 30
0.0
 11
-13.81221595233055
 21
545.0587223648151
 31
0.0
  0
LINE
  5
5255
330
1E
100
AcDbEntity
  8
0
 48
0.27
100
AcDbLine
 10
-14.67821595233053
 20
548.785441651094
 30
0.0
 11
-14.67821595233053
 21
544.7000134198001
 31
0.0
  0
LINE
  5
5256
330
1E
100
AcDbEntity
  8
0
 48
0.27
100
AcDbLine
 10
-13.81221595233055
 20
545.0587223648151
 30
0.0
 11
-12.43851595233045
 21
545.627727535447
 31
0.0
  0
ARC
  5
5257
330
1E
100
AcDbEntity
  8
0
 48
0.27
100
AcDbCircle
 10
-12.30608954543046
 20
541.879153942347
 30
0.0
 40
1.0003
100
AcDbArc
 50
348.0082083486939
 51
101.9917916554315
  0
ARC
  5
5258
330
1E
100
AcDbEntity
  8
0
 48
0.27
100
AcDbCircle
 10
-12.30608954543046
 20
541.879153942347
 30
0.0
 40
1.8663
100
AcDbArc
 50
354.3485551779203
 51
95.65144482547513
  0
LINE
  5
5259
330
1E
100
AcDbEntity
  8
0
 48
0.27
100
AcDbLine
 10
-11.9050233730305
 20
545.0942349561471
 30
0.0
 11
-12.48987615649852
 21
543.7363825689832
 31
0.0
  0
LINE
  5
525A
330
1E
100
AcDbEntity
  8
0
 48
0.27
100
AcDbLine
 10
-12.48987615649739
 20
543.736382568982
 30
0.0
 11
-12.51392343357585
 21
542.8576247722343
 31
0.0
  0
LINE
  5
525B
330
1E
100
AcDbEntity
  8
0
 48
0.27
100
AcDbLine
 10
-14.67821595233053
 20
544.7000134198001
 30
0.0
 11
-13.81221595233055
 21
545.0587223648151
 31
0.0
  0
LINE
  5
525C
330
1E
100
AcDbEntity
  8
0
 48
0.27
100
AcDbLine
 10
-14.67821595233053
 20
544.7000134198001
 30
0.0
 11
-12.97136260250815
 21
542.9931600699776
 31
0.0
  0
ARC
  5
525D
330
1E
100
AcDbEntity
  8
0
 48
0.27
100
AcDbCircle
 10
-12.61780921191493
 20
543.3467134605709
 30
0.0
 40
0.5
100
AcDbArc
 50
225.0
 51
281.9917916554295
  0
LINE
  5
525E
330
1E
100
AcDbEntity
  8
0
 48
0.27
100
AcDbLine
 10
-12.97136260250815
 20
542.9931600699776
 30
0.0
 11
-12.48987615649739
 21
543.736382568982
 31
0.0
  0
LINE
  5
525F
330
1E
100
AcDbEntity
  8
0
 48
0.27
100
AcDbLine
 10
-13.81221595233055
 20
545.0587223648151
 30
0.0
 11
-12.48987615649852
 21
543.7363825689832
 31
0.0
  0
ARC
  5
5260
330
1E
100
AcDbEntity
  8
0
 48
0.27
100
AcDbCircle
 10
-10.83853002718419
 20
541.5674342759682
 30
0.0
 40
0.5
100
AcDbArc
 50
168.0082083486922
 51
224.9999999984523
  0
LINE
  5
5261
330
1E
100
AcDbEntity
  8
0
 48
0.27
100
AcDbLine
 10
-10.44886091878342
 20
541.6953673313891
 30
0.0
 11
-9.091008531634287
 21
542.2802201148508
 31
0.0
  0
LINE
  5
5262
330
1E
100
AcDbEntity
  8
0
 48
0.27
100
AcDbLine
 10
-11.19208341778696
 20
541.2138808853845
 30
0.0
 11
-10.44886091878479
 21
541.6953673313884
 31
0.0
  0
LINE
  5
5263
330
1E
100
AcDbEntity
  8
0
 48
0.27
100
AcDbLine
 10
-10.44886091878479
 20
541.6953673313884
 30
0.0
 11
-11.32761871552915
 21
541.6713200542724
 31
0.0
  0
LINE
  5
5264
330
1E
100
AcDbEntity
  8
0
 48
0.27
100
AcDbLine
 10
-10.44886091878342
 20
541.6953673313891
 30
0.0
 11
-8.612215952330501
 21
539.8587223648369
 31
0.0
  0
ARC
  5
5265
330
1E
100
AcDbEntity
  8
0
 48
0.27
100
AcDbCircle
 10
-12.30608952965926
 20
551.6173011285759
 30
0.0
 40
3.24
100
AcDbArc
 50
277.3351813687926
 51
352.6648186312057
  0
ARC
  5
5266
330
1E
100
AcDbEntity
  8
0
 48
0.27
100
AcDbCircle
 10
-12.30608954543046
 20
551.6173011286471
 30
0.0
 40
3.24
100
AcDbArc
 50
277.3351813687992
 51
352.6648186312008
  0
LINE
  5
5267
330
1E
100
AcDbEntity
  8
0
 48
0.27
100
AcDbLine
 10
-12.43851593653048
 20
547.8577275354471
 30
0.0
 11
-11.89242694166827
 21
548.4038165303092
 31
0.0
  0
LINE
  5
5268
330
1E
100
AcDbEntity
  8
0
 48
0.27
100
AcDbLine
 10
-11.89242695743925
 20
548.4038165303805
 30
0.0
 11
-12.47984177492375
 21
549.7591068834857
 31
0.0
  0
LINE
  5
5269
330
1E
100
AcDbEntity
  8
0
 48
0.27
100
AcDbLine
 10
-12.50785807007239
 20
550.6375615956772
 30
0.0
 11
-12.47984177492262
 21
549.7591068834869
 31
0.0
  0
LINE
  5
526A
330
1E
100
AcDbEntity
  8
0
 48
0.27
100
AcDbLine
 10
-12.43851595233045
 20
547.8577275354471
 30
0.0
 11
-11.8924269574305
 21
548.403816530347
 31
0.0
  0
LINE
  5
526B
330
1E
100
AcDbEntity
  8
0
 48
0.27
100
AcDbLine
 10
-12.43851593653048
 20
547.8577275354471
 30
0.0
 11
-12.43851593653048
 21
545.627727535447
 31
0.0
  0
LINE
  5
526C
330
1E
100
AcDbEntity
  8
0
 48
0.27
100
AcDbLine
 10
-12.43851595233045
 20
547.8577275354471
 30
0.0
 11
-12.43851595233045
 21
545.627727535447
 31
0.0
  0
LINE
  5
526D
330
1E
100
AcDbEntity
  8
0
 48
0.27
100
AcDbLine
 10
-13.81221595233055
 20
548.426732706079
 30
0.0
 11
-14.67821595233053
 21
548.785441651094
 31
0.0
  0
LINE
  5
526E
330
1E
100
AcDbEntity
  8
0
 48
0.27
100
AcDbLine
 10
-14.67821595233053
 20
548.785441651094
 30
0.0
 11
-12.96226546678494
 21
550.5013921366396
 31
0.0
  0
ARC
  5
526F
330
1E
100
AcDbEntity
  8
0
 48
0.27
100
AcDbCircle
 10
-12.60871207619161
 20
550.1478387460464
 30
0.0
 40
0.5
100
AcDbArc
 50
78.36314326391532
 51
135.0
  0
LINE
  5
5270
330
1E
100
AcDbEntity
  8
0
 48
0.27
100
AcDbLine
 10
-12.47984177492375
 20
549.7591068834857
 30
0.0
 11
-12.96226546678494
 21
550.5013921366396
 31
0.0
  0
LINE
  5
5271
330
1E
100
AcDbEntity
  8
0
 48
0.27
100
AcDbLine
 10
-13.81221595233055
 20
548.426732706079
 30
0.0
 11
-12.47984177492375
 21
549.7591068834857
 31
0.0
  0
LINE
  5
5272
330
1E
100
AcDbEntity
  8
0
 48
0.27
100
AcDbLine
 10
-12.43851595233045
 20
547.8577275354471
 30
0.0
 11
-13.81221595233055
 21
548.426732706079
 31
0.0
  0
LINE
  5
5273
330
1E
100
AcDbEntity
  8
0
 48
0.27
100
AcDbLine
 10
-9.117521122888405
 20
553.1214275354471
 30
0.0
 11
-9.476230067856903
 21
553.9874275354471
 31
0.0
  0
ARC
  5
5274
330
1E
100
AcDbEntity
  8
0
 48
0.27
100
AcDbCircle
 10
-10.83662716286298
 20
551.9199236595693
 30
0.0
 40
0.5
100
AcDbArc
 50
134.9999999947377
 51
191.6368567423693
  0
LINE
  5
5275
330
1E
100
AcDbEntity
  8
0
 48
0.27
100
AcDbLine
 10
-11.1901805534238
 20
552.2734770501951
 30
0.0
 11
-10.44789530028501
 21
551.7910533582961
 31
0.0
  0
LINE
  5
5276
330
1E
100
AcDbEntity
  8
0
 48
0.27
100
AcDbLine
 10
-10.44789530028501
 20
551.7910533582961
 30
0.0
 11
-11.32635001248192
 21
551.8190696533966
 31
0.0
  0
LINE
  5
5277
330
1E
100
AcDbEntity
  8
0
 48
0.27
100
AcDbLine
 10
-10.44789530028376
 20
551.7910533582962
 30
0.0
 11
-9.117521122888405
 21
553.1214275354471
 31
0.0
  0
LINE
  5
5278
330
1E
100
AcDbEntity
  8
0
 48
0.27
100
AcDbLine
 10
-8.548515952330461
 20
551.7477275354471
 30
0.0
 11
-9.117521122888405
 21
553.1214275354471
 31
0.0
  0
LINE
  5
5279
330
1E
100
AcDbEntity
  8
0
 48
0.27
100
AcDbLine
 10
-11.1901805534238
 20
552.2734770501951
 30
0.0
 11
-9.476230067856903
 21
553.9874275354471
 31
0.0
  0
LINE
  5
527A
330
1E
100
AcDbEntity
  8
0
 48
0.27
100
AcDbLine
 10
-27.43851593653048
 20
569.2477275196471
 30
0.0
 11
-29.43851593653048
 21
567.2477275196471
 31
0.0
  0
LINE
  5
527B
330
1E
100
AcDbEntity
  8
0
 48
0.27
100
AcDbLine
 10
17.73518407926966
 20
539.8587223648369
 30
0.0
 11
16.36148407926956
 21
540.427727535447
 31
0.0
  0
LINE
  5
527C
330
1E
100
AcDbEntity
  8
0
 48
0.27
100
AcDbLine
 10
18.21397664279621
 20
542.2802201147736
 30
0.0
 11
16.36148406346959
 21
540.4277275354472
 31
0.0
  0
LINE
  5
527D
330
1E
100
AcDbEntity
  8
0
 48
0.27
100
AcDbLine
 10
18.21397665856958
 20
542.2802201148471
 30
0.0
 11
16.36148407926956
 21
540.427727535447
 31
0.0
  0
ARC
  5
527E
330
1E
100
AcDbEntity
  8
0
 48
0.27
100
AcDbCircle
 10
21.42905767236962
 20
551.6173011286471
 30
0.0
 40
1.0003
100
AcDbArc
 50
168.3631432576324
 51
281.6368567360846
  0
LINE
  5
527F
330
1E
100
AcDbEntity
  8
0
 48
0.27
100
AcDbLine
 10
19.57086342722291
 20
551.7910533582962
 30
0.0
 11
18.21557307416961
 21
551.203638540647
 31
0.0
  0
LINE
  5
5280
330
1E
100
AcDbEntity
  8
0
 48
0.27
100
AcDbLine
 10
18.2155730583319
 20
551.2036385405849
 30
0.0
 11
17.67148406346965
 21
551.7477275354471
 31
0.0
  0
LINE
  5
5281
330
1E
100
AcDbEntity
  8
0
 48
0.27
100
AcDbLine
 10
18.21557307416961
 20
551.203638540647
 30
0.0
 11
17.67148407926962
 21
551.7477275354471
 31
0.0
  0
ARC
  5
5282
330
1E
100
AcDbEntity
  8
0
 48
0.27
100
AcDbCircle
 10
21.42905767236962
 20
551.6173011286471
 30
0.0
 40
1.8663
100
AcDbArc
 50
174.6580361285566
 51
275.3419638666366
  0
LINE
  5
5283
330
1E
100
AcDbEntity
  8
0
 48
0.27
100
AcDbLine
 10
21.56148406346964
 20
545.627727535447
 30
0.0
 11
21.02799148414309
 21
545.0942349561205
 31
0.0
  0
LINE
  5
5284
330
1E
100
AcDbEntity
  8
0
 48
0.27
100
AcDbLine
 10
21.56148407926961
 20
545.627727535447
 30
0.0
 11
21.02799149996966
 21
545.0942349561471
 31
0.0
  0
LINE
  5
5285
330
1E
100
AcDbEntity
  8
0
 48
0.27
100
AcDbLine
 10
22.93518407926959
 20
545.0587223648151
 30
0.0
 11
21.56148407926961
 21
545.627727535447
 31
0.0
  0
LINE
  5
5286
330
1E
100
AcDbEntity
  8
0
 48
0.27
100
AcDbLine
 10
23.80118407926969
 20
548.785441651094
 30
0.0
 11
23.80118407926969
 21
544.7000134198001
 31
0.0
  0
LINE
  5
5287
330
1E
100
AcDbEntity
  8
0
 48
0.27
100
AcDbLine
 10
22.93518407926959
 20
548.426732706079
 30
0.0
 11
22.93518407926959
 21
545.0587223648151
 31
0.0
  0
ARC
  5
5288
330
1E
100
AcDbEntity
  8
0
 48
0.27
100
AcDbCircle
 10
21.42905765659842
 20
541.8791539423182
 30
0.0
 40
3.24
100
AcDbArc
 50
97.11064589165593
 51
172.8893541083473
  0
ARC
  5
5289
330
1E
100
AcDbEntity
  8
0
 48
0.27
100
AcDbCircle
 10
21.42905767236962
 20
541.879153942347
 30
0.0
 40
3.24
100
AcDbArc
 50
97.11064589169852
 51
172.8893541082998
  0
LINE
  5
528A
330
1E
100
AcDbEntity
  8
0
 48
0.27
100
AcDbLine
 10
21.02799149996966
 20
545.0942349561471
 30
0.0
 11
21.61284428343768
 21
543.7363825689832
 31
0.0
  0
ARC
  5
528B
330
1E
100
AcDbEntity
  8
0
 48
0.27
100
AcDbCircle
 10
21.42905767236962
 20
541.879153942347
 30
0.0
 40
1.0003
100
AcDbArc
 50
78.00820834456846
 51
191.9917916513061
  0
ARC
  5
528C
330
1E
100
AcDbEntity
  8
0
 48
0.27
100
AcDbCircle
 10
21.42905767236962
 20
541.879153942347
 30
0.0
 40
1.8663
100
AcDbArc
 50
84.34855517452485
 51
185.6514448220797
  0
ARC
  5
528D
330
1E
100
AcDbEntity
  8
0
 48
0.27
100
AcDbCircle
 10
19.96149815412335
 20
541.5674342759682
 30
0.0
 40
0.5
100
AcDbArc
 50
315.0000000015476
 51
11.99179165130773
  0
LINE
  5
528E
330
1E
100
AcDbEntity
  8
0
 48
0.27
100
AcDbLine
 10
19.57182904572258
 20
541.6953673313891
 30
0.0
 11
18.21397665857333
 21
542.2802201148508
 31
0.0
  0
LINE
  5
528F
330
1E
100
AcDbEntity
  8
0
 48
0.27
100
AcDbLine
 10
19.57182904572394
 20
541.6953673313884
 30
0.0
 11
20.45058684246831
 21
541.6713200542724
 31
0.0
  0
LINE
  5
5290
330
1E
100
AcDbEntity
  8
0
 48
0.27
100
AcDbLine
 10
20.31505154472612
 20
541.2138808853845
 30
0.0
 11
19.57182904572394
 21
541.6953673313884
 31
0.0
  0
LINE
  5
5291
330
1E
100
AcDbEntity
  8
0
 48
0.27
100
AcDbLine
 10
19.57182904572258
 20
541.6953673313891
 30
0.0
 11
17.73518407926966
 21
539.8587223648369
 31
0.0
  0
LINE
  5
5292
330
1E
100
AcDbEntity
  8
0
 48
0.27
100
AcDbLine
 10
21.61284428343654
 20
543.736382568982
 30
0.0
 11
21.63689156051501
 21
542.8576247722343
 31
0.0
  0
LINE
  5
5293
330
1E
100
AcDbEntity
  8
0
 48
0.27
100
AcDbLine
 10
23.80118407926969
 20
544.7000134198001
 30
0.0
 11
22.93518407926959
 21
545.0587223648151
 31
0.0
  0
LINE
  5
5294
330
1E
100
AcDbEntity
  8
0
 48
0.27
100
AcDbLine
 10
23.80118407926969
 20
544.7000134198001
 30
0.0
 11
22.09433072944731
 21
542.9931600699776
 31
0.0
  0
LINE
  5
5295
330
1E
100
AcDbEntity
  8
0
 48
0.27
100
AcDbLine
 10
22.09433072944731
 20
542.9931600699776
 30
0.0
 11
21.61284428343654
 21
543.736382568982
 31
0.0
  0
ARC
  5
5296
330
1E
100
AcDbEntity
  8
0
 48
0.27
100
AcDbCircle
 10
21.74077733885409
 20
543.3467134605709
 30
0.0
 40
0.5
100
AcDbArc
 50
258.0082083445704
 51
315.0000000000001
  0
LINE
  5
5297
330
1E
100
AcDbEntity
  8
0
 48
0.27
100
AcDbLine
 10
22.93518407926959
 20
545.0587223648151
 30
0.0
 11
21.61284428343768
 21
543.7363825689832
 31
0.0
  0
LINE
  5
5298
330
1E
100
AcDbEntity
  8
0
 48
0.27
100
AcDbLine
 10
21.56148406346964
 20
547.8577275354471
 30
0.0
 11
21.01539506860743
 21
548.4038165303092
 31
0.0
  0
LINE
  5
5299
330
1E
100
AcDbEntity
  8
0
 48
0.27
100
AcDbLine
 10
21.01539508437841
 20
548.4038165303805
 30
0.0
 11
21.60280990186291
 21
549.7591068834857
 31
0.0
  0
LINE
  5
529A
330
1E
100
AcDbEntity
  8
0
 48
0.27
100
AcDbLine
 10
21.56148407926961
 20
547.8577275354471
 30
0.0
 11
21.01539508436966
 21
548.403816530347
 31
0.0
  0
ARC
  5
529B
330
1E
100
AcDbEntity
  8
0
 48
0.27
100
AcDbCircle
 10
21.42905765659842
 20
551.6173011285759
 30
0.0
 40
3.24
100
AcDbArc
 50
187.3351813687943
 51
262.6648186312074
  0
ARC
  5
529C
330
1E
100
AcDbEntity
  8
0
 48
0.27
100
AcDbCircle
 10
21.42905767236962
 20
551.6173011286471
 30
0.0
 40
3.24
100
AcDbArc
 50
187.3351813687992
 51
262.6648186312007
  0
LINE
  5
529D
330
1E
100
AcDbEntity
  8
0
 48
0.27
100
AcDbLine
 10
21.63082619701155
 20
550.6375615956772
 30
0.0
 11
21.60280990186178
 21
549.7591068834869
 31
0.0
  0
LINE
  5
529E
330
1E
100
AcDbEntity
  8
0
 48
0.27
100
AcDbLine
 10
22.93518407926959
 20
548.426732706079
 30
0.0
 11
23.80118407926969
 21
548.785441651094
 31
0.0
  0
LINE
  5
529F
330
1E
100
AcDbEntity
  8
0
 48
0.27
100
AcDbLine
 10
23.80118407926969
 20
548.785441651094
 30
0.0
 11
22.08523359372398
 21
550.5013921366396
 31
0.0
  0
LINE
  5
52A0
330
1E
100
AcDbEntity
  8
0
 48
0.27
100
AcDbLine
 10
21.60280990186291
 20
549.7591068834857
 30
0.0
 11
22.08523359372398
 21
550.5013921366396
 31
0.0
  0
LINE
  5
52A1
330
1E
100
AcDbEntity
  8
0
 48
0.27
100
AcDbLine
 10
21.56148407926961
 20
547.8577275354471
 30
0.0
 11
22.93518407926959
 21
548.426732706079
 31
0.0
  0
ARC
  5
52A2
330
1E
100
AcDbEntity
  8
0
 48
0.27
100
AcDbCircle
 10
21.73168020313076
 20
550.1478387460464
 30
0.0
 40
0.5
100
AcDbArc
 50
44.99999999999994
 51
101.6368567360846
  0
LINE
  5
52A3
330
1E
100
AcDbEntity
  8
0
 48
0.27
100
AcDbLine
 10
22.93518407926959
 20
548.426732706079
 30
0.0
 11
21.60280990186291
 21
549.7591068834857
 31
0.0
  0
LINE
  5
52A4
330
1E
100
AcDbEntity
  8
0
 48
0.27
100
AcDbLine
 10
21.56148406346964
 20
547.8577275354471
 30
0.0
 11
21.56148406346964
 21
545.627727535447
 31
0.0
  0
LINE
  5
52A5
330
1E
100
AcDbEntity
  8
0
 48
0.27
100
AcDbLine
 10
21.56148407926961
 20
547.8577275354471
 30
0.0
 11
21.56148407926961
 21
545.627727535447
 31
0.0
  0
LINE
  5
52A6
330
1E
100
AcDbEntity
  8
0
 48
0.27
100
AcDbLine
 10
18.24048924982756
 20
553.1214275354471
 30
0.0
 11
18.59919819479606
 21
553.9874275354471
 31
0.0
  0
ARC
  5
52A7
330
1E
100
AcDbEntity
  8
0
 48
0.27
100
AcDbCircle
 10
19.95959528980214
 20
551.9199236595693
 30
0.0
 40
0.5
100
AcDbArc
 50
348.3631432576307
 51
45.00000000526222
  0
LINE
  5
52A8
330
1E
100
AcDbEntity
  8
0
 48
0.27
100
AcDbLine
 10
19.57086342722405
 20
551.7910533582961
 30
0.0
 11
20.44931813942108
 21
551.8190696533966
 31
0.0
  0
LINE
  5
52A9
330
1E
100
AcDbEntity
  8
0
 48
0.27
100
AcDbLine
 10
20.31314868036296
 20
552.2734770501951
 30
0.0
 11
19.57086342722405
 21
551.7910533582961
 31
0.0
  0
LINE
  5
52AA
330
1E
100
AcDbEntity
  8
0
 48
0.27
100
AcDbLine
 10
17.67148407926962
 20
551.7477275354471
 30
0.0
 11
18.24048924982756
 21
553.1214275354471
 31
0.0
  0
LINE
  5
52AB
330
1E
100
AcDbEntity
  8
0
 48
0.27
100
AcDbLine
 10
19.57086342722291
 20
551.7910533582962
 30
0.0
 11
18.24048924982756
 21
553.1214275354471
 31
0.0
  0
LINE
  5
52AC
330
1E
100
AcDbEntity
  8
0
 48
0.27
100
AcDbLine
 10
20.31314868036296
 20
552.2734770501951
 30
0.0
 11
18.59919819479606
 21
553.9874275354471
 31
0.0
  0
LINE
  5
52AD
330
1E
100
AcDbEntity
  8
0
 48
0.27
100
AcDbLine
 10
36.56148406346964
 20
569.2477275196471
 30
0.0
 11
38.56148406346964
 21
567.2477275196471
 31
0.0
  0
LINE
  5
52AE
330
1E
100
AcDbEntity
  8
虛線
 48
0.27
100
AcDbLine
 10
25.56148406574811
 20
558.7477275197202
 30
0.0
 11
33.5614840657481
 21
558.7477275197202
 31
0.0
  0
LINE
  5
52AF
330
1E
100
AcDbEntity
  8
虛線
 48
0.27
100
AcDbLine
 10
33.5614840657481
 20
569.9477275197202
 30
0.0
 11
25.56148406574811
 21
569.9477275197202
 31
0.0
  0
LINE
  5
52B0
330
1E
100
AcDbEntity
  8
0
 48
0.27
100
AcDbLine
 10
22.0614840657481
 20
570.7477275197202
 30
0.0
 11
38.06148406574811
 21
570.7477275197202
 31
0.0
  0
LINE
  5
52B1
330
1E
100
AcDbEntity
  8
0
 48
0.27
100
AcDbLine
 10
11.46148406864834
 20
570.7477275197202
 30
0.0
 11
-2.33851593715191
 21
570.7477275197202
 31
0.0
  0
LINE
  5
52B2
330
1E
100
AcDbEntity
  8
虛線
 48
0.27
100
AcDbLine
 10
-23.83851593425176
 20
569.9477275197202
 30
0.0
 11
-23.83851593425176
 21
554.9477275197203
 31
0.0
  0
LINE
  5
52B3
330
1E
100
AcDbEntity
  8
虛線
 48
0.27
100
AcDbLine
 10
-17.0385159342518
 20
569.9477275197202
 30
0.0
 11
-17.0385159342518
 21
554.9477275197203
 31
0.0
  0
LINE
  5
52B4
330
1E
100
AcDbEntity
  8
中心線
 48
0.27
100
AcDbLine
 10
-20.43851593425189
 20
572.2477275197202
 30
0.0
 11
-20.43851593425189
 21
550.9826640102592
 31
0.0
  0
LINE
  5
52B5
330
1E
100
AcDbEntity
  8
虛線
 48
0.27
100
AcDbLine
 10
-20.43851593425189
 20
552.9847366044755
 30
0.0
 11
-17.0385159342518
 21
554.9477275197203
 31
0.0
  0
LINE
  5
52B6
330
1E
100
AcDbEntity
  8
虛線
 48
0.27
100
AcDbLine
 10
-23.83851593425176
 20
554.9477275197203
 30
0.0
 11
-17.0385159342518
 21
554.9477275197203
 31
0.0
  0
LINE
  5
52B7
330
1E
100
AcDbEntity
  8
虛線
 48
0.27
100
AcDbLine
 10
-23.83851593425176
 20
554.9477275197203
 30
0.0
 11
-20.43851593425189
 21
552.9847366044755
 31
0.0
  0
LINE
  5
52B8
330
1E
100
AcDbEntity
  8
虛線
 48
0.27
100
AcDbLine
 10
-15.63851593425171
 20
570.7477275197202
 30
0.0
 11
-16.43851593425189
 21
569.9477275197202
 31
0.0
  0
LINE
  5
52B9
330
1E
100
AcDbEntity
  8
0
 48
0.27
100
AcDbLine
 10
-12.93851593425189
 20
570.7477275197202
 30
0.0
 11
-28.93851593425189
 21
570.7477275197202
 31
0.0
  0
LINE
  5
52BA
330
1E
100
AcDbEntity
  8
虛線
 48
0.27
100
AcDbLine
 10
-16.43851593425189
 20
569.9477275197202
 30
0.0
 11
-16.43851593425189
 21
558.7477275197202
 31
0.0
  0
LINE
  5
52BB
330
1E
100
AcDbEntity
  8
虛線
 48
0.27
100
AcDbLine
 10
-24.4385159342519
 20
569.9477275197202
 30
0.0
 11
-24.4385159342519
 21
558.7477275197202
 31
0.0
  0
LINE
  5
52BC
330
1E
100
AcDbEntity
  8
0
 48
0.27
100
AcDbLine
 10
-30.4385159342519
 20
569.2477275197202
 30
0.0
 11
-30.4385159342519
 21
560.5477275179602
 31
0.0
  0
LINE
  5
52BD
330
1E
100
AcDbEntity
  8
虛線
 48
0.27
100
AcDbLine
 10
-16.43851593425189
 20
558.7477275197202
 30
0.0
 11
-24.4385159342519
 21
558.7477275197202
 31
0.0
  0
LINE
  5
52BE
330
1E
100
AcDbEntity
  8
0
 48
0.27
100
AcDbLine
 10
-30.4385159342519
 20
560.5477275179602
 30
0.0
 11
-29.9385159342519
 21
560.0477275179602
 31
0.0
  0
LINE
  5
52BF
330
1E
100
AcDbEntity
  8
虛線
 48
0.27
100
AcDbLine
 10
-24.4385159342519
 20
569.9477275197202
 30
0.0
 11
-16.43851593425189
 21
569.9477275197202
 31
0.0
  0
LINE
  5
52C0
330
1E
100
AcDbEntity
  8
0
 48
0.27
100
AcDbLine
 10
-28.93851593425189
 20
570.7477275197202
 30
0.0
 11
-30.4385159342519
 21
569.2477275197202
 31
0.0
  0
LINE
  5
52C1
330
1E
100
AcDbEntity
  8
虛線
 48
0.27
100
AcDbLine
 10
-25.23851593425185
 20
570.7477275197202
 30
0.0
 11
-24.4385159342519
 21
569.9477275197202
 31
0.0
  0
LINE
  5
52C2
330
1E
100
AcDbEntity
  8
0
 48
0.27
100
AcDbLine
 10
-12.43851593570186
 20
570.2477275211703
 30
0.0
 11
-2.838515935701948
 21
570.2477275211703
 31
0.0
  0
LINE
  5
52C3
330
1E
100
AcDbEntity
  8
0
 48
0.27
100
AcDbLine
 10
-12.43851593570186
 20
570.2477275211703
 30
0.0
 11
-12.93851593425189
 21
570.7477275197202
 31
0.0
  0
LINE
  5
52C4
330
1E
100
AcDbEntity
  8
0
 48
0.27
100
AcDbLine
 10
-2.838515935701948
 20
570.2477275211703
 30
0.0
 11
-2.33851593715191
 21
570.7477275197202
 31
0.0
  0
LINE
  5
52C5
330
1E
100
AcDbEntity
  8
虛線
 48
0.27
100
AcDbLine
 10
32.9614840657482
 20
569.9477275197202
 30
0.0
 11
32.9614840657482
 21
554.9477275197203
 31
0.0
  0
LINE
  5
52C6
330
1E
100
AcDbEntity
  8
虛線
 48
0.27
100
AcDbLine
 10
26.16148406574824
 20
569.9477275197202
 30
0.0
 11
26.16148406574824
 21
554.9477275197203
 31
0.0
  0
LINE
  5
52C7
330
1E
100
AcDbEntity
  8
中心線
 48
0.27
100
AcDbLine
 10
29.5614840657481
 20
572.2477275197202
 30
0.0
 11
29.5614840657481
 21
550.9826640102592
 31
0.0
  0
LINE
  5
52C8
330
1E
100
AcDbEntity
  8
虛線
 48
0.27
100
AcDbLine
 10
29.5614840657481
 20
552.9847366044755
 30
0.0
 11
26.16148406574824
 21
554.9477275197203
 31
0.0
  0
LINE
  5
52C9
330
1E
100
AcDbEntity
  8
虛線
 48
0.27
100
AcDbLine
 10
32.9614840657482
 20
554.9477275197203
 30
0.0
 11
26.16148406574824
 21
554.9477275197203
 31
0.0
  0
LINE
  5
52CA
330
1E
100
AcDbEntity
  8
虛線
 48
0.27
100
AcDbLine
 10
32.9614840657482
 20
554.9477275197203
 30
0.0
 11
29.5614840657481
 21
552.9847366044755
 31
0.0
  0
LINE
  5
52CB
330
1E
100
AcDbEntity
  8
0
 48
0.27
100
AcDbLine
 10
21.56148406719829
 20
570.2477275211703
 30
0.0
 11
11.96148406719816
 21
570.2477275211703
 31
0.0
  0
LINE
  5
52CC
330
1E
100
AcDbEntity
  8
0
 48
0.27
100
AcDbLine
 10
11.96148406719816
 20
570.2477275211703
 30
0.0
 11
11.46148406864834
 21
570.7477275197202
 31
0.0
  0
LINE
  5
52CD
330
1E
100
AcDbEntity
  8
虛線
 48
0.27
100
AcDbLine
 10
25.56148406574811
 20
569.9477275197202
 30
0.0
 11
25.56148406574811
 21
558.7477275197202
 31
0.0
  0
LINE
  5
52CE
330
1E
100
AcDbEntity
  8
虛線
 48
0.27
100
AcDbLine
 10
24.76148406574815
 20
570.7477275197202
 30
0.0
 11
25.56148406574811
 21
569.9477275197202
 31
0.0
  0
LINE
  5
52CF
330
1E
100
AcDbEntity
  8
0
 48
0.27
100
AcDbLine
 10
21.56148406719829
 20
570.2477275211703
 30
0.0
 11
22.0614840657481
 21
570.7477275197202
 31
0.0
  0
LINE
  5
52D0
330
1E
100
AcDbEntity
  8
0
 48
0.27
100
AcDbLine
 10
39.5614840657481
 20
569.2477275197202
 30
0.0
 11
39.5614840657481
 21
547.7477275197202
 31
0.0
  0
LINE
  5
52D1
330
1E
100
AcDbEntity
  8
0
 48
0.27
100
AcDbLine
 10
39.5614840657481
 20
547.7477275197202
 30
0.0
 11
39.06148406574811
 21
547.2477275197202
 31
0.0
  0
LINE
  5
52D2
330
1E
100
AcDbEntity
  8
虛線
 48
0.27
100
AcDbLine
 10
33.5614840657481
 20
569.9477275197202
 30
0.0
 11
33.5614840657481
 21
558.7477275197202
 31
0.0
  0
LINE
  5
52D3
330
1E
100
AcDbEntity
  8
虛線
 48
0.27
100
AcDbLine
 10
34.36148406574806
 20
570.7477275197202
 30
0.0
 11
33.5614840657481
 21
569.9477275197202
 31
0.0
  0
LINE
  5
52D4
330
1E
100
AcDbEntity
  8
0
 48
0.27
100
AcDbLine
 10
39.5614840657481
 20
569.2477275197202
 30
0.0
 11
38.06148406574811
 21
570.7477275197202
 31
0.0
  0
CIRCLE
  5
52E2
330
1E
100
AcDbEntity
  8
指線
 48
0.27
100
AcDbCircle
 10
24.55560600493439
 20
533.9978414464638
 30
0.0
 40
2.739789749117051
  0
ARC
  5
52E3
330
1E
100
AcDbEntity
  8
指線
 48
0.27
100
AcDbCircle
 10
24.55560600493439
 20
533.9978414464638
 30
0.0
 40
1.643195272868438
100
AcDbArc
 50
199.4717855360968
 51
250.430310000205
  0
ARC
  5
52E4
330
1E
100
AcDbEntity
  8
指線
 48
0.27
100
AcDbCircle
 10
24.55560600493439
 20
533.9978414464638
 30
0.0
 40
1.643195272868438
100
AcDbArc
 50
109.5519646902243
 51
160.5125356647092
  0
LINE
  5
52E5
330
1E
100
AcDbEntity
  8
指線
 48
0.27
100
AcDbLine
 10
24.00569177926096
 20
535.5477363753289
 30
0.0
 11
24.00553680246102
 21
534.5458332974978
 31
0.0
  0
LINE
  5
52E6
330
1E
100
AcDbEntity
  8
指線
 48
0.27
100
AcDbLine
 10
24.005367283178
 20
533.4499153203637
 30
0.0
 11
24.00521230615877
 21
532.4480122425277
 31
0.0
  0
LINE
  5
52E7
330
1E
100
AcDbEntity
  8
指線
 48
0.27
100
AcDbLine
 10
24.005367283178
 20
533.4499153203637
 30
0.0
 11
21.8710867880981
 21
533.4502979496002
 31
0.0
  0
LINE
  5
52E8
330
1E
100
AcDbEntity
  8
指線
 48
0.27
100
AcDbLine
 10
24.00553680246102
 20
534.5458332974978
 30
0.0
 11
21.87125630738112
 21
534.5462159267342
 31
0.0
  0
ARC
  5
52E9
330
1E
100
AcDbEntity
  8
指線
 48
0.27
100
AcDbCircle
 10
24.55560600493439
 20
533.9978414464638
 30
0.0
 40
1.643195272868438
100
AcDbArc
 50
289.3895192455083
 51
340.5104803126675
  0
ARC
  5
52EA
330
1E
100
AcDbEntity
  8
指線
 48
0.27
100
AcDbCircle
 10
24.55560600493439
 20
533.9978414464638
 30
0.0
 40
1.643195272868438
100
AcDbArc
 50
19.46973018413992
 51
70.59275544491747
  0
LINE
  5
52EB
330
1E
100
AcDbEntity
  8
指線
 48
0.27
100
AcDbLine
 10
25.1016075736193
 20
535.5476714344852
 30
0.0
 11
25.10145258040748
 21
534.5456636737923
 31
0.0
  0
LINE
  5
52EC
330
1E
100
AcDbEntity
  8
指線
 48
0.27
100
AcDbLine
 10
25.10128306112475
 20
533.4497456966585
 30
0.0
 11
25.10112808432453
 21
532.447842618827
 31
0.0
  0
LINE
  5
52ED
330
1E
100
AcDbEntity
  8
指線
 48
0.27
100
AcDbLine
 10
25.10128306112475
 20
533.4497456966585
 30
0.0
 11
27.23995570248772
 21
533.4494669661932
 31
0.0
  0
LINE
  5
52EE
330
1E
100
AcDbEntity
  8
指線
 48
0.27
100
AcDbLine
 10
25.10145258040748
 20
534.5456636737923
 30
0.0
 11
27.24012522177051
 21
534.5453849433273
 31
0.0
  0
CIRCLE
  5
52EF
330
1E
100
AcDbEntity
  8
指線
 48
0.27
100
AcDbCircle
 10
-15.44439399506567
 20
533.9978414464638
 30
0.0
 40
2.739789749117051
  0
ARC
  5
52F0
330
1E
100
AcDbEntity
  8
指線
 48
0.27
100
AcDbCircle
 10
-15.44439399506567
 20
533.9978414464638
 30
0.0
 40
1.643195272868438
100
AcDbArc
 50
199.4717855360968
 51
250.430310000205
  0
ARC
  5
52F1
330
1E
100
AcDbEntity
  8
指線
 48
0.27
100
AcDbCircle
 10
-15.44439399506567
 20
533.9978414464638
 30
0.0
 40
1.643195272868438
100
AcDbArc
 50
109.5519646902243
 51
160.5125356647092
  0
LINE
  5
52F2
330
1E
100
AcDbEntity
  8
指線
 48
0.27
100
AcDbLine
 10
-15.9943082207391
 20
535.5477363753289
 30
0.0
 11
-15.99446319753897
 21
534.5458332974978
 31
0.0
  0
LINE
  5
52F3
330
1E
100
AcDbEntity
  8
指線
 48
0.27
100
AcDbLine
 10
-15.99463271682205
 20
533.4499153203637
 30
0.0
 11
-15.99478769384123
 21
532.4480122425277
 31
0.0
  0
LINE
  5
52F4
330
1E
100
AcDbEntity
  8
指線
 48
0.27
100
AcDbLine
 10
-15.99463271682205
 20
533.4499153203637
 30
0.0
 11
-18.12891321190184
 21
533.4502979496002
 31
0.0
  0
LINE
  5
52F5
330
1E
100
AcDbEntity
  8
指線
 48
0.27
100
AcDbLine
 10
-15.99446319753897
 20
534.5458332974978
 30
0.0
 11
-18.12874369261888
 21
534.5462159267342
 31
0.0
  0
ARC
  5
52F6
330
1E
100
AcDbEntity
  8
指線
 48
0.27
100
AcDbCircle
 10
-15.44439399506567
 20
533.9978414464638
 30
0.0
 40
1.643195272868438
100
AcDbArc
 50
289.3895192455083
 51
340.5104803126675
  0
ARC
  5
52F7
330
1E
100
AcDbEntity
  8
指線
 48
0.27
100
AcDbCircle
 10
-15.44439399506567
 20
533.9978414464638
 30
0.0
 40
1.643195272868438
100
AcDbArc
 50
19.46973018413992
 51
70.59275544491747
  0
LINE
  5
52F8
330
1E
100
AcDbEntity
  8
指線
 48
0.27
100
AcDbLine
 10
-14.89839242638064
 20
535.5476714344852
 30
0.0
 11
-14.89854741959246
 21
534.5456636737923
 31
0.0
  0
LINE
  5
52F9
330
1E
100
AcDbEntity
  8
指線
 48
0.27
100
AcDbLine
 10
-14.89871693887531
 20
533.4497456966585
 30
0.0
 11
-14.89887191567541
 21
532.447842618827
 31
0.0
  0
LINE
  5
52FA
330
1E
100
AcDbEntity
  8
指線
 48
0.27
100
AcDbLine
 10
-14.89871693887531
 20
533.4497456966585
 30
0.0
 11
-12.76004429751222
 21
533.4494669661932
 31
0.0
  0
LINE
  5
52FB
330
1E
100
AcDbEntity
  8
指線
 48
0.27
100
AcDbLine
 10
-14.89854741959246
 20
534.5456636737923
 30
0.0
 11
-12.75987477822949
 21
534.5453849433273
 31
0.0
  0
LINE
  5
540D
330
1E
100
AcDbEntity
  8
中心線
 48
0.27
100
AcDbLine
 10
113.9429827421567
 20
561.7477275196457
 30
-0.0000000000000027
 11
129.2474508566935
 21
561.7477275196457
 31
-0.0000000000000027
  0
ARC
  5
540E
330
1E
100
AcDbEntity
  8
0
 48
0.27
100
AcDbCircle
 10
128.1345979831398
 20
559.7477468507458
 30
-0.0000000000000027
 40
2.954110999999976
100
AcDbArc
 50
137.3885930045003
 51
222.6114069976006
  0
ARC
  5
540F
330
1E
100
AcDbEntity
  8
0
 48
0.27
100
AcDbCircle
 10
128.1345989831398
 20
563.7477468507456
 30
-0.0000000000000027
 40
2.954111999999976
100
AcDbArc
 50
137.3885980021988
 51
222.6114019998988
  0
LWPOLYLINE
  5
5410
330
1E
100
AcDbEntity
  8
0
 48
0.27
100
AcDbPolyline
 90
       31
 70
     0
 43
0.0
 10
117.8517699831399
 20
561.7477468507456
 10
117.8189519831399
 20
561.9580018507457
 10
117.7748049831399
 20
562.0634888507456
 10
117.7117719831399
 20
562.1612678507457
 10
117.6322959831399
 20
562.2453808507457
 10
117.5408049831399
 20
562.3112538507457
 10
117.4428849831399
 20
562.3565348507456
 10
117.3102489831399
 20
562.3854758507457
 10
117.1872399831399
 20
562.3828168507457
 10
117.0803159831399
 20
562.3573108507457
 10
116.9641109831399
 20
562.3015428507456
 10
116.8535409831399
 20
562.2120538507457
 10
116.7653109831399
 20
562.0975038507457
 10
116.7086769831399
 20
561.9776648507458
 10
116.6808259831399
 20
561.8740088507457
 10
116.6692049831399
 20
561.7477468507456
 10
116.7020229831399
 20
561.5374918507456
 10
116.7461709831399
 20
561.4320038507457
 10
116.8092029831399
 20
561.3342258507457
 10
116.8886789831399
 20
561.2501128507457
 10
116.9801699831399
 20
561.1842398507457
 10
117.0780899831399
 20
561.1389588507456
 10
117.2107259831399
 20
561.1100168507457
 10
117.3337349831399
 20
561.1126768507457
 10
117.4406589831399
 20
561.1381818507457
 10
117.5568639831399
 20
561.1939498507457
 10
117.6674339831399
 20
561.2834398507457
 10
117.7556639831399
 20
561.3979888507457
 10
117.8122979831399
 20
561.5178278507458
 10
117.8401499831399
 20
561.6214848507458
 10
117.8517699831399
 20
561.7477468507456
  0
ARC
  5
5411
330
1E
100
AcDbEntity
  8
0
 48
0.27
100
AcDbCircle
 10
121.4321469831399
 20
561.7477468507456
 30
-0.0000000000000027
 40
3.999999999999968
100
AcDbArc
 50
90.0
 51
131.4096219995999
  0
ARC
  5
5412
330
1E
100
AcDbEntity
  8
0
 48
0.27
100
AcDbCircle
 10
121.4321469831399
 20
561.7477468507456
 30
-0.0000000000000027
 40
3.999999999999968
100
AcDbArc
 50
228.5903779973006
 51
270.0
  0
LINE
  5
5413
330
1E
100
AcDbEntity
  8
0
 48
0.27
100
AcDbLine
 10
128.9429809831399
 20
565.7477468507456
 30
-0.0000000000000027
 11
121.4321469831399
 21
565.7477468507456
 31
-0.0000000000000027
  0
LINE
  5
5414
330
1E
100
AcDbEntity
  8
0
 48
0.27
100
AcDbLine
 10
125.9604829831398
 20
561.7477468507456
 30
-0.0000000000000027
 11
128.9429809831399
 21
561.7477468507456
 31
-0.0000000000000027
  0
LINE
  5
5415
330
1E
100
AcDbEntity
  8
0
 48
0.27
100
AcDbLine
 10
121.4321469831399
 20
557.7477468507456
 30
-0.0000000000000027
 11
128.9429809831399
 21
557.7477468507456
 31
-0.0000000000000027
  0
LINE
  5
5416
330
1E
100
AcDbEntity
  8
0
 48
0.27
100
AcDbLine
 10
125.1804869831399
 20
565.7477468507456
 30
-0.0000000000000027
 11
125.1804869831399
 21
557.7477468507456
 31
-0.0000000000000027
  0
LINE
  5
5417
330
1E
100
AcDbEntity
  8
0
 48
0.27
100
AcDbLine
 10
117.9047099831399
 20
564.7477468507457
 30
-0.0000000000000027
 11
121.8044859831399
 21
564.7477468507457
 31
-0.0000000000000027
  0
LINE
  5
5418
330
1E
100
AcDbEntity
  8
0
 48
0.27
100
AcDbLine
 10
117.6583169831399
 20
559.2096738507457
 30
-0.0000000000000027
 11
117.9047099831399
 21
558.7477468507457
 31
-0.0000000000000027
  0
LINE
  5
5419
330
1E
100
AcDbEntity
  8
0
 48
0.27
100
AcDbLine
 10
117.9047099831399
 20
564.7477468507457
 30
-0.0000000000000027
 11
117.6583169831399
 21
564.2858198507457
 31
-0.0000000000000027
  0
LINE
  5
541A
330
1E
100
AcDbEntity
  8
0
 48
0.27
100
AcDbLine
 10
122.7053279831399
 20
561.7477468507456
 30
-0.0000000000000027
 11
123.4046919831399
 21
561.7477468507456
 31
-0.0000000000000027
  0
LINE
  5
541B
330
1E
100
AcDbEntity
  8
0
 48
0.27
100
AcDbLine
 10
121.8044859831399
 20
564.7477468507457
 30
-0.0000000000000027
 11
123.4046919831399
 21
561.7477468507456
 31
-0.0000000000000027
  0
LINE
  5
541C
330
1E
100
AcDbEntity
  8
0
 48
0.27
100
AcDbLine
 10
121.8044859831399
 20
558.7477468507457
 30
-0.0000000000000027
 11
117.9047099831399
 21
558.7477468507457
 31
-0.0000000000000027
  0
LINE
  5
541D
330
1E
100
AcDbEntity
  8
0
 48
0.27
100
AcDbLine
 10
123.4046919831399
 20
561.7477468507456
 30
-0.0000000000000027
 11
121.8044859831399
 21
558.7477468507457
 31
-0.0000000000000027
  0
LINE
  5
541E
330
1E
100
AcDbEntity
  8
0
 48
0.27
100
AcDbLine
 10
118.0257889831399
 20
564.2772808507457
 30
-0.0000000000000027
 11
118.4442559831399
 21
564.5193848507457
 31
-0.0000000000000027
  0
LINE
  5
541F
330
1E
100
AcDbEntity
  8
0
 48
0.27
100
AcDbLine
 10
118.0257889831399
 20
559.2182118507458
 30
-0.0000000000000027
 11
118.4442559831399
 21
558.9761078507457
 31
-0.0000000000000027
  0
LINE
  5
5420
330
1E
100
AcDbEntity
  8
0
 48
0.27
100
AcDbLine
 10
118.4442559831399
 20
564.5193848507457
 30
-0.0000000000000027
 11
118.9641959831399
 21
564.6901028507456
 31
-0.0000000000000027
  0
LINE
  5
5421
330
1E
100
AcDbEntity
  8
0
 48
0.27
100
AcDbLine
 10
118.4442559831399
 20
558.9761078507457
 30
-0.0000000000000027
 11
118.9641959831399
 21
558.8053908507458
 31
-0.0000000000000027
  0
LINE
  5
5422
330
1E
100
AcDbEntity
  8
0
 48
0.27
100
AcDbLine
 10
118.9641959831399
 20
564.6901028507456
 30
-0.0000000000000027
 11
119.5049159831399
 21
564.7477468507457
 31
-0.0000000000000027
  0
LINE
  5
5423
330
1E
100
AcDbEntity
  8
0
 48
0.27
100
AcDbLine
 10
118.9641959831399
 20
558.8053908507458
 30
-0.0000000000000027
 11
119.5049159831399
 21
558.7477468507457
 31
-0.0000000000000027
  0
LINE
  5
5424
330
1E
100
AcDbEntity
  8
0
 48
0.27
100
AcDbLine
 10
119.5049159831399
 20
564.7477468507457
 30
-0.0000000000000027
 11
120.0456359831399
 21
564.6901028507456
 31
-0.0000000000000027
  0
LINE
  5
5425
330
1E
100
AcDbEntity
  8
0
 48
0.27
100
AcDbLine
 10
119.5049159831399
 20
558.7477468507457
 30
-0.0000000000000027
 11
120.0456359831399
 21
558.8053908507458
 31
-0.0000000000000027
  0
LINE
  5
5426
330
1E
100
AcDbEntity
  8
0
 48
0.27
100
AcDbLine
 10
120.0456359831399
 20
564.6901028507456
 30
-0.0000000000000027
 11
120.5655759831399
 21
564.5193848507457
 31
-0.0000000000000027
  0
LINE
  5
5427
330
1E
100
AcDbEntity
  8
0
 48
0.27
100
AcDbLine
 10
120.0456359831399
 20
558.8053908507458
 30
-0.0000000000000027
 11
120.5655759831399
 21
558.9761078507457
 31
-0.0000000000000027
  0
LINE
  5
5428
330
1E
100
AcDbEntity
  8
0
 48
0.27
100
AcDbLine
 10
120.5655759831399
 20
564.5193848507457
 30
-0.0000000000000027
 11
121.0447559831399
 21
564.2421558507457
 31
-0.0000000000000027
  0
LINE
  5
5429
330
1E
100
AcDbEntity
  8
0
 48
0.27
100
AcDbLine
 10
120.5655759831399
 20
558.9761078507457
 30
-0.0000000000000027
 11
121.0447559831399
 21
559.2533378507457
 31
-0.0000000000000027
  0
LINE
  5
542A
330
1E
100
AcDbEntity
  8
0
 48
0.27
100
AcDbLine
 10
121.0447559831399
 20
564.2421558507457
 30
-0.0000000000000027
 11
121.4647599831399
 21
563.8690668507457
 31
-0.0000000000000027
  0
LINE
  5
542B
330
1E
100
AcDbEntity
  8
0
 48
0.27
100
AcDbLine
 10
121.0447559831399
 20
559.2533378507457
 30
-0.0000000000000027
 11
121.4647599831399
 21
559.6264258507456
 31
-0.0000000000000027
  0
LINE
  5
542C
330
1E
100
AcDbEntity
  8
0
 48
0.27
100
AcDbLine
 10
121.1051219831399
 20
564.7477468507457
 30
-0.0000000000000027
 11
122.7053279831399
 21
561.7477468507456
 31
-0.0000000000000027
  0
LINE
  5
542D
330
1E
100
AcDbEntity
  8
0
 48
0.27
100
AcDbLine
 10
122.7053279831399
 20
561.7477468507456
 30
-0.0000000000000027
 11
121.1051219831399
 21
558.7477468507457
 31
-0.0000000000000027
  0
LINE
  5
542E
330
1E
100
AcDbEntity
  8
0
 48
0.27
100
AcDbLine
 10
121.4647599831399
 20
563.8690668507457
 30
-0.0000000000000027
 11
121.8094489831399
 21
563.4144568507458
 31
-0.0000000000000027
  0
LINE
  5
542F
330
1E
100
AcDbEntity
  8
0
 48
0.27
100
AcDbLine
 10
121.8094489831399
 20
560.0810358507457
 30
-0.0000000000000027
 11
121.4647599831399
 21
559.6264258507456
 31
-0.0000000000000027
  0
LINE
  5
5430
330
1E
100
AcDbEntity
  8
0
 48
0.27
100
AcDbLine
 10
121.8094489831399
 20
563.4144568507458
 30
-0.0000000000000027
 11
122.0655759831399
 21
562.8957968507457
 31
-0.0000000000000027
  0
LINE
  5
5431
330
1E
100
AcDbEntity
  8
0
 48
0.27
100
AcDbLine
 10
122.0655759831399
 20
560.5996958507457
 30
-0.0000000000000027
 11
121.8094489831399
 21
560.0810358507457
 31
-0.0000000000000027
  0
LINE
  5
5432
330
1E
100
AcDbEntity
  8
0
 48
0.27
100
AcDbLine
 10
122.0655759831399
 20
562.8957968507457
 30
-0.0000000000000027
 11
122.2232979831399
 21
562.3330178507457
 31
-0.0000000000000027
  0
LINE
  5
5433
330
1E
100
AcDbEntity
  8
0
 48
0.27
100
AcDbLine
 10
122.2232979831399
 20
561.1624758507457
 30
-0.0000000000000027
 11
122.0655759831399
 21
560.5996958507457
 31
-0.0000000000000027
  0
LINE
  5
5434
330
1E
100
AcDbEntity
  8
0
 48
0.27
100
AcDbLine
 10
122.2232979831399
 20
562.3330178507457
 30
-0.0000000000000027
 11
122.2765539831399
 21
561.7477468507456
 31
-0.0000000000000027
  0
LINE
  5
5435
330
1E
100
AcDbEntity
  8
0
 48
0.27
100
AcDbLine
 10
122.2765539831399
 20
561.7477468507456
 30
-0.0000000000000027
 11
122.2232979831399
 21
561.1624758507457
 31
-0.0000000000000027
  0
LINE
  5
5436
330
1E
100
AcDbEntity
  8
0
 48
0.27
100
AcDbLine
 10
116.6010189831399
 20
563.3879738507458
 30
-0.0000000000000027
 11
116.6039899831399
 21
563.3863588507457
 31
-0.0000000000000027
  0
LINE
  5
5437
330
1E
100
AcDbEntity
  8
0
 48
0.27
100
AcDbLine
 10
116.6010189831399
 20
560.1075188507457
 30
-0.0000000000000027
 11
116.6039899831399
 21
560.1091348507456
 31
-0.0000000000000027
  0
LINE
  5
5438
330
1E
100
AcDbEntity
  8
0
 48
0.27
100
AcDbLine
 10
115.4883089831399
 20
562.2458888507458
 30
-0.0000000000000027
 11
115.4429809831399
 21
561.7477468507456
 31
-0.0000000000000027
  0
LINE
  5
5439
330
1E
100
AcDbEntity
  8
0
 48
0.27
100
AcDbLine
 10
115.6225509831399
 20
562.7248868507457
 30
-0.0000000000000027
 11
115.4883089831399
 21
562.2458888507458
 31
-0.0000000000000027
  0
LINE
  5
543A
330
1E
100
AcDbEntity
  8
0
 48
0.27
100
AcDbLine
 10
115.4429809831399
 20
561.7477468507456
 30
-0.0000000000000027
 11
115.4883089831399
 21
561.2496048507457
 31
-0.0000000000000027
  0
LINE
  5
543B
330
1E
100
AcDbEntity
  8
0
 48
0.27
100
AcDbLine
 10
115.8405479831399
 20
563.1663348507457
 30
-0.0000000000000027
 11
115.6225509831399
 21
562.7248868507457
 31
-0.0000000000000027
  0
LINE
  5
543C
330
1E
100
AcDbEntity
  8
0
 48
0.27
100
AcDbLine
 10
115.4883089831399
 20
561.2496048507457
 30
-0.0000000000000027
 11
115.6225509831399
 21
560.7706058507456
 31
-0.0000000000000027
  0
LINE
  5
543D
330
1E
100
AcDbEntity
  8
0
 48
0.27
100
AcDbLine
 10
116.1339239831399
 20
563.5532668507457
 30
-0.0000000000000027
 11
115.8405479831399
 21
563.1663348507457
 31
-0.0000000000000027
  0
LINE
  5
543E
330
1E
100
AcDbEntity
  8
0
 48
0.27
100
AcDbLine
 10
115.6225509831399
 20
560.7706058507456
 30
-0.0000000000000027
 11
115.8405479831399
 21
560.3291588507456
 31
-0.0000000000000027
  0
LINE
  5
543F
330
1E
100
AcDbEntity
  8
0
 48
0.27
100
AcDbLine
 10
116.1339239831399
 20
563.5532668507457
 30
-0.0000000000000027
 11
116.4914019831399
 21
563.8708138507456
 31
-0.0000000000000027
  0
LINE
  5
5440
330
1E
100
AcDbEntity
  8
0
 48
0.27
100
AcDbLine
 10
115.8405479831399
 20
560.3291588507456
 30
-0.0000000000000027
 11
116.1339239831399
 21
559.9422268507457
 31
-0.0000000000000027
  0
LINE
  5
5441
330
1E
100
AcDbEntity
  8
0
 48
0.27
100
AcDbLine
 10
115.6370119831399
 20
562.0972828507457
 30
-0.0000000000000027
 11
115.6052059831399
 21
561.7477468507456
 31
-0.0000000000000027
  0
LINE
  5
5442
330
1E
100
AcDbEntity
  8
0
 48
0.27
100
AcDbLine
 10
115.7312069831399
 20
562.4333868507457
 30
-0.0000000000000027
 11
115.6370119831399
 21
562.0972828507457
 31
-0.0000000000000027
  0
LINE
  5
5443
330
1E
100
AcDbEntity
  8
0
 48
0.27
100
AcDbLine
 10
115.6052059831399
 20
561.7477468507456
 30
-0.0000000000000027
 11
115.6370119831399
 21
561.3982108507457
 31
-0.0000000000000027
  0
LINE
  5
5444
330
1E
100
AcDbEntity
  8
0
 48
0.27
100
AcDbLine
 10
115.8841709831399
 20
562.7431418507456
 30
-0.0000000000000027
 11
115.7312069831399
 21
562.4333868507457
 31
-0.0000000000000027
  0
LINE
  5
5445
330
1E
100
AcDbEntity
  8
0
 48
0.27
100
AcDbLine
 10
115.6370119831399
 20
561.3982108507457
 30
-0.0000000000000027
 11
115.7312069831399
 21
561.0621068507457
 31
-0.0000000000000027
  0
LINE
  5
5446
330
1E
100
AcDbEntity
  8
0
 48
0.27
100
AcDbLine
 10
116.4914019831399
 20
563.8708138507456
 30
-0.0000000000000027
 11
116.8992469831399
 21
564.1067728507457
 31
-0.0000000000000027
  0
LINE
  5
5447
330
1E
100
AcDbEntity
  8
0
 48
0.27
100
AcDbLine
 10
116.1339239831399
 20
559.9422268507457
 30
-0.0000000000000027
 11
116.4914019831399
 21
559.6246798507457
 31
-0.0000000000000027
  0
LINE
  5
5448
330
1E
100
AcDbEntity
  8
0
 48
0.27
100
AcDbLine
 10
116.0900269831399
 20
563.0146438507457
 30
-0.0000000000000027
 11
115.8841709831399
 21
562.7431418507456
 31
-0.0000000000000027
  0
LINE
  5
5449
330
1E
100
AcDbEntity
  8
0
 48
0.27
100
AcDbLine
 10
115.7312069831399
 20
561.0621068507457
 30
-0.0000000000000027
 11
115.8841709831399
 21
560.7523518507457
 31
-0.0000000000000027
  0
LINE
  5
544A
330
1E
100
AcDbEntity
  8
0
 48
0.27
100
AcDbLine
 10
116.8992469831399
 20
564.1067728507457
 30
-0.0000000000000027
 11
117.3417839831399
 21
564.2520748507457
 31
-0.0000000000000027
  0
LINE
  5
544B
330
1E
100
AcDbEntity
  8
0
 48
0.27
100
AcDbLine
 10
116.4914019831399
 20
559.6246798507457
 30
-0.0000000000000027
 11
116.8992469831399
 21
559.3887208507458
 31
-0.0000000000000027
  0
LINE
  5
544C
330
1E
100
AcDbEntity
  8
0
 48
0.27
100
AcDbLine
 10
116.0900269831399
 20
563.0146438507457
 30
-0.0000000000000027
 11
116.3408619831399
 21
563.2374608507457
 31
-0.0000000000000027
  0
LINE
  5
544D
330
1E
100
AcDbEntity
  8
0
 48
0.27
100
AcDbLine
 10
115.8841709831399
 20
560.7523518507457
 30
-0.0000000000000027
 11
116.0900269831399
 21
560.4808488507457
 31
-0.0000000000000027
  0
LINE
  5
544E
330
1E
100
AcDbEntity
  8
0
 48
0.27
100
AcDbLine
 10
117.3417839831399
 20
564.2520748507457
 30
-0.0000000000000027
 11
117.8020069831399
 21
564.3011378507456
 31
-0.0000000000000027
  0
LINE
  5
544F
330
1E
100
AcDbEntity
  8
0
 48
0.27
100
AcDbLine
 10
116.8992469831399
 20
559.3887208507458
 30
-0.0000000000000027
 11
117.3417839831399
 21
559.2434178507458
 31
-0.0000000000000027
  0
LINE
  5
5450
330
1E
100
AcDbEntity
  8
0
 48
0.27
100
AcDbLine
 10
116.3408619831399
 20
563.2374608507457
 30
-0.0000000000000027
 11
116.6270389831399
 21
563.4030278507457
 31
-0.0000000000000027
  0
LINE
  5
5451
330
1E
100
AcDbEntity
  8
0
 48
0.27
100
AcDbLine
 10
116.0900269831399
 20
560.4808488507457
 30
-0.0000000000000027
 11
116.3408619831399
 21
560.2580328507458
 31
-0.0000000000000027
  0
LINE
  5
5452
330
1E
100
AcDbEntity
  8
0
 48
0.27
100
AcDbLine
 10
118.4066659831399
 20
564.2247278507457
 30
-0.0000000000000027
 11
118.8443699831399
 21
564.0810118507456
 31
-0.0000000000000027
  0
LINE
  5
5453
330
1E
100
AcDbEntity
  8
0
 48
0.27
100
AcDbLine
 10
116.6270389831399
 20
563.4030278507457
 30
-0.0000000000000027
 11
116.9375579831399
 21
563.5049838507456
 31
-0.0000000000000027
  0
LINE
  5
5454
330
1E
100
AcDbEntity
  8
0
 48
0.27
100
AcDbLine
 10
116.3408619831399
 20
560.2580328507458
 30
-0.0000000000000027
 11
116.6270389831399
 21
560.0924648507457
 31
-0.0000000000000027
  0
LINE
  5
5455
330
1E
100
AcDbEntity
  8
0
 48
0.27
100
AcDbLine
 10
118.2622299831399
 20
564.2520748507457
 30
-0.0000000000000027
 11
118.4066659831399
 21
564.2247278507457
 31
-0.0000000000000027
  0
LINE
  5
5456
330
1E
100
AcDbEntity
  8
0
 48
0.27
100
AcDbLine
 10
117.8020069831399
 20
564.3011378507456
 30
-0.0000000000000027
 11
118.2622299831399
 21
564.2520748507457
 31
-0.0000000000000027
  0
LINE
  5
5457
330
1E
100
AcDbEntity
  8
0
 48
0.27
100
AcDbLine
 10
117.3417839831399
 20
559.2434178507458
 30
-0.0000000000000027
 11
117.8020069831399
 21
559.1943558507457
 31
-0.0000000000000027
  0
LINE
  5
5458
330
1E
100
AcDbEntity
  8
0
 48
0.27
100
AcDbLine
 10
118.8443699831399
 20
564.0810118507456
 30
-0.0000000000000027
 11
119.2477609831399
 21
563.8476298507457
 31
-0.0000000000000027
  0
LINE
  5
5459
330
1E
100
AcDbEntity
  8
0
 48
0.27
100
AcDbLine
 10
118.4066659831399
 20
559.2707658507457
 30
-0.0000000000000027
 11
118.8443699831399
 21
559.4144818507458
 31
-0.0000000000000027
  0
LINE
  5
545A
330
1E
100
AcDbEntity
  8
0
 48
0.27
100
AcDbLine
 10
119.2477609831399
 20
563.8476298507457
 30
-0.0000000000000027
 11
119.6013359831399
 21
563.5335508507457
 31
-0.0000000000000027
  0
LINE
  5
545B
330
1E
100
AcDbEntity
  8
0
 48
0.27
100
AcDbLine
 10
118.8443699831399
 20
559.4144818507458
 30
-0.0000000000000027
 11
119.2477609831399
 21
559.6478638507457
 31
-0.0000000000000027
  0
LINE
  5
545C
330
1E
100
AcDbEntity
  8
0
 48
0.27
100
AcDbLine
 10
116.9375579831399
 20
563.5049838507456
 30
-0.0000000000000027
 11
117.2604879831399
 21
563.5394098507457
 31
-0.0000000000000027
  0
LINE
  5
545D
330
1E
100
AcDbEntity
  8
0
 48
0.27
100
AcDbLine
 10
116.6270389831399
 20
560.0924648507457
 30
-0.0000000000000027
 11
116.9375579831399
 21
559.9905088507457
 31
-0.0000000000000027
  0
LINE
  5
545E
330
1E
100
AcDbEntity
  8
0
 48
0.27
100
AcDbLine
 10
118.2622299831399
 20
564.2520748507457
 30
-0.0000000000000027
 11
118.7047669831399
 21
564.1067728507457
 31
-0.0000000000000027
  0
LINE
  5
545F
330
1E
100
AcDbEntity
  8
0
 48
0.27
100
AcDbLine
 10
118.2622299831399
 20
559.2434178507458
 30
-0.0000000000000027
 11
118.4066659831399
 21
559.2707658507457
 31
-0.0000000000000027
  0
LINE
  5
5460
330
1E
100
AcDbEntity
  8
0
 48
0.27
100
AcDbLine
 10
117.8020069831399
 20
559.1943558507457
 30
-0.0000000000000027
 11
118.2622299831399
 21
559.2434178507458
 31
-0.0000000000000027
  0
LINE
  5
5461
330
1E
100
AcDbEntity
  8
0
 48
0.27
100
AcDbLine
 10
119.6013359831399
 20
563.5335508507457
 30
-0.0000000000000027
 11
119.8915069831399
 21
563.1508438507458
 31
-0.0000000000000027
  0
LINE
  5
5462
330
1E
100
AcDbEntity
  8
0
 48
0.27
100
AcDbLine
 10
119.2477609831399
 20
559.6478638507457
 30
-0.0000000000000027
 11
119.6013359831399
 21
559.9619428507458
 31
-0.0000000000000027
  0
LINE
  5
5463
330
1E
100
AcDbEntity
  8
0
 48
0.27
100
AcDbLine
 10
117.2604879831399
 20
563.5394098507457
 30
-0.0000000000000027
 11
117.5834169831399
 21
563.5049838507456
 31
-0.0000000000000027
  0
LINE
  5
5464
330
1E
100
AcDbEntity
  8
0
 48
0.27
100
AcDbLine
 10
116.9375579831399
 20
559.9905088507457
 30
-0.0000000000000027
 11
117.2604879831399
 21
559.9560828507458
 31
-0.0000000000000027
  0
LINE
  5
5465
330
1E
100
AcDbEntity
  8
0
 48
0.27
100
AcDbLine
 10
118.7047669831399
 20
564.1067728507457
 30
-0.0000000000000027
 11
119.1126109831399
 21
563.8708138507456
 31
-0.0000000000000027
  0
LINE
  5
5466
330
1E
100
AcDbEntity
  8
0
 48
0.27
100
AcDbLine
 10
118.2622299831399
 20
559.2434178507458
 30
-0.0000000000000027
 11
118.7047669831399
 21
559.3887208507458
 31
-0.0000000000000027
  0
LINE
  5
5467
330
1E
100
AcDbEntity
  8
0
 48
0.27
100
AcDbLine
 10
119.8915069831399
 20
563.1508438507458
 30
-0.0000000000000027
 11
120.1071239831399
 21
562.7142168507457
 31
-0.0000000000000027
  0
LINE
  5
5468
330
1E
100
AcDbEntity
  8
0
 48
0.27
100
AcDbLine
 10
119.8915069831399
 20
560.3446498507458
 30
-0.0000000000000027
 11
119.6013359831399
 21
559.9619428507458
 31
-0.0000000000000027
  0
LINE
  5
5469
330
1E
100
AcDbEntity
  8
0
 48
0.27
100
AcDbLine
 10
120.1071239831399
 20
562.7142168507457
 30
-0.0000000000000027
 11
120.2398999831399
 21
562.2404488507457
 31
-0.0000000000000027
  0
LINE
  5
546A
330
1E
100
AcDbEntity
  8
0
 48
0.27
100
AcDbLine
 10
120.1071239831399
 20
560.7812768507458
 30
-0.0000000000000027
 11
119.8915069831399
 21
560.3446498507458
 31
-0.0000000000000027
  0
LINE
  5
546B
330
1E
100
AcDbEntity
  8
0
 48
0.27
100
AcDbLine
 10
119.1126109831399
 20
563.8708138507456
 30
-0.0000000000000027
 11
119.4700899831399
 21
563.5532668507457
 31
-0.0000000000000027
  0
LINE
  5
546C
330
1E
100
AcDbEntity
  8
0
 48
0.27
100
AcDbLine
 10
118.7047669831399
 20
559.3887208507458
 30
-0.0000000000000027
 11
119.1126109831399
 21
559.6246798507457
 31
-0.0000000000000027
  0
LINE
  5
546D
330
1E
100
AcDbEntity
  8
0
 48
0.27
100
AcDbLine
 10
120.2398999831399
 20
562.2404488507457
 30
-0.0000000000000027
 11
120.2847329831399
 21
561.7477468507456
 31
-0.0000000000000027
  0
LINE
  5
546E
330
1E
100
AcDbEntity
  8
0
 48
0.27
100
AcDbLine
 10
120.2398999831399
 20
561.2550448507456
 30
-0.0000000000000027
 11
120.1071239831399
 21
560.7812768507458
 31
-0.0000000000000027
  0
LINE
  5
546F
330
1E
100
AcDbEntity
  8
0
 48
0.27
100
AcDbLine
 10
117.5834169831399
 20
563.5049838507456
 30
-0.0000000000000027
 11
117.8939359831399
 21
563.4030278507457
 31
-0.0000000000000027
  0
LINE
  5
5470
330
1E
100
AcDbEntity
  8
0
 48
0.27
100
AcDbLine
 10
117.2604879831399
 20
559.9560828507458
 30
-0.0000000000000027
 11
117.5834169831399
 21
559.9905088507457
 31
-0.0000000000000027
  0
LINE
  5
5471
330
1E
100
AcDbEntity
  8
0
 48
0.27
100
AcDbLine
 10
120.2847329831399
 20
561.7477468507456
 30
-0.0000000000000027
 11
120.2398999831399
 21
561.2550448507456
 31
-0.0000000000000027
  0
LINE
  5
5472
330
1E
100
AcDbEntity
  8
0
 48
0.27
100
AcDbLine
 10
119.4700899831399
 20
563.5532668507457
 30
-0.0000000000000027
 11
119.7634649831399
 21
563.1663348507457
 31
-0.0000000000000027
  0
LINE
  5
5473
330
1E
100
AcDbEntity
  8
0
 48
0.27
100
AcDbLine
 10
119.1126109831399
 20
559.6246798507457
 30
-0.0000000000000027
 11
119.4700899831399
 21
559.9422268507457
 31
-0.0000000000000027
  0
LINE
  5
5474
330
1E
100
AcDbEntity
  8
0
 48
0.27
100
AcDbLine
 10
117.8939359831399
 20
563.4030278507457
 30
-0.0000000000000027
 11
118.1801129831399
 21
563.2374608507457
 31
-0.0000000000000027
  0
LINE
  5
5475
330
1E
100
AcDbEntity
  8
0
 48
0.27
100
AcDbLine
 10
117.5834169831399
 20
559.9905088507457
 30
-0.0000000000000027
 11
117.8939359831399
 21
560.0924648507457
 31
-0.0000000000000027
  0
LINE
  5
5476
330
1E
100
AcDbEntity
  8
0
 48
0.27
100
AcDbLine
 10
119.7634649831399
 20
563.1663348507457
 30
-0.0000000000000027
 11
119.9814619831399
 21
562.7248868507457
 31
-0.0000000000000027
  0
LINE
  5
5477
330
1E
100
AcDbEntity
  8
0
 48
0.27
100
AcDbLine
 10
119.7634649831399
 20
560.3291588507456
 30
-0.0000000000000027
 11
119.4700899831399
 21
559.9422268507457
 31
-0.0000000000000027
  0
LINE
  5
5478
330
1E
100
AcDbEntity
  8
0
 48
0.27
100
AcDbLine
 10
119.9814619831399
 20
562.7248868507457
 30
-0.0000000000000027
 11
120.1157049831399
 21
562.2458888507458
 31
-0.0000000000000027
  0
LINE
  5
5479
330
1E
100
AcDbEntity
  8
0
 48
0.27
100
AcDbLine
 10
119.9814619831399
 20
560.7706058507456
 30
-0.0000000000000027
 11
119.7634649831399
 21
560.3291588507456
 31
-0.0000000000000027
  0
LINE
  5
547A
330
1E
100
AcDbEntity
  8
0
 48
0.27
100
AcDbLine
 10
118.1801129831399
 20
563.2374608507457
 30
-0.0000000000000027
 11
118.4309479831399
 21
563.0146438507457
 31
-0.0000000000000027
  0
LINE
  5
547B
330
1E
100
AcDbEntity
  8
0
 48
0.27
100
AcDbLine
 10
117.8939359831399
 20
560.0924648507457
 30
-0.0000000000000027
 11
118.1801129831399
 21
560.2580328507458
 31
-0.0000000000000027
  0
LINE
  5
547C
330
1E
100
AcDbEntity
  8
0
 48
0.27
100
AcDbLine
 10
120.1157049831399
 20
562.2458888507458
 30
-0.0000000000000027
 11
120.1610329831399
 21
561.7477468507456
 31
-0.0000000000000027
  0
LINE
  5
547D
330
1E
100
AcDbEntity
  8
0
 48
0.27
100
AcDbLine
 10
120.1157049831399
 20
561.2496048507457
 30
-0.0000000000000027
 11
119.9814619831399
 21
560.7706058507456
 31
-0.0000000000000027
  0
LINE
  5
547E
330
1E
100
AcDbEntity
  8
0
 48
0.27
100
AcDbLine
 10
120.1610329831399
 20
561.7477468507456
 30
-0.0000000000000027
 11
120.1157049831399
 21
561.2496048507457
 31
-0.0000000000000027
  0
LINE
  5
547F
330
1E
100
AcDbEntity
  8
0
 48
0.27
100
AcDbLine
 10
118.4309479831399
 20
563.0146438507457
 30
-0.0000000000000027
 11
118.6368039831399
 21
562.7431418507456
 31
-0.0000000000000027
  0
LINE
  5
5480
330
1E
100
AcDbEntity
  8
0
 48
0.27
100
AcDbLine
 10
118.1801129831399
 20
560.2580328507458
 30
-0.0000000000000027
 11
118.4309479831399
 21
560.4808488507457
 31
-0.0000000000000027
  0
LINE
  5
5481
330
1E
100
AcDbEntity
  8
0
 48
0.27
100
AcDbLine
 10
118.6368039831399
 20
562.7431418507456
 30
-0.0000000000000027
 11
118.7897679831399
 21
562.4333868507457
 31
-0.0000000000000027
  0
LINE
  5
5482
330
1E
100
AcDbEntity
  8
0
 48
0.27
100
AcDbLine
 10
118.6368039831399
 20
560.7523518507457
 30
-0.0000000000000027
 11
118.4309479831399
 21
560.4808488507457
 31
-0.0000000000000027
  0
LINE
  5
5483
330
1E
100
AcDbEntity
  8
0
 48
0.27
100
AcDbLine
 10
118.7897679831399
 20
562.4333868507457
 30
-0.0000000000000027
 11
118.8839629831399
 21
562.0972828507457
 31
-0.0000000000000027
  0
LINE
  5
5484
330
1E
100
AcDbEntity
  8
0
 48
0.27
100
AcDbLine
 10
118.7897679831399
 20
561.0621068507457
 30
-0.0000000000000027
 11
118.6368039831399
 21
560.7523518507457
 31
-0.0000000000000027
  0
LINE
  5
5485
330
1E
100
AcDbEntity
  8
0
 48
0.27
100
AcDbLine
 10
118.8839629831399
 20
562.0972828507457
 30
-0.0000000000000027
 11
118.9157689831399
 21
561.7477468507456
 31
-0.0000000000000027
  0
LINE
  5
5486
330
1E
100
AcDbEntity
  8
0
 48
0.27
100
AcDbLine
 10
118.8839629831399
 20
561.3982108507457
 30
-0.0000000000000027
 11
118.7897679831399
 21
561.0621068507457
 31
-0.0000000000000027
  0
LINE
  5
5487
330
1E
100
AcDbEntity
  8
0
 48
0.27
100
AcDbLine
 10
118.9157689831399
 20
561.7477468507456
 30
-0.0000000000000027
 11
118.8839629831399
 21
561.3982108507457
 31
-0.0000000000000027
  0
POINT
  5
5488
330
1E
100
AcDbEntity
  8
0
100
AcDbPoint
 10
115.4429809831399
 20
561.7477468507456
 30
-0.0000000000000027
1001
pntflag
1000
endpoint
  0
ARC
  5
5489
330
1E
100
AcDbEntity
  8
0
 48
0.27
100
AcDbCircle
 10
4.56148406349385
 20
561.747727519647
 30
0.0
 40
5.249999999999996
100
AcDbArc
 50
30.24329777399994
 51
329.7566907592999
  0
LWPOLYLINE
  5
548A
330
1E
100
AcDbEntity
  8
0
 48
0.27
100
AcDbPolyline
 90
       17
 70
     0
 43
0.0
 10
13.5131717907939
 20
561.747727519647
 10
13.54672009219396
 20
561.5306902771471
 10
13.57961108139389
 20
561.4677860431471
 10
13.61618141519389
 20
561.4382444064471
 10
13.65015857259394
 20
561.4385516864471
 10
13.68665141839395
 20
561.4687559792471
 10
13.71799531939396
 20
561.528525956747
 10
13.74738198009393
 20
561.658598937447
 10
13.7523492288939
 20
561.747727519647
 10
13.71880226349392
 20
561.9647634261471
 10
13.68590993829392
 20
562.0276676601471
 10
13.64933960449391
 20
562.0572092968471
 10
13.61536378309395
 20
562.0569020167471
 10
13.57886960129391
 20
562.0266977239471
 10
13.54752703629393
 20
561.9669277464471
 10
13.51813903959387
 20
561.836854765847
 10
13.5131717907939
 20
561.747727519647
  0
ARC
  5
548B
330
1E
100
AcDbEntity
  8
0
 48
0.27
100
AcDbCircle
 10
4.56148406349385
 20
561.747727519647
 30
0.0
 40
3.999999331999998
100
AcDbArc
 50
48.59037799889986
 51
311.4096220032
  0
LINE
  5
548C
330
1E
100
AcDbEntity
  8
0
 48
0.27
100
AcDbLine
 10
7.448235834493885
 20
564.7477266846471
 30
0.0
 11
6.870884678693897
 21
565.747726851647
 31
0.0
  0
LINE
  5
548D
330
1E
100
AcDbEntity
  8
0
 48
0.27
100
AcDbLine
 10
2.252083448293916
 20
565.747726851647
 30
0.0
 11
6.870884678693897
 21
565.747726851647
 31
0.0
  0
LINE
  5
548E
330
1E
100
AcDbEntity
  8
0
 48
0.27
100
AcDbLine
 10
2.252083448293916
 20
565.747726851647
 30
0.0
 11
-0.057317166906131
 21
561.747727519647
 31
0.0
  0
LINE
  5
548F
330
1E
100
AcDbEntity
  8
0
 48
0.27
100
AcDbLine
 10
-0.057317166906131
 20
561.747727519647
 30
0.0
 11
2.252083448293916
 21
557.747726851647
 31
0.0
  0
LINE
  5
5490
330
1E
100
AcDbEntity
  8
0
 48
0.27
100
AcDbLine
 10
6.870886014693866
 20
557.747726851647
 30
0.0
 11
2.252083448293916
 21
557.747726851647
 31
0.0
  0
LINE
  5
5491
330
1E
100
AcDbEntity
  8
0
 48
0.27
100
AcDbLine
 10
7.448235834493885
 20
558.7477270186471
 30
0.0
 11
6.870886014693866
 21
557.747726851647
 31
0.0
  0
LINE
  5
5492
330
1E
100
AcDbEntity
  8
0
 48
0.27
100
AcDbLine
 10
5.862990086493852
 20
558.7477270186471
 30
0.0
 11
8.877058669693866
 21
558.7477270186471
 31
0.0
  0
LINE
  5
5493
330
1E
100
AcDbEntity
  8
0
 48
0.27
100
AcDbLine
 10
8.939957559693908
 20
564.4630397353471
 30
0.0
 11
8.877058669693866
 21
564.7477266846471
 31
0.0
  0
LINE
  5
5494
330
1E
100
AcDbEntity
  8
0
 48
0.27
100
AcDbLine
 10
8.877058669693866
 20
558.7477270186471
 30
0.0
 11
8.939957559693908
 21
559.0324139679471
 31
0.0
  0
LINE
  5
5495
330
1E
100
AcDbEntity
  8
0
 48
0.27
100
AcDbLine
 10
5.862990086493852
 20
564.7477266846471
 30
0.0
 11
8.877058669693866
 21
564.7477266846471
 31
0.0
  0
LINE
  5
5496
330
1E
100
AcDbEntity
  8
0
 48
0.27
100
AcDbLine
 10
8.438205311893881
 20
558.8053714198471
 30
0.0
 11
10.44001191819384
 21
559.7111862438471
 31
0.0
  0
LINE
  5
5497
330
1E
100
AcDbEntity
  8
0
 48
0.27
100
AcDbLine
 10
14.30522619679382
 20
561.3981911200471
 30
0.0
 11
14.31840049489383
 21
561.747727519647
 31
0.0
  0
LINE
  5
5498
330
1E
100
AcDbEntity
  8
0
 48
0.27
100
AcDbLine
 10
14.26620964659392
 20
561.0620868666471
 30
0.0
 11
14.30522619679382
 21
561.3981911200471
 31
0.0
  0
LINE
  5
5499
330
1E
100
AcDbEntity
  8
0
 48
0.27
100
AcDbLine
 10
14.31840049489383
 20
561.747727519647
 30
0.0
 11
14.30522619679382
 21
562.0972639192471
 31
0.0
  0
LINE
  5
549A
330
1E
100
AcDbEntity
  8
0
 48
0.27
100
AcDbLine
 10
8.214231556293867
 20
558.7477270186471
 30
0.0
 11
8.438205311893881
 21
558.8053714198471
 31
0.0
  0
LINE
  5
549B
330
1E
100
AcDbEntity
  8
0
 48
0.27
100
AcDbLine
 10
8.214231556293867
 20
564.7477266846471
 30
0.0
 11
8.438205311893881
 21
564.690082283447
 31
0.0
  0
LINE
  5
549C
330
1E
100
AcDbEntity
  8
0
 48
0.27
100
AcDbLine
 10
8.438205311893881
 20
564.690082283447
 30
0.0
 11
10.44001191819384
 21
563.7842674594471
 31
0.0
  0
LINE
  5
549D
330
1E
100
AcDbEntity
  8
0
 48
0.27
100
AcDbLine
 10
14.20284983649392
 20
560.7523325453471
 30
0.0
 11
14.26620964659392
 21
561.0620868666471
 31
0.0
  0
LINE
  5
549E
330
1E
100
AcDbEntity
  8
0
 48
0.27
100
AcDbLine
 10
14.30522619679382
 20
562.0972639192471
 30
0.0
 11
14.26620964659392
 21
562.4333668366471
 31
0.0
  0
LINE
  5
549F
330
1E
100
AcDbEntity
  8
0
 48
0.27
100
AcDbLine
 10
14.11758095889391
 20
560.4808292462471
 30
0.0
 11
14.20284983649392
 21
560.7523325453471
 31
0.0
  0
LINE
  5
54A0
330
1E
100
AcDbEntity
  8
0
 48
0.27
100
AcDbLine
 10
13.35822649419381
 20
560.1094185151471
 30
0.0
 11
13.36012495049388
 21
560.110347035247
 31
0.0
  0
LINE
  5
54A1
330
1E
100
AcDbEntity
  8
0
 48
0.27
100
AcDbLine
 10
14.26620964659392
 20
562.4333668366471
 30
0.0
 11
14.20284983649392
 21
562.7431224939471
 31
0.0
  0
LINE
  5
54A2
330
1E
100
AcDbEntity
  8
0
 48
0.27
100
AcDbLine
 10
7.990257800693854
 20
558.8053714198471
 30
0.0
 11
8.214231556293867
 21
558.7477270186471
 31
0.0
  0
LINE
  5
54A3
330
1E
100
AcDbEntity
  8
0
 48
0.27
100
AcDbLine
 10
7.990257800693854
 20
564.690082283447
 30
0.0
 11
8.214231556293867
 21
564.7477266846471
 31
0.0
  0
LINE
  5
54A4
330
1E
100
AcDbEntity
  8
0
 48
0.27
100
AcDbLine
 10
14.01368155839387
 20
560.2580124667471
 30
0.0
 11
14.11758095889391
 21
560.4808292462471
 31
0.0
  0
LINE
  5
54A5
330
1E
100
AcDbEntity
  8
0
 48
0.27
100
AcDbLine
 10
14.20284983649392
 20
562.7431224939471
 30
0.0
 11
14.11758095889391
 21
563.0146244570471
 31
0.0
  0
LINE
  5
54A6
330
1E
100
AcDbEntity
  8
0
 48
0.27
100
AcDbLine
 10
10.44001191819384
 20
559.7111862438471
 30
0.0
 11
10.6811345724939
 21
559.8095893394471
 31
0.0
  0
LINE
  5
54A7
330
1E
100
AcDbEntity
  8
0
 48
0.27
100
AcDbLine
 10
10.44001191819384
 20
563.7842674594471
 30
0.0
 11
10.6811345724939
 21
563.685865699847
 31
0.0
  0
LINE
  5
54A8
330
1E
100
AcDbEntity
  8
0
 48
0.27
100
AcDbLine
 10
13.89514360359388
 20
560.092445968447
 30
0.0
 11
14.01368155839387
 21
560.2580124667471
 31
0.0
  0
LINE
  5
54A9
330
1E
100
AcDbEntity
  8
0
 48
0.27
100
AcDbLine
 10
14.11758095889391
 20
563.0146244570471
 30
0.0
 11
14.01368155839387
 21
563.2374412365471
 31
0.0
  0
LINE
  5
54AA
330
1E
100
AcDbEntity
  8
0
 48
0.27
100
AcDbLine
 10
7.774891894393846
 20
558.976088198947
 30
0.0
 11
7.990257800693854
 21
558.8053714198471
 31
0.0
  0
LINE
  5
54AB
330
1E
100
AcDbEntity
  8
0
 48
0.27
100
AcDbLine
 10
7.774891894393846
 20
564.519365504347
 30
0.0
 11
7.990257800693854
 21
564.690082283447
 31
0.0
  0
LINE
  5
54AC
330
1E
100
AcDbEntity
  8
0
 48
0.27
100
AcDbLine
 10
10.6811345724939
 20
559.8095893394471
 30
0.0
 11
10.89605826269385
 21
559.800461786047
 31
0.0
  0
LINE
  5
54AD
330
1E
100
AcDbEntity
  8
0
 48
0.27
100
AcDbLine
 10
10.6811345724939
 20
563.685865699847
 30
0.0
 11
10.89605826269385
 21
563.6949919172471
 31
0.0
  0
LINE
  5
54AE
330
1E
100
AcDbEntity
  8
0
 48
0.27
100
AcDbLine
 10
12.51604803229386
 20
559.2433991294471
 30
0.0
 11
13.76652285509388
 21
559.9904891122471
 31
0.0
  0
LINE
  5
54AF
330
1E
100
AcDbEntity
  8
0
 48
0.27
100
AcDbLine
 10
13.76652285509388
 20
559.9904891122471
 30
0.0
 11
13.89514360359388
 21
560.092445968447
 31
0.0
  0
LINE
  5
54B0
330
1E
100
AcDbEntity
  8
0
 48
0.27
100
AcDbLine
 10
14.01368155839387
 20
563.2374412365471
 30
0.0
 11
13.89514360359388
 21
563.403007734847
 31
0.0
  0
LINE
  5
54B1
330
1E
100
AcDbEntity
  8
0
 48
0.27
100
AcDbLine
 10
5.200162973093853
 20
561.747727519647
 30
0.0
 11
5.862990086493852
 21
564.7477266846471
 31
0.0
  0
LINE
  5
54B2
330
1E
100
AcDbEntity
  8
0
 48
0.27
100
AcDbLine
 10
5.200162973093853
 20
561.747727519647
 30
0.0
 11
6.88857732949387
 21
561.747727519647
 31
0.0
  0
LINE
  5
54B3
330
1E
100
AcDbEntity
  8
0
 48
0.27
100
AcDbLine
 10
5.862990086493852
 20
558.7477270186471
 30
0.0
 11
5.200162973093853
 21
561.747727519647
 31
0.0
  0
LINE
  5
54B4
330
1E
100
AcDbEntity
  8
0
 48
0.27
100
AcDbLine
 10
7.774891894393846
 20
558.976088198947
 30
0.0
 11
7.576409022893841
 21
559.253317595047
 31
0.0
  0
LINE
  5
54B5
330
1E
100
AcDbEntity
  8
0
 48
0.27
100
AcDbLine
 10
7.576409022893841
 20
564.2421361082471
 30
0.0
 11
7.774891894393846
 21
564.519365504347
 31
0.0
  0
LINE
  5
54B6
330
1E
100
AcDbEntity
  8
0
 48
0.27
100
AcDbLine
 10
12.32541816999381
 20
559.194335857647
 30
0.0
 11
12.51604803229386
 21
559.2433991294471
 31
0.0
  0
LINE
  5
54B7
330
1E
100
AcDbEntity
  8
0
 48
0.27
100
AcDbLine
 10
11.9645858885938
 20
559.222219518047
 30
0.0
 11
12.32541816999381
 21
559.194335857647
 31
0.0
  0
LINE
  5
54B8
330
1E
100
AcDbEntity
  8
0
 48
0.27
100
AcDbLine
 10
10.89605826269385
 20
559.800461786047
 30
0.0
 11
11.45000536679382
 21
559.435244751947
 31
0.0
  0
LINE
  5
54B9
330
1E
100
AcDbEntity
  8
0
 48
0.27
100
AcDbLine
 10
13.63276117779392
 20
559.956063058747
 30
0.0
 11
13.76652285509388
 21
559.9904891122471
 31
0.0
  0
LINE
  5
54BA
330
1E
100
AcDbEntity
  8
0
 48
0.27
100
AcDbLine
 10
12.51604803229386
 20
564.252055909847
 30
0.0
 11
13.76652285509388
 21
563.5049645910471
 31
0.0
  0
LINE
  5
54BB
330
1E
100
AcDbEntity
  8
0
 48
0.27
100
AcDbLine
 10
13.76652285509388
 20
563.5049645910471
 30
0.0
 11
13.89514360359388
 21
563.403007734847
 31
0.0
  0
LINE
  5
54BC
330
1E
100
AcDbEntity
  8
0
 48
0.27
100
AcDbLine
 10
12.32541816999381
 20
564.3011178456471
 30
0.0
 11
12.51604803229386
 21
564.252055909847
 31
0.0
  0
LINE
  5
54BD
330
1E
100
AcDbEntity
  8
0
 48
0.27
100
AcDbLine
 10
11.9645858885938
 20
564.2732355211471
 30
0.0
 11
12.32541816999381
 21
564.3011178456471
 31
0.0
  0
LINE
  5
54BE
330
1E
100
AcDbEntity
  8
0
 48
0.27
100
AcDbLine
 10
10.70522265639388
 20
559.9449649050471
 30
0.0
 11
10.84530361459386
 21
559.8339245833471
 31
0.0
  0
LINE
  5
54BF
330
1E
100
AcDbEntity
  8
0
 48
0.27
100
AcDbLine
 10
11.45000536679382
 20
559.435244751947
 30
0.0
 11
11.77603751459381
 21
559.2707457178471
 31
0.0
  0
LINE
  5
54C0
330
1E
100
AcDbEntity
  8
0
 48
0.27
100
AcDbLine
 10
11.77603751459381
 20
559.2707457178471
 30
0.0
 11
11.9645858885938
 21
559.222219518047
 31
0.0
  0
LINE
  5
54C1
330
1E
100
AcDbEntity
  8
0
 48
0.27
100
AcDbLine
 10
10.89605826269385
 20
563.6949919172471
 30
0.0
 11
11.45000536679382
 21
564.0602089513471
 31
0.0
  0
LINE
  5
54C2
330
1E
100
AcDbEntity
  8
0
 48
0.27
100
AcDbLine
 10
10.70522265639388
 20
563.550488798247
 30
0.0
 11
10.84530361459386
 21
563.661529119947
 31
0.0
  0
LINE
  5
54C3
330
1E
100
AcDbEntity
  8
0
 48
0.27
100
AcDbLine
 10
7.576409022893841
 20
559.253317595047
 30
0.0
 11
7.402437747193886
 21
559.626406342347
 31
0.0
  0
LINE
  5
54C4
330
1E
100
AcDbEntity
  8
0
 48
0.27
100
AcDbLine
 10
7.402437747193886
 20
563.8690473609471
 30
0.0
 11
7.576409022893841
 21
564.2421361082471
 31
0.0
  0
LINE
  5
54C5
330
1E
100
AcDbEntity
  8
0
 48
0.27
100
AcDbLine
 10
12.1347869716939
 20
559.2433991294471
 30
0.0
 11
12.32541816999381
 21
559.194335857647
 31
0.0
  0
LINE
  5
54C6
330
1E
100
AcDbEntity
  8
0
 48
0.27
100
AcDbLine
 10
11.77603751459381
 20
564.2247079854471
 30
0.0
 11
11.9645858885938
 21
564.2732355211471
 31
0.0
  0
LINE
  5
54C7
330
1E
100
AcDbEntity
  8
0
 48
0.27
100
AcDbLine
 10
11.45000536679382
 20
564.0602089513471
 30
0.0
 11
11.77603751459381
 21
564.2247079854471
 31
0.0
  0
LINE
  5
54C8
330
1E
100
AcDbEntity
  8
0
 48
0.27
100
AcDbLine
 10
7.551404442893868
 20
558.7477270186471
 30
0.0
 11
6.88857732949387
 21
561.747727519647
 31
0.0
  0
LINE
  5
54C9
330
1E
100
AcDbEntity
  8
0
 48
0.27
100
AcDbLine
 10
6.88857732949387
 20
561.747727519647
 30
0.0
 11
7.551404442893868
 21
564.7477266846471
 31
0.0
  0
LINE
  5
54CA
330
1E
100
AcDbEntity
  8
0
 48
0.27
100
AcDbLine
 10
10.70522265639388
 20
559.9449649050471
 30
0.0
 11
10.57612228379392
 21
560.1252835176471
 31
0.0
  0
LINE
  5
54CB
330
1E
100
AcDbEntity
  8
0
 48
0.27
100
AcDbLine
 10
13.4989995005939
 20
559.9904891122471
 30
0.0
 11
13.63276117779392
 21
559.956063058747
 31
0.0
  0
LINE
  5
54CC
330
1E
100
AcDbEntity
  8
0
 48
0.27
100
AcDbLine
 10
13.63276117779392
 20
563.5393906445471
 30
0.0
 11
13.76652285509388
 21
563.5049645910471
 31
0.0
  0
LINE
  5
54CD
330
1E
100
AcDbEntity
  8
0
 48
0.27
100
AcDbLine
 10
12.1347869716939
 20
564.252055909847
 30
0.0
 11
12.32541816999381
 21
564.3011178456471
 31
0.0
  0
LINE
  5
54CE
330
1E
100
AcDbEntity
  8
0
 48
0.27
100
AcDbLine
 10
11.28074215589382
 20
563.926037121947
 30
0.0
 11
11.45000536679382
 21
564.0602089513471
 31
0.0
  0
LINE
  5
54CF
330
1E
100
AcDbEntity
  8
0
 48
0.27
100
AcDbLine
 10
10.57612228379392
 20
563.3701701856471
 30
0.0
 11
10.70522265639388
 21
563.550488798247
 31
0.0
  0
LINE
  5
54D0
330
1E
100
AcDbEntity
  8
0
 48
0.27
100
AcDbLine
 10
7.402437747193886
 20
559.626406342347
 30
0.0
 11
7.259662076493924
 21
560.081016486647
 31
0.0
  0
LINE
  5
54D1
330
1E
100
AcDbEntity
  8
0
 48
0.27
100
AcDbLine
 10
7.259662076493924
 20
563.4144372166471
 30
0.0
 11
7.402437747193886
 21
563.8690473609471
 31
0.0
  0
LINE
  5
54D2
330
1E
100
AcDbEntity
  8
0
 48
0.27
100
AcDbLine
 10
10.57612228379392
 20
560.1252835176471
 30
0.0
 11
10.46296573789382
 21
560.367951924247
 31
0.0
  0
LINE
  5
54D3
330
1E
100
AcDbEntity
  8
0
 48
0.27
100
AcDbLine
 10
11.95148239849382
 20
559.388701176547
 30
0.0
 11
12.1347869716939
 21
559.2433991294471
 31
0.0
  0
LINE
  5
54D4
330
1E
100
AcDbEntity
  8
0
 48
0.27
100
AcDbLine
 10
10.46296573789382
 20
563.127501779047
 30
0.0
 11
10.57612228379392
 21
563.3701701856471
 31
0.0
  0
LINE
  5
54D5
330
1E
100
AcDbEntity
  8
0
 48
0.27
100
AcDbLine
 10
13.37037741609381
 20
560.092445968447
 30
0.0
 11
13.4989995005939
 21
559.9904891122471
 31
0.0
  0
LINE
  5
54D6
330
1E
100
AcDbEntity
  8
0
 48
0.27
100
AcDbLine
 10
11.95148239849382
 20
564.106752526747
 30
0.0
 11
12.1347869716939
 21
564.252055909847
 31
0.0
  0
LINE
  5
54D7
330
1E
100
AcDbEntity
  8
0
 48
0.27
100
AcDbLine
 10
13.4989995005939
 20
563.5049645910471
 30
0.0
 11
13.63276117779392
 21
563.5393906445471
 31
0.0
  0
LINE
  5
54D8
330
1E
100
AcDbEntity
  8
0
 48
0.27
100
AcDbLine
 10
10.46296573789382
 20
560.367951924247
 30
0.0
 11
10.37010036309382
 21
560.663644843247
 31
0.0
  0
LINE
  5
54D9
330
1E
100
AcDbEntity
  8
0
 48
0.27
100
AcDbLine
 10
7.259662076493924
 20
560.081016486647
 30
0.0
 11
7.153571635693907
 21
560.5996771531471
 31
0.0
  0
LINE
  5
54DA
330
1E
100
AcDbEntity
  8
0
 48
0.27
100
AcDbLine
 10
7.153571635693907
 20
562.895777886147
 30
0.0
 11
7.259662076493924
 21
563.4144372166471
 31
0.0
  0
LINE
  5
54DB
330
1E
100
AcDbEntity
  8
0
 48
0.27
100
AcDbLine
 10
10.37010036309382
 20
562.8318088600471
 30
0.0
 11
10.46296573789382
 21
563.127501779047
 31
0.0
  0
LINE
  5
54DC
330
1E
100
AcDbEntity
  8
0
 48
0.27
100
AcDbLine
 10
11.95148239849382
 20
559.388701176547
 30
0.0
 11
11.78254784369383
 21
559.624660190047
 31
0.0
  0
LINE
  5
54DD
330
1E
100
AcDbEntity
  8
0
 48
0.27
100
AcDbLine
 10
10.37010036309382
 20
560.663644843247
 30
0.0
 11
10.3010959520939
 21
561.0009982569471
 31
0.0
  0
LINE
  5
54DE
330
1E
100
AcDbEntity
  8
0
 48
0.27
100
AcDbLine
 10
7.153571635693907
 20
560.5996771531471
 30
0.0
 11
7.088241225293842
 21
561.1624565545471
 31
0.0
  0
LINE
  5
54DF
330
1E
100
AcDbEntity
  8
0
 48
0.27
100
AcDbLine
 10
7.088241225293842
 20
562.3329984846471
 30
0.0
 11
7.153571635693907
 21
562.895777886147
 31
0.0
  0
LINE
  5
54E0
330
1E
100
AcDbEntity
  8
0
 48
0.27
100
AcDbLine
 10
13.37037741609381
 20
563.403007734847
 30
0.0
 11
13.4989995005939
 21
563.5049645910471
 31
0.0
  0
LINE
  5
54E1
330
1E
100
AcDbEntity
  8
0
 48
0.27
100
AcDbLine
 10
13.37037741609381
 20
560.092445968447
 30
0.0
 11
13.25183946129394
 21
560.2580124667471
 31
0.0
  0
LINE
  5
54E2
330
1E
100
AcDbEntity
  8
0
 48
0.27
100
AcDbLine
 10
11.78254784369383
 20
563.8707935132471
 30
0.0
 11
11.95148239849382
 21
564.106752526747
 31
0.0
  0
LINE
  5
54E3
330
1E
100
AcDbEntity
  8
0
 48
0.27
100
AcDbLine
 10
10.3010959520939
 20
562.494455446347
 30
0.0
 11
10.37010036309382
 21
562.8318088600471
 31
0.0
  0
LINE
  5
54E4
330
1E
100
AcDbEntity
  8
0
 48
0.27
100
AcDbLine
 10
10.3010959520939
 20
561.0009982569471
 30
0.0
 11
10.25860179339386
 21
561.3670476191471
 31
0.0
  0
LINE
  5
54E5
330
1E
100
AcDbEntity
  8
0
 48
0.27
100
AcDbLine
 10
7.088241225293842
 20
561.1624565545471
 30
0.0
 11
7.066181189793866
 21
561.747727519647
 31
0.0
  0
LINE
  5
54E6
330
1E
100
AcDbEntity
  8
0
 48
0.27
100
AcDbLine
 10
7.066181189793866
 20
561.747727519647
 30
0.0
 11
7.088241225293842
 21
562.3329984846471
 31
0.0
  0
LINE
  5
54E7
330
1E
100
AcDbEntity
  8
0
 48
0.27
100
AcDbLine
 10
10.25860179339386
 20
562.128406084147
 30
0.0
 11
10.3010959520939
 21
562.494455446347
 31
0.0
  0
LINE
  5
54E8
330
1E
100
AcDbEntity
  8
0
 48
0.27
100
AcDbLine
 10
10.25860179339386
 20
561.3670476191471
 30
0.0
 11
10.24425448709385
 21
561.747727519647
 31
0.0
  0
LINE
  5
54E9
330
1E
100
AcDbEntity
  8
0
 48
0.27
100
AcDbLine
 10
10.24425448709385
 20
561.747727519647
 30
0.0
 11
10.25860179339386
 21
562.128406084147
 31
0.0
  0
LINE
  5
54EA
330
1E
100
AcDbEntity
  8
0
 48
0.27
100
AcDbLine
 10
11.78254784369383
 20
559.624660190047
 30
0.0
 11
11.63447493209392
 21
559.942207400547
 31
0.0
  0
LINE
  5
54EB
330
1E
100
AcDbEntity
  8
0
 48
0.27
100
AcDbLine
 10
13.25183946129394
 20
563.2374412365471
 30
0.0
 11
13.37037741609381
 21
563.403007734847
 31
0.0
  0
LINE
  5
54EC
330
1E
100
AcDbEntity
  8
0
 48
0.27
100
AcDbLine
 10
13.25183946129394
 20
560.2580124667471
 30
0.0
 11
13.1479400607939
 21
560.4808292462471
 31
0.0
  0
LINE
  5
54ED
330
1E
100
AcDbEntity
  8
0
 48
0.27
100
AcDbLine
 10
11.63447493209392
 20
563.553247638747
 30
0.0
 11
11.78254784369383
 21
563.8707935132471
 31
0.0
  0
LINE
  5
54EE
330
1E
100
AcDbEntity
  8
0
 48
0.27
100
AcDbLine
 10
13.1479400607939
 20
563.0146244570471
 30
0.0
 11
13.25183946129394
 21
563.2374412365471
 31
0.0
  0
LINE
  5
54EF
330
1E
100
AcDbEntity
  8
0
 48
0.27
100
AcDbLine
 10
11.63447493209392
 20
559.942207400547
 30
0.0
 11
11.51295502479391
 21
560.3291384460471
 31
0.0
  0
LINE
  5
54F0
330
1E
100
AcDbEntity
  8
0
 48
0.27
100
AcDbLine
 10
13.1479400607939
 20
560.4808292462471
 30
0.0
 11
13.06267251919385
 21
560.7523325453471
 31
0.0
  0
LINE
  5
54F1
330
1E
100
AcDbEntity
  8
0
 48
0.27
100
AcDbLine
 10
11.51295502479391
 20
563.166315257147
 30
0.0
 11
11.63447493209392
 21
563.553247638747
 31
0.0
  0
LINE
  5
54F2
330
1E
100
AcDbEntity
  8
0
 48
0.27
100
AcDbLine
 10
13.06267251919385
 20
562.7431224939471
 30
0.0
 11
13.1479400607939
 21
563.0146244570471
 31
0.0
  0
LINE
  5
54F3
330
1E
100
AcDbEntity
  8
0
 48
0.27
100
AcDbLine
 10
11.51295502479391
 20
560.3291384460471
 30
0.0
 11
11.4226574423939
 21
560.7705863162471
 31
0.0
  0
LINE
  5
54F4
330
1E
100
AcDbEntity
  8
0
 48
0.27
100
AcDbLine
 10
13.06267251919385
 20
560.7523325453471
 30
0.0
 11
12.99931270909385
 21
561.0620868666471
 31
0.0
  0
LINE
  5
54F5
330
1E
100
AcDbEntity
  8
0
 48
0.27
100
AcDbLine
 10
11.4226574423939
 20
562.7248673870471
 30
0.0
 11
11.51295502479391
 21
563.166315257147
 31
0.0
  0
LINE
  5
54F6
330
1E
100
AcDbEntity
  8
0
 48
0.27
100
AcDbLine
 10
12.99931270909385
 20
562.4333668366471
 30
0.0
 11
13.06267251919385
 21
562.7431224939471
 31
0.0
  0
LINE
  5
54F7
330
1E
100
AcDbEntity
  8
0
 48
0.27
100
AcDbLine
 10
11.4226574423939
 20
560.7705863162471
 30
0.0
 11
11.36705311359381
 21
561.2495851444471
 31
0.0
  0
LINE
  5
54F8
330
1E
100
AcDbEntity
  8
0
 48
0.27
100
AcDbLine
 10
12.99931270909385
 20
561.0620868666471
 30
0.0
 11
12.96029482289387
 21
561.3981911200471
 31
0.0
  0
LINE
  5
54F9
330
1E
100
AcDbEntity
  8
0
 48
0.27
100
AcDbLine
 10
11.36705311359381
 20
562.2458685588472
 30
0.0
 11
11.4226574423939
 21
562.7248673870471
 31
0.0
  0
LINE
  5
54FA
330
1E
100
AcDbEntity
  8
0
 48
0.27
100
AcDbLine
 10
12.96029482289387
 20
562.0972639192471
 30
0.0
 11
12.99931270909385
 21
562.4333668366471
 31
0.0
  0
LINE
  5
54FB
330
1E
100
AcDbEntity
  8
0
 48
0.27
100
AcDbLine
 10
11.36705311359381
 20
561.2495851444471
 30
0.0
 11
11.34827696659388
 21
561.747727519647
 31
0.0
  0
LINE
  5
54FC
330
1E
100
AcDbEntity
  8
0
 48
0.27
100
AcDbLine
 10
12.96029482289387
 20
561.3981911200471
 30
0.0
 11
12.94712052479386
 21
561.747727519647
 31
0.0
  0
LINE
  5
54FD
330
1E
100
AcDbEntity
  8
0
 48
0.27
100
AcDbLine
 10
12.94712052479386
 20
561.747727519647
 30
0.0
 11
12.96029482289387
 21
562.0972639192471
 31
0.0
  0
LINE
  5
54FE
330
1E
100
AcDbEntity
  8
0
 48
0.27
100
AcDbLine
 10
11.34827696659388
 20
561.747727519647
 30
0.0
 11
11.36705311359381
 21
562.2458685588472
 31
0.0
  0
LINE
  5
54FF
330
1E
100
AcDbEntity
  8
0
 48
0.27
100
AcDbLine
 10
10.84530361459386
 20
559.8339245833471
 30
0.0
 11
10.89605826269385
 21
559.800461786047
 31
0.0
  0
LINE
  5
5500
330
1E
100
AcDbEntity
  8
0
 48
0.27
100
AcDbLine
 10
10.6327807168939
 20
559.8116427718471
 30
0.0
 11
10.6811345724939
 21
559.8095893394471
 31
0.0
  0
LINE
  5
5501
330
1E
100
AcDbEntity
  8
0
 48
0.27
100
AcDbLine
 10
10.84530361459386
 20
563.661529119947
 30
0.0
 11
10.89605826269385
 21
563.6949919172471
 31
0.0
  0
LINE
  5
5502
330
1E
100
AcDbEntity
  8
中心線
 48
0.27
100
AcDbLine
 10
4.56148406349385
 20
554.9977275196471
 30
0.0
 11
4.56148406349385
 21
568.4977275196471
 31
0.0
  0
LINE
  5
5503
330
1E
100
AcDbEntity
  8
中心線
 48
0.27
100
AcDbLine
 10
15.81840049489384
 20
561.747727519647
 30
0.0
 11
-2.188515936506149
 21
561.747727519647
 31
0.0
  0
POINT
  5
5504
330
1E
100
AcDbEntity
  8
0
100
AcDbPoint
 10
14.31840049489383
 20
561.747727519647
 30
0.0
1001
pntflag
1000
endpoint
  0
LINE
  5
55CE
330
1E
100
AcDbEntity
  8
中心線
100
AcDbLine
 10
154.44298098314
 20
635.0903582800349
 30
0.0
 11
162.8429809831399
 21
635.0903582800349
 31
0.0
  0
CIRCLE
  5
55CF
330
1E
100
AcDbEntity
  8
0
100
AcDbCircle
 10
158.64298098314
 20
635.0903582800349
 30
0.0
 40
3.4
  0
ARC
  5
55D0
330
1E
100
AcDbEntity
  8
指線
100
AcDbCircle
 10
158.64298098314
 20
635.0903582800349
 30
0.0
 40
4.0
100
AcDbArc
 50
169.9999999988373
 51
100.0000000011642
  0
CIRCLE
  5
55D1
330
1E
100
AcDbEntity
  8
0
100
AcDbCircle
 10
158.64298098314
 20
685.0903582800349
 30
0.0
 40
3.4
  0
ARC
  5
55D2
330
1E
100
AcDbEntity
  8
指線
100
AcDbCircle
 10
158.64298098314
 20
685.0903582800349
 30
0.0
 40
4.0
100
AcDbArc
 50
169.9999999988373
 51
100.0000000011642
  0
LINE
  5
55D3
330
1E
100
AcDbEntity
  8
中心線
100
AcDbLine
 10
154.44298098314
 20
685.0903582800349
 30
0.0
 11
162.8429809831399
 21
685.0903582800349
 31
0.0
  0
LINE
  5
55DB
330
1E
100
AcDbEntity
  8
0
100
AcDbLine
 10
143.64298098314
 20
677.7903582800349
 30
0.0
 11
223.6429809831399
 21
677.7903582800349
 31
0.0
  0
LINE
  5
55DC
330
1E
100
AcDbEntity
  8
0
100
AcDbLine
 10
143.64298098314
 20
677.0903582814851
 30
0.0
 11
223.6429809831399
 21
677.0903582814851
 31
0.0
  0
LINE
  5
55DD
330
1E
100
AcDbEntity
  8
0
100
AcDbLine
 10
143.64298098314
 20
667.490358281485
 30
0.0
 11
223.6429809831399
 21
667.490358281485
 31
0.0
  0
LINE
  5
55DE
330
1E
100
AcDbEntity
  8
0
100
AcDbLine
 10
143.64298098314
 20
666.7903582829351
 30
0.0
 11
223.6429809831399
 21
666.7903582829351
 31
0.0
  0
LINE
  5
55DF
330
1E
100
AcDbEntity
  8
0
100
AcDbLine
 10
143.64298098314
 20
653.3903582771347
 30
0.0
 11
223.6429809831399
 21
653.3903582771347
 31
0.0
  0
LINE
  5
55E0
330
1E
100
AcDbEntity
  8
0
100
AcDbLine
 10
143.64298098314
 20
652.6903582785848
 30
0.0
 11
223.6429809831399
 21
652.6903582785848
 31
0.0
  0
LINE
  5
55E1
330
1E
100
AcDbEntity
  8
0
100
AcDbLine
 10
143.64298098314
 20
643.0903582785849
 30
0.0
 11
223.6429809831399
 21
643.0903582785849
 31
0.0
  0
LINE
  5
55E2
330
1E
100
AcDbEntity
  8
0
100
AcDbLine
 10
143.64298098314
 20
642.3903582800349
 30
0.0
 11
223.6429809831399
 21
642.3903582800349
 31
0.0
  0
LINE
  5
55E3
330
1E
100
AcDbEntity
  8
0
100
AcDbLine
 10
143.64298098314
 20
626.7903582800349
 30
0.0
 11
223.6429809831399
 21
626.7903582800349
 31
0.0
  0
LINE
  5
55E4
330
1E
100
AcDbEntity
  8
0
100
AcDbLine
 10
143.6429809831399
 20
625.0903582800349
 30
0.0
 11
223.64298098314
 21
625.0903582800349
 31
0.0
  0
LINE
  5
55E9
330
1E
100
AcDbEntity
  8
中心線
100
AcDbLine
 10
141.6429809831399
 20
660.0903582800349
 30
0.0
 11
225.64298098314
 21
660.0903582800349
 31
0.0
  0
LINE
  5
55EB
330
1E
100
AcDbEntity
  8
0
100
AcDbLine
 10
143.64298098314
 20
695.0903582800349
 30
0.0
 11
223.6429809831399
 21
695.0903582800349
 31
0.0
  0
LINE
  5
55EC
330
1E
100
AcDbEntity
  8
0
100
AcDbLine
 10
143.64298098314
 20
693.3903582800349
 30
0.0
 11
223.6429809831399
 21
693.3903582800349
 31
0.0
  0
LINE
  5
55ED
330
1E
100
AcDbEntity
  8
0
100
AcDbLine
 10
143.6429809831399
 20
625.0903582800349
 30
0.0
 11
143.64298098314
 21
695.0903582800349
 31
0.0
  0
LINE
  5
55EE
330
1E
100
AcDbEntity
  8
中心線
100
AcDbLine
 10
158.64298098314
 20
689.2903582800349
 30
0.0
 11
158.64298098314
 21
680.8903582800349
 31
0.0
  0
LINE
  5
5615
330
1E
100
AcDbEntity
  8
中心線
100
AcDbLine
 10
158.64298098314
 20
639.2903582800349
 30
0.0
 11
158.64298098314
 21
630.8903582800349
 31
0.0
  0
LINE
  5
562C
330
1E
100
AcDbEntity
  8
0
100
AcDbLine
 10
223.64298098314
 20
625.0903582800349
 30
0.0
 11
223.6429809831399
 21
695.0903582800349
 31
0.0
  0
LINE
  5
562D
330
1E
100
AcDbEntity
  8
中心線
100
AcDbLine
 10
183.64298098314
 20
623.090358280035
 30
0.0
 11
183.6429809831399
 21
697.0903582800349
 31
0.0
  0
CIRCLE
  5
5638
330
1E
100
AcDbEntity
  8
0
100
AcDbCircle
 10
208.6429809831399
 20
685.0903582800349
 30
0.0
 40
3.4
  0
ARC
  5
5639
330
1E
100
AcDbEntity
  8
指線
100
AcDbCircle
 10
208.6429809831399
 20
685.0903582800349
 30
0.0
 40
4.0
100
AcDbArc
 50
169.9999999988373
 51
100.0000000011658
  0
LINE
  5
563A
330
1E
100
AcDbEntity
  8
中心線
100
AcDbLine
 10
208.6429809831399
 20
689.2903582800349
 30
0.0
 11
208.6429809831399
 21
680.8903582800349
 31
0.0
  0
LINE
  5
563C
330
1E
100
AcDbEntity
  8
中心線
100
AcDbLine
 10
204.44298098314
 20
685.0903582800349
 30
0.0
 11
212.84298098314
 21
685.0903582800349
 31
0.0
  0
CIRCLE
  5
565F
330
1E
100
AcDbEntity
  8
0
100
AcDbCircle
 10
208.6429809831399
 20
635.0903582800349
 30
0.0
 40
3.4
  0
ARC
  5
5660
330
1E
100
AcDbEntity
  8
指線
100
AcDbCircle
 10
208.6429809831399
 20
635.0903582800349
 30
0.0
 40
4.0
100
AcDbArc
 50
169.9999999988373
 51
100.0000000011658
  0
LINE
  5
5661
330
1E
100
AcDbEntity
  8
中心線
100
AcDbLine
 10
208.6429809831399
 20
639.2903582800349
 30
0.0
 11
208.6429809831399
 21
630.8903582800349
 31
0.0
  0
LINE
  5
5663
330
1E
100
AcDbEntity
  8
中心線
100
AcDbLine
 10
204.44298098314
 20
635.0903582800349
 30
0.0
 11
212.84298098314
 21
635.0903582800349
 31
0.0
  0
LINE
  5
5688
330
1E
100
AcDbEntity
  8
0
 48
0.27
100
AcDbLine
 10
130.6429809831399
 20
625.990358280035
 30
-0.0000000000000018
 11
130.6429809831399
 21
693.990358280035
 31
-0.0000000000000018
  0
LINE
  5
5689
330
1E
100
AcDbEntity
  8
0
100
AcDbLine
 10
128.9429809831399
 20
693.990358280035
 30
-0.0000000000000018
 11
128.9429809831399
 21
625.990358280035
 31
-0.0000000000000018
  0
LINE
  5
5694
330
1E
100
AcDbEntity
  8
0
 48
0.27
100
AcDbLine
 10
90.28596196177431
 20
643.0903582800349
 30
0.0
 11
90.2859619617743
 21
677.0903582800349
 31
0.0
  0
LINE
  5
569E
330
1E
100
AcDbEntity
  8
0
 48
0.27
100
AcDbLine
 10
143.64298098314
 20
625.990358280035
 30
0.0
 11
128.9429809831399
 21
625.990358280035
 31
0.0
  0
LINE
  5
569F
330
1E
100
AcDbEntity
  8
0
 48
0.27
100
AcDbLine
 10
143.64298098314
 20
693.990358280035
 30
0.0
 11
128.9429809831399
 21
693.990358280035
 31
0.0
  0
LINE
  5
56A1
330
1E
100
AcDbEntity
  8
0
100
AcDbLine
 10
90.28596196177431
 20
643.0903582800349
 30
0.0
 11
127.4429809831398
 21
643.0903582800348
 31
-0.0000000000000017
  0
LINE
  5
56A2
330
1E
100
AcDbEntity
  8
0
100
AcDbLine
 10
90.2859619617743
 20
677.0903582800349
 30
0.0
 11
127.4429809831399
 21
677.0903582800349
 31
0.0
  0
LINE
  5
56A3
330
1E
100
AcDbEntity
  8
中心線
 48
0.27
100
AcDbLine
 10
110.2859619617742
 20
646.6129497716986
 30
0.0000000000000036
 11
110.2859619617742
 21
673.5677667883717
 31
0.0000000000000036
  0
LINE
  5
56A4
330
1E
100
AcDbEntity
  8
中心線
 48
0.27
100
AcDbLine
 10
96.80855345343772
 20
660.0903582800351
 30
0.0
 11
123.7633704701108
 21
660.090358280035
 31
0.0
  0
ARC
  5
56A6
330
1E
100
AcDbEntity
  8
0
100
AcDbCircle
 10
110.2859619617742
 20
660.0903582800351
 30
0.0000000000000036
 40
6.999999999950702
100
AcDbArc
 50
345.2784288205497
 51
329.168451516411
  0
CIRCLE
  5
56B1
330
1E
100
AcDbEntity
  8
0
100
AcDbCircle
 10
110.2859619617742
 20
660.0903582800351
 30
0.0000000000000036
 40
4.500000000048657
  0
LINE
  5
56CA
330
1E
100
AcDbEntity
  8
中心線
100
AcDbLine
 10
127.1591311867688
 20
640.0903582800349
 30
-0.0000000000000018
 11
132.9107681611497
 21
640.0903582800349
 31
-0.0000000000000018
  0
LINE
  5
56CB
330
1E
100
AcDbEntity
  8
0
100
AcDbLine
 10
128.0586531237816
 20
641.0903582800349
 30
-0.0000000000000018
 11
128.0586531237816
 21
639.0903582800349
 31
-0.0000000000000018
  0
ARC
  5
56CC
330
1E
100
AcDbEntity
  8
0
100
AcDbCircle
 10
129.2785048026341
 20
639.1101099180518
 30
-0.0000000000000018
 40
1.220011576012179
100
AcDbArc
 50
180.9276427879976
 51
254.0369778311712
  0
ARC
  5
56CD
330
1E
100
AcDbEntity
  8
0
100
AcDbCircle
 10
129.2785048026341
 20
641.0706066420178
 30
-0.0000000000000018
 40
1.220011576012179
100
AcDbArc
 50
143.0089963393457
 51
179.0723572120024
  0
LINE
  5
56CE
330
1E
100
AcDbEntity
  8
中心線
100
AcDbLine
 10
127.1591311867688
 20
680.0903582800349
 30
-0.0000000000000018
 11
132.9107681611497
 21
680.0903582800349
 31
-0.0000000000000018
  0
LINE
  5
56CF
330
1E
100
AcDbEntity
  8
0
100
AcDbLine
 10
128.0586531237816
 20
681.0903582800349
 30
-0.0000000000000018
 11
128.0586531237816
 21
679.0903582800349
 31
-0.0000000000000018
  0
ARC
  5
56D0
330
1E
100
AcDbEntity
  8
0
100
AcDbCircle
 10
129.2785048026341
 20
679.1101099180519
 30
-0.0000000000000018
 40
1.220011576012179
100
AcDbArc
 50
180.9276427879976
 51
216.9910036606534
  0
ARC
  5
56D1
330
1E
100
AcDbEntity
  8
0
100
AcDbCircle
 10
129.2785048026341
 20
681.0706066420177
 30
-0.0000000000000018
 40
1.220011576012179
100
AcDbArc
 50
105.9630221688287
 51
179.0723572120024
  0
ARC
  5
56D9
330
1E
100
AcDbEntity
  8
0
100
AcDbCircle
 10
238.0074571636458
 20
681.0706066420177
 30
-0.0000000000000018
 40
1.220011576012179
100
AcDbArc
 50
0.927642787997602
 51
74.03697783117128
  0
ARC
  5
56DA
330
1E
100
AcDbEntity
  8
0
100
AcDbCircle
 10
238.0074571636458
 20
679.1101099180519
 30
-0.0000000000000018
 40
1.220011576012179
100
AcDbArc
 50
323.0089963393466
 51
359.0723572120024
  0
LINE
  5
56DB
330
1E
100
AcDbEntity
  8
中心線
100
AcDbLine
 10
240.1268307795111
 20
680.0903582800349
 30
-0.0000000000000018
 11
234.3751938051302
 21
680.0903582800349
 31
-0.0000000000000018
  0
ARC
  5
56DC
330
1E
100
AcDbEntity
  8
0
100
AcDbCircle
 10
238.0074571636458
 20
641.0706066420178
 30
-0.0000000000000018
 40
1.220011576012179
100
AcDbArc
 50
0.927642787997602
 51
36.9910036606593
  0
ARC
  5
56DD
330
1E
100
AcDbEntity
  8
0
100
AcDbCircle
 10
238.0074571636458
 20
639.1101099180518
 30
-0.0000000000000018
 40
1.220011576012179
100
AcDbArc
 50
285.9630221688287
 51
359.0723572120024
  0
LINE
  5
56DE
330
1E
100
AcDbEntity
  8
中心線
100
AcDbLine
 10
240.1268307795111
 20
640.0903582800349
 30
-0.0000000000000018
 11
234.3751938051302
 21
640.0903582800349
 31
-0.0000000000000018
  0
LINE
  5
56E2
330
1E
100
AcDbEntity
  8
0
100
AcDbLine
 10
290.2859619617743
 20
677.0903582800349
 30
0.0
 11
239.84298098314
 21
677.090358280035
 31
0.0
  0
LINE
  5
56E3
330
1E
100
AcDbEntity
  8
0
100
AcDbLine
 10
290.2859619617743
 20
643.0903582800349
 30
0.0000000000000009
 11
239.8429809831401
 21
643.0903582800349
 31
-0.0000000000000017
  0
LINE
  5
56E4
330
1E
100
AcDbEntity
  8
0
100
AcDbLine
 10
239.2273088424982
 20
641.0903582800349
 30
-0.0000000000000018
 11
239.2273088424982
 21
639.0903582800349
 31
-0.0000000000000018
  0
LINE
  5
56E5
330
1E
100
AcDbEntity
  8
0
100
AcDbLine
 10
239.2273088424982
 20
681.0903582800349
 30
-0.0000000000000018
 11
239.2273088424982
 21
679.0903582800349
 31
-0.0000000000000018
  0
LINE
  5
56E8
330
1E
100
AcDbEntity
  8
0
 48
0.27
100
AcDbLine
 10
236.64298098314
 20
625.990358280035
 30
-0.0000000000000018
 11
236.64298098314
 21
693.990358280035
 31
-0.0000000000000018
  0
LINE
  5
56E9
330
1E
100
AcDbEntity
  8
0
100
AcDbLine
 10
238.34298098314
 20
693.990358280035
 30
-0.0000000000000018
 11
238.34298098314
 21
625.990358280035
 31
-0.0000000000000018
  0
LINE
  5
56EA
330
1E
100
AcDbEntity
  8
0
 48
0.27
100
AcDbLine
 10
223.6429809831399
 20
625.990358280035
 30
0.0
 11
238.34298098314
 21
625.990358280035
 31
0.0
  0
LINE
  5
56EB
330
1E
100
AcDbEntity
  8
0
 48
0.27
100
AcDbLine
 10
223.6429809831399
 20
693.990358280035
 30
0.0
 11
238.34298098314
 21
693.990358280035
 31
0.0
  0
ARC
  5
5710
330
1E
100
AcDbEntity
  8
0
  6
Continuous
100
AcDbCircle
 10
117.9242692093803
 20
651.8769692941495
 30
-0.0000000000000018
 40
2.860349020536762
100
AcDbArc
 50
118.5864858262623
 51
163.5864858262621
  0
LINE
  5
5711
330
1E
100
AcDbEntity
  8
0
  6
Continuous
100
AcDbLine
 10
116.7404117082311
 20
654.3120932365725
 30
-0.0000000000000018
 11
120.990257557783
 21
652.5517494476932
 31
-0.0000000000000018
  0
ARC
  5
5712
330
1E
100
AcDbEntity
  8
0
  6
Continuous
100
AcDbCircle
 10
123.0998570886354
 20
651.7421988499452
 30
-0.0000000000000018
 40
2.059673609817604
100
AcDbArc
 50
89.15209883494084
 51
159.1520988349398
  0
LINE
  5
5713
330
1E
100
AcDbEntity
  8
0
  6
Continuous
100
AcDbLine
 10
115.1804869831398
 20
652.6852115933725
 30
-0.0000000000000018
 11
120.9429118669408
 21
650.2983370543459
 31
-0.0000000000000018
  0
LINE
  5
5714
330
1E
100
AcDbEntity
  8
0
  6
Continuous
100
AcDbLine
 10
115.1804869831398
 20
649.6532156309865
 30
-0.0000000000000018
 11
118.7989669614075
 21
648.1543921488126
 31
-0.0000000000000018
  0
LINE
  5
5715
330
1E
100
AcDbEntity
  8
0
  6
Continuous
100
AcDbLine
 10
115.1804869831398
 20
649.6532156309865
 30
-0.0000000000000018
 11
115.1804869831398
 21
652.6852115933725
 31
-0.0000000000000018
  0
LINE
  5
5716
330
1E
100
AcDbEntity
  8
0
  6
Continuous
100
AcDbLine
 10
118.7989669614075
 20
648.1543921488126
 30
-0.0000000000000018
 11
120.9429118669408
 21
650.2983370543459
 31
-0.0000000000000018
  0
ARC
  5
5717
330
1E
100
AcDbEntity
  8
0
  6
Continuous
100
AcDbCircle
 10
118.4312512380448
 20
651.6669704619974
 30
-0.0000000000000018
 40
2.860349020536762
100
AcDbArc
 50
331.4135141737373
 51
16.41351417373787
  0
LINE
  5
5718
330
1E
100
AcDbEntity
  8
0
  6
Continuous
100
AcDbLine
 10
125.5197395252492
 20
662.2903580808491
 30
-0.0000000000000018
 11
128.9429809831399
 21
662.2903580808491
 31
-0.0000000000000018
  0
LINE
  5
5719
330
1E
100
AcDbEntity
  8
0
  6
Continuous
100
AcDbLine
 10
125.5197395252492
 20
664.5903582800349
 30
-0.0000000000000018
 11
128.9429809831399
 21
664.5903582800349
 31
-0.0000000000000018
  0
LINE
  5
571A
330
1E
100
AcDbEntity
  8
0
  6
Continuous
100
AcDbLine
 10
125.5197395252492
 20
657.6903584792208
 30
-0.0000000000000018
 11
128.9429809831399
 21
657.6903584792208
 31
-0.0000000000000018
  0
LINE
  5
571B
330
1E
100
AcDbEntity
  8
0
  6
Continuous
100
AcDbLine
 10
125.5197395252492
 20
655.390358280035
 30
-0.0000000000000018
 11
128.9429809831399
 21
655.390358280035
 31
-0.0000000000000018
  0
LINE
  5
571C
330
1E
100
AcDbEntity
  8
0
  6
Continuous
100
AcDbLine
 10
125.1804869831399
 20
656.5403581804421
 30
-0.0000000000000018
 11
125.1804869831399
 21
663.4403583796279
 31
-0.0000000000000018
  0
ARC
  5
571D
330
1E
100
AcDbEntity
  8
0
  6
Continuous
100
AcDbCircle
 10
133.1479209627735
 20
659.990358280035
 30
-0.0000000000000018
 40
7.96743397963368
100
AcDbArc
 50
163.2213499979121
 51
196.7786500020878
  0
ARC
  5
571E
330
1E
100
AcDbEntity
  8
0
  6
Continuous
100
AcDbCircle
 10
121.5819281606547
 20
659.990358280035
 30
-0.0000000000000018
 40
4.0
100
AcDbArc
 50
90.0
 51
210.8352048940854
  0
ARC
  5
571F
330
1E
100
AcDbEntity
  8
0
  6
Continuous
100
AcDbCircle
 10
117.6861819166353
 20
650.5851948621591
 30
-0.0000000000000018
 40
6.971504732179473
100
AcDbArc
 50
50.7213499979131
 51
84.27865000208788
  0
ARC
  5
5720
330
1E
100
AcDbEntity
  8
0
  6
Continuous
100
AcDbCircle
 10
122.2226672947467
 20
661.5372393875029
 30
-0.0000000000000018
 40
6.971504732179473
100
AcDbArc
 50
230.7213499979131
 51
264.2786500020895
  0
LINE
  5
5721
330
1E
100
AcDbEntity
  8
0
  6
Continuous
100
AcDbLine
 10
116.765826515808
 20
656.2516344994373
 30
-0.0000000000000018
 11
122.3437493543656
 21
653.9411832098362
 31
-0.0000000000000018
  0
LINE
  5
5722
330
1E
100
AcDbEntity
  8
0
  6
Continuous
100
AcDbLine
 10
117.5650998570163
 20
658.181251039826
 30
-0.0000000000000018
 11
123.143022695574
 21
655.8707997502247
 31
-0.0000000000000018
  0
LINE
  5
5723
330
1E
100
AcDbEntity
  8
0
  6
Continuous
100
AcDbLine
 10
115.9497708530752
 20
656.9109595899126
 30
-0.0000000000000018
 11
116.5218481215909
 21
658.2920762902883
 31
-0.0000000000000018
  0
LINE
  5
5724
330
1E
100
AcDbEntity
  8
0
  6
Continuous
100
AcDbLine
 10
117.809078573275
 20
656.1408091155808
 30
-0.0000000000000018
 11
118.3811558417906
 21
657.5219258159568
 31
-0.0000000000000018
  0
ARC
  5
5725
330
1E
100
AcDbEntity
  8
0
  6
Continuous
100
AcDbCircle
 10
114.6762608569962
 20
655.2313666530451
 30
-0.0000000000000018
 40
2.059673609817605
100
AcDbArc
 50
335.8479011650597
 51
45.84790116506002
  0
ARC
  5
5726
330
1E
100
AcDbEntity
  8
0
  6
Continuous
100
AcDbCircle
 10
117.4753727756358
 20
657.9646307030448
 30
-0.0000000000000018
 40
1.854133729915247
100
AcDbArc
 50
214.6327799989371
 51
280.3672200010619
  0
ARC
  5
5727
330
1E
100
AcDbEntity
  8
0
  6
Continuous
100
AcDbCircle
 10
116.8555535971885
 20
656.4682548362184
 30
-0.0000000000000018
 40
1.854133729915247
100
AcDbArc
 50
34.63277999893714
 51
100.3672200010619
  0
ARC
  5
5728
330
1E
100
AcDbEntity
  8
0
  6
Continuous
100
AcDbCircle
 10
127.2994969601858
 20
656.5403581804421
 30
-0.0000000000000018
 40
2.119009977045996
100
AcDbArc
 50
147.1327799989379
 51
212.8672200010621
  0
LINE
  5
5729
330
1E
100
AcDbEntity
  8
0
  6
Continuous
100
AcDbLine
 10
122.7155314612955
 20
655.990358280035
 30
-0.0000000000000018
 11
125.2531090711549
 21
655.990358280035
 31
-0.0000000000000018
  0
ARC
  5
572A
330
1E
100
AcDbEntity
  8
0
  6
Continuous
100
AcDbCircle
 10
122.4334764357462
 20
654.1578035466173
 30
-0.0000000000000018
 40
1.854133729915247
100
AcDbArc
 50
34.63277999893714
 51
100.3672200010619
  0
LINE
  5
572B
330
1E
100
AcDbEntity
  8
0
  6
Continuous
100
AcDbLine
 10
123.3869588377446
 20
653.8303151801031
 30
-0.0000000000000018
 11
123.9590787311104
 21
655.2115347859703
 31
-0.0000000000000018
  0
LINE
  5
572C
330
1E
100
AcDbEntity
  8
0
  6
Continuous
100
AcDbLine
 10
121.5276933695914
 20
654.6005084337054
 30
-0.0000000000000018
 11
122.099770638107
 21
655.9816251340812
 31
-0.0000000000000018
  0
ARC
  5
572D
330
1E
100
AcDbEntity
  8
0
  6
Continuous
100
AcDbCircle
 10
123.0532956141934
 20
655.6541794134436
 30
-0.0000000000000018
 40
1.854133729915247
100
AcDbArc
 50
214.6327799989371
 51
280.3672200010619
  0
LINE
  5
572E
330
1E
100
AcDbEntity
  8
0
  6
Continuous
100
AcDbLine
 10
121.5819281606547
 20
663.990358280035
 30
-0.0000000000000018
 11
125.2531090711549
 21
663.990358280035
 31
-0.0000000000000018
  0
ARC
  5
572F
330
1E
100
AcDbEntity
  8
0
  6
Continuous
100
AcDbCircle
 10
127.2994969601858
 20
663.4403583796279
 30
-0.0000000000000018
 40
2.119009977045996
100
AcDbArc
 50
147.1327799989379
 51
212.8672200010621
  0
LINE
  5
5735
330
1E
100
AcDbEntity
  8
中心線
 48
0.27
100
AcDbLine
 10
270.2859619617743
 20
646.6129497716983
 30
0.0
 11
270.2859619617743
 21
673.5677667883715
 31
0.0
  0
LINE
  5
5736
330
1E
100
AcDbEntity
  8
中心線
 48
0.27
100
AcDbLine
 10
256.8085534534379
 20
660.0903582800349
 30
-0.0000000000000036
 11
283.7633704701109
 21
660.0903582800349
 31
-0.0000000000000036
  0
CIRCLE
  5
5737
330
1E
100
AcDbEntity
  8
0
100
AcDbCircle
 10
270.2859619617743
 20
660.0903582800349
 30
0.0
 40
4.500000000048657
  0
CIRCLE
  5
5738
330
1E
100
AcDbEntity
  8
0
100
AcDbCircle
 10
270.2859619617743
 20
660.0903582800349
 30
0.0
 40
6.999999999950702
  0
LINE
  5
5739
330
1E
100
AcDbEntity
  8
0
100
AcDbLine
 10
290.2859619617743
 20
643.0903582800349
 30
0.0
 11
290.2859619617743
 21
677.0903582800349
 31
0.0
  0
LINE
  5
5803
330
1E
100
AcDbEntity
  8
0
100
AcDbLine
 10
20.06148404778506
 20
522.7477275197198
 30
0.0
 11
13.3114840793348
 21
522.74772751972
 31
0.0
  0
LINE
  5
5804
330
1E
100
AcDbEntity
  8
0
100
AcDbLine
 10
-4.188515952214203
 20
522.7477275197205
 30
0.0
 11
-10.93851593648179
 21
522.7477275197206
 31
0.0
  0
LINE
  5
580C
330
1E
100
AcDbEntity
  8
0
100
AcDbLine
 10
7.811484047785398
 20
522.7477275197202
 30
0.0
 11
1.311484079152904
 21
522.7477275197204
 31
0.0
  0
LINE
  5
5BB5
330
1E
100
AcDbEntity
  8
0
100
AcDbLine
 10
-12.43851593648179
 20
524.2477275197208
 30
0.0
 11
-10.93851593648179
 21
522.7477275197206
 31
0.0
  0
LINE
  5
5BB6
330
1E
100
AcDbEntity
  8
0
100
AcDbLine
 10
-3.68851593648182
 20
523.2477275354471
 30
0.0
 11
0.8114840635181792
 21
523.2477275354471
 31
0.0
  0
LINE
  5
5CA8
330
1E
100
AcDbEntity
  8
0
100
AcDbLine
 10
127.4429809831399
 20
677.0903582800349
 30
-0.0000000000000018
 11
127.4429809831399
 21
664.5903582800349
 31
-0.0000000000000018
  0
LINE
  5
5D47
330
1E
100
AcDbEntity
  8
0
100
AcDbLine
 10
127.4429809831399
 20
677.0903582800349
 30
-0.0000000000000018
 11
128.9429809831399
 21
679.3300582958354
 31
0.0
  0
LINE
  5
5D48
330
1E
100
AcDbEntity
  8
0
100
AcDbLine
 10
127.4429809831399
 20
673.2003582799867
 30
0.0
 11
128.9429809831399
 21
674.1280724113618
 31
0.0
  0
LINE
  5
5D4B
330
1E
100
AcDbEntity
  8
0
100
AcDbLine
 10
127.4429809831399
 20
646.9803582800831
 30
0.0
 11
128.9429809831399
 21
646.052644148708
 31
0.0
  0
LINE
  5
5D4C
330
1E
100
AcDbEntity
  8
0
100
AcDbLine
 10
127.4429809831399
 20
643.0903582800348
 30
-0.0000000000000018
 11
128.9429809831399
 21
640.8506582642344
 31
0.0
  0
LINE
  5
5D4D
330
1E
100
AcDbEntity
  8
0
100
AcDbLine
 10
127.4429809831399
 20
655.390358280035
 30
-0.0000000000000018
 11
127.4429809831399
 21
643.0903582800348
 31
-0.0000000000000018
  0
LINE
  5
5D57
330
1E
100
AcDbEntity
  8
0
100
AcDbLine
 10
239.84298098314
 20
677.0903582800349
 30
-0.0000000000000036
 11
239.84298098314
 21
664.5903582800349
 31
-0.0000000000000036
  0
LINE
  5
5D58
330
1E
100
AcDbEntity
  8
0
100
AcDbLine
 10
239.84298098314
 20
677.0903582800349
 30
-0.0000000000000036
 11
238.34298098314
 21
679.3300582958354
 31
-0.0000000000000018
  0
LINE
  5
5D59
330
1E
100
AcDbEntity
  8
0
100
AcDbLine
 10
239.84298098314
 20
673.2003582799867
 30
-0.0000000000000018
 11
238.34298098314
 21
674.1280724113618
 31
-0.0000000000000018
  0
LINE
  5
5D5A
330
1E
100
AcDbEntity
  8
0
100
AcDbLine
 10
239.84298098314
 20
646.9803582800831
 30
-0.0000000000000018
 11
238.34298098314
 21
646.052644148708
 31
-0.0000000000000018
  0
LINE
  5
5D5B
330
1E
100
AcDbEntity
  8
0
100
AcDbLine
 10
239.8429809831399
 20
643.0903582800348
 30
-0.0000000000000036
 11
238.34298098314
 21
640.8506582642344
 31
-0.0000000000000018
  0
LINE
  5
5D5C
330
1E
100
AcDbEntity
  8
0
100
AcDbLine
 10
239.84298098314
 20
664.5903582800349
 30
-0.0000000000000036
 11
239.8429809831399
 21
643.0903582800348
 31
-0.0000000000000036
  0
ENDSEC
  0
SECTION
  2
OBJECTS
  0
DICTIONARY
  5
C
330
0
100
AcDbDictionary
281
     1
  3
ACAD_COLOR
350
3D97
  3
ACAD_GROUP
350
D
  3
ACAD_LAYOUT
350
19
  3
ACAD_MATERIAL
350
3D96
  3
ACAD_MLINESTYLE
350
16
  3
ACAD_PLOTSETTINGS
350
18
  3
ACAD_PLOTSTYLENAME
350
E
  3
ACAD_TABLESTYLE
350
5BC5
  3
ACAD_VISUALSTYLE
350
5D7C
  3
AcDbVariableDictionary
350
3E63
  3
DWGPROPS
350
5DB7
  0
DICTIONARY
  5
43C2
330
2
100
AcDbDictionary
280
     1
281
     1
  3
ACAD_LAYERFILTERS
360
580D
  3
ACAD_LAYERSTATES
360
43C3
  0
DICTIONARY
  5
3D1E
330
1E
100
AcDbDictionary
280
     1
281
     1
  3
ACAD_LAYOUTSELFREF
360
3D92
  0
DICTIONARY
  5
3D20
330
1A
100
AcDbDictionary
280
     1
281
     1
  3
ACAD_LAYOUTSELFREF
360
3D91
  0
DICTIONARY
  5
3D97
102
{ACAD_REACTORS
330
C
102
}
330
C
100
AcDbDictionary
281
     1
  0
DICTIONARY
  5
D
102
{ACAD_REACTORS
330
C
102
}
330
C
100
AcDbDictionary
281
     1
  3
*A1
350
4143
  3
*A10
350
414D
  3
*A11
350
437C
  3
*A12
350
423E
  3
*A13
350
4146
  3
*A14
350
43B7
  3
*A15
350
43B9
  3
*A16
350
4238
  3
*A17
350
43B5
  3
*A18
350
423A
  3
*A19
350
43B6
  3
*A2
350
4145
  3
*A20
350
43BE
  3
*A21
350
43BC
  3
*A22
350
4148
  3
*A23
350
423F
  3
*A24
350
414E
  3
*A25
350
43BA
  3
*A26
350
4144
  3
*A27
350
4241
  3
*A28
350
43C0
  3
*A29
350
43BB
  3
*A3
350
4376
  3
*A30
350
4147
  3
*A31
350
414C
  3
*A32
350
4378
  3
*A33
350
43BF
  3
*A34
350
414A
  3
*A35
350
4235
  3
*A36
350
414F
  3
*A37
350
437E
  3
*A38
350
4149
  3
*A39
350
4239
  3
*A4
350
4237
  3
*A40
350
423C
  3
*A41
350
423B
  3
*A42
350
43B8
  3
*A43
350
4236
  3
*A44
350
4240
  3
*A45
350
4374
  3
*A46
350
4373
  3
*A47
350
43BD
  3
*A48
350
423D
  3
*A49
350
4377
  3
*A5
350
437A
  3
*A50
350
4379
  3
*A51
350
43C1
  3
*A52
350
4375
  3
*A6
350
437D
  3
*A7
350
437F
  3
*A8
350
414B
  3
*A9
350
437B
  0
DICTIONARY
  5
19
102
{ACAD_REACTORS
330
C
102
}
330
C
100
AcDbDictionary
281
     1
  3
Model
350
21
  3
配置1
350
1D
  0
DICTIONARY
  5
3D96
102
{ACAD_REACTORS
330
C
102
}
330
C
100
AcDbDictionary
281
     1
  3
ByBlock
350
5D7A
  3
ByLayer
350
5D79
  3
Global
350
5D7B
  0
DICTIONARY
  5
16
102
{ACAD_REACTORS
330
C
102
}
330
C
100
AcDbDictionary
281
     1
  3
Standard
350
17
  0
DICTIONARY
  5
18
102
{ACAD_REACTORS
330
C
102
}
330
C
100
AcDbDictionary
281
     1
  3
LANSRO
350
4150
  0
ACDBDICTIONARYWDFLT
  5
E
102
{ACAD_REACTORS
330
C
102
}
330
C
100
AcDbDictionary
281
     1
  3
Normal
350
F
100
AcDbDictionaryWithDefault
340
F
  0
DICTIONARY
  5
5BC5
102
{ACAD_REACTORS
330
C
102
}
330
C
100
AcDbDictionary
281
     1
  3
Standard
350
5BC6
  0
DICTIONARY
  5
5D7C
102
{ACAD_REACTORS
330
C
102
}
330
C
100
AcDbDictionary
281
     1
  3
2dWireframe
350
5D82
  3
3D Hidden
350
5D84
  3
3dWireframe
350
5D83
  3
Basic
350
5D81
  3
Brighten
350
5D88
  3
ColorChange
350
5D8C
  3
Conceptual
350
5D85
  3
Dim
350
5D87
  3
Facepattern
350
5D8B
  3
Flat
350
5D7D
  3
FlatWithEdges
350
5D7E
  3
Gouraud
350
5D7F
  3
GouraudWithEdges
350
5D80
  3
Linepattern
350
5D8A
  3
Realistic
350
5D86
  3
Thicken
350
5D89
  0
DICTIONARY
  5
3E63
102
{ACAD_REACTORS
330
C
102
}
330
C
100
AcDbDictionary
281
     1
  3
CTABLESTYLE
350
5C68
  3
DIMASSOC
350
3E64
  3
INDEXCTL
350
5DB6
  3
PROJECTNAME
350
3E65
  3
SORTENTS
350
5DB5
  0
XRECORD
  5
5DB7
102
{ACAD_REACTORS
330
C
102
}
330
C
100
AcDbXrecord
280
     1
  1
DWGPROPS COOKIE
  2

  3

  4

  6

  7

  8
tony4321
  9

300
=
301
=
302
=
303
=
304
=
305
=
306
=
307
=
308
=
309
=
 40
0.1330490277777778
 41
2444975.333333334
 42
2454358.449873472
  1

 90
        0
  0
DICTIONARY
  5
580D
102
{ACAD_REACTORS
330
43C2
102
}
330
43C2
100
AcDbDictionary
280
     1
281
     1
  0
DICTIONARY
  5
43C3
102
{ACAD_REACTORS
330
43C2
102
}
330
43C2
100
AcDbDictionary
281
     1
  0
XRECORD
  5
3D92
102
{ACAD_REACTORS
330
3D1E
102
}
330
3D1E
100
AcDbXrecord
280
     1
340
1E
  0
XRECORD
  5
3D91
102
{ACAD_REACTORS
330
3D20
102
}
330
3D20
100
AcDbXrecord
280
     1
340
1A
  0
GROUP
  5
4143
102
{ACAD_REACTORS
330
D
102
}
330
D
100
AcDbGroup
300

 70
     1
 71
     1
  0
GROUP
  5
414D
102
{ACAD_REACTORS
330
D
102
}
330
D
100
AcDbGroup
300

 70
     1
 71
     1
  0
GROUP
  5
437C
102
{ACAD_REACTORS
330
D
102
}
330
D
100
AcDbGroup
300

 70
     1
 71
     1
  0
GROUP
  5
423E
102
{ACAD_REACTORS
330
D
102
}
330
D
100
AcDbGroup
300

 70
     1
 71
     1
  0
GROUP
  5
4146
102
{ACAD_REACTORS
330
D
102
}
330
D
100
AcDbGroup
300

 70
     1
 71
     1
  0
GROUP
  5
43B7
102
{ACAD_REACTORS
330
D
102
}
330
D
100
AcDbGroup
300

 70
     1
 71
     1
  0
GROUP
  5
43B9
102
{ACAD_REACTORS
330
D
102
}
330
D
100
AcDbGroup
300

 70
     1
 71
     1
  0
GROUP
  5
4238
102
{ACAD_REACTORS
330
D
102
}
330
D
100
AcDbGroup
300

 70
     1
 71
     1
  0
GROUP
  5
43B5
102
{ACAD_REACTORS
330
D
102
}
330
D
100
AcDbGroup
300

 70
     1
 71
     1
  0
GROUP
  5
423A
102
{ACAD_REACTORS
330
D
102
}
330
D
100
AcDbGroup
300

 70
     1
 71
     1
  0
GROUP
  5
43B6
102
{ACAD_REACTORS
330
D
102
}
330
D
100
AcDbGroup
300

 70
     1
 71
     1
  0
GROUP
  5
4145
102
{ACAD_REACTORS
330
D
102
}
330
D
100
AcDbGroup
300

 70
     1
 71
     1
  0
GROUP
  5
43BE
102
{ACAD_REACTORS
330
D
102
}
330
D
100
AcDbGroup
300

 70
     1
 71
     1
  0
GROUP
  5
43BC
102
{ACAD_REACTORS
330
D
102
}
330
D
100
AcDbGroup
300

 70
     1
 71
     1
  0
GROUP
  5
4148
102
{ACAD_REACTORS
330
D
102
}
330
D
100
AcDbGroup
300

 70
     1
 71
     1
  0
GROUP
  5
423F
102
{ACAD_REACTORS
330
D
102
}
330
D
100
AcDbGroup
300

 70
     1
 71
     1
  0
GROUP
  5
414E
102
{ACAD_REACTORS
330
D
102
}
330
D
100
AcDbGroup
300

 70
     1
 71
     1
  0
GROUP
  5
43BA
102
{ACAD_REACTORS
330
D
102
}
330
D
100
AcDbGroup
300

 70
     1
 71
     1
  0
GROUP
  5
4144
102
{ACAD_REACTORS
330
D
102
}
330
D
100
AcDbGroup
300

 70
     1
 71
     1
  0
GROUP
  5
4241
102
{ACAD_REACTORS
330
D
102
}
330
D
100
AcDbGroup
300

 70
     1
 71
     1
  0
GROUP
  5
43C0
102
{ACAD_REACTORS
330
D
102
}
330
D
100
AcDbGroup
300

 70
     1
 71
     1
  0
GROUP
  5
43BB
102
{ACAD_REACTORS
330
D
102
}
330
D
100
AcDbGroup
300

 70
     1
 71
     1
  0
GROUP
  5
4376
102
{ACAD_REACTORS
330
D
102
}
330
D
100
AcDbGroup
300

 70
     1
 71
     1
  0
GROUP
  5
4147
102
{ACAD_REACTORS
330
D
102
}
330
D
100
AcDbGroup
300

 70
     1
 71
     1
  0
GROUP
  5
414C
102
{ACAD_REACTORS
330
D
102
}
330
D
100
AcDbGroup
300

 70
     1
 71
     1
  0
GROUP
  5
4378
102
{ACAD_REACTORS
330
D
102
}
330
D
100
AcDbGroup
300

 70
     1
 71
     1
  0
GROUP
  5
43BF
102
{ACAD_REACTORS
330
D
102
}
330
D
100
AcDbGroup
300

 70
     1
 71
     1
  0
GROUP
  5
414A
102
{ACAD_REACTORS
330
D
102
}
330
D
100
AcDbGroup
300

 70
     1
 71
     1
  0
GROUP
  5
4235
102
{ACAD_REACTORS
330
D
102
}
330
D
100
AcDbGroup
300

 70
     1
 71
     1
  0
GROUP
  5
414F
102
{ACAD_REACTORS
330
D
102
}
330
D
100
AcDbGroup
300

 70
     1
 71
     1
  0
GROUP
  5
437E
102
{ACAD_REACTORS
330
D
102
}
330
D
100
AcDbGroup
300

 70
     1
 71
     1
  0
GROUP
  5
4149
102
{ACAD_REACTORS
330
D
102
}
330
D
100
AcDbGroup
300

 70
     1
 71
     1
  0
GROUP
  5
4239
102
{ACAD_REACTORS
330
D
102
}
330
D
100
AcDbGroup
300

 70
     1
 71
     1
  0
GROUP
  5
4237
102
{ACAD_REACTORS
330
D
102
}
330
D
100
AcDbGroup
300

 70
     1
 71
     1
  0
GROUP
  5
423C
102
{ACAD_REACTORS
330
D
102
}
330
D
100
AcDbGroup
300

 70
     1
 71
     1
  0
GROUP
  5
423B
102
{ACAD_REACTORS
330
D
102
}
330
D
100
AcDbGroup
300

 70
     1
 71
     1
  0
GROUP
  5
43B8
102
{ACAD_REACTORS
330
D
102
}
330
D
100
AcDbGroup
300

 70
     1
 71
     1
  0
GROUP
  5
4236
102
{ACAD_REACTORS
330
D
102
}
330
D
100
AcDbGroup
300

 70
     1
 71
     1
  0
GROUP
  5
4240
102
{ACAD_REACTORS
330
D
102
}
330
D
100
AcDbGroup
300

 70
     1
 71
     1
  0
GROUP
  5
4374
102
{ACAD_REACTORS
330
D
102
}
330
D
100
AcDbGroup
300

 70
     1
 71
     1
  0
GROUP
  5
4373
102
{ACAD_REACTORS
330
D
102
}
330
D
100
AcDbGroup
300

 70
     1
 71
     1
  0
GROUP
  5
43BD
102
{ACAD_REACTORS
330
D
102
}
330
D
100
AcDbGroup
300

 70
     1
 71
     1
  0
GROUP
  5
423D
102
{ACAD_REACTORS
330
D
102
}
330
D
100
AcDbGroup
300

 70
     1
 71
     1
  0
GROUP
  5
4377
102
{ACAD_REACTORS
330
D
102
}
330
D
100
AcDbGroup
300

 70
     1
 71
     1
  0
GROUP
  5
437A
102
{ACAD_REACTORS
330
D
102
}
330
D
100
AcDbGroup
300

 70
     1
 71
     1
  0
GROUP
  5
4379
102
{ACAD_REACTORS
330
D
102
}
330
D
100
AcDbGroup
300

 70
     1
 71
     1
  0
GROUP
  5
43C1
102
{ACAD_REACTORS
330
D
102
}
330
D
100
AcDbGroup
300

 70
     1
 71
     1
  0
GROUP
  5
4375
102
{ACAD_REACTORS
330
D
102
}
330
D
100
AcDbGroup
300

 70
     1
 71
     1
  0
GROUP
  5
437D
102
{ACAD_REACTORS
330
D
102
}
330
D
100
AcDbGroup
300

 70
     1
 71
     1
  0
GROUP
  5
437F
102
{ACAD_REACTORS
330
D
102
}
330
D
100
AcDbGroup
300

 70
     1
 71
     1
  0
GROUP
  5
414B
102
{ACAD_REACTORS
330
D
102
}
330
D
100
AcDbGroup
300

 70
     1
 71
     1
  0
GROUP
  5
437B
102
{ACAD_REACTORS
330
D
102
}
330
D
100
AcDbGroup
300

 70
     1
 71
     1
  0
LAYOUT
  5
21
102
{ACAD_XDICTIONARY
360
5DBA
102
}
102
{ACAD_REACTORS
330
19
102
}
330
19
100
AcDbPlotSettings
  1

  2
HP 2200
  4

  6

 40
0.0
 41
0.0
 42
0.0
 43
0.0
 44
0.0
 45
0.0
 46
0.0
 47
0.0
 48
0.0
 49
0.0
140
0.0
141
0.0
142
1.0
143
1.0
 70
  1712
 72
     0
 73
     0
 74
     0
  7
AAA.ctb
 75
     0
147
1.0
148
0.0
149
0.0
100
AcDbLayout
  1
Model
 70
     1
 71
     0
 10
0.0
 20
0.0
 11
12.0
 21
9.0
 12
0.0
 22
0.0
 32
0.0
 14
0.0
 24
0.0
 34
0.0
 15
0.0
 25
0.0
 35
0.0
146
0.0
 13
0.0
 23
0.0
 33
0.0
 16
1.0
 26
0.0
 36
0.0
 17
0.0
 27
1.0
 37
0.0
 76
     0
330
1E
331
5D6E
  0
LAYOUT
  5
1D
102
{ACAD_XDICTIONARY
360
5DB8
102
}
102
{ACAD_REACTORS
330
19
102
}
330
19
100
AcDbPlotSettings
  1

  2
HP 2200
  4

  6

 40
0.0
 41
0.0
 42
0.0
 43
0.0
 44
0.0
 45
0.0
 46
0.0
 47
0.0
 48
0.0
 49
0.0
140
0.0
141
0.0
142
1.0
143
1.0
 70
   688
 72
     0
 73
     0
 74
     5
  7
AAA.ctb
 75
    16
147
1.0
148
0.0
149
0.0
100
AcDbLayout
  1
配置1
 70
     0
 71
     1
 10
0.0
 20
0.0
 11
12.0
 21
9.0
 12
0.0
 22
0.0
 32
0.0
 14
1.000000000000000E+20
 24
1.000000000000000E+20
 34
1.000000000000000E+20
 15
-1.000000000000000E+20
 25
-1.000000000000000E+20
 35
-1.000000000000000E+20
146
0.0
 13
0.0
 23
0.0
 33
0.0
 16
1.0
 26
0.0
 36
0.0
 17
0.0
 27
1.0
 37
0.0
 76
     0
330
1A
  0
MATERIAL
  5
5D7A
102
{ACAD_XDICTIONARY
360
5DC2
102
}
102
{ACAD_REACTORS
330
3D96
102
}
330
3D96
100
AcDbMaterial
  1
ByBlock
  0
MATERIAL
  5
5D79
102
{ACAD_XDICTIONARY
360
5DC0
102
}
102
{ACAD_REACTORS
330
3D96
102
}
330
3D96
100
AcDbMaterial
  1
ByLayer
  0
MATERIAL
  5
5D7B
102
{ACAD_XDICTIONARY
360
5DC4
102
}
102
{ACAD_REACTORS
330
3D96
102
}
330
3D96
100
AcDbMaterial
  1
Global
  0
MLINESTYLE
  5
17
102
{ACAD_REACTORS
330
16
102
}
330
16
100
AcDbMlineStyle
  2
STANDARD
 70
     0
  3

 62
   256
 51
90.0
 52
90.0
 71
     2
 49
0.5
 62
   256
  6
BYLAYER
 49
-0.5
 62
   256
  6
BYLAYER
  0
PLOTSETTINGS
  5
4150
102
{ACAD_XDICTIONARY
360
5DBC
102
}
102
{ACAD_REACTORS
330
18
102
}
330
18
100
AcDbPlotSettings
  1
LANSRO
  2
\\1260\HP2200
  4
A4
  6

 40
6.043083190917968
 41
6.762742042541503
 42
7.736419677734375
 43
5.027069091796875
 44
209.9733276367187
 45
296.9683227539062
 46
5.15
 47
0.0
 48
0.0
 49
0.0
140
0.0
141
0.0
142
1.0
143
0.8829829263240881
 70
  1716
 72
     1
 73
     1
 74
     0
  7
AAA.ctb
 75
     0
147
1.132524729739748
148
-132.297014905803
149
-71.78507365635891
  0
ACDBPLACEHOLDER
  5
F
102
{ACAD_REACTORS
330
E
102
}
330
E
  0
TABLESTYLE
  5
5BC6
102
{ACAD_XDICTIONARY
360
5DBE
102
}
102
{ACAD_REACTORS
330
5BC5
102
}
330
5BC5
100
AcDbTableStyle
  3
Standard
 70
     0
 71
     0
 40
0.06
 41
0.06
280
     0
281
     0
  7
STANDARD
140
0.18
170
     2
 62
     0
 63
     7
283
     0
274
    -2
284
     1
 64
     0
275
    -2
285
     1
 65
     0
276
    -2
286
     1
 66
     0
277
    -2
287
     1
 67
     0
278
    -2
288
     1
 68
     0
279
    -2
289
     1
 69
     0
  7
STANDARD
140
0.25
170
     5
 62
     0
 63
     7
283
     0
274
    -2
284
     1
 64
     0
275
    -2
285
     1
 65
     0
276
    -2
286
     1
 66
     0
277
    -2
287
     1
 67
     0
278
    -2
288
     1
 68
     0
279
    -2
289
     1
 69
     0
  7
STANDARD
140
0.18
170
     5
 62
     0
 63
     7
283
     0
274
    -2
284
     1
 64
     0
275
    -2
285
     1
 65
     0
276
    -2
286
     1
 66
     0
277
    -2
287
     1
 67
     0
278
    -2
288
     1
 68
     0
279
    -2
289
     1
 69
     0
1001
ACAD
1000
AcRTDxfName
1000
TABLESTYLE
1000
AcRTDxfName
1000
TABLESTYLE
  0
VISUALSTYLE
  5
5D82
102
{ACAD_REACTORS
330
5D7C
102
}
330
5D7C
100
AcDbVisualStyle
  2
2dWireframe
 70
     4
 71
     0
 72
     2
 73
     0
 90
        0
 40
-0.6
 41
-30.0
 62
     5
 63
     7
 74
     1
 91
        4
 64
     7
 65
   257
 75
     1
175
     1
 42
1.0
 92
        0
 66
   257
 43
1.0
 76
     1
 77
     6
 78
     2
 67
     7
 79
     5
170
     0
171
     0
290
     0
174
     0
 93
        1
 44
0.0
173
     0
291
     0
 45
0.0
1001
ACAD
1000
AcDbSavedByObjectVersion
1070
     0
  0
VISUALSTYLE
  5
5D84
102
{ACAD_REACTORS
330
5D7C
102
}
330
5D7C
100
AcDbVisualStyle
  2
3D Hidden
 70
     6
 71
     1
 72
     2
 73
     2
 90
        0
 40
-0.6
 41
-30.0
 62
     5
 63
     7
 74
     2
 91
        2
 64
     7
 65
   257
 75
     2
175
     1
 42
40.0
 92
        0
 66
   257
 43
1.0
 76
     1
 77
     6
 78
     2
 67
     7
 79
     3
170
     0
171
     0
290
     0
174
     0
 93
        1
 44
0.0
173
     0
291
     0
 45
0.0
1001
ACAD
1000
AcDbSavedByObjectVersion
1070
     0
  0
VISUALSTYLE
  5
5D83
102
{ACAD_REACTORS
330
5D7C
102
}
330
5D7C
100
AcDbVisualStyle
  2
3dWireframe
 70
     5
 71
     0
 72
     2
 73
     0
 90
        0
 40
-0.6
 41
-30.0
 62
     5
 63
     7
 74
     1
 91
        4
 64
     7
 65
   257
 75
     1
175
     1
 42
1.0
 92
        0
 66
   257
 43
1.0
 76
     1
 77
     6
 78
     2
 67
     7
 79
     5
170
     0
171
     0
290
     0
174
     0
 93
        1
 44
0.0
173
     0
291
     0
 45
0.0
1001
ACAD
1000
AcDbSavedByObjectVersion
1070
     0
  0
VISUALSTYLE
  5
5D81
102
{ACAD_REACTORS
330
5D7C
102
}
330
5D7C
100
AcDbVisualStyle
  2
Basic
 70
     7
 71
     1
 72
     0
 73
     1
 90
        0
 40
-0.6
 41
-30.0
 62
     5
 63
     7
 74
     0
 91
        4
 64
     7
 65
   257
 75
     1
175
     1
 42
1.0
 92
        8
 66
     7
 43
1.0
 76
     1
 77
     6
 78
     2
 67
     7
 79
     5
170
     0
171
     0
290
     0
174
     0
 93
        1
 44
0.0
173
     0
291
     1
 45
0.0
1001
ACAD
1000
AcDbSavedByObjectVersion
1070
     0
  0
VISUALSTYLE
  5
5D88
102
{ACAD_REACTORS
330
5D7C
102
}
330
5D7C
100
AcDbVisualStyle
  2
Brighten
 70
    12
 71
     2
 72
     2
 73
     0
 90
        0
 40
-0.6
 41
-30.0
 62
     5
 63
     7
 74
     1
 91
        4
 64
     7
 65
   257
 75
     1
175
     1
 42
1.0
 92
        8
 66
     7
 43
1.0
 76
     1
 77
     6
 78
     2
 67
     7
 79
     5
170
     0
171
     0
290
     0
174
     0
 93
        1
 44
50.0
173
     0
291
     1
 45
0.0
1001
ACAD
1000
AcDbSavedByObjectVersion
1070
     0
  0
VISUALSTYLE
  5
5D8C
102
{ACAD_REACTORS
330
5D7C
102
}
330
5D7C
100
AcDbVisualStyle
  2
ColorChange
 70
    16
 71
     2
 72
     2
 73
     3
 90
        0
 40
-0.6
 41
-30.0
 62
     5
 63
     8
 74
     1
 91
        4
 64
     7
 65
   257
 75
     1
175
     1
 42
1.0
 92
        8
 66
     8
 43
1.0
 76
     1
 77
     6
 78
     2
 67
     7
 79
     5
170
     0
171
     0
290
     0
174
     0
 93
        1
 44
0.0
173
     0
291
     1
 45
0.0
1001
ACAD
1000
AcDbSavedByObjectVersion
1070
     0
  0
VISUALSTYLE
  5
5D85
102
{ACAD_REACTORS
330
5D7C
102
}
330
5D7C
100
AcDbVisualStyle
  2
Conceptual
 70
     9
 71
     3
 72
     2
 73
     0
 90
        0
 40
-0.6
 41
-30.0
 62
     5
 63
     7
 74
     2
 91
        2
 64
     7
 65
   257
 75
     1
175
     1
 42
40.0
 92
        8
 66
     7
 43
1.0
 76
     1
 77
     6
 78
     2
 67
     7
 79
     3
170
     0
171
     0
290
     0
174
     0
 93
        1
 44
0.0
173
     0
291
     0
 45
0.0
1001
ACAD
1000
AcDbSavedByObjectVersion
1070
     0
  0
VISUALSTYLE
  5
5D87
102
{ACAD_REACTORS
330
5D7C
102
}
330
5D7C
100
AcDbVisualStyle
  2
Dim
 70
    11
 71
     2
 72
     2
 73
     0
 90
        0
 40
-0.6
 41
-30.0
 62
     5
 63
     7
 74
     1
 91
        4
 64
     7
 65
   257
 75
     1
175
     1
 42
1.0
 92
        8
 66
     7
 43
1.0
 76
     1
 77
     6
 78
     2
 67
     7
 79
     5
170
     0
171
     0
290
     0
174
     0
 93
        1
 44
-50.0
173
     0
291
     1
 45
0.0
1001
ACAD
1000
AcDbSavedByObjectVersion
1070
     0
  0
VISUALSTYLE
  5
5D8B
102
{ACAD_REACTORS
330
5D7C
102
}
330
5D7C
100
AcDbVisualStyle
  2
Facepattern
 70
    15
 71
     2
 72
     2
 73
     0
 90
        0
 40
-0.6
 41
-30.0
 62
     5
 63
     7
 74
     1
 91
        4
 64
     7
 65
   257
 75
     1
175
     1
 42
1.0
 92
        8
 66
     7
 43
1.0
 76
     1
 77
     6
 78
     2
 67
     7
 79
     5
170
     0
171
     0
290
     0
174
     0
 93
        1
 44
0.0
173
     0
291
     1
 45
0.0
1001
ACAD
1000
AcDbSavedByObjectVersion
1070
     0
  0
VISUALSTYLE
  5
5D7D
102
{ACAD_REACTORS
330
5D7C
102
}
330
5D7C
100
AcDbVisualStyle
  2
Flat
 70
     0
 71
     2
 72
     1
 73
     1
 90
        2
 40
-0.6
 41
30.0
 62
     5
 63
     7
 74
     0
 91
        4
 64
     7
 65
   257
 75
     1
175
     1
 42
1.0
 92
        8
 66
     7
 43
1.0
 76
     1
 77
     6
 78
     2
 67
     7
 79
     5
170
     0
171
     0
290
     0
174
     0
 93
       13
 44
0.0
173
     0
291
     1
 45
0.0
1001
ACAD
1000
AcDbSavedByObjectVersion
1070
     0
  0
VISUALSTYLE
  5
5D7E
102
{ACAD_REACTORS
330
5D7C
102
}
330
5D7C
100
AcDbVisualStyle
  2
FlatWithEdges
 70
     1
 71
     2
 72
     1
 73
     1
 90
        2
 40
-0.6
 41
30.0
 62
     5
 63
     7
 74
     1
 91
        4
 64
     7
 65
   257
 75
     1
175
     1
 42
1.0
 92
        0
 66
   257
 43
1.0
 76
     1
 77
     6
 78
     2
 67
     7
 79
     5
170
     0
171
     0
290
     0
174
     0
 93
       13
 44
0.0
173
     0
291
     1
 45
0.0
1001
ACAD
1000
AcDbSavedByObjectVersion
1070
     0
  0
VISUALSTYLE
  5
5D7F
102
{ACAD_REACTORS
330
5D7C
102
}
330
5D7C
100
AcDbVisualStyle
  2
Gouraud
 70
     2
 71
     2
 72
     2
 73
     1
 90
        2
 40
-0.6
 41
30.0
 62
     5
 63
     7
 74
     0
 91
        4
 64
     7
 65
   257
 75
     1
175
     1
 42
1.0
 92
        0
 66
     7
 43
1.0
 76
     1
 77
     6
 78
     2
 67
     7
 79
     5
170
     0
171
     0
290
     0
174
     0
 93
       13
 44
0.0
173
     0
291
     1
 45
0.0
1001
ACAD
1000
AcDbSavedByObjectVersion
1070
     0
  0
VISUALSTYLE
  5
5D80
102
{ACAD_REACTORS
330
5D7C
102
}
330
5D7C
100
AcDbVisualStyle
  2
GouraudWithEdges
 70
     3
 71
     2
 72
     2
 73
     1
 90
        2
 40
-0.6
 41
30.0
 62
     5
 63
     7
 74
     1
 91
        4
 64
     7
 65
   257
 75
     1
175
     1
 42
1.0
 92
        0
 66
   257
 43
1.0
 76
     1
 77
     6
 78
     2
 67
     7
 79
     5
170
     0
171
     0
290
     0
174
     0
 93
       13
 44
0.0
173
     0
291
     1
 45
0.0
1001
ACAD
1000
AcDbSavedByObjectVersion
1070
     0
  0
VISUALSTYLE
  5
5D8A
102
{ACAD_REACTORS
330
5D7C
102
}
330
5D7C
100
AcDbVisualStyle
  2
Linepattern
 70
    14
 71
     2
 72
     2
 73
     0
 90
        0
 40
-0.6
 41
-30.0
 62
     5
 63
     7
 74
     1
 91
        4
 64
     7
 65
   257
 75
     7
175
     7
 42
1.0
 92
        8
 66
     7
 43
1.0
 76
     1
 77
     6
 78
     2
 67
     7
 79
     5
170
     0
171
     0
290
     0
174
     0
 93
        1
 44
0.0
173
     0
291
     1
 45
0.0
1001
ACAD
1000
AcDbSavedByObjectVersion
1070
     0
  0
VISUALSTYLE
  5
5D86
102
{ACAD_REACTORS
330
5D7C
102
}
330
5D7C
100
AcDbVisualStyle
  2
Realistic
 70
     8
 71
     2
 72
     2
 73
     0
 90
        0
 40
-0.6
 41
-30.0
 62
     5
 63
     7
 74
     1
 91
        0
 64
     7
 65
   257
 75
     1
175
     1
 42
1.0
 92
        8
 66
     8
 43
1.0
 76
     1
 77
     6
 78
     2
 67
     7
 79
     5
170
     0
171
     0
290
     0
174
     0
 93
       13
 44
0.0
173
     0
291
     0
 45
0.0
1001
ACAD
1000
AcDbSavedByObjectVersion
1070
     0
  0
VISUALSTYLE
  5
5D89
102
{ACAD_REACTORS
330
5D7C
102
}
330
5D7C
100
AcDbVisualStyle
  2
Thicken
 70
    13
 71
     2
 72
     2
 73
     0
 90
        0
 40
-0.6
 41
-30.0
 62
     5
 63
     7
 74
     1
 91
        4
 64
     7
 65
   257
 75
     1
175
     1
 42
1.0
 92
       12
 66
     7
 43
1.0
 76
     1
 77
     6
 78
     2
 67
     7
 79
     5
170
     0
171
     0
290
     0
174
     0
 93
        1
 44
0.0
173
     0
291
     1
 45
0.0
1001
ACAD
1000
AcDbSavedByObjectVersion
1070
     0
  0
DICTIONARYVAR
  5
5C68
102
{ACAD_REACTORS
330
3E63
102
}
330
3E63
100
DictionaryVariables
280
     0
  1
STANDARD
  0
DICTIONARYVAR
  5
3E64
102
{ACAD_REACTORS
330
3E63
102
}
330
3E63
100
DictionaryVariables
280
     0
  1
1
  0
DICTIONARYVAR
  5
5DB6
102
{ACAD_REACTORS
330
3E63
102
}
330
3E63
100
DictionaryVariables
280
     0
  1
0
  0
DICTIONARYVAR
  5
3E65
102
{ACAD_REACTORS
330
3E63
102
}
330
3E63
100
DictionaryVariables
280
     0
  1

  0
DICTIONARYVAR
  5
5DB5
102
{ACAD_REACTORS
330
3E63
102
}
330
3E63
100
DictionaryVariables
280
     0
  1
127
  0
DICTIONARY
  5
5DBA
330
21
100
AcDbDictionary
280
     1
281
     1
  3
ACAD_XREC_ROUNDTRIP
360
5DBB
  0
DICTIONARY
  5
5DB8
330
1D
100
AcDbDictionary
280
     1
281
     1
  3
ACAD_XREC_ROUNDTRIP
360
5DB9
  0
DICTIONARY
  5
5DC2
330
5D7A
100
AcDbDictionary
280
     1
281
     1
  3
ACAD_XREC_ROUNDTRIP
360
5DC3
  0
DICTIONARY
  5
5DC0
330
5D79
100
AcDbDictionary
280
     1
281
     1
  3
ACAD_XREC_ROUNDTRIP
360
5DC1
  0
DICTIONARY
  5
5DC4
330
5D7B
100
AcDbDictionary
280
     1
281
     1
  3
ACAD_XREC_ROUNDTRIP
360
5DC5
  0
DICTIONARY
  5
5DBC
330
4150
100
AcDbDictionary
280
     1
281
     1
  3
ACAD_XREC_ROUNDTRIP
360
5DBD
  0
DICTIONARY
  5
5DBE
330
5BC6
100
AcDbDictionary
280
     1
281
     1
  3
ACAD_XREC_ROUNDTRIP
360
5DBF
  0
XRECORD
  5
5DBB
102
{ACAD_REACTORS
330
5DBA
102
}
330
5DBA
100
AcDbXrecord
280
     1
102
SHADEPLOT
 70
     0
102
SHADEPLOTRESLEVEL
 70
     2
102
SHADEPLOTCUSTOMDPI
 70
   300
  0
XRECORD
  5
5DB9
102
{ACAD_REACTORS
330
5DB8
102
}
330
5DB8
100
AcDbXrecord
280
     1
102
SHADEPLOT
 70
     0
102
SHADEPLOTRESLEVEL
 70
     2
102
SHADEPLOTCUSTOMDPI
 70
   300
  0
XRECORD
  5
5DC3
102
{ACAD_REACTORS
330
5DC2
102
}
330
5DC2
100
AcDbXrecord
280
     1
102
MATERIAL
148
0.0
149
0.0
149
0.0
 93
        0
 94
       63
282
     0
 72
     1
 77
     1
171
     1
175
     1
179
     1
273
     0
  0
XRECORD
  5
5DC1
102
{ACAD_REACTORS
330
5DC0
102
}
330
5DC0
100
AcDbXrecord
280
     1
102
MATERIAL
148
0.0
149
0.0
149
0.0
 93
        0
 94
       63
282
     0
 72
     1
 77
     1
171
     1
175
     1
179
     1
273
     0
  0
XRECORD
  5
5DC5
102
{ACAD_REACTORS
330
5DC4
102
}
330
5DC4
100
AcDbXrecord
280
     1
102
MATERIAL
148
0.0
149
0.0
149
0.0
 93
        0
 94
       63
282
     0
 72
     1
 77
     1
171
     1
175
     1
179
     1
273
     0
  0
XRECORD
  5
5DBD
102
{ACAD_REACTORS
330
5DBC
102
}
330
5DBC
100
AcDbXrecord
280
     1
102
SHADEPLOT
 70
     0
102
SHADEPLOTRESLEVEL
 70
     2
102
SHADEPLOTCUSTOMDPI
 70
   300
  0
XRECORD
  5
5DBF
102
{ACAD_REACTORS
330
5DBE
102
}
330
5DBE
100
AcDbXrecord
280
     1
102
ACAD_ROUNDTRIP_PRE2007_TABLESTYLE
 90
        4
 91
        0
  1

 92
        4
 93
        0
  2

 94
        4
 95
        0
  3

  0
ENDSEC
  0
EOF
