  0
SECTION
  2
HEADER
  9
$ACADVER
  1
AC1015
  9
$ACADMAINTVER
 70
    20
  9
$DWGCODEPAGE
  3
ANSI_950
  9
$INSBASE
 10
0.0
 20
0.0
 30
0.0
  9
$EXTMIN
 10
-32.95163671098578
 20
-70.34811095860971
 30
-0.0000000349181948
  9
$EXTMAX
 10
252.305471871556
 20
153.0303772525614
 30
0.0000000814935747
  9
$LIMMIN
 10
-10.0
 20
-15.0
  9
$LIMMAX
 10
120.0
 20
90.0
  9
$ORTHOMODE
 70
     1
  9
$REGENMODE
 70
     0
  9
$FILLMODE
 70
     1
  9
$QTEXTMODE
 70
     0
  9
$MIRRTEXT
 70
     0
  9
$LTSCALE
 40
2.0
  9
$ATTMODE
 70
     1
  9
$TEXTSIZE
 40
3.0
  9
$TRACEWID
 40
1.0
  9
$TEXTSTYLE
  7
STANDARD
  9
$CLAYER
  8
0
  9
$CELTYPE
  6
ByLayer
  9
$CECOLOR
 62
   256
  9
$CELTSCALE
 40
1.0
  9
$DISPSILH
 70
     0
  9
$DIMSCALE
 40
1.0
  9
$DIMASZ
 40
3.0
  9
$DIMEXO
 40
1.0
  9
$DIMDLI
 40
6.0
  9
$DIMRND
 40
0.0
  9
$DIMDLE
 40
0.0
  9
$DIMEXE
 40
1.0
  9
$DIMTP
 40
0.0
  9
$DIMTM
 40
0.0
  9
$DIMTXT
 40
3.0
  9
$DIMCEN
 40
1.5
  9
$DIMTSZ
 40
0.0
  9
$DIMTOL
 70
     0
  9
$DIMLIM
 70
     0
  9
$DIMTIH
 70
     1
  9
$DIMTOH
 70
     1
  9
$DIMSE1
 70
     0
  9
$DIMSE2
 70
     0
  9
$DIMTAD
 70
     0
  9
$DIMZIN
 70
     0
  9
$DIMBLK
  1

  9
$DIMASO
 70
     1
  9
$DIMSHO
 70
     0
  9
$DIMPOST
  1

  9
$DIMAPOST
  1

  9
$DIMALT
 70
     0
  9
$DIMALTD
 70
     2
  9
$DIMALTF
 40
25.4
  9
$DIMLFAC
 40
1.0
  9
$DIMTOFL
 70
     1
  9
$DIMTVP
 40
0.0
  9
$DIMTIX
 70
     0
  9
$DIMSOXD
 70
     0
  9
$DIMSAH
 70
     0
  9
$DIMBLK1
  1

  9
$DIMBLK2
  1

  9
$DIMSTYLE
  2
Standard
  9
$DIMCLRD
 70
     0
  9
$DIMCLRE
 70
     0
  9
$DIMCLRT
 70
     0
  9
$DIMTFAC
 40
1.0
  9
$DIMGAP
 40
0.09
  9
$DIMJUST
 70
     0
  9
$DIMSD1
 70
     0
  9
$DIMSD2
 70
     0
  9
$DIMTOLJ
 70
     1
  9
$DIMTZIN
 70
     0
  9
$DIMALTZ
 70
     0
  9
$DIMALTTZ
 70
     0
  9
$DIMUPT
 70
     0
  9
$DIMDEC
 70
     8
  9
$DIMTDEC
 70
     8
  9
$DIMALTU
 70
     2
  9
$DIMALTTD
 70
     2
  9
$DIMTXSTY
  7
STANDARD
  9
$DIMAUNIT
 70
     0
  9
$DIMADEC
 70
     0
  9
$DIMALTRND
 40
0.0
  9
$DIMAZIN
 70
     0
  9
$DIMDSEP
 70
    46
  9
$DIMATFIT
 70
     3
  9
$DIMFRAC
 70
     0
  9
$DIMLDRBLK
  1

  9
$DIMLUNIT
 70
     2
  9
$DIMLWD
 70
    -2
  9
$DIMLWE
 70
    -2
  9
$DIMTMOVE
 70
     2
  9
$LUNITS
 70
     2
  9
$LUPREC
 70
     4
  9
$SKETCHINC
 40
0.5
  9
$FILLETRAD
 40
0.0
  9
$AUNITS
 70
     0
  9
$AUPREC
 70
     0
  9
$MENU
  1
ACAD
  9
$ELEVATION
 40
0.0
  9
$PELEVATION
 40
0.0
  9
$THICKNESS
 40
0.0
  9
$LIMCHECK
 70
     0
  9
$CHAMFERA
 40
0.0
  9
$CHAMFERB
 40
0.0
  9
$CHAMFERC
 40
0.0
  9
$CHAMFERD
 40
0.0
  9
$SKPOLY
 70
     0
  9
$TDCREATE
 40
2444975.333333334
  9
$TDUCREATE
 40
2444975.000000000
  9
$TDUPDATE
 40
2454358.626669178
  9
$TDUUPDATE
 40
2454358.293335845
  9
$TDINDWG
 40
0.1035264352
  9
$TDUSRTIMER
 40
0.0000000000
  9
$USRTIMER
 70
     0
  9
$ANGBASE
 50
0.0
  9
$ANGDIR
 70
     0
  9
$PDMODE
 70
     0
  9
$PDSIZE
 40
0.001
  9
$PLINEWID
 40
0.0
  9
$SPLFRAME
 70
     0
  9
$SPLINETYPE
 70
     6
  9
$SPLINESEGS
 70
     8
  9
$HANDSEED
  5
54D2
  9
$SURFTAB1
 70
     6
  9
$SURFTAB2
 70
     6
  9
$SURFTYPE
 70
     6
  9
$SURFU
 70
     6
  9
$SURFV
 70
     6
  9
$UCSBASE
  2

  9
$UCSNAME
  2

  9
$UCSORG
 10
0.0
 20
0.0
 30
0.0
  9
$UCSXDIR
 10
1.0
 20
0.0
 30
0.0
  9
$UCSYDIR
 10
0.0
 20
1.0
 30
0.0
  9
$UCSORTHOREF
  2

  9
$UCSORTHOVIEW
 70
     0
  9
$UCSORGTOP
 10
0.0
 20
0.0
 30
0.0
  9
$UCSORGBOTTOM
 10
0.0
 20
0.0
 30
0.0
  9
$UCSORGLEFT
 10
0.0
 20
0.0
 30
0.0
  9
$UCSORGRIGHT
 10
0.0
 20
0.0
 30
0.0
  9
$UCSORGFRONT
 10
0.0
 20
0.0
 30
0.0
  9
$UCSORGBACK
 10
0.0
 20
0.0
 30
0.0
  9
$PUCSBASE
  2

  9
$PUCSNAME
  2

  9
$PUCSORG
 10
0.0
 20
0.0
 30
0.0
  9
$PUCSXDIR
 10
1.0
 20
0.0
 30
0.0
  9
$PUCSYDIR
 10
0.0
 20
1.0
 30
0.0
  9
$PUCSORTHOREF
  2

  9
$PUCSORTHOVIEW
 70
     0
  9
$PUCSORGTOP
 10
0.0
 20
0.0
 30
0.0
  9
$PUCSORGBOTTOM
 10
0.0
 20
0.0
 30
0.0
  9
$PUCSORGLEFT
 10
0.0
 20
0.0
 30
0.0
  9
$PUCSORGRIGHT
 10
0.0
 20
0.0
 30
0.0
  9
$PUCSORGFRONT
 10
0.0
 20
0.0
 30
0.0
  9
$PUCSORGBACK
 10
0.0
 20
0.0
 30
0.0
  9
$USERI1
 70
     0
  9
$USERI2
 70
     0
  9
$USERI3
 70
     0
  9
$USERI4
 70
     0
  9
$USERI5
 70
     0
  9
$USERR1
 40
0.0
  9
$USERR2
 40
0.0
  9
$USERR3
 40
0.0
  9
$USERR4
 40
0.0
  9
$USERR5
 40
0.0
  9
$WORLDVIEW
 70
     1
  9
$SHADEDGE
 70
     3
  9
$SHADEDIF
 70
    70
  9
$TILEMODE
 70
     1
  9
$MAXACTVP
 70
    48
  9
$PINSBASE
 10
0.0
 20
0.0
 30
0.0
  9
$PLIMCHECK
 70
     0
  9
$PEXTMIN
 10
1.000000000000000E+20
 20
1.000000000000000E+20
 30
1.000000000000000E+20
  9
$PEXTMAX
 10
-1.000000000000000E+20
 20
-1.000000000000000E+20
 30
-1.000000000000000E+20
  9
$PLIMMIN
 10
0.0
 20
0.0
  9
$PLIMMAX
 10
12.0
 20
9.0
  9
$UNITMODE
 70
     0
  9
$VISRETAIN
 70
     1
  9
$PLINEGEN
 70
     0
  9
$PSLTSCALE
 70
     0
  9
$TREEDEPTH
 70
  3020
  9
$CMLSTYLE
  2
Standard
  9
$CMLJUST
 70
     0
  9
$CMLSCALE
 40
1.0
  9
$PROXYGRAPHICS
 70
     1
  9
$MEASUREMENT
 70
     0
  9
$CELWEIGHT
370
    -1
  9
$ENDCAPS
280
     0
  9
$JOINSTYLE
280
     0
  9
$LWDISPLAY
290
     0
  9
$INSUNITS
 70
     0
  9
$HYPERLINKBASE
  1

  9
$STYLESHEET
  1

  9
$XEDIT
290
     1
  9
$CEPSNTYPE
380
     0
  9
$PSTYLEMODE
290
     1
  9
$FINGERPRINTGUID
  2
{77095E5F-9CE7-11D7-970D-0040F4541FA8}
  9
$VERSIONGUID
  2
{90CEA69F-3141-4545-86BF-A31111F83EFA}
  9
$EXTNAMES
290
     1
  9
$PSVPSCALE
 40
0.0
  9
$OLESTARTUP
290
     0
  0
ENDSEC
  0
SECTION
  2
CLASSES
  0
CLASS
  1
ACDBDICTIONARYWDFLT
  2
AcDbDictionaryWithDefault
  3
ObjectDBX Classes
 90
        0
280
     0
281
     0
  0
CLASS
  1
ACDBPLACEHOLDER
  2
AcDbPlaceHolder
  3
ObjectDBX Classes
 90
        0
280
     0
281
     0
  0
CLASS
  1
LAYOUT
  2
AcDbLayout
  3
ObjectDBX Classes
 90
        0
280
     0
281
     0
  0
CLASS
  1
DICTIONARYVAR
  2
AcDbDictionaryVar
  3
ObjectDBX Classes
 90
        0
280
     0
281
     0
  0
CLASS
  1
PLOTSETTINGS
  2
AcDbPlotSettings
  3
ObjectDBX Classes
 90
        0
280
     0
281
     0
  0
CLASS
  1
TABLESTYLE
  2
AcDbTableStyle
  3
ObjectDBX Classes
 90
     4095
280
     0
281
     0
  0
CLASS
  1
SORTENTSTABLE
  2
AcDbSortentsTable
  3
ObjectDBX Classes
 90
        0
280
     0
281
     0
  0
CLASS
  1
MATERIAL
  2
AcDbMaterial
  3
ObjectDBX Classes
 90
        0
280
     0
281
     0
  0
CLASS
  1
VISUALSTYLE
  2
AcDbVisualStyle
  3
ObjectDBX Classes
 90
     4095
280
     0
281
     0
  0
ENDSEC
  0
SECTION
  2
TABLES
  0
TABLE
  2
VPORT
  5
8
330
0
100
AcDbSymbolTable
 70
     2
  0
VPORT
  5
54C7
330
8
100
AcDbSymbolTableRecord
100
AcDbViewportTableRecord
  2
*Active
 70
     0
 10
0.0
 20
0.0
 11
1.0
 21
1.0
 12
109.6769175802851
 22
41.34113314697581
 13
457.9999999999997
 23
1082.0
 14
10.0
 24
10.0
 15
10.0
 25
10.0
 16
0.0
 26
0.0
 36
1.0
 17
0.0
 27
0.0
 37
0.0
 40
225.098990045917
 41
1.516709511568123
 42
1.0
 43
0.0
 44
0.0
 50
0.0
 51
0.0
 71
     0
 72
 20000
 73
     1
 74
     1
 75
     0
 76
     0
 77
     0
 78
     0
281
     0
 65
     1
110
0.0
120
0.0
130
0.0
111
1.0
121
0.0
131
0.0
112
0.0
122
1.0
132
0.0
 79
     0
146
0.0
  0
ENDTAB
  0
TABLE
  2
LTYPE
  5
5
330
0
100
AcDbSymbolTable
 70
     3
  0
LTYPE
  5
13
330
5
100
AcDbSymbolTableRecord
100
AcDbLinetypeTableRecord
  2
ByBlock
 70
     0
  3

 72
    65
 73
     0
 40
0.0
  0
LTYPE
  5
14
330
5
100
AcDbSymbolTableRecord
100
AcDbLinetypeTableRecord
  2
ByLayer
 70
     0
  3

 72
    65
 73
     0
 40
0.0
  0
LTYPE
  5
54C2
330
5
100
AcDbSymbolTableRecord
100
AcDbLinetypeTableRecord
  2
Continuous
 70
     0
  3
Solid line
 72
    65
 73
     0
 40
0.0
  0
LTYPE
  5
413C
330
5
100
AcDbSymbolTableRecord
100
AcDbLinetypeTableRecord
  2
CENTER2
 70
     0
  3
Center (.5x) ___ _ ___ _ ___ _ ___ _ ___ _ ___
 72
    65
 73
     4
 40
28.575
 49
19.05
 74
     0
 49
-3.174999999999998
 74
     0
 49
3.174999999999998
 74
     0
 49
-3.174999999999998
 74
     0
  0
LTYPE
  5
413D
330
5
100
AcDbSymbolTableRecord
100
AcDbLinetypeTableRecord
  2
DASHED2
 70
     0
  3
Dashed (.5x) _ _ _ _ _ _ _ _ _ _ _ _ _ _ _ _ _
 72
    65
 73
     2
 40
9.524999999999996
 49
6.349999999999998
 74
     0
 49
-3.174999999999998
 74
     0
  0
ENDTAB
  0
TABLE
  2
LAYER
  5
2
102
{ACAD_XDICTIONARY
360
43C2
102
}
330
0
100
AcDbSymbolTable
 70
     7
  0
LAYER
  5
10
330
2
100
AcDbSymbolTableRecord
100
AcDbLayerTableRecord
  2
0
 70
     0
 62
     7
  6
Continuous
370
    -3
390
F
  0
LAYER
  5
413E
330
2
100
AcDbSymbolTableRecord
100
AcDbLayerTableRecord
  2
指線
 70
     0
 62
     3
  6
Continuous
370
    15
390
F
  0
LAYER
  5
413F
330
2
100
AcDbSymbolTableRecord
100
AcDbLayerTableRecord
  2
中心線
 70
     0
 62
     4
  6
CENTER2
370
    20
390
F
  0
LAYER
  5
4140
330
2
100
AcDbSymbolTableRecord
100
AcDbLayerTableRecord
  2
虛線
 70
     0
 62
     6
  6
DASHED2
290
     0
370
    -3
390
F
  0
LAYER
  5
43B4
330
2
100
AcDbSymbolTableRecord
100
AcDbLayerTableRecord
  2
建構線
 70
     0
 62
     1
  6
Continuous
370
    -3
390
F
  0
LAYER
  5
4EE9
330
2
100
AcDbSymbolTableRecord
100
AcDbLayerTableRecord
  2
標註線
 70
     0
 62
     3
  6
Continuous
370
    15
390
F
  0
LAYER
  5
4EEB
330
2
100
AcDbSymbolTableRecord
100
AcDbLayerTableRecord
  2
Defpoints
 70
     0
 62
     7
  6
Continuous
290
     0
370
    -3
390
F
  0
ENDTAB
  0
TABLE
  2
STYLE
  5
3
330
0
100
AcDbSymbolTable
 70
     1
  0
STYLE
  5
11
330
3
100
AcDbSymbolTableRecord
100
AcDbTextStyleTableRecord
  2
STANDARD
 70
     0
 40
0.0
 41
1.0
 50
0.0
 71
     0
 42
3.0
  3

  4

  0
ENDTAB
  0
TABLE
  2
VIEW
  5
6
330
0
100
AcDbSymbolTable
 70
     0
  0
ENDTAB
  0
TABLE
  2
UCS
  5
7
330
0
100
AcDbSymbolTable
 70
     0
  0
ENDTAB
  0
TABLE
  2
APPID
  5
9
330
0
100
AcDbSymbolTable
 70
     5
  0
APPID
  5
12
330
9
100
AcDbSymbolTableRecord
100
AcDbRegAppTableRecord
  2
ACAD
 70
     0
  0
APPID
  5
230
330
9
100
AcDbSymbolTableRecord
100
AcDbRegAppTableRecord
  2
TCAD
 70
     0
  0
APPID
  5
4142
330
9
100
AcDbSymbolTableRecord
100
AcDbRegAppTableRecord
  2
CONTENTBLOCKICON
 70
     0
  0
APPID
  5
4CC3
330
9
100
AcDbSymbolTableRecord
100
AcDbRegAppTableRecord
  2
pntflag
 70
     0
  0
APPID
  5
5488
330
9
100
AcDbSymbolTableRecord
100
AcDbRegAppTableRecord
  2
ACAD_EXEMPT_FROM_CAD_STANDARDS
 70
     0
  0
ENDTAB
  0
TABLE
  2
DIMSTYLE
  5
A
330
0
100
AcDbSymbolTable
 70
     1
100
AcDbDimStyleTable
 71
     1
340
3C9D
  0
DIMSTYLE
105
3C9D
330
A
100
AcDbSymbolTableRecord
100
AcDbDimStyleTableRecord
  2
Standard
 70
     0
271
     8
272
     8
340
11
  0
ENDTAB
  0
TABLE
  2
BLOCK_RECORD
  5
1
330
0
100
AcDbSymbolTable
 70
     0
  0
BLOCK_RECORD
  5
1E
102
{ACAD_XDICTIONARY
360
3D1E
102
}
330
1
100
AcDbSymbolTableRecord
100
AcDbBlockTableRecord
  2
*Model_Space
340
21
  0
BLOCK_RECORD
  5
1A
102
{ACAD_XDICTIONARY
360
3D20
102
}
330
1
100
AcDbSymbolTableRecord
100
AcDbBlockTableRecord
  2
*Paper_Space
340
1D
  0
ENDTAB
  0
ENDSEC
  0
SECTION
  2
BLOCKS
  0
BLOCK
  5
254
330
1E
100
AcDbEntity
  8
0
100
AcDbBlockBegin
  2
*Model_Space
 70
     0
 10
0.0
 20
0.0
 30
0.0
  3
*Model_Space
  1

  0
ENDBLK
  5
255
330
1E
100
AcDbEntity
  8
0
100
AcDbBlockEnd
  0
BLOCK
  5
252
330
1A
100
AcDbEntity
 67
     1
  8
0
100
AcDbBlockBegin
  2
*Paper_Space
 70
     0
 10
0.0
 20
0.0
 30
0.0
  3
*Paper_Space
  1

  0
ENDBLK
  5
253
330
1A
100
AcDbEntity
 67
     1
  8
0
100
AcDbBlockEnd
  0
ENDSEC
  0
SECTION
  2
ENTITIES
  0
LINE
  5
4903
330
1E
100
AcDbEntity
  8
0
 48
0.27
100
AcDbLine
 10
-8.432999662564691
 20
35.49984418515936
 30
0.0
 11
-16.43299966238112
 21
35.49989838163146
 31
0.0
  0
LINE
  5
4904
330
1E
100
AcDbEntity
  8
0
 48
0.27
100
AcDbLine
 10
-12.73821286800682
 20
19.29857659397021
 30
0.0
 11
-14.13909527322636
 21
19.84649134412723
 31
0.0
  0
LINE
  5
4905
330
1E
100
AcDbEntity
  8
0
 48
0.27
100
AcDbLine
 10
-13.07078863721503
 20
22.13950692515362
 30
0.0
 11
-14.90545700886395
 21
20.30483855350474
 31
0.0
  0
LINE
  5
4906
330
1E
100
AcDbEntity
  8
0
 48
0.27
100
AcDbLine
 10
-12.71207969219998
 20
21.27350692515364
 30
0.0
 11
-14.13909527322607
 21
19.84649134412751
 31
0.0
  0
LINE
  5
4907
330
1E
100
AcDbEntity
  8
0
 48
0.27
100
AcDbLine
 10
-13.07077007672311
 20
22.13957560363332
 30
0.0
 11
-14.90545087739906
 21
20.30491966109565
 31
0.0
  0
LINE
  5
4908
330
1E
100
AcDbEntity
  8
0
 48
0.27
100
AcDbLine
 10
-12.71206699848437
 20
21.27357317355825
 30
0.0
 11
-14.13909224687898
 21
19.84656725996609
 31
0.0
  0
LINE
  5
4909
330
1E
100
AcDbEntity
  8
0
 48
0.27
100
AcDbLine
 10
-12.73772981914089
 20
19.30521869081343
 30
0.0
 11
-14.13909224687927
 21
19.84656725996586
 31
0.0
  0
ARC
  5
490A
330
1E
100
AcDbEntity
  8
0
 48
0.27
100
AcDbCircle
 10
-15.66007452156805
 20
19.51680692515362
 30
0.0
 40
2.93
100
AcDbArc
 50
274.1424881063005
 51
355.8575118936963
  0
ARC
  5
490B
330
1E
100
AcDbEntity
  8
0
 48
0.27
100
AcDbCircle
 10
-15.6600737286526
 20
19.51689314496349
 30
0.0
 40
2.93
100
AcDbArc
 50
274.1420999526608
 51
355.8571237400605
  0
LINE
  5
490C
330
1E
100
AcDbEntity
  8
0
 48
0.27
100
AcDbLine
 10
-12.13307452156806
 20
8.079806925153519
 30
0.0
 11
-13.50677452156807
 21
7.510801754521678
 31
0.0
  0
LINE
  5
490D
330
1E
100
AcDbEntity
  8
0
 48
0.27
100
AcDbLine
 10
-12.73704383466676
 20
8.683776238251994
 30
0.0
 11
-14.14071399605603
 21
8.144741229009722
 31
0.0
  0
LINE
  5
490E
330
1E
100
AcDbEntity
  8
0
 48
0.27
100
AcDbLine
 10
-12.73711643082404
 20
8.683842656066588
 30
0.0
 11
-14.1407902439056
 21
8.144817156083007
 31
0.0
  0
LINE
  5
490F
330
1E
100
AcDbEntity
  8
0
 48
0.27
100
AcDbLine
 10
-12.13315120936499
 20
8.079869251356258
 30
0.0
 11
-13.50685506409257
 21
7.510873386949127
 31
0.0
  0
LINE
  5
4910
330
1E
100
AcDbEntity
  8
0
 48
0.27
100
AcDbLine
 10
-12.13307452156809
 20
4.099806925153671
 30
0.0
 11
-13.50677452156807
 21
4.668812095785539
 31
0.0
  0
LINE
  5
4911
330
1E
100
AcDbEntity
  8
0
 48
0.27
100
AcDbLine
 10
-12.13317817210983
 20
4.099869251447643
 30
0.0
 11
-13.50687431731924
 21
4.668883728278188
 31
0.0
  0
LINE
  5
4912
330
1E
100
AcDbEntity
  8
0
 48
0.27
100
AcDbLine
 10
-12.13307452156809
 20
4.099806925153671
 30
0.0
 11
-16.23288144671647
 21
0.0000000000052296
 31
0.0
  0
ARC
  5
4913
330
1E
100
AcDbEntity
  8
0
 48
0.27
100
AcDbCircle
 10
-15.66007452156805
 20
8.48180692515362
 30
0.0
 40
2.93
100
AcDbArc
 50
3.952618783122241
 51
86.04738121491894
  0
ARC
  5
4914
330
1E
100
AcDbEntity
  8
0
 48
0.27
100
AcDbCircle
 10
-15.66014848591129
 20
8.481893145216702
 30
0.0
 40
2.93
100
AcDbArc
 50
3.952230629485504
 51
86.04699306128022
  0
LINE
  5
4915
330
1E
100
AcDbEntity
  8
0
 48
0.27
100
AcDbLine
 10
24.06698001363196
 20
34.99980692515362
 30
0.0
 11
-29.93301998636798
 21
34.99980692515362
 31
0.0
  0
LINE
  5
4916
330
1E
100
AcDbEntity
  8
0
 48
0.27
100
AcDbLine
 10
-29.93302337302788
 20
34.9999898382584
 30
0.0
 11
24.06697662573293
 21
34.99962401207182
 31
0.0
  0
LINE
  5
4917
330
1E
100
AcDbEntity
  8
0
 48
0.27
100
AcDbLine
 10
-15.99714021761323
 20
10.00116745068718
 30
0.0
 11
-15.91578526176562
 21
9.1229980880276
 31
0.0
  0
LINE
  5
4918
330
1E
100
AcDbEntity
  8
0
 48
0.27
100
AcDbLine
 10
-16.45455576099434
 20
9.233874049063016
 30
0.0
 11
-15.99714021761363
 21
10.00116745068709
 31
0.0
  0
LINE
  5
4919
330
1E
100
AcDbEntity
  8
0
 48
0.27
100
AcDbLine
 10
-16.45462463039627
 20
9.233965651368864
 30
0.0
 11
-15.99720388895162
 21
10.00125595418674
 31
0.0
  0
LINE
  5
491A
330
1E
100
AcDbEntity
  8
0
 48
0.27
100
AcDbLine
 10
-15.99720388895122
 20
10.00125595418683
 30
0.0
 11
-15.91585488231564
 21
9.123086040403476
 31
0.0
  0
ARC
  5
491B
330
1E
100
AcDbEntity
  8
0
 48
0.27
100
AcDbCircle
 10
-15.66007452156805
 20
8.48180692515362
 30
0.0
 40
1.5563
100
AcDbArc
 50
347.4916764945707
 51
102.5083235017145
  0
ARC
  5
491C
330
1E
100
AcDbEntity
  8
0
 48
0.27
100
AcDbCircle
 10
-15.66014848591129
 20
8.481893145216702
 30
0.0
 40
1.5563
100
AcDbArc
 50
347.4912883409317
 51
102.5079353480752
  0
LINE
  5
491D
330
1E
100
AcDbEntity
  8
0
 48
0.27
100
AcDbLine
 10
-32.43301998636793
 20
2.499806925153648
 30
0.0
 11
-32.43301998636793
 21
26.99980692515368
 31
0.0
  0
LINE
  5
491E
330
1E
100
AcDbEntity
  8
0
 48
0.27
100
AcDbLine
 10
-31.93301998636798
 20
32.99980692515362
 30
0.0
 11
-31.93301998636798
 21
1.99980692515362
 31
0.0
  0
LINE
  5
491F
330
1E
100
AcDbEntity
  8
0
 48
0.27
100
AcDbLine
 10
-31.93324693342939
 20
2.000003388133676
 30
0.0
 11
-31.93303692210003
 21
33.00000338742228
 31
0.0
  0
LINE
  5
4920
330
1E
100
AcDbEntity
  8
0
 48
0.27
100
AcDbLine
 10
-32.43324354613836
 20
2.500006775401647
 30
0.0
 11
-32.43312160407615
 21
20.50000677498866
 31
0.0
  0
LINE
  5
4921
330
1E
100
AcDbEntity
  8
0
 48
0.27
100
AcDbLine
 10
-19.07277452156799
 20
11.85209280947151
 30
0.0
 11
-16.45455576099434
 21
9.233874049063016
 31
0.0
  0
LINE
  5
4922
330
1E
100
AcDbEntity
  8
0
 48
0.27
100
AcDbLine
 10
-19.07282565363232
 20
11.85220214899482
 30
0.0
 11
-16.45462463039627
 21
9.233965651368864
 31
0.0
  0
LINE
  5
4925
330
1E
100
AcDbEntity
  8
0
 48
0.27
100
AcDbLine
 10
-29.9332130612196
 20
0.0000000000052296
 30
0.0
 11
-31.93301998636798
 21
1.99980692515362
 31
0.0
  0
LINE
  5
4926
330
1E
100
AcDbEntity
  8
0
 48
0.27
100
AcDbLine
 10
-32.43324354613836
 20
2.500006775401647
 30
0.0
 11
-29.93327064339929
 21
0.0000000000052296
 31
0.0
  0
LINE
  5
492B
330
1E
100
AcDbEntity
  8
0
 48
0.27
100
AcDbLine
 10
-13.50687431731924
 20
4.668883728278188
 30
0.0
 11
-18.17582130527745
 21
0.0000000000052296
 31
0.0
  0
LINE
  5
492C
330
1E
100
AcDbEntity
  8
0
 48
0.27
100
AcDbLine
 10
-13.50677452156807
 20
4.668812095785539
 30
0.0
 11
-18.17558661734842
 21
0.0000000000052296
 31
0.0
  0
LINE
  5
492D
330
1E
100
AcDbEntity
  8
0
 48
0.27
100
AcDbLine
 10
-14.37277452156806
 20
5.02752104080065
 30
0.0
 11
-19.40029556236351
 21
0.0000000000052296
 31
0.0
  0
LINE
  5
492E
330
1E
100
AcDbEntity
  8
0
 48
0.27
100
AcDbLine
 10
-14.37287188720444
 20
5.02759854005319
 30
0.0
 11
-19.40053854723988
 21
0.0000000000052296
 31
0.0
  0
LINE
  5
492F
330
1E
100
AcDbEntity
  8
0
 48
0.27
100
AcDbLine
 10
-14.14071399605603
 20
8.144741229009722
 30
0.0
 11
-14.90800739768463
 21
7.687325685623221
 31
0.0
  0
LINE
  5
4930
330
1E
100
AcDbEntity
  8
0
 48
0.27
100
AcDbLine
 10
-14.14071399605603
 20
8.144741229009722
 30
0.0
 11
-13.50677452156807
 21
7.510801754521678
 31
0.0
  0
LINE
  5
4931
330
1E
100
AcDbEntity
  8
0
 48
0.27
100
AcDbLine
 10
-14.90800739768463
 20
7.687325685623221
 30
0.0
 11
-14.37277452156809
 21
7.152092809506597
 31
0.0
  0
LINE
  5
4932
330
1E
100
AcDbEntity
  8
0
 48
0.27
100
AcDbLine
 10
-13.50677452156807
 20
7.510801754521678
 30
0.0
 11
-14.37277452156809
 21
7.152092809506597
 31
0.0
  0
LINE
  5
4933
330
1E
100
AcDbEntity
  8
0
 48
0.27
100
AcDbLine
 10
-14.37277452156809
 20
7.152092809506597
 30
0.0
 11
-14.37277452156806
 21
5.02752104080065
 31
0.0
  0
LINE
  5
4934
330
1E
100
AcDbEntity
  8
0
 48
0.27
100
AcDbLine
 10
-14.90808674430516
 20
7.687406810781425
 30
0.0
 11
-14.37285749416765
 21
7.152170308710367
 31
0.0
  0
LINE
  5
4935
330
1E
100
AcDbEntity
  8
0
 48
0.27
100
AcDbLine
 10
-14.37285749416765
 20
7.152170308710367
 30
0.0
 11
-14.37287188720444
 21
5.02759854005319
 31
0.0
  0
LINE
  5
4936
330
1E
100
AcDbEntity
  8
0
 48
0.27
100
AcDbLine
 10
-13.50685506409257
 20
7.510873386949127
 30
0.0
 11
-14.37285749416765
 21
7.152170308710367
 31
0.0
  0
LINE
  5
4937
330
1E
100
AcDbEntity
  8
0
 48
0.27
100
AcDbLine
 10
-14.1407902439056
 20
8.144817156083007
 30
0.0
 11
-14.90808674430516
 21
7.687406810781425
 31
0.0
  0
LINE
  5
4938
330
1E
100
AcDbEntity
  8
0
 48
0.27
100
AcDbLine
 10
-14.1407902439056
 20
8.144817156083007
 30
0.0
 11
-13.50685506409257
 21
7.510873386949127
 31
0.0
  0
ARC
  5
4939
330
1E
100
AcDbEntity
  8
0
 48
0.27
100
AcDbCircle
 10
-16.10100237041226
 20
9.587427439667408
 30
0.0
 40
0.5
100
AcDbArc
 50
225.0000000018069
 51
291.7423990752127
  0
ARC
  5
493A
330
1E
100
AcDbEntity
  8
0
 48
0.27
100
AcDbCircle
 10
-16.10106884465398
 20
9.58751664679684
 30
0.0
 40
0.5
100
AcDbArc
 50
224.9996118481684
 51
291.7420109215727
  0
ARC
  5
493B
330
1E
100
AcDbEntity
  8
0
 48
0.27
100
AcDbCircle
 10
-15.66007452156805
 20
8.48180692515362
 30
0.0
 40
0.6903000000000003
100
AcDbArc
 50
338.2576009199748
 51
111.7423990752112
  0
ARC
  5
493C
330
1E
100
AcDbEntity
  8
0
 48
0.27
100
AcDbCircle
 10
-15.66014848591129
 20
8.481893145216702
 30
0.0
 40
0.6903000000000003
100
AcDbArc
 50
338.2572127663349
 51
111.7420109215711
  0
ARC
  5
493D
330
1E
100
AcDbEntity
  8
0
 48
0.27
100
AcDbCircle
 10
-14.55445400709132
 20
8.040879076216496
 30
0.0
 40
0.5
100
AcDbArc
 50
158.2576009199748
 51
224.9999999999968
  0
LINE
  5
493E
330
1E
100
AcDbEntity
  8
0
 48
0.27
100
AcDbLine
 10
-14.14071399605603
 20
8.144741229009722
 30
0.0
 11
-15.01888335871558
 21
8.226096184902161
 31
0.0
  0
LINE
  5
493F
330
1E
100
AcDbEntity
  8
0
 48
0.27
100
AcDbLine
 10
-14.1407902439056
 20
8.144817156083007
 30
0.0
 11
-15.01895905540104
 21
8.22617806118373
 31
0.0
  0
ARC
  5
4940
330
1E
100
AcDbEntity
  8
0
 48
0.27
100
AcDbCircle
 10
-14.55453095855168
 20
8.040957806198292
 30
0.0
 40
0.5
100
AcDbArc
 50
158.2572127663348
 51
224.9996118463583
  0
LINE
  5
4941
330
1E
100
AcDbEntity
  8
0
 48
0.27
100
AcDbLine
 10
-13.50677452156807
 20
4.668812095785539
 30
0.0
 11
-14.37277452156806
 21
5.02752104080065
 31
0.0
  0
LINE
  5
4942
330
1E
100
AcDbEntity
  8
0
 48
0.27
100
AcDbLine
 10
-13.50677452156807
 20
7.510801754521678
 30
0.0
 11
-13.50677452156807
 21
4.668812095785539
 31
0.0
  0
LINE
  5
4943
330
1E
100
AcDbEntity
  8
0
 48
0.27
100
AcDbLine
 10
-13.50685506409257
 20
7.510873386949127
 30
0.0
 11
-13.50687431731924
 21
4.668883728278188
 31
0.0
  0
LINE
  5
4944
330
1E
100
AcDbEntity
  8
0
 48
0.27
100
AcDbLine
 10
-13.50687431731924
 20
4.668883728278188
 30
0.0
 11
-14.37287188720444
 21
5.02759854005319
 31
0.0
  0
LINE
  5
4946
330
1E
100
AcDbEntity
  8
虛線
 48
0.27
100
AcDbLine
 10
-18.93306402063435
 20
25.99991531824702
 30
0.0
 11
-18.93300203341939
 21
35.14991531803702
 31
0.0
  0
LINE
  5
4948
330
1E
100
AcDbEntity
  8
虛線
 48
0.27
100
AcDbLine
 10
-19.5330894252169
 20
22.2499193830684
 30
0.0
 11
-19.53300203340562
 21
35.1499193827724
 31
0.0
  0
LINE
  5
4949
330
1E
100
AcDbEntity
  8
虛線
 48
0.27
100
AcDbLine
 10
-26.33301998636801
 20
35.14996544989533
 30
0.0
 11
-26.33301998636801
 21
22.24980692515368
 31
0.0
  0
LINE
  5
494B
330
1E
100
AcDbEntity
  8
虛線
 48
0.27
100
AcDbLine
 10
-26.93300203323583
 20
35.14996951450911
 30
0.0
 11
-26.93306402045078
 21
25.99996951471911
 31
0.0
  0
LINE
  5
494F
330
1E
100
AcDbEntity
  8
0
 48
0.27
100
AcDbLine
 10
-32.93301998636792
 20
27.49980692515368
 30
0.0
 11
-32.93301998636792
 21
34.49999661225537
 31
0.0
  0
LINE
  5
4950
330
1E
100
AcDbEntity
  8
0
 48
0.27
100
AcDbLine
 10
-31.93301998636798
 20
32.99980692515362
 30
0.0
 11
-29.93301998636798
 21
34.99980692515362
 31
0.0
  0
LINE
  5
4951
330
1E
100
AcDbEntity
  8
0
 48
0.27
100
AcDbLine
 10
-29.93302337302788
 20
34.9999898382584
 30
0.0
 11
-31.93303692210003
 21
33.00000338742228
 31
0.0
  0
LINE
  5
4952
330
1E
100
AcDbEntity
  8
0
 48
0.27
100
AcDbLine
 10
-32.93301998636792
 20
27.49980692515368
 30
0.0
 11
-32.43301998636793
 21
26.99980692515368
 31
0.0
  0
LINE
  5
4953
330
1E
100
AcDbEntity
  8
0
 48
0.27
100
AcDbLine
 10
-15.44841986501416
 20
16.59446158170758
 30
0.0
 11
-16.83307452156796
 21
15.20980692515371
 31
0.0
  0
LINE
  5
4954
330
1E
100
AcDbEntity
  8
0
 48
0.27
100
AcDbLine
 10
-15.98975894054203
 20
17.99582767681164
 30
0.0
 11
-18.206774521568
 21
15.77881209578561
 31
0.0
  0
LINE
  5
4955
330
1E
100
AcDbEntity
  8
0
 48
0.27
100
AcDbLine
 10
-15.9897684515827
 20
17.99591613012291
 30
0.0
 11
-18.20679905186068
 21
15.77891556845068
 31
0.0
  0
LINE
  5
4956
330
1E
100
AcDbEntity
  8
0
 48
0.27
100
AcDbLine
 10
-19.07277452156799
 20
11.85209280947151
 30
0.0
 11
-19.07277452156799
 21
16.13752104080072
 31
0.0
  0
LINE
  5
4957
330
1E
100
AcDbEntity
  8
0
 48
0.27
100
AcDbLine
 10
-19.07282565363232
 20
11.85220214899482
 30
0.0
 11
-19.07279662174588
 21
16.13763038022568
 31
0.0
  0
LINE
  5
4958
330
1E
100
AcDbEntity
  8
0
 48
0.27
100
AcDbLine
 10
-18.206774521568
 20
15.77881209578561
 30
0.0
 11
-19.07277452156799
 21
16.13752104080072
 31
0.0
  0
LINE
  5
4959
330
1E
100
AcDbEntity
  8
0
 48
0.27
100
AcDbLine
 10
-18.20679905186068
 20
15.77891556845068
 30
0.0
 11
-19.07279662174588
 21
16.13763038022568
 31
0.0
  0
LINE
  5
495A
330
1E
100
AcDbEntity
  8
0
 48
0.27
100
AcDbLine
 10
-16.83307452156799
 20
12.77980692515987
 30
0.0
 11
-18.20677452156798
 21
12.21080175450257
 31
0.0
  0
LINE
  5
495B
330
1E
100
AcDbEntity
  8
0
 48
0.27
100
AcDbLine
 10
-16.83307452156796
 20
15.20980692515371
 30
0.0
 11
-18.206774521568
 21
15.77881209578561
 31
0.0
  0
LINE
  5
495C
330
1E
100
AcDbEntity
  8
0
 48
0.27
100
AcDbLine
 10
-16.83310290665128
 20
15.20990109162014
 30
0.0
 11
-18.20679905186068
 21
15.77891556845068
 31
0.0
  0
LINE
  5
495D
330
1E
100
AcDbEntity
  8
0
 48
0.27
100
AcDbLine
 10
-16.83311936882964
 20
12.77990109168195
 30
0.0
 11
-18.20682322355728
 21
12.21090522724952
 31
0.0
  0
LINE
  5
495E
330
1E
100
AcDbEntity
  8
0
 48
0.27
100
AcDbLine
 10
-18.20677452156798
 20
12.21080175450257
 30
0.0
 11
-15.99714021761349
 21
10.00116745068743
 31
0.0
  0
LINE
  5
495F
330
1E
100
AcDbEntity
  8
0
 48
0.27
100
AcDbLine
 10
-18.20682322355728
 20
12.21090522724952
 30
0.0
 11
-15.99720388895147
 21
10.00125595418708
 31
0.0
  0
LINE
  5
4960
330
1E
100
AcDbEntity
  8
0
 48
0.27
100
AcDbLine
 10
-18.20677452156798
 20
12.21080175450257
 30
0.0
 11
-18.206774521568
 21
15.77881209578561
 31
0.0
  0
LINE
  5
4961
330
1E
100
AcDbEntity
  8
0
 48
0.27
100
AcDbLine
 10
-18.20682322355728
 20
12.21090522724952
 30
0.0
 11
-18.20679905186068
 21
15.77891556845068
 31
0.0
  0
LINE
  5
4962
330
1E
100
AcDbEntity
  8
0
 48
0.27
100
AcDbLine
 10
-18.20677452156798
 20
12.21080175450257
 30
0.0
 11
-19.07277452156799
 21
11.85209280947151
 31
0.0
  0
LINE
  5
4963
330
1E
100
AcDbEntity
  8
0
 48
0.27
100
AcDbLine
 10
-18.20682322355728
 20
12.21090522724952
 30
0.0
 11
-19.07282565363232
 21
11.85220214899482
 31
0.0
  0
LINE
  5
4964
330
1E
100
AcDbEntity
  8
0
 48
0.27
100
AcDbLine
 10
-16.83307452156799
 20
12.77980692515987
 30
0.0
 11
-15.45810520836969
 21
11.40483761204831
 31
0.0
  0
LINE
  5
4965
330
1E
100
AcDbEntity
  8
0
 48
0.27
100
AcDbLine
 10
-16.83311936882964
 20
12.77990109168195
 30
0.0
 11
-15.45815937047368
 21
11.40492246379131
 31
0.0
  0
LINE
  5
4966
330
1E
100
AcDbEntity
  8
0
 48
0.27
100
AcDbLine
 10
-16.83307452156799
 20
12.77980692515987
 30
0.0
 11
-16.83307452156796
 21
15.20980692515371
 31
0.0
  0
LINE
  5
4967
330
1E
100
AcDbEntity
  8
0
 48
0.27
100
AcDbLine
 10
-16.83311936882964
 20
12.77990109168195
 30
0.0
 11
-16.83310290665128
 21
15.20990109162014
 31
0.0
  0
LINE
  5
4968
330
1E
100
AcDbEntity
  8
0
 48
0.27
100
AcDbLine
 10
-15.45148576295111
 20
11.40437270367403
 30
0.0
 11
-15.99714021761349
 21
10.00116745068743
 31
0.0
  0
LINE
  5
4969
330
1E
100
AcDbEntity
  8
0
 48
0.27
100
AcDbLine
 10
-15.45815937047374
 20
11.40492246379099
 30
0.0
 11
-15.99720388895147
 21
10.00125595418708
 31
0.0
  0
LINE
  5
496A
330
1E
100
AcDbEntity
  8
0
 48
0.27
100
AcDbLine
 10
-16.4481061499192
 20
18.76218941244957
 30
0.0
 11
-19.07277452156799
 21
16.13752104080072
 31
0.0
  0
LINE
  5
496B
330
1E
100
AcDbEntity
  8
0
 48
0.27
100
AcDbLine
 10
-16.44811046918656
 20
18.7622809708435
 30
0.0
 11
-19.07279662174588
 21
16.13763038022568
 31
0.0
  0
LINE
  5
496C
330
1E
100
AcDbEntity
  8
0
 48
0.27
100
AcDbLine
 10
-14.13909527322607
 20
19.84649134412751
 30
0.0
 11
-14.90545700886395
 21
20.30483855350474
 31
0.0
  0
LINE
  5
496D
330
1E
100
AcDbEntity
  8
0
 48
0.27
100
AcDbLine
 10
-14.13909224687898
 20
19.84656725996609
 30
0.0
 11
-14.90545087739906
 21
20.30491966109565
 31
0.0
  0
LINE
  5
496E
330
1E
100
AcDbEntity
  8
0
 48
0.27
100
AcDbLine
 10
-15.44841986501384
 20
16.59446158170789
 30
0.0
 11
-15.98975894054203
 21
17.99582767681164
 31
0.0
  0
LINE
  5
496F
330
1E
100
AcDbEntity
  8
0
 48
0.27
100
AcDbLine
 10
-15.44843886970454
 20
16.59454636771784
 30
0.0
 11
-15.9897684515827
 21
17.99591613012291
 31
0.0
  0
LINE
  5
4970
330
1E
100
AcDbEntity
  8
0
 48
0.27
100
AcDbLine
 10
-15.98975894054169
 20
17.99582767681198
 30
0.0
 11
-15.91204488830269
 21
18.87413669534083
 31
0.0
  0
LINE
  5
4971
330
1E
100
AcDbEntity
  8
0
 48
0.27
100
AcDbLine
 10
-15.98975894054203
 20
17.99582767681164
 30
0.0
 11
-16.44810614991917
 21
18.76218941244951
 31
0.0
  0
ARC
  5
4972
330
1E
100
AcDbEntity
  8
0
 48
0.27
100
AcDbCircle
 10
-16.09455275932589
 20
18.40863602185624
 30
0.0
 40
0.5
100
AcDbArc
 50
68.59144850073689
 51
134.9999999999997
  0
LINE
  5
4973
330
1E
100
AcDbEntity
  8
0
 48
0.27
100
AcDbLine
 10
-15.98976845158236
 20
17.99591613012325
 30
0.0
 11
-15.91204844918889
 21
18.87422462215352
 31
0.0
  0
LINE
  5
4974
330
1E
100
AcDbEntity
  8
0
 48
0.27
100
AcDbLine
 10
-15.9897684515827
 20
17.99591613012291
 30
0.0
 11
-16.44811046918653
 21
18.76228097084345
 31
0.0
  0
ARC
  5
4975
330
1E
100
AcDbEntity
  8
0
 48
0.27
100
AcDbCircle
 10
-16.09455947376966
 20
18.40872518508996
 30
0.0
 40
0.5
100
AcDbArc
 50
68.59106034709617
 51
134.9996118463614
  0
ARC
  5
4976
330
1E
100
AcDbEntity
  8
0
 48
0.27
100
AcDbCircle
 10
-15.66007452156805
 20
19.51680692515362
 30
0.0
 40
0.6903000000000003
100
AcDbArc
 50
248.5914485007356
 51
21.40855149926504
  0
ARC
  5
4977
330
1E
100
AcDbEntity
  8
0
 48
0.27
100
AcDbCircle
 10
-15.66007452156805
 20
19.51680692515362
 30
0.0
 40
1.5563
100
AcDbArc
 50
257.7698790836258
 51
12.23012091636931
  0
ARC
  5
4978
330
1E
100
AcDbEntity
  8
0
 48
0.27
100
AcDbCircle
 10
-15.6600737286526
 20
19.51689314496349
 30
0.0
 40
1.5563
100
AcDbArc
 50
257.7694909299867
 51
12.22973276272884
  0
ARC
  5
4979
330
1E
100
AcDbEntity
  8
0
 48
0.27
100
AcDbCircle
 10
-15.6600737286526
 20
19.51689314496349
 30
0.0
 40
0.6903000000000003
100
AcDbArc
 50
248.5910603470945
 51
21.40816334562389
  0
LINE
  5
497A
330
1E
100
AcDbEntity
  8
0
 48
0.27
100
AcDbLine
 10
-14.13909527322636
 20
19.84649134412723
 30
0.0
 11
-15.01740429175527
 21
19.76877729188828
 31
0.0
  0
ARC
  5
497B
330
1E
100
AcDbEntity
  8
0
 48
0.27
100
AcDbCircle
 10
-14.55190361827067
 20
19.95128516291146
 30
0.0
 40
0.5
100
AcDbArc
 50
134.9999999999997
 51
201.4085514992615
  0
LINE
  5
497C
330
1E
100
AcDbEntity
  8
0
 48
0.27
100
AcDbLine
 10
-14.13909224687927
 20
19.84656725996586
 30
0.0
 11
-15.01740179186646
 21
19.76885915788495
 31
0.0
  0
ARC
  5
497D
330
1E
100
AcDbEntity
  8
0
 48
0.27
100
AcDbCircle
 10
-14.55189988198219
 20
19.95136387534216
 30
0.0
 40
0.5
100
AcDbArc
 50
134.9996118463614
 51
201.4081633456239
  0
LINE
  5
497F
330
1E
100
AcDbEntity
  8
虛線
 48
0.27
100
AcDbLine
 10
-22.93309817434141
 20
20.95846314104262
 30
0.0
 11
-19.5330894252169
 21
22.2499193830684
 31
0.0
  0
LINE
  5
4980
330
1E
100
AcDbEntity
  8
虛線
 48
0.27
100
AcDbLine
 10
-26.33301998636804
 20
22.24980692515368
 30
0.0
 11
-19.53301998636803
 21
22.24980692515368
 31
0.0
  0
LINE
  5
4981
330
1E
100
AcDbEntity
  8
虛線
 48
0.27
100
AcDbLine
 10
-26.33308942506079
 20
22.24996545006974
 30
0.0
 11
-19.53308942521687
 21
22.2499193830684
 31
0.0
  0
LINE
  5
4983
330
1E
100
AcDbEntity
  8
虛線
 48
0.27
100
AcDbLine
 10
-26.93306402045078
 20
25.99996951471911
 30
0.0
 11
-18.93306402063435
 21
25.99991531824702
 31
0.0
  0
LINE
  5
4985
330
1E
100
AcDbEntity
  8
虛線
 48
0.27
100
AcDbLine
 10
-26.33308942506082
 20
22.24996545006974
 30
0.0
 11
-22.93309817434141
 21
20.95846314104262
 31
0.0
  0
LINE
  5
4989
330
1E
100
AcDbEntity
  8
0
 48
0.27
100
AcDbLine
 10
-31.43299627475734
 20
36.00000000000523
 30
0.0
 11
-32.93301998636792
 21
34.49999661225537
 31
0.0
  0
LINE
  5
498B
330
1E
100
AcDbEntity
  8
虛線
 48
0.27
100
AcDbLine
 10
-26.93300203323583
 20
35.14996951450911
 30
0.0
 11
-18.93300203341939
 21
35.14991531803702
 31
0.0
  0
LINE
  5
498D
330
1E
100
AcDbEntity
  8
虛線
 48
0.27
100
AcDbLine
 10
-27.73579770784629
 20
36.00000000000523
 30
0.0
 11
-26.93300203323583
 21
35.14996951450911
 31
0.0
  0
LINE
  5
498F
330
1E
100
AcDbEntity
  8
虛線
 48
0.27
100
AcDbLine
 10
-18.13013338236858
 20
36.00000000000522
 30
0.0
 11
-18.93300203341939
 21
35.14991531803702
 31
0.0
  0
LINE
  5
4991
330
1E
100
AcDbEntity
  8
0
 48
0.27
100
AcDbLine
 10
-16.93309450486488
 20
36.00000000000522
 30
0.0
 11
-16.43299966238112
 21
35.49989838163146
 31
0.0
  0
LINE
  5
4993
330
1E
100
AcDbEntity
  8
0
 48
0.27
100
AcDbLine
 10
26.06698001363196
 20
1.99980692515362
 30
0.0
 11
26.06698001363196
 21
32.99980692515362
 31
0.0
  0
LINE
  5
4994
330
1E
100
AcDbEntity
  8
0
 48
0.27
100
AcDbLine
 10
26.06696307656904
 20
32.99961046299967
 30
0.0
 11
26.06675306523965
 21
1.999610463711035
 31
0.0
  0
LINE
  5
4995
330
1E
100
AcDbEntity
  8
0
 48
0.27
100
AcDbLine
 10
26.56698001363196
 20
2.499806925153648
 30
0.0
 11
26.56698001363196
 21
17.49980692515367
 31
0.0
  0
LINE
  5
4996
330
1E
100
AcDbEntity
  8
0
 48
0.27
100
AcDbLine
 10
10.1309911744772
 20
10.00116745068718
 30
0.0
 11
10.04963621862958
 21
9.1229980880276
 31
0.0
  0
LINE
  5
4997
330
1E
100
AcDbEntity
  8
0
 48
0.27
100
AcDbLine
 10
10.5884067178583
 20
9.233874049063016
 30
0.0
 11
10.1309911744776
 21
10.00116745068709
 31
0.0
  0
LINE
  5
4998
330
1E
100
AcDbEntity
  8
0
 48
0.27
100
AcDbLine
 10
10.58833784783581
 20
9.233782447223717
 30
0.0
 11
10.13092750254006
 21
10.00107894761879
 31
0.0
  0
LINE
  5
4999
330
1E
100
AcDbEntity
  8
0
 48
0.27
100
AcDbLine
 10
10.13092750253966
 20
10.00107894761888
 30
0.0
 11
10.04956659748373
 21
9.122910136123408
 31
0.0
  0
ARC
  5
499A
330
1E
100
AcDbEntity
  8
0
 48
0.27
100
AcDbCircle
 10
9.793925478432011
 20
8.48180692515362
 30
0.0
 40
1.5563
100
AcDbArc
 50
77.49167649828549
 51
192.5083235054293
  0
ARC
  5
499B
330
1E
100
AcDbEntity
  8
0
 48
0.27
100
AcDbCircle
 10
9.793851513504675
 20
8.481720705591641
 30
0.0
 40
1.5563
100
AcDbArc
 50
77.49128834464662
 51
192.5079353517901
  0
LINE
  5
499C
330
1E
100
AcDbEntity
  8
0
 48
0.27
100
AcDbLine
 10
13.20662547843196
 20
11.85209280947151
 30
0.0
 11
10.5884067178583
 21
9.233874049063016
 31
0.0
  0
ARC
  5
499D
330
1E
100
AcDbEntity
  8
0
 48
0.27
100
AcDbCircle
 10
9.793925478432011
 20
8.48180692515362
 30
0.0
 40
2.93
100
AcDbArc
 50
93.95261878508105
 51
176.0473812168744
  0
ARC
  5
499E
330
1E
100
AcDbEntity
  8
0
 48
0.27
100
AcDbCircle
 10
9.793851513504675
 20
8.481720705591641
 30
0.0
 40
2.93
100
AcDbArc
 50
93.9522306314411
 51
176.0469930632389
  0
LINE
  5
499F
330
1E
100
AcDbEntity
  8
0
 48
0.27
100
AcDbLine
 10
13.2065743456269
 20
11.85198347029467
 30
0.0
 11
10.58833784783581
 21
9.233782447223717
 31
0.0
  0
LINE
  5
49A4
330
1E
100
AcDbEntity
  8
0
 48
0.27
100
AcDbLine
 10
-12.73704383466648
 20
8.683776238252022
 30
0.0
 11
-12.13307452156806
 21
8.079806925153519
 31
0.0
  0
LINE
  5
49A5
330
1E
100
AcDbEntity
  8
0
 48
0.27
100
AcDbLine
 10
-12.73711643082379
 20
8.683842656066616
 30
0.0
 11
-12.13315120936497
 21
8.0798692513562
 31
0.0
  0
LINE
  5
49A6
330
1E
100
AcDbEntity
  8
0
 48
0.27
100
AcDbLine
 10
-12.13307452156806
 20
8.079806925153519
 30
0.0
 11
-12.13307452156809
 21
4.099806925153671
 31
0.0
  0
LINE
  5
49A7
330
1E
100
AcDbEntity
  8
0
 48
0.27
100
AcDbLine
 10
-12.13315120936497
 20
8.0798692513562
 30
0.0
 11
-12.13317817210983
 21
4.099869251447643
 31
0.0
  0
LINE
  5
49A8
330
1E
100
AcDbEntity
  8
0
 48
0.27
100
AcDbLine
 10
8.506625478432026
 20
5.02752104080065
 30
0.0
 11
13.53414651922747
 21
0.0000000000052305
 31
0.0
  0
LINE
  5
49A9
330
1E
100
AcDbEntity
  8
0
 48
0.27
100
AcDbLine
 10
8.506528112270641
 20
5.027443542207747
 30
0.0
 11
13.53390353750874
 21
0.0000000000052305
 31
0.0
  0
LINE
  5
49AA
330
1E
100
AcDbEntity
  8
0
 48
0.27
100
AcDbLine
 10
7.64062547843204
 20
4.668812095785539
 30
0.0
 11
12.30943757421238
 21
0.0000000000052305
 31
0.0
  0
LINE
  5
49AB
330
1E
100
AcDbEntity
  8
0
 48
0.27
100
AcDbLine
 10
6.266925478432026
 20
4.099806925153615
 30
0.0
 11
10.36673240358043
 21
0.0000000000052305
 31
0.0
  0
LINE
  5
49AC
330
1E
100
AcDbEntity
  8
0
 48
0.27
100
AcDbLine
 10
7.640525682195598
 20
4.668740463968958
 30
0.0
 11
12.30920288927237
 21
0.0000000000052305
 31
0.0
  0
LINE
  5
49AD
330
1E
100
AcDbEntity
  8
0
 48
0.27
100
AcDbLine
 10
8.274564952919998
 20
8.144741229009722
 30
0.0
 11
7.64062547843204
 21
7.510801754521678
 31
0.0
  0
LINE
  5
49AE
330
1E
100
AcDbEntity
  8
0
 48
0.27
100
AcDbLine
 10
7.64062547843204
 20
7.510801754521678
 30
0.0
 11
8.506625478432052
 21
7.152092809506597
 31
0.0
  0
LINE
  5
49AF
330
1E
100
AcDbEntity
  8
0
 48
0.27
100
AcDbLine
 10
6.870894791530727
 20
8.683776238252022
 30
0.0
 11
8.274564952919998
 21
8.144741229009722
 31
0.0
  0
LINE
  5
49B0
330
1E
100
AcDbEntity
  8
0
 48
0.27
100
AcDbLine
 10
6.870822194923503
 20
8.683709820929266
 30
0.0
 11
8.274488704556061
 21
8.144665302453004
 31
0.0
  0
LINE
  5
49B1
330
1E
100
AcDbEntity
  8
0
 48
0.27
100
AcDbLine
 10
7.640544935422267
 20
7.510730122639897
 30
0.0
 11
8.506542505307491
 21
7.152015310864925
 31
0.0
  0
LINE
  5
49B2
330
1E
100
AcDbEntity
  8
0
 48
0.27
100
AcDbLine
 10
8.274488704556061
 20
8.144665302453004
 30
0.0
 11
7.640544935422267
 21
7.510730122639897
 31
0.0
  0
LINE
  5
49B3
330
1E
100
AcDbEntity
  8
0
 48
0.27
100
AcDbLine
 10
7.64062547843204
 20
4.668812095785539
 30
0.0
 11
8.506625478432026
 21
5.02752104080065
 31
0.0
  0
LINE
  5
49B4
330
1E
100
AcDbEntity
  8
0
 48
0.27
100
AcDbLine
 10
7.640525682195598
 20
4.668740463968958
 30
0.0
 11
8.506528112270641
 21
5.027443542207747
 31
0.0
  0
LINE
  5
49B5
330
1E
100
AcDbEntity
  8
0
 48
0.27
100
AcDbLine
 10
6.266925478432054
 20
8.079806925153576
 30
0.0
 11
7.64062547843204
 21
7.510801754521678
 31
0.0
  0
LINE
  5
49B6
330
1E
100
AcDbEntity
  8
0
 48
0.27
100
AcDbLine
 10
6.870894791530473
 20
8.683776238252049
 30
0.0
 11
6.266925478432026
 21
8.079806925153519
 31
0.0
  0
LINE
  5
49B7
330
1E
100
AcDbEntity
  8
0
 48
0.27
100
AcDbLine
 10
6.870822194923218
 20
8.683709820929292
 30
0.0
 11
6.266848790212887
 21
8.079744599470387
 31
0.0
  0
LINE
  5
49B8
330
1E
100
AcDbEntity
  8
0
 48
0.27
100
AcDbLine
 10
6.266848790212887
 20
8.079744599470387
 30
0.0
 11
7.640544935422267
 21
7.510730122639897
 31
0.0
  0
LINE
  5
49B9
330
1E
100
AcDbEntity
  8
0
 48
0.27
100
AcDbLine
 10
6.266925478432026
 20
4.099806925153615
 30
0.0
 11
7.64062547843204
 21
4.668812095785539
 31
0.0
  0
LINE
  5
49BA
330
1E
100
AcDbEntity
  8
0
 48
0.27
100
AcDbLine
 10
6.266821827468048
 20
4.099744599561886
 30
0.0
 11
7.640525682195598
 21
4.668740463968958
 31
0.0
  0
LINE
  5
49BB
330
1E
100
AcDbEntity
  8
0
 48
0.27
100
AcDbLine
 10
6.266925478432026
 20
8.079806925153519
 30
0.0
 11
6.266925478432026
 21
4.099806925153615
 31
0.0
  0
LINE
  5
49BC
330
1E
100
AcDbEntity
  8
0
 48
0.27
100
AcDbLine
 10
7.64062547843204
 20
7.510801754521678
 30
0.0
 11
7.64062547843204
 21
4.668812095785539
 31
0.0
  0
LINE
  5
49BD
330
1E
100
AcDbEntity
  8
0
 48
0.27
100
AcDbLine
 10
7.640544935422267
 20
7.510730122639897
 30
0.0
 11
7.640525682195598
 21
4.668740463968958
 31
0.0
  0
LINE
  5
49BE
330
1E
100
AcDbEntity
  8
0
 48
0.27
100
AcDbLine
 10
6.266848790212887
 20
8.079744599470387
 30
0.0
 11
6.266821827468048
 21
4.099744599561886
 31
0.0
  0
ARC
  5
49BF
330
1E
100
AcDbEntity
  8
0
 48
0.27
100
AcDbCircle
 10
10.23485332727622
 20
9.587427439667408
 30
0.0
 40
0.5
100
AcDbArc
 50
248.2576009247872
 51
314.9999999981931
  0
ARC
  5
49C0
330
1E
100
AcDbEntity
  8
0
 48
0.27
100
AcDbCircle
 10
10.23478685243017
 20
9.587338232988315
 30
0.0
 40
0.5
100
AcDbArc
 50
248.2572127711468
 51
314.9996118445525
  0
ARC
  5
49C1
330
1E
100
AcDbEntity
  8
0
 48
0.27
100
AcDbCircle
 10
8.688304963955287
 20
8.040879076216496
 30
0.0
 40
0.5
100
AcDbArc
 50
315.0000000000032
 51
21.74239908002517
  0
LINE
  5
49C2
330
1E
100
AcDbEntity
  8
0
 48
0.27
100
AcDbLine
 10
8.274564952919998
 20
8.144741229009722
 30
0.0
 11
9.152734315579547
 21
8.226096184902161
 31
0.0
  0
LINE
  5
49C3
330
1E
100
AcDbEntity
  8
0
 48
0.27
100
AcDbLine
 10
8.274488704556061
 20
8.144665302453004
 30
0.0
 11
9.152658618339414
 21
8.226014309133402
 31
0.0
  0
ARC
  5
49C4
330
1E
100
AcDbEntity
  8
0
 48
0.27
100
AcDbCircle
 10
8.688228011961568
 20
8.040800346756043
 30
0.0
 40
0.5
100
AcDbArc
 50
314.9996118463626
 51
21.74201092638892
  0
LINE
  5
49C5
330
1E
100
AcDbEntity
  8
0
 48
0.27
100
AcDbLine
 10
8.274564952919998
 20
8.144741229009722
 30
0.0
 11
9.04185835454859
 21
7.687325685623221
 31
0.0
  0
LINE
  5
49C6
330
1E
100
AcDbEntity
  8
0
 48
0.27
100
AcDbLine
 10
8.506625478432052
 20
7.152092809506597
 30
0.0
 11
8.506625478432026
 21
5.02752104080065
 31
0.0
  0
LINE
  5
49C7
330
1E
100
AcDbEntity
  8
0
 48
0.27
100
AcDbLine
 10
9.04185835454859
 20
7.687325685623221
 30
0.0
 11
8.506625478432052
 21
7.152092809506597
 31
0.0
  0
LINE
  5
49C8
330
1E
100
AcDbEntity
  8
0
 48
0.27
100
AcDbLine
 10
8.506542505307491
 20
7.152015310864925
 30
0.0
 11
8.506528112270641
 21
5.027443542207747
 31
0.0
  0
LINE
  5
49C9
330
1E
100
AcDbEntity
  8
0
 48
0.27
100
AcDbLine
 10
9.041779007378462
 20
7.687244561002557
 30
0.0
 11
8.506542505307491
 21
7.152015310864925
 31
0.0
  0
LINE
  5
49CA
330
1E
100
AcDbEntity
  8
0
 48
0.27
100
AcDbLine
 10
8.274488704556061
 20
8.144665302453004
 30
0.0
 11
9.041779007378462
 21
7.687244561002557
 31
0.0
  0
ARC
  5
49CB
330
1E
100
AcDbEntity
  8
0
 48
0.27
100
AcDbCircle
 10
9.793925478432011
 20
8.48180692515362
 30
0.0
 40
0.6903000000000003
100
AcDbArc
 50
68.25760092478882
 51
201.7423990800252
  0
ARC
  5
49CC
330
1E
100
AcDbEntity
  8
0
 48
0.27
100
AcDbCircle
 10
9.793851513504675
 20
8.481720705591641
 30
0.0
 40
0.6903000000000003
100
AcDbArc
 50
68.25721277114944
 51
201.7420109263854
  0
LINE
  5
49CF
330
1E
100
AcDbEntity
  8
0
 48
0.27
100
AcDbLine
 10
26.56698001363196
 20
2.499806925153648
 30
0.0
 11
24.06717308848354
 21
0.0000000000052296
 31
0.0
  0
LINE
  5
49D0
330
1E
100
AcDbEntity
  8
0
 48
0.27
100
AcDbLine
 10
26.56675645250761
 20
2.499607076420061
 30
0.0
 11
24.06711550839207
 21
0.0000000000052296
 31
0.0
  0
LINE
  5
49D1
330
1E
100
AcDbEntity
  8
虛線
 48
0.27
100
AcDbLine
 10
21.86994013988056
 20
36.00000000000522
 30
0.0
 11
21.06698001363197
 21
35.14980692515365
 31
0.0
  0
LINE
  5
49D5
330
1E
100
AcDbEntity
  8
虛線
 48
0.27
100
AcDbLine
 10
20.46698001363195
 20
35.14980692515365
 30
0.0
 11
20.46698001363195
 21
22.24980692515368
 31
0.0
  0
LINE
  5
49D6
330
1E
100
AcDbEntity
  8
虛線
 48
0.27
100
AcDbLine
 10
21.06698001363197
 20
35.14980692515365
 30
0.0
 11
21.06698001363197
 21
25.99980692515368
 31
0.0
  0
LINE
  5
49DA
330
1E
100
AcDbEntity
  8
虛線
 48
0.27
100
AcDbLine
 10
13.6669105740213
 20
22.24969446770928
 30
0.0
 11
13.66699796583257
 21
35.14969446741321
 31
0.0
  0
LINE
  5
49DB
330
1E
100
AcDbEntity
  8
虛線
 48
0.27
100
AcDbLine
 10
13.06698001363196
 20
25.99980692515368
 30
0.0
 11
13.06698001363196
 21
35.14980692515365
 31
0.0
  0
LINE
  5
49DF
330
1E
100
AcDbEntity
  8
0
 48
0.27
100
AcDbLine
 10
2.316980013632016
 20
31.82073648960184
 30
0.0
 11
2.316980013632016
 21
34.99980692515362
 31
0.0
  0
LINE
  5
49E0
330
1E
100
AcDbEntity
  8
0
 48
0.27
100
AcDbLine
 10
-8.18301998636798
 20
29.49980692515362
 30
0.0
 11
-8.18301998636798
 21
34.99980692515362
 31
0.0
  0
LINE
  5
49E1
330
1E
100
AcDbEntity
  8
0
 48
0.27
100
AcDbLine
 10
2.316955089749089
 20
31.82074776762568
 30
0.0
 11
2.316976626232016
 21
34.99977135873024
 31
0.0
  0
LINE
  5
49E2
330
1E
100
AcDbEntity
  8
0
 48
0.27
100
AcDbLine
 10
-8.183060633601597
 20
29.49984249172615
 30
0.0
 11
-8.183023373527021
 21
34.99984249159991
 31
0.0
  0
LINE
  5
49E3
330
1E
100
AcDbEntity
  8
0
 48
0.27
100
AcDbLine
 10
-12.71207969219992
 20
21.2735069251537
 30
0.0
 11
6.845930649063942
 21
21.27350692515364
 31
0.0
  0
LINE
  5
49E4
330
1E
100
AcDbEntity
  8
0
 48
0.27
100
AcDbLine
 10
-13.070788637215
 20
22.13950692515374
 30
0.0
 11
7.204639594078996
 21
22.13950692515362
 31
0.0
  0
LINE
  5
49E5
330
1E
100
AcDbEntity
  8
0
 48
0.27
100
AcDbLine
 10
-12.14307452156802
 20
19.89980692515365
 30
0.0
 11
6.276925478432074
 21
19.89980692515365
 31
0.0
  0
LINE
  5
49E6
330
1E
100
AcDbEntity
  8
0
 48
0.27
100
AcDbLine
 10
6.181333172071757
 20
19.89980692515365
 30
0.0
 11
-12.0474788279283
 21
19.89980692515365
 31
0.0
  0
LINE
  5
49E7
330
1E
100
AcDbEntity
  8
0
 48
0.27
100
AcDbLine
 10
-12.04747882771914
 20
19.89986867123496
 30
0.0
 11
6.181333171862601
 21
19.89974517907234
 31
0.0
  0
LINE
  5
49E8
330
1E
100
AcDbEntity
  8
0
 48
0.27
100
AcDbLine
 10
6.276928865500138
 20
19.89974453145368
 30
0.0
 11
-12.14307113407727
 21
19.89986931883066
 31
0.0
  0
LINE
  5
49E9
330
1E
100
AcDbEntity
  8
0
 48
0.27
100
AcDbLine
 10
7.204708273023847
 20
22.13943824620878
 30
0.0
 11
-13.07077007672311
 21
22.13957560363332
 31
0.0
  0
LINE
  5
49EA
330
1E
100
AcDbEntity
  8
0
 48
0.27
100
AcDbLine
 10
6.845943342330682
 20
21.27344067666314
 30
0.0
 11
-12.71206699848437
 21
21.27357317355825
 31
0.0
  0
LINE
  5
49EB
330
1E
100
AcDbEntity
  8
0
 48
0.27
100
AcDbLine
 10
-12.71207969219998
 20
21.27350692515364
 30
0.0
 11
-13.07078863721503
 21
22.13950692515362
 31
0.0
  0
LINE
  5
49EC
330
1E
100
AcDbEntity
  8
0
 48
0.27
100
AcDbLine
 10
-12.71206699848437
 20
21.27357317355825
 30
0.0
 11
-13.07077007672311
 21
22.13957560363332
 31
0.0
  0
LINE
  5
49ED
330
1E
100
AcDbEntity
  8
0
 48
0.27
100
AcDbLine
 10
-12.14307452156802
 20
19.89980692515365
 30
0.0
 11
-12.73772917812201
 21
19.30515226859967
 31
0.0
  0
LINE
  5
49EE
330
1E
100
AcDbEntity
  8
0
 48
0.27
100
AcDbLine
 10
-12.14307452156802
 20
19.89980692515365
 30
0.0
 11
-12.71207969219998
 21
21.27350692515364
 31
0.0
  0
LINE
  5
49EF
330
1E
100
AcDbEntity
  8
0
 48
0.27
100
AcDbLine
 10
-12.14307113407727
 20
19.89986931883066
 30
0.0
 11
-12.71206699848437
 21
21.27357317355825
 31
0.0
  0
LINE
  5
49F4
330
1E
100
AcDbEntity
  8
0
 48
0.27
100
AcDbLine
 10
6.845930649063942
 20
21.27350692515364
 30
0.0
 11
7.204639594078996
 21
22.13950692515362
 31
0.0
  0
LINE
  5
49F5
330
1E
100
AcDbEntity
  8
0
 48
0.27
100
AcDbLine
 10
7.204639594078996
 20
22.13950692515362
 30
0.0
 11
9.039307965727912
 21
20.30483855350474
 31
0.0
  0
LINE
  5
49F6
330
1E
100
AcDbEntity
  8
0
 48
0.27
100
AcDbLine
 10
6.845943342330738
 20
21.27344067666303
 30
0.0
 11
7.204658154105656
 21
22.13943824654831
 31
0.0
  0
LINE
  5
49F7
330
1E
100
AcDbEntity
  8
0
 48
0.27
100
AcDbLine
 10
7.204658154105656
 20
22.13943824654831
 30
0.0
 11
9.03931409664332
 21
20.30475744587233
 31
0.0
  0
LINE
  5
49F8
330
1E
100
AcDbEntity
  8
0
 48
0.27
100
AcDbLine
 10
12.34062547843194
 20
12.21080175450257
 30
0.0
 11
13.20662547843196
 21
11.85209280947151
 31
0.0
  0
LINE
  5
49F9
330
1E
100
AcDbEntity
  8
0
 48
0.27
100
AcDbLine
 10
12.34062547843197
 20
15.77881209578561
 30
0.0
 11
13.20662547843196
 21
16.13752104080072
 31
0.0
  0
LINE
  5
49FA
330
1E
100
AcDbEntity
  8
0
 48
0.27
100
AcDbLine
 10
12.34057677574165
 20
12.21069828208559
 30
0.0
 11
13.2065743456269
 21
11.85198347029467
 31
0.0
  0
LINE
  5
49FB
330
1E
100
AcDbEntity
  8
0
 48
0.27
100
AcDbLine
 10
12.3406009474383
 20
15.77870862328675
 30
0.0
 11
13.20660337751334
 21
16.13741170152553
 31
0.0
  0
LINE
  5
49FC
330
1E
100
AcDbEntity
  8
0
 48
0.27
100
AcDbLine
 10
10.58195710678316
 20
18.76218941244957
 30
0.0
 11
13.20662547843196
 21
16.13752104080072
 31
0.0
  0
LINE
  5
49FD
330
1E
100
AcDbEntity
  8
0
 48
0.27
100
AcDbLine
 10
10.58195278689552
 20
18.76209785408486
 30
0.0
 11
13.20660337751334
 21
16.13741170152553
 31
0.0
  0
LINE
  5
49FE
330
1E
100
AcDbEntity
  8
0
 48
0.27
100
AcDbLine
 10
9.582270821878095
 20
16.59446158170758
 30
0.0
 11
10.96692547843193
 21
15.20980692515371
 31
0.0
  0
LINE
  5
49FF
330
1E
100
AcDbEntity
  8
0
 48
0.27
100
AcDbLine
 10
10.12360989740599
 20
17.99582767681164
 30
0.0
 11
12.34062547843197
 21
15.77881209578561
 31
0.0
  0
LINE
  5
4A00
330
1E
100
AcDbEntity
  8
0
 48
0.27
100
AcDbLine
 10
10.12360038576608
 20
17.99573922356472
 30
0.0
 11
12.3406009474383
 21
15.77870862328675
 31
0.0
  0
LINE
  5
4A01
330
1E
100
AcDbEntity
  8
0
 48
0.27
100
AcDbLine
 10
9.582251816613363
 20
16.5943767958264
 30
0.0
 11
10.96689709271069
 21
15.20971275887962
 31
0.0
  0
LINE
  5
4A02
330
1E
100
AcDbEntity
  8
0
 48
0.27
100
AcDbLine
 10
12.34062547843194
 20
12.21080175450257
 30
0.0
 11
12.34062547843197
 21
15.77881209578561
 31
0.0
  0
LINE
  5
4A03
330
1E
100
AcDbEntity
  8
0
 48
0.27
100
AcDbLine
 10
10.9669254784319
 20
12.77980692515979
 30
0.0
 11
10.96692547843193
 21
15.20980692515371
 31
0.0
  0
LINE
  5
4A04
330
1E
100
AcDbEntity
  8
0
 48
0.27
100
AcDbLine
 10
10.9669254784319
 20
12.77980692515979
 30
0.0
 11
12.34062547843194
 21
12.21080175450257
 31
0.0
  0
LINE
  5
4A05
330
1E
100
AcDbEntity
  8
0
 48
0.27
100
AcDbLine
 10
10.96692547843193
 20
15.20980692515371
 30
0.0
 11
12.34062547843197
 21
15.77881209578561
 31
0.0
  0
LINE
  5
4A06
330
1E
100
AcDbEntity
  8
0
 48
0.27
100
AcDbLine
 10
10.96689709271069
 20
15.20971275887962
 30
0.0
 11
12.3406009474383
 21
15.77870862328675
 31
0.0
  0
LINE
  5
4A07
330
1E
100
AcDbEntity
  8
0
 48
0.27
100
AcDbLine
 10
10.96688063053233
 20
12.77971275894151
 30
0.0
 11
12.34057677574165
 21
12.21069828208559
 31
0.0
  0
LINE
  5
4A08
330
1E
100
AcDbEntity
  8
0
 48
0.27
100
AcDbLine
 10
10.96688063053233
 20
12.77971275894151
 30
0.0
 11
10.96689709271069
 21
15.20971275887962
 31
0.0
  0
LINE
  5
4A09
330
1E
100
AcDbEntity
  8
0
 48
0.27
100
AcDbLine
 10
12.34057677574165
 20
12.21069828208559
 30
0.0
 11
12.3406009474383
 21
15.77870862328675
 31
0.0
  0
LINE
  5
4A0A
330
1E
100
AcDbEntity
  8
0
 48
0.27
100
AcDbLine
 10
10.9669254784319
 20
12.77980692515979
 30
0.0
 11
9.591956165233652
 21
11.40483761204831
 31
0.0
  0
LINE
  5
4A0B
330
1E
100
AcDbEntity
  8
0
 48
0.27
100
AcDbLine
 10
10.96688063053233
 20
12.77971275894151
 30
0.0
 11
9.59190200255483
 21
11.40475276067228
 31
0.0
  0
LINE
  5
4A0C
330
1E
100
AcDbEntity
  8
0
 48
0.27
100
AcDbLine
 10
9.591956165233707
 20
11.404837612048
 30
0.0
 11
10.13099117447745
 21
10.00116745068743
 31
0.0
  0
LINE
  5
4A0D
330
1E
100
AcDbEntity
  8
0
 48
0.27
100
AcDbLine
 10
12.34062547843194
 20
12.21080175450257
 30
0.0
 11
10.13099117447745
 21
10.00116745068743
 31
0.0
  0
LINE
  5
4A0E
330
1E
100
AcDbEntity
  8
0
 48
0.27
100
AcDbLine
 10
12.34057677574165
 20
12.21069828208559
 30
0.0
 11
10.13092750253991
 21
10.00107894761913
 31
0.0
  0
LINE
  5
4A0F
330
1E
100
AcDbEntity
  8
0
 48
0.27
100
AcDbLine
 10
9.585282553986839
 20
11.40428789714181
 30
0.0
 11
10.13092750253991
 21
10.00107894761913
 31
0.0
  0
LINE
  5
4A10
330
1E
100
AcDbEntity
  8
0
 48
0.27
100
AcDbLine
 10
6.871580134986257
 20
19.30515226859967
 30
0.0
 11
8.272946230090322
 21
19.84649134412723
 31
0.0
  0
LINE
  5
4A11
330
1E
100
AcDbEntity
  8
0
 48
0.27
100
AcDbLine
 10
6.845930649063942
 20
21.27350692515364
 30
0.0
 11
8.27294623009004
 21
19.84649134412751
 31
0.0
  0
LINE
  5
4A12
330
1E
100
AcDbEntity
  8
0
 48
0.27
100
AcDbLine
 10
6.845943342330738
 20
21.27344067666303
 30
0.0
 11
8.272949255922839
 21
19.84641542826841
 31
0.0
  0
LINE
  5
4A13
330
1E
100
AcDbEntity
  8
0
 48
0.27
100
AcDbLine
 10
6.872063138854937
 20
19.2985101684842
 30
0.0
 11
8.272949255923121
 21
19.84641542826813
 31
0.0
  0
ARC
  5
4A14
330
1E
100
AcDbEntity
  8
0
 48
0.27
100
AcDbCircle
 10
9.793925478432011
 20
19.51680692515362
 30
0.0
 40
1.5563
100
AcDbArc
 50
167.7698790836307
 51
282.2301209163741
  0
ARC
  5
4A15
330
1E
100
AcDbEntity
  8
0
 48
0.27
100
AcDbCircle
 10
9.793926270763364
 20
19.5167207053384
 30
0.0
 40
1.5563
100
AcDbArc
 50
167.7694909299934
 51
282.2297327627355
  0
ARC
  5
4A16
330
1E
100
AcDbEntity
  8
0
 48
0.27
100
AcDbCircle
 10
9.793925478432011
 20
19.51680692515362
 30
0.0
 40
2.93
100
AcDbArc
 50
184.1424881063036
 51
265.8575118936995
  0
ARC
  5
4A17
330
1E
100
AcDbEntity
  8
0
 48
0.27
100
AcDbCircle
 10
9.793926270763364
 20
19.5167207053384
 30
0.0
 40
2.93
100
AcDbArc
 50
184.1420999526625
 51
265.8571237400604
  0
LINE
  5
4A18
330
1E
100
AcDbEntity
  8
0
 48
0.27
100
AcDbLine
 10
6.276925478432074
 20
19.89980692515365
 30
0.0
 11
6.871580134985974
 21
19.30515226859967
 31
0.0
  0
LINE
  5
4A19
330
1E
100
AcDbEntity
  8
0
 48
0.27
100
AcDbLine
 10
6.276925478432074
 20
19.89980692515365
 30
0.0
 11
6.845930649063942
 21
21.27350692515364
 31
0.0
  0
LINE
  5
4A1A
330
1E
100
AcDbEntity
  8
0
 48
0.27
100
AcDbLine
 10
6.276928865500138
 20
19.89974453145368
 30
0.0
 11
6.845943342330738
 21
21.27344067666303
 31
0.0
  0
LINE
  5
4A1B
330
1E
100
AcDbEntity
  8
0
 48
0.27
100
AcDbLine
 10
6.276928865500138
 20
19.89974453145368
 30
0.0
 11
6.871579493517399
 21
19.30508584639028
 31
0.0
  0
ARC
  5
4A1C
330
1E
100
AcDbEntity
  8
0
 48
0.27
100
AcDbCircle
 10
10.22840371618985
 20
18.40863602185624
 30
0.0
 40
0.5
100
AcDbArc
 50
45.00000000000023
 51
111.408551499263
  0
LINE
  5
4A1D
330
1E
100
AcDbEntity
  8
0
 48
0.27
100
AcDbLine
 10
10.12360989740599
 20
17.99582767681164
 30
0.0
 11
10.58195710678313
 21
18.76218941244951
 31
0.0
  0
LINE
  5
4A1E
330
1E
100
AcDbEntity
  8
0
 48
0.27
100
AcDbLine
 10
10.12360989740565
 20
17.99582767681198
 30
0.0
 11
10.04589584516665
 21
18.87413669534083
 31
0.0
  0
ARC
  5
4A1F
330
1E
100
AcDbEntity
  8
0
 48
0.27
100
AcDbCircle
 10
10.22839700114204
 20
18.40854685866799
 30
0.0
 40
0.5
100
AcDbArc
 50
44.99961184635941
 51
111.4081633456243
  0
LINE
  5
4A20
330
1E
100
AcDbEntity
  8
0
 48
0.27
100
AcDbLine
 10
10.12360038576608
 20
17.99573922356472
 30
0.0
 11
10.5819527868955
 21
18.76209785408486
 31
0.0
  0
LINE
  5
4A21
330
1E
100
AcDbEntity
  8
0
 48
0.27
100
AcDbLine
 10
10.12360038576574
 20
17.99573922356507
 30
0.0
 11
10.04589228368479
 21
18.8740487685522
 31
0.0
  0
ARC
  5
4A22
330
1E
100
AcDbEntity
  8
0
 48
0.27
100
AcDbCircle
 10
8.685754575134636
 20
19.95128516291146
 30
0.0
 40
0.5
100
AcDbArc
 50
338.5914485007385
 51
45.00000000000023
  0
LINE
  5
4A23
330
1E
100
AcDbEntity
  8
0
 48
0.27
100
AcDbLine
 10
8.272946230090322
 20
19.84649134412723
 30
0.0
 11
9.151255248619234
 21
19.76877729188828
 31
0.0
  0
ARC
  5
4A24
330
1E
100
AcDbEntity
  8
0
 48
0.27
100
AcDbCircle
 10
8.685758310889863
 20
19.95120645045546
 30
0.0
 40
0.5
100
AcDbArc
 50
338.5910603470983
 51
44.99961184635941
  0
LINE
  5
4A25
330
1E
100
AcDbEntity
  8
0
 48
0.27
100
AcDbLine
 10
8.272949255923121
 20
19.84641542826813
 30
0.0
 11
9.151257747953447
 21
19.76869542587468
 31
0.0
  0
LINE
  5
4A26
330
1E
100
AcDbEntity
  8
0
 48
0.27
100
AcDbLine
 10
8.27294623009004
 20
19.84649134412751
 30
0.0
 11
9.039307965727912
 21
20.30483855350474
 31
0.0
  0
LINE
  5
4A27
330
1E
100
AcDbEntity
  8
0
 48
0.27
100
AcDbLine
 10
8.272949255922839
 20
19.84641542826841
 30
0.0
 11
9.03931409664332
 21
20.30475744587233
 31
0.0
  0
ARC
  5
4A28
330
1E
100
AcDbEntity
  8
0
 48
0.27
100
AcDbCircle
 10
9.793925478432011
 20
19.51680692515362
 30
0.0
 40
0.6903000000000003
100
AcDbArc
 50
158.5914485007349
 51
291.4085514992644
  0
ARC
  5
4A29
330
1E
100
AcDbEntity
  8
0
 48
0.27
100
AcDbCircle
 10
9.793926270763364
 20
19.5167207053384
 30
0.0
 40
0.6903000000000003
100
AcDbArc
 50
158.5910603470948
 51
291.4081633456259
  0
LINE
  5
4A2A
330
1E
100
AcDbEntity
  8
0
 48
0.27
100
AcDbLine
 10
9.582270821878124
 20
16.59446158170785
 30
0.0
 11
10.12360989740599
 21
17.99582767681164
 31
0.0
  0
LINE
  5
4A2B
330
1E
100
AcDbEntity
  8
0
 48
0.27
100
AcDbLine
 10
9.58225181661305
 20
16.59437679582672
 30
0.0
 11
10.12360038576608
 21
17.99573922356472
 31
0.0
  0
LINE
  5
4A2C
330
1E
100
AcDbEntity
  8
0
 48
0.27
100
AcDbLine
 10
13.20662547843196
 20
11.85209280947151
 30
0.0
 11
13.20662547843196
 21
16.13752104080072
 31
0.0
  0
LINE
  5
4A2D
330
1E
100
AcDbEntity
  8
0
 48
0.27
100
AcDbLine
 10
13.2065743456269
 20
11.85198347029467
 30
0.0
 11
13.20660337751334
 21
16.13741170152553
 31
0.0
  0
LINE
  5
4A2F
330
1E
100
AcDbEntity
  8
虛線
 48
0.27
100
AcDbLine
 10
20.46691057386525
 20
22.249648400708
 30
0.0
 11
13.66691057402127
 21
22.24969446770928
 31
0.0
  0
LINE
  5
4A31
330
1E
100
AcDbEntity
  8
虛線
 48
0.27
100
AcDbLine
 10
17.06690182474071
 20
20.95819215868221
 30
0.0
 11
13.6669105740213
 21
22.24969446770928
 31
0.0
  0
LINE
  5
4A33
330
1E
100
AcDbEntity
  8
虛線
 48
0.27
100
AcDbLine
 10
20.46691057386523
 20
22.249648400708
 30
0.0
 11
17.06690182474071
 21
20.95819215868221
 31
0.0
  0
LINE
  5
4A35
330
1E
100
AcDbEntity
  8
虛線
 48
0.27
100
AcDbLine
 10
21.06693597844776
 20
25.99964433588656
 30
0.0
 11
13.06693597863133
 21
25.99969853235865
 31
0.0
  0
LINE
  5
4A36
330
1E
100
AcDbEntity
  8
0
 48
0.27
100
AcDbLine
 10
2.566980013631963
 20
35.49980692515368
 30
0.0
 11
10.56698001363196
 21
35.49980692515368
 31
0.0
  0
LINE
  5
4A3D
330
1E
100
AcDbEntity
  8
0
 48
0.27
100
AcDbLine
 10
-7.932837071002821
 20
36.00000000000522
 30
0.0
 11
-8.432999662564691
 21
35.49984418515936
 31
0.0
  0
LINE
  5
4A40
330
1E
100
AcDbEntity
  8
0
 48
0.27
100
AcDbLine
 10
2.066786938780421
 20
36.00000000000522
 30
0.0
 11
2.566980013631963
 21
35.49980692515368
 31
0.0
  0
LINE
  5
4A42
330
1E
100
AcDbEntity
  8
虛線
 48
0.27
100
AcDbLine
 10
12.26401988738338
 20
36.00000000000522
 30
0.0
 11
13.06698001363196
 21
35.14980692515365
 31
0.0
  0
LINE
  5
4A44
330
1E
100
AcDbEntity
  8
0
 48
0.27
100
AcDbLine
 10
11.0671730884835
 20
36.00000000000522
 30
0.0
 11
10.56698001363196
 21
35.49980692515368
 31
0.0
  0
LINE
  5
4A46
330
1E
100
AcDbEntity
  8
虛線
 48
0.27
100
AcDbLine
 10
21.06698001363197
 20
35.14980692515365
 30
0.0
 11
13.06698001363196
 21
35.14980692515365
 31
0.0
  0
LINE
  5
4A48
330
1E
100
AcDbEntity
  8
0
 48
0.27
100
AcDbLine
 10
27.06698001363197
 20
17.99980692515368
 30
0.0
 11
27.06698001363197
 21
34.49980692515379
 31
0.0
  0
LINE
  5
4A49
330
1E
100
AcDbEntity
  8
0
 48
0.27
100
AcDbLine
 10
24.06698001363196
 20
34.99980692515362
 30
0.0
 11
26.06698001363196
 21
32.99980692515362
 31
0.0
  0
LINE
  5
4A4A
330
1E
100
AcDbEntity
  8
0
 48
0.27
100
AcDbLine
 10
26.06696307656904
 20
32.99961046299967
 30
0.0
 11
24.06697662573293
 21
34.99962401207182
 31
0.0
  0
LINE
  5
4A4C
330
1E
100
AcDbEntity
  8
0
 48
0.27
100
AcDbLine
 10
27.06698001363197
 20
17.99980692515368
 30
0.0
 11
26.56698001363197
 21
17.49980692515368
 31
0.0
  0
LINE
  5
4A4D
330
1E
100
AcDbEntity
  8
0
 48
0.27
100
AcDbLine
 10
25.56678693878041
 20
36.00000000000522
 30
0.0
 11
27.06698001363197
 21
34.49980692515379
 31
0.0
  0
ARC
  5
4A5C
330
1E
100
AcDbEntity
  8
指線
 48
0.27
100
AcDbCircle
 10
20.8727445996217
 20
2.649920812143108
 30
0.0
 40
1.644659169866167
100
AcDbArc
 50
199.4710910050953
 51
250.6280493916773
  0
ARC
  5
4A5D
330
1E
100
AcDbEntity
  8
指線
 48
0.27
100
AcDbCircle
 10
20.8727445996217
 20
2.649920812143108
 30
0.0
 40
1.644659169866167
100
AcDbArc
 50
289.5511824003039
 51
340.5458668438662
  0
LINE
  5
4A5E
330
1E
100
AcDbEntity
  8
指線
 48
0.27
100
AcDbLine
 10
20.32706383033687
 20
2.101828759071763
 30
0.0
 11
20.32721224922599
 21
1.098373764936155
 31
0.0
  0
CIRCLE
  5
4A5F
330
1E
100
AcDbEntity
  8
指線
 48
0.27
100
AcDbCircle
 10
20.8727445996217
 20
2.649920812143108
 30
0.0
 40
2.739789646400015
  0
LINE
  5
4A60
330
1E
100
AcDbEntity
  8
指線
 48
0.27
100
AcDbLine
 10
21.42297960940758
 20
2.101990958431001
 30
0.0
 11
21.42312779897524
 21
1.100087879568035
 31
0.0
  0
ARC
  5
4A61
330
1E
100
AcDbEntity
  8
指線
 48
0.27
100
AcDbCircle
 10
20.8727445996217
 20
2.649920812143108
 30
0.0
 40
1.644659169866167
100
AcDbArc
 50
109.3888996106208
 51
160.5479173296244
  0
LINE
  5
4A62
330
1E
100
AcDbEntity
  8
指線
 48
0.27
100
AcDbLine
 10
20.32675330082319
 20
4.201306414326253
 30
0.0
 11
20.32690173541512
 21
3.197746737328897
 31
0.0
  0
LINE
  5
4A63
330
1E
100
AcDbEntity
  8
指線
 48
0.27
100
AcDbLine
 10
20.32706383033687
 20
2.101828759071763
 30
0.0
 11
18.18839118713466
 21
2.1015645171706
 31
0.0
  0
LINE
  5
4A64
330
1E
100
AcDbEntity
  8
指線
 48
0.27
100
AcDbLine
 10
20.32690173541512
 20
3.197746737328897
 30
0.0
 11
18.18822909221291
 21
3.197482495427976
 31
0.0
  0
ARC
  5
4A65
330
1E
100
AcDbEntity
  8
指線
 48
0.27
100
AcDbCircle
 10
20.8727445996217
 20
2.649920812143108
 30
0.0
 40
1.644659169866167
100
AcDbArc
 50
19.46904051925164
 51
83.22109104167347
  0
LINE
  5
4A66
330
1E
100
AcDbEntity
  8
指線
 48
0.27
100
AcDbLine
 10
21.42266930968475
 20
4.19991648900384
 30
0.0
 11
21.42281751448559
 21
3.197908936688377
 31
0.0
  0
LINE
  5
4A67
330
1E
100
AcDbEntity
  8
指線
 48
0.27
100
AcDbLine
 10
21.42297960940758
 20
2.101990958431001
 30
0.0
 11
23.55726010703062
 21
2.102359128858211
 31
0.0
  0
LINE
  5
4A68
330
1E
100
AcDbEntity
  8
指線
 48
0.27
100
AcDbLine
 10
21.42281751448559
 20
3.197908936688377
 30
0.0
 11
23.55709801210863
 21
3.198277107115586
 31
0.0
  0
ARC
  5
4A69
330
1E
100
AcDbEntity
  8
指線
 48
0.27
100
AcDbCircle
 10
-26.72747354008631
 20
2.650243282629844
 30
0.0
 40
1.644659169866167
100
AcDbArc
 50
199.4710910050953
 51
250.6280493916773
  0
ARC
  5
4A6A
330
1E
100
AcDbEntity
  8
指線
 48
0.27
100
AcDbCircle
 10
-26.72747354008631
 20
2.650243282629844
 30
0.0
 40
1.644659169866167
100
AcDbArc
 50
289.5511824003039
 51
340.5458668438662
  0
LINE
  5
4A6B
330
1E
100
AcDbEntity
  8
指線
 48
0.27
100
AcDbLine
 10
-27.27315430937114
 20
2.1021512295585
 30
0.0
 11
-27.27300589048201
 21
1.098696235422892
 31
0.0
  0
CIRCLE
  5
4A6C
330
1E
100
AcDbEntity
  8
指線
 48
0.27
100
AcDbCircle
 10
-26.72747354008631
 20
2.650243282629844
 30
0.0
 40
2.739789646400015
  0
LINE
  5
4A6D
330
1E
100
AcDbEntity
  8
指線
 48
0.27
100
AcDbLine
 10
-26.17723853030043
 20
2.102313428917739
 30
0.0
 11
-26.17709034073276
 21
1.100410350054771
 31
0.0
  0
ARC
  5
4A6E
330
1E
100
AcDbEntity
  8
指線
 48
0.27
100
AcDbCircle
 10
-26.72747354008631
 20
2.650243282629844
 30
0.0
 40
1.644659169866167
100
AcDbArc
 50
109.3888996106208
 51
160.5479173296244
  0
LINE
  5
4A6F
330
1E
100
AcDbEntity
  8
指線
 48
0.27
100
AcDbLine
 10
-27.27346483888481
 20
4.20162888481299
 30
0.0
 11
-27.27331640429289
 21
3.198069207815634
 31
0.0
  0
LINE
  5
4A70
330
1E
100
AcDbEntity
  8
指線
 48
0.27
100
AcDbLine
 10
-27.27315430937114
 20
2.1021512295585
 30
0.0
 11
-29.41182695257334
 21
2.101886987657336
 31
0.0
  0
LINE
  5
4A71
330
1E
100
AcDbEntity
  8
指線
 48
0.27
100
AcDbLine
 10
-27.27331640429289
 20
3.198069207815634
 30
0.0
 11
-29.41198904749509
 21
3.197804965914713
 31
0.0
  0
ARC
  5
4A72
330
1E
100
AcDbEntity
  8
指線
 48
0.27
100
AcDbCircle
 10
-26.72747354008631
 20
2.650243282629844
 30
0.0
 40
1.644659169866167
100
AcDbArc
 50
19.46904051925164
 51
83.22109104167347
  0
LINE
  5
4A73
330
1E
100
AcDbEntity
  8
指線
 48
0.27
100
AcDbLine
 10
-26.17754883002326
 20
4.200238959490576
 30
0.0
 11
-26.17740062522242
 21
3.198231407175113
 31
0.0
  0
LINE
  5
4A74
330
1E
100
AcDbEntity
  8
指線
 48
0.27
100
AcDbLine
 10
-26.17723853030043
 20
2.102313428917739
 30
0.0
 11
-24.04295803267738
 21
2.102681599344946
 31
0.0
  0
LINE
  5
4A75
330
1E
100
AcDbEntity
  8
指線
 48
0.27
100
AcDbLine
 10
-26.17740062522242
 20
3.198231407175113
 30
0.0
 11
-24.04312012759938
 21
3.198599577602323
 31
0.0
  0
ARC
  5
4A83
330
1E
100
AcDbEntity
  8
0
 48
0.27
100
AcDbCircle
 10
-15.66007452156805
 20
19.51680692515362
 30
0.0
 40
2.93
100
AcDbArc
 50
274.1424881063005
 51
355.8575118936963
  0
ARC
  5
4A84
330
1E
100
AcDbEntity
  8
0
 48
0.27
100
AcDbCircle
 10
-15.6600737286526
 20
19.51689314496349
 30
0.0
 40
2.93
100
AcDbArc
 50
274.1420999526608
 51
355.8571237400605
  0
LINE
  5
4A85
330
1E
100
AcDbEntity
  8
0
 48
0.27
100
AcDbLine
 10
-12.13340941184827
 20
4.099869251447643
 30
0.0
 11
-16.93301998636792
 21
-0.700989012049604
 31
0.0
  0
ARC
  5
4A87
330
1E
100
AcDbEntity
  8
0
 48
0.27
100
AcDbCircle
 10
-15.66007452156805
 20
8.48180692515362
 30
0.0
 40
2.93
100
AcDbArc
 50
3.952618783122241
 51
86.04738121491894
  0
ARC
  5
4A88
330
1E
100
AcDbEntity
  8
0
 48
0.27
100
AcDbCircle
 10
-15.66014848591129
 20
8.481893145216702
 30
0.0
 40
2.93
100
AcDbArc
 50
3.952230629485504
 51
86.04699306128022
  0
LINE
  5
4A89
330
1E
100
AcDbEntity
  8
0
 48
0.27
100
AcDbLine
 10
-16.93301998636792
 20
-0.700989012049604
 30
0.0
 11
-16.93301998636792
 21
-4.500667312054416
 31
0.0
  0
LINE
  5
4A8A
330
1E
100
AcDbEntity
  8
0
 48
0.27
100
AcDbLine
 10
-16.93301998636792
 20
-4.500667312054416
 30
0.0
 11
-15.43368729842757
 21
-5.999999999994767
 31
0.0
  0
LINE
  5
4A8B
330
1E
100
AcDbEntity
  8
0
 48
0.27
100
AcDbLine
 10
-15.44841986501416
 20
16.59446158170758
 30
0.0
 11
-16.83307452156796
 21
15.20980692515371
 31
0.0
  0
LINE
  5
4A8C
330
1E
100
AcDbEntity
  8
0
 48
0.27
100
AcDbLine
 10
-16.83307452156799
 20
12.77980692515987
 30
0.0
 11
-15.45810520836969
 21
11.40483761204831
 31
0.0
  0
LINE
  5
4A8D
330
1E
100
AcDbEntity
  8
0
 48
0.27
100
AcDbLine
 10
-16.83311936882964
 20
12.77990109168195
 30
0.0
 11
-15.45815937047368
 21
11.40492246379131
 31
0.0
  0
LINE
  5
4A8E
330
1E
100
AcDbEntity
  8
0
 48
0.27
100
AcDbLine
 10
-16.83307452156799
 20
12.77980692515987
 30
0.0
 11
-16.83307452156796
 21
15.20980692515371
 31
0.0
  0
LINE
  5
4A8F
330
1E
100
AcDbEntity
  8
0
 48
0.27
100
AcDbLine
 10
-16.83311936882964
 20
12.77990109168195
 30
0.0
 11
-16.83310290665128
 21
15.20990109162014
 31
0.0
  0
LINE
  5
4A90
330
1E
100
AcDbEntity
  8
虛線
 48
0.27
100
AcDbLine
 10
4.067211253370514
 20
7.999332687945581
 30
0.0
 11
4.067211253370514
 21
19.5993326879456
 31
0.0
  0
LINE
  5
4A91
330
1E
100
AcDbEntity
  8
虛線
 48
0.27
100
AcDbLine
 10
-9.932788746629485
 20
7.999332687945581
 30
0.0
 11
-9.932788746629485
 21
19.5993326879456
 31
0.0
  0
ARC
  5
4A93
330
1E
100
AcDbEntity
  8
0
 48
0.27
100
AcDbCircle
 10
9.793925478432011
 20
8.48180692515362
 30
0.0
 40
2.93
100
AcDbArc
 50
93.95261878508105
 51
176.0473812168744
  0
ARC
  5
4A94
330
1E
100
AcDbEntity
  8
0
 48
0.27
100
AcDbCircle
 10
9.793851513504675
 20
8.481720705591641
 30
0.0
 40
2.93
100
AcDbArc
 50
93.9522306314411
 51
176.0469930632389
  0
LINE
  5
4A95
330
1E
100
AcDbEntity
  8
虛線
 48
0.27
100
AcDbLine
 10
4.067211253370514
 20
7.999332687945581
 30
0.0
 11
-9.932788746629485
 21
7.999332687945581
 31
0.0
  0
LINE
  5
4A96
330
1E
100
AcDbEntity
  8
0
 48
0.27
100
AcDbLine
 10
4.316980013632075
 20
-5.500667312054416
 30
0.0
 11
0.8169800136320759
 21
-5.500667312054416
 31
0.0
  0
LINE
  5
4A97
330
1E
100
AcDbEntity
  8
虛線
 48
0.27
100
AcDbLine
 10
1.566980013632074
 20
-5.10066731205444
 30
0.0
 11
1.566980013632074
 21
7.699332687945569
 31
0.0
  0
LINE
  5
4A98
330
1E
100
AcDbEntity
  8
虛線
 48
0.27
100
AcDbLine
 10
-7.433019986367924
 20
-5.10066731205444
 30
0.0
 11
-7.433019986367924
 21
7.699332687945569
 31
0.0
  0
LINE
  5
4A99
330
1E
100
AcDbEntity
  8
虛線
 48
0.27
100
AcDbLine
 10
1.566980013632074
 20
-5.10066731205444
 30
0.0
 11
-7.433019986367924
 21
-5.10066731205444
 31
0.0
  0
LINE
  5
4A9B
330
1E
100
AcDbEntity
  8
0
 48
0.27
100
AcDbLine
 10
-10.18301998636792
 20
-5.500667312054416
 30
0.0
 11
-6.683019986367924
 21
-5.500667312054416
 31
0.0
  0
LINE
  5
4A9C
330
1E
100
AcDbEntity
  8
0
 48
0.27
100
AcDbLine
 10
-10.18301998636792
 20
-5.500667312054416
 30
0.0
 11
-10.68235267430827
 21
-5.999999999994769
 31
0.0
  0
LINE
  5
4A9D
330
1E
100
AcDbEntity
  8
虛線
 48
0.27
100
AcDbLine
 10
-7.833019986367901
 20
-5.500667312054416
 30
0.0
 11
-7.433019986367924
 21
-5.10066731205444
 31
0.0
  0
LINE
  5
4A9E
330
1E
100
AcDbEntity
  8
0
 48
0.27
100
AcDbLine
 10
-6.683019986367924
 20
-5.500667312054416
 30
0.0
 11
-6.183687298427568
 21
-5.999999999994769
 31
0.0
  0
LINE
  5
4A9F
330
1E
100
AcDbEntity
  8
虛線
 48
0.27
100
AcDbLine
 10
1.966980013632053
 20
-5.500667312054416
 30
0.0
 11
1.566980013632074
 21
-5.10066731205444
 31
0.0
  0
LINE
  5
4AA0
330
1E
100
AcDbEntity
  8
0
 48
0.27
100
AcDbLine
 10
0.8169800136320759
 20
-5.500667312054416
 30
0.0
 11
0.3176473256917269
 21
-5.999999999994769
 31
0.0
  0
LINE
  5
4AA1
330
1E
100
AcDbEntity
  8
虛線
 48
0.27
100
AcDbLine
 10
1.567211253370514
 20
7.699332687945569
 30
0.0
 11
-7.432788746629482
 21
7.699332687945569
 31
0.0
  0
LINE
  5
4AA2
330
1E
100
AcDbEntity
  8
0
 48
0.27
100
AcDbLine
 10
-12.73704383466648
 20
8.683776238252022
 30
0.0
 11
-12.13307452156806
 21
8.079806925153519
 31
0.0
  0
LINE
  5
4AA3
330
1E
100
AcDbEntity
  8
0
 48
0.27
100
AcDbLine
 10
-12.73711643082379
 20
8.683842656066616
 30
0.0
 11
-12.13315120936497
 21
8.0798692513562
 31
0.0
  0
LINE
  5
4AA4
330
1E
100
AcDbEntity
  8
0
 48
0.27
100
AcDbLine
 10
-12.13307452156806
 20
8.079806925153519
 30
0.0
 11
-12.13307452156809
 21
4.099806925153671
 31
0.0
  0
LINE
  5
4AA5
330
1E
100
AcDbEntity
  8
0
 48
0.27
100
AcDbLine
 10
-12.13315120936497
 20
8.0798692513562
 30
0.0
 11
-12.13317817210983
 21
4.099869251447643
 31
0.0
  0
LINE
  5
4AA6
330
1E
100
AcDbEntity
  8
虛線
 48
0.27
100
AcDbLine
 10
-7.732788746629437
 20
7.999332687945581
 30
0.0
 11
-7.432788746629482
 21
7.699332687945569
 31
0.0
  0
LINE
  5
4AA7
330
1E
100
AcDbEntity
  8
虛線
 48
0.27
100
AcDbLine
 10
1.867211253370468
 20
7.999332687945581
 30
0.0
 11
1.567211253370514
 21
7.699332687945569
 31
0.0
  0
LINE
  5
4AA8
330
1E
100
AcDbEntity
  8
0
 48
0.27
100
AcDbLine
 10
11.06698001363207
 20
-0.700989012049604
 30
0.0
 11
11.06698001363207
 21
-4.500667312054416
 31
0.0
  0
LINE
  5
4AAA
330
1E
100
AcDbEntity
  8
0
 48
0.27
100
AcDbLine
 10
4.316980013632075
 20
-5.500667312054416
 30
0.0
 11
4.816312701572427
 21
-5.999999999994767
 31
0.0
  0
LINE
  5
4AAB
330
1E
100
AcDbEntity
  8
0
 48
0.27
100
AcDbLine
 10
11.06698001363207
 20
-4.500667312054416
 30
0.0
 11
9.567647325691725
 21
-5.999999999994769
 31
0.0
  0
LINE
  5
4AAC
330
1E
100
AcDbEntity
  8
0
 48
0.27
100
AcDbLine
 10
6.266694238693587
 20
4.099806925153615
 30
0.0
 11
11.06708366459605
 21
-0.7009266864578763
 31
0.0
  0
LINE
  5
4AAD
330
1E
100
AcDbEntity
  8
0
 48
0.27
100
AcDbLine
 10
6.870894791530473
 20
8.683776238252049
 30
0.0
 11
6.266925478432026
 21
8.079806925153519
 31
0.0
  0
LINE
  5
4AAE
330
1E
100
AcDbEntity
  8
0
 48
0.27
100
AcDbLine
 10
6.870822194923218
 20
8.683709820929292
 30
0.0
 11
6.266848790212887
 21
8.079744599470387
 31
0.0
  0
LINE
  5
4AAF
330
1E
100
AcDbEntity
  8
0
 48
0.27
100
AcDbLine
 10
6.266925478432026
 20
8.079806925153519
 30
0.0
 11
6.266925478432026
 21
4.099806925153615
 31
0.0
  0
LINE
  5
4AB0
330
1E
100
AcDbEntity
  8
0
 48
0.27
100
AcDbLine
 10
6.266848790212887
 20
8.079744599470387
 30
0.0
 11
6.266821827468048
 21
4.099744599561886
 31
0.0
  0
LINE
  5
4AB1
330
1E
100
AcDbEntity
  8
虛線
 48
0.27
100
AcDbLine
 10
4.067211253370514
 20
19.5993326879456
 30
0.0
 11
-9.932788746629485
 21
19.5993326879456
 31
0.0
  0
LINE
  5
4AB2
330
1E
100
AcDbEntity
  8
0
 48
0.27
100
AcDbLine
 10
-12.14307452156802
 20
19.89980692515365
 30
0.0
 11
6.276925478432074
 21
19.89980692515365
 31
0.0
  0
LINE
  5
4AB3
330
1E
100
AcDbEntity
  8
0
 48
0.27
100
AcDbLine
 10
6.181333172071757
 20
19.89980692515365
 30
0.0
 11
-12.0474788279283
 21
19.89980692515365
 31
0.0
  0
LINE
  5
4AB4
330
1E
100
AcDbEntity
  8
0
 48
0.27
100
AcDbLine
 10
-12.04747882771914
 20
19.89986867123496
 30
0.0
 11
6.181333171862601
 21
19.89974517907234
 31
0.0
  0
LINE
  5
4AB5
330
1E
100
AcDbEntity
  8
0
 48
0.27
100
AcDbLine
 10
6.276928865500138
 20
19.89974453145368
 30
0.0
 11
-12.14307113407727
 21
19.89986931883066
 31
0.0
  0
LINE
  5
4AB6
330
1E
100
AcDbEntity
  8
虛線
 48
0.27
100
AcDbLine
 10
-9.932788746629485
 20
19.5993326879456
 30
0.0
 11
-10.10629568494576
 21
19.89985552057521
 31
0.0
  0
LINE
  5
4AB7
330
1E
100
AcDbEntity
  8
0
 48
0.27
100
AcDbLine
 10
-12.14307452156802
 20
19.89980692515365
 30
0.0
 11
-12.73772917812201
 21
19.30515226859967
 31
0.0
  0
LINE
  5
4AB8
330
1E
100
AcDbEntity
  8
0
 48
0.27
100
AcDbLine
 10
9.582270821878095
 20
16.59446158170758
 30
0.0
 11
10.96692547843193
 21
15.20980692515371
 31
0.0
  0
LINE
  5
4AB9
330
1E
100
AcDbEntity
  8
0
 48
0.27
100
AcDbLine
 10
9.582251816613363
 20
16.5943767958264
 30
0.0
 11
10.96689709271069
 21
15.20971275887962
 31
0.0
  0
LINE
  5
4ABA
330
1E
100
AcDbEntity
  8
0
 48
0.27
100
AcDbLine
 10
10.9669254784319
 20
12.77980692515979
 30
0.0
 11
10.96692547843193
 21
15.20980692515371
 31
0.0
  0
LINE
  5
4ABB
330
1E
100
AcDbEntity
  8
0
 48
0.27
100
AcDbLine
 10
10.96688063053233
 20
12.77971275894151
 30
0.0
 11
10.96689709271069
 21
15.20971275887962
 31
0.0
  0
LINE
  5
4ABC
330
1E
100
AcDbEntity
  8
0
 48
0.27
100
AcDbLine
 10
10.9669254784319
 20
12.77980692515979
 30
0.0
 11
9.591956165233652
 21
11.40483761204831
 31
0.0
  0
LINE
  5
4ABD
330
1E
100
AcDbEntity
  8
0
 48
0.27
100
AcDbLine
 10
10.96688063053233
 20
12.77971275894151
 30
0.0
 11
9.59190200255483
 21
11.40475276067228
 31
0.0
  0
ARC
  5
4ABE
330
1E
100
AcDbEntity
  8
0
 48
0.27
100
AcDbCircle
 10
9.793925478432011
 20
19.51680692515362
 30
0.0
 40
2.93
100
AcDbArc
 50
184.1424881063036
 51
265.8575118936995
  0
ARC
  5
4ABF
330
1E
100
AcDbEntity
  8
0
 48
0.27
100
AcDbCircle
 10
9.793926270763364
 20
19.5167207053384
 30
0.0
 40
2.93
100
AcDbArc
 50
184.1420999526625
 51
265.8571237400604
  0
LINE
  5
4AC0
330
1E
100
AcDbEntity
  8
虛線
 48
0.27
100
AcDbLine
 10
4.240662076524583
 20
19.89975832626322
 30
0.0
 11
4.067211253370514
 21
19.5993326879456
 31
0.0
  0
LINE
  5
4AC1
330
1E
100
AcDbEntity
  8
0
 48
0.27
100
AcDbLine
 10
6.276925478432074
 20
19.89980692515365
 30
0.0
 11
6.871580134985974
 21
19.30515226859967
 31
0.0
  0
LINE
  5
4AC2
330
1E
100
AcDbEntity
  8
0
 48
0.27
100
AcDbLine
 10
6.276928865500138
 20
19.89974453145368
 30
0.0
 11
6.871579493517399
 21
19.30508584639028
 31
0.0
  0
LINE
  5
4BB0
330
1E
100
AcDbEntity
  8
0
 48
0.27
100
AcDbLine
 10
252.3033634017257
 20
20.00000000000521
 30
0.0
 11
220.7816854228214
 21
20.00000000000521
 31
0.0
  0
LINE
  5
4BB1
330
1E
100
AcDbEntity
  8
0
 48
0.27
100
AcDbLine
 10
252.3033634017258
 20
-5.999999999994789
 30
0.0
 11
52.30336340172579
 21
-5.999999999994789
 31
0.0
  0
LINE
  5
4BB2
330
1E
100
AcDbEntity
  8
0
 48
0.27
100
AcDbLine
 10
65.30336340172579
 20
19.10000000000535
 30
0.0
 11
64.78374815945534
 21
20.00000000000521
 31
0.0
  0
LINE
  5
4BB3
330
1E
100
AcDbEntity
  8
0
 48
0.27
100
AcDbLine
 10
52.30336340172579
 20
-5.999999999994789
 30
0.0
 11
52.30336340172579
 21
20.00000000000521
 31
0.0
  0
LINE
  5
4BC0
330
1E
100
AcDbEntity
  8
虛線
 48
0.27
100
AcDbLine
 10
239.3033634017258
 20
19.10000000000535
 30
0.0
 11
225.3033634017258
 21
19.10000000000535
 31
0.0
  0
LINE
  5
4BC1
330
1E
100
AcDbEntity
  8
虛線
 48
0.27
100
AcDbLine
 10
236.8033634017258
 20
-5.599999999994726
 30
0.0
 11
227.8033634017258
 21
-5.599999999994726
 31
0.0
  0
LINE
  5
4BC2
330
1E
100
AcDbEntity
  8
虛線
 48
0.27
100
AcDbLine
 10
236.8033634017258
 20
7.200000000005284
 30
0.0
 11
227.8033634017258
 21
7.200000000005284
 31
0.0
  0
LINE
  5
4BC3
330
1E
100
AcDbEntity
  8
虛線
 48
0.27
100
AcDbLine
 10
239.3033634017258
 20
7.500000000005296
 30
0.0
 11
225.3033634017258
 21
7.500000000005296
 31
0.0
  0
LINE
  5
4BC4
330
1E
100
AcDbEntity
  8
0
 48
0.27
100
AcDbLine
 10
252.3033634017258
 20
-4.499999999994789
 30
0.0
 11
90.76965151728382
 21
-4.499999999994789
 31
0.0
  0
LINE
  5
4BC5
330
1E
100
AcDbEntity
  8
0
 48
0.27
100
AcDbLine
 10
252.3033634017258
 20
-0.7003216999900035
 30
0.0
 11
89.72835741268154
 21
-0.7003216999900035
 31
0.0
  0
LINE
  5
4BC6
330
1E
100
AcDbEntity
  8
0
 48
0.27
100
AcDbLine
 10
252.3033634017258
 20
3.999678200005216
 30
0.0
 11
220.7816854228213
 21
3.999678200005216
 31
0.0
  0
LINE
  5
4BC7
330
1E
100
AcDbEntity
  8
0
 48
0.27
100
AcDbLine
 10
252.3033634017258
 20
8.179743035264872
 30
0.0
 11
220.7816854228213
 21
8.179743035264872
 31
0.0
  0
LINE
  5
4BC8
330
1E
100
AcDbEntity
  8
0
 48
0.27
100
AcDbLine
 10
252.3033634017258
 20
8.793627225058781
 30
0.0
 11
220.7816854228213
 21
8.793627225058781
 31
0.0
  0
LINE
  5
4BC9
330
1E
100
AcDbEntity
  8
0
 48
0.27
100
AcDbLine
 10
252.3033634017257
 20
11.29519764579353
 30
0.0
 11
220.7816854228213
 21
11.29519764579353
 31
0.0
  0
LINE
  5
4BCA
330
1E
100
AcDbEntity
  8
0
 48
0.27
100
AcDbLine
 10
252.3033634017257
 20
12.8797406606737
 30
0.0
 11
220.7816854228213
 21
12.8797406606737
 31
0.0
  0
LINE
  5
4BCB
330
1E
100
AcDbEntity
  8
0
 48
0.27
100
AcDbLine
 10
252.3033634017257
 20
15.11440931332965
 30
0.0
 11
220.7816854228213
 21
15.11440931332965
 31
0.0
  0
LINE
  5
4BCC
330
1E
100
AcDbEntity
  8
0
 48
0.27
100
AcDbLine
 10
252.3033634017257
 20
16.70526282356792
 30
0.0
 11
220.7816854228214
 21
16.70526282356792
 31
0.0
  0
LINE
  5
4BCD
330
1E
100
AcDbEntity
  8
0
 48
0.27
100
AcDbLine
 10
252.3033634017257
 20
19.19981618046277
 30
0.0
 11
220.7816854228214
 21
19.19981618046277
 31
0.0
  0
LINE
  5
4BCE
330
1E
100
AcDbEntity
  8
中心線
 48
0.27
100
AcDbLine
 10
72.30336340172581
 20
-8.599999999994667
 30
0.0
 11
72.30336340172581
 21
21.00000000000532
 31
0.0
  0
LINE
  5
4BCF
330
1E
100
AcDbEntity
  8
建構線
 48
0.27
100
AcDbLine
 10
89.67076792708855
 20
10.11645753038679
 30
0.0
 11
90.45725447526143
 21
7.379743035265003
 31
0.0
  0
LINE
  5
4BD0
330
1E
100
AcDbEntity
  8
0
 48
0.27
100
AcDbLine
 10
65.30336340172579
 20
7.500000000005296
 30
0.0
 11
65.30336340172579
 21
19.10000000000535
 31
0.0
  0
LINE
  5
4BD1
330
1E
100
AcDbEntity
  8
0
 48
0.27
100
AcDbLine
 10
79.3033634017258
 20
7.500000000005296
 30
0.0
 11
79.3033634017258
 21
19.10000000000535
 31
0.0
  0
LINE
  5
4BD2
330
1E
100
AcDbEntity
  8
中心線
 48
0.27
100
AcDbLine
 10
72.30336340172581
 20
-8.599999999994667
 30
0.0
 11
72.30336340172581
 21
21.00000000000532
 31
0.0
  0
LINE
  5
4BD3
330
1E
100
AcDbEntity
  8
0
 48
0.27
100
AcDbLine
 10
67.80336340172579
 20
-5.599999999994726
 30
0.0
 11
67.80336340172579
 21
7.200000000005284
 31
0.0
  0
LINE
  5
4BD4
330
1E
100
AcDbEntity
  8
0
 48
0.27
100
AcDbLine
 10
76.8033634017258
 20
-5.599999999994726
 30
0.0
 11
76.8033634017258
 21
7.200000000005284
 31
0.0
  0
LINE
  5
4BD5
330
1E
100
AcDbEntity
  8
0
 48
0.27
100
AcDbLine
 10
76.8033634017258
 20
-5.599999999994726
 30
0.0
 11
67.80336340172579
 21
-5.599999999994726
 31
0.0
  0
LINE
  5
4BD6
330
1E
100
AcDbEntity
  8
0
 48
0.27
100
AcDbLine
 10
67.40336340172581
 20
-5.999999999994702
 30
0.0
 11
67.80336340172579
 21
-5.599999999994726
 31
0.0
  0
LINE
  5
4BD7
330
1E
100
AcDbEntity
  8
0
 48
0.27
100
AcDbLine
 10
77.20336340172576
 20
-5.999999999994702
 30
0.0
 11
76.8033634017258
 21
-5.599999999994726
 31
0.0
  0
LINE
  5
4BD8
330
1E
100
AcDbEntity
  8
0
 48
0.27
100
AcDbLine
 10
76.8033634017258
 20
7.200000000005284
 30
0.0
 11
67.80336340172579
 21
7.200000000005284
 31
0.0
  0
LINE
  5
4BD9
330
1E
100
AcDbEntity
  8
0
 48
0.27
100
AcDbLine
 10
79.3033634017258
 20
7.500000000005296
 30
0.0
 11
65.30336340172579
 21
7.500000000005296
 31
0.0
  0
LINE
  5
4BDA
330
1E
100
AcDbEntity
  8
0
 48
0.27
100
AcDbLine
 10
67.50336340172585
 20
7.500000000005296
 30
0.0
 11
67.80336340172579
 21
7.200000000005284
 31
0.0
  0
LINE
  5
4BDB
330
1E
100
AcDbEntity
  8
0
 48
0.27
100
AcDbLine
 10
77.10336340172573
 20
7.500000000005296
 30
0.0
 11
76.8033634017258
 21
7.200000000005284
 31
0.0
  0
LINE
  5
4BDC
330
1E
100
AcDbEntity
  8
建構線
 48
0.27
100
AcDbLine
 10
88.65957037778713
 20
3.199678200005346
 30
0.0
 11
90.90667549962999
 21
-4.999999999994702
 31
0.0
  0
LINE
  5
4BDD
330
1E
100
AcDbEntity
  8
建構線
 48
0.27
100
AcDbLine
 10
90.90667549962999
 20
-4.999999999994731
 30
0.0
 11
89.89547795032853
 21
-5.99999999999479
 31
0.0
  0
LINE
  5
4BDE
330
1E
100
AcDbEntity
  8
建構線
 48
0.27
100
AcDbLine
 10
90.45725447526143
 20
7.379743035265003
 30
0.0
 11
88.65957037778713
 21
3.199678200005346
 31
0.0
  0
LINE
  5
4BDF
330
1E
100
AcDbEntity
  8
0
 48
0.27
100
AcDbLine
 10
79.3033634017258
 20
19.10000000000535
 30
0.0
 11
65.30336340172579
 21
19.10000000000535
 31
0.0
  0
LINE
  5
4BE0
330
1E
100
AcDbEntity
  8
0
 48
0.27
100
AcDbLine
 10
79.82297864399623
 20
20.00000000000521
 30
0.0
 11
79.3033634017258
 21
19.10000000000535
 31
0.0
  0
LINE
  5
4BE1
330
1E
100
AcDbEntity
  8
建構線
 48
0.27
100
AcDbLine
 10
90.38811788307436
 20
20.00000000000521
 30
0.0
 11
90.00783345089287
 21
18.01954533482623
 31
0.0
  0
LINE
  5
4BE2
330
1E
100
AcDbEntity
  8
建構線
 48
0.27
100
AcDbLine
 10
90.79431999906551
 20
12.37974002272069
 30
0.0
 11
89.67076792708855
 21
10.11645753038679
 31
0.0
  0
LINE
  5
4BE3
330
1E
100
AcDbEntity
  8
建構線
 48
0.27
100
AcDbLine
 10
91.58080752512713
 20
16.28553399966945
 30
0.0
 11
89.97501184396156
 21
14.01440994410411
 31
0.0
  0
LINE
  5
4BE4
330
1E
100
AcDbEntity
  8
建構線
 48
0.27
100
AcDbLine
 10
89.97501184396156
 20
14.01440994410411
 30
0.0
 11
90.79431999906551
 21
12.37974002272069
 31
0.0
  0
LINE
  5
4BE5
330
1E
100
AcDbEntity
  8
建構線
 48
0.27
100
AcDbLine
 10
90.00783345089287
 20
18.01954533482623
 30
0.0
 11
91.58080752512713
 21
16.28553399966945
 31
0.0
  0
LINE
  5
4BE8
330
1E
100
AcDbEntity
  8
中心線
 48
0.27
100
AcDbLine
 10
152.3033634017258
 20
-8.599999999994667
 30
0.0
 11
152.3033634017258
 21
1.174989765251988
 31
0.0
  0
LINE
  5
4BEA
330
1E
100
AcDbEntity
  8
虛線
 48
0.27
100
AcDbLine
 10
147.8033634017258
 20
-5.599999999994726
 30
0.0
 11
147.8033634017258
 21
0.0004742372127025
 31
0.0
  0
LINE
  5
4BEB
330
1E
100
AcDbEntity
  8
虛線
 48
0.27
100
AcDbLine
 10
156.8033634017258
 20
-5.599999999994726
 30
0.0
 11
156.8033634017258
 21
0.0004742372126492
 31
0.0
  0
LINE
  5
4BEC
330
1E
100
AcDbEntity
  8
虛線
 48
0.27
100
AcDbLine
 10
156.8033634017258
 20
-5.599999999994726
 30
0.0
 11
147.8033634017258
 21
-5.599999999994726
 31
0.0
  0
LINE
  5
4BED
330
1E
100
AcDbEntity
  8
虛線
 48
0.27
100
AcDbLine
 10
147.4033634017258
 20
-5.999999999994702
 30
0.0
 11
147.8033634017258
 21
-5.599999999994726
 31
0.0
  0
LINE
  5
4BEE
330
1E
100
AcDbEntity
  8
虛線
 48
0.27
100
AcDbLine
 10
157.2033634017257
 20
-5.999999999994702
 30
0.0
 11
156.8033634017258
 21
-5.599999999994726
 31
0.0
  0
LINE
  5
4BF5
330
1E
100
AcDbEntity
  8
虛線
 48
0.27
100
AcDbLine
 10
225.3033634017258
 20
7.500000000005296
 30
0.0
 11
225.3033634017258
 21
19.10000000000535
 31
0.0
  0
LINE
  5
4BF9
330
1E
100
AcDbEntity
  8
虛線
 48
0.27
100
AcDbLine
 10
227.8033634017258
 20
-5.599999999994726
 30
0.0
 11
227.8033634017258
 21
7.200000000005284
 31
0.0
  0
LINE
  5
4BFA
330
1E
100
AcDbEntity
  8
虛線
 48
0.27
100
AcDbLine
 10
227.4033634017258
 20
-5.999999999994702
 30
0.0
 11
227.8033634017258
 21
-5.599999999994726
 31
0.0
  0
LINE
  5
4BFB
330
1E
100
AcDbEntity
  8
虛線
 48
0.27
100
AcDbLine
 10
227.5033634017258
 20
7.500000000005296
 30
0.0
 11
227.8033634017258
 21
7.200000000005284
 31
0.0
  0
LINE
  5
4BFC
330
1E
100
AcDbEntity
  8
虛線
 48
0.27
100
AcDbLine
 10
225.3033634017258
 20
19.10000000000535
 30
0.0
 11
225.07242329405
 21
19.50000000000532
 31
0.0
  0
LINE
  5
4BFD
330
1E
100
AcDbEntity
  8
虛線
 48
0.27
100
AcDbLine
 10
239.3033634017258
 20
7.500000000005296
 30
0.0
 11
239.3033634017258
 21
19.10000000000535
 31
0.0
  0
LINE
  5
4BFE
330
1E
100
AcDbEntity
  8
0
 48
0.27
100
AcDbLine
 10
252.3033634017258
 20
-5.999999999994732
 30
0.0
 11
252.3033634017257
 21
20.00000000000521
 31
0.0
  0
LINE
  5
4BFF
330
1E
100
AcDbEntity
  8
虛線
 48
0.27
100
AcDbLine
 10
236.8033634017258
 20
-5.599999999994726
 30
0.0
 11
236.8033634017258
 21
7.200000000005284
 31
0.0
  0
LINE
  5
4C00
330
1E
100
AcDbEntity
  8
虛線
 48
0.27
100
AcDbLine
 10
237.2033634017258
 20
-5.999999999994702
 30
0.0
 11
236.8033634017258
 21
-5.599999999994726
 31
0.0
  0
LINE
  5
4C01
330
1E
100
AcDbEntity
  8
虛線
 48
0.27
100
AcDbLine
 10
237.1033634017257
 20
7.500000000005296
 30
0.0
 11
236.8033634017258
 21
7.200000000005284
 31
0.0
  0
LINE
  5
4C02
330
1E
100
AcDbEntity
  8
虛線
 48
0.27
100
AcDbLine
 10
239.5343035094016
 20
19.50000000000532
 30
0.0
 11
239.3033634017258
 21
19.10000000000535
 31
0.0
  0
LINE
  5
4C03
330
1E
100
AcDbEntity
  8
中心線
 48
0.27
100
AcDbLine
 10
232.3033634017258
 20
-8.599999999994667
 30
0.0
 11
232.3033634017258
 21
21.00000000000532
 31
0.0
  0
LINE
  5
4C04
330
1E
100
AcDbEntity
  8
0
 48
0.27
100
AcDbLine
 10
100.381685422821
 20
19.19981618046277
 30
0.0
 11
90.23446758508686
 21
19.19981618046277
 31
0.0
  0
LINE
  5
4C05
330
1E
100
AcDbEntity
  8
0
 48
0.27
100
AcDbLine
 10
100.381685422821
 20
20.00000000000521
 30
0.0
 11
52.30336340172579
 21
20.00000000000521
 31
0.0
  0
LINE
  5
4C06
330
1E
100
AcDbEntity
  8
0
 48
0.27
100
AcDbLine
 10
100.381685422821
 20
16.70526282356792
 30
0.0
 11
91.20005882711387
 21
16.70526282356792
 31
0.0
  0
LINE
  5
4C07
330
1E
100
AcDbEntity
  8
0
 48
0.27
100
AcDbLine
 10
100.381685422821
 20
15.11440931332965
 30
0.0
 11
90.75276514724709
 21
15.11440931332965
 31
0.0
  0
LINE
  5
4C08
330
1E
100
AcDbEntity
  8
0
 48
0.27
100
AcDbLine
 10
100.3816854228211
 20
12.8797406606737
 30
0.0
 11
90.54371613410586
 21
12.8797406606737
 31
0.0
  0
LINE
  5
4C09
330
1E
100
AcDbEntity
  8
0
 48
0.27
100
AcDbLine
 10
100.3816854228211
 20
11.29519764579353
 30
0.0
 11
90.25592506212291
 21
11.29519764579353
 31
0.0
  0
LINE
  5
4C0A
330
1E
100
AcDbEntity
  8
0
 48
0.27
100
AcDbLine
 10
100.3816854228211
 20
8.793627225058781
 30
0.0
 11
90.05092750986944
 21
8.793627225058781
 31
0.0
  0
LINE
  5
4C0B
330
1E
100
AcDbEntity
  8
0
 48
0.27
100
AcDbLine
 10
100.3816854228211
 20
8.179743035264872
 30
0.0
 11
90.22734768752023
 21
8.179743035264872
 31
0.0
  0
LINE
  5
4C0C
330
1E
100
AcDbEntity
  8
0
 48
0.27
100
AcDbLine
 10
100.3816854228211
 20
3.999678200005216
 30
0.0
 11
89.00361941402413
 21
3.999678200005216
 31
0.0
  0
LINE
  5
4C0D
330
1E
100
AcDbEntity
  8
0
100
AcDbLine
 10
220.7816854228214
 20
21.27373870972783
 30
0.0
 11
220.7816854228213
 21
0.0000000000005045
 31
0.0
  0
LINE
  5
4C0E
330
1E
100
AcDbEntity
  8
0
100
AcDbLine
 10
219.2816854228214
 20
22.13976411351225
 30
0.0
 11
219.2816854228213
 21
0.0000000000005045
 31
0.0
  0
LINE
  5
4C0F
330
1E
100
AcDbEntity
  8
0
100
AcDbLine
 10
220.7816854228212
 20
21.27373870972794
 30
0.0
 11
220.7816854228212
 21
0.0000000000006466
 31
0.0
  0
LINE
  5
4C10
330
1E
100
AcDbEntity
  8
0
100
AcDbLine
 10
219.2816854228212
 20
22.13976411351236
 30
0.0
 11
219.2816854228212
 21
0.0000000000006466
 31
0.0
  0
LINE
  5
4C11
330
1E
100
AcDbEntity
  8
中心線
100
AcDbLine
 10
221.0655352191925
 20
2.650000000000993
 30
0.0
 11
215.3138982448116
 21
2.650000000000993
 31
0.0
  0
LINE
  5
4C12
330
1E
100
AcDbEntity
  8
中心線
100
AcDbLine
 10
221.0655352191925
 20
2.650000000000993
 30
0.0
 11
215.3138982448116
 21
2.650000000000993
 31
0.0
  0
LINE
  5
4C13
330
1E
100
AcDbEntity
  8
0
100
AcDbLine
 10
220.1660132821797
 20
3.650000000000992
 30
0.0
 11
220.1660132821797
 21
1.650000000000993
 31
0.0
  0
LINE
  5
4C14
330
1E
100
AcDbEntity
  8
0
100
AcDbLine
 10
220.1660132821797
 20
3.650000000000992
 30
0.0
 11
220.1660132821797
 21
1.650000000000993
 31
0.0
  0
ARC
  5
4C15
330
1E
100
AcDbEntity
  8
0
100
AcDbCircle
 10
218.9461616033272
 20
1.669751638018104
 30
0.0
 40
1.220011576012179
100
AcDbArc
 50
285.9630221688287
 51
359.0723572120024
  0
ARC
  5
4C16
330
1E
100
AcDbEntity
  8
0
100
AcDbCircle
 10
218.9461616033272
 20
1.669751638018104
 30
0.0
 40
1.220011576012179
100
AcDbArc
 50
285.9630221688287
 51
359.0723572120024
  0
LINE
  5
4C17
330
1E
100
AcDbEntity
  8
0
100
AcDbLine
 10
217.5816854228212
 20
0.0000000000005045
 30
0.0
 11
220.7816854228213
 21
0.0000000000005045
 31
0.0
  0
LINE
  5
4C18
330
1E
100
AcDbEntity
  8
0
100
AcDbLine
 10
217.5816854228212
 20
0.0000000000006466
 30
0.0
 11
220.7816854228212
 21
0.0000000000006466
 31
0.0
  0
ARC
  5
4C19
330
1E
100
AcDbEntity
  8
0
100
AcDbCircle
 10
218.9461616033272
 20
3.630248361983881
 30
0.0
 40
1.220011576012179
100
AcDbArc
 50
0.9276427879976095
 51
74.03697783117127
  0
ARC
  5
4C1A
330
1E
100
AcDbEntity
  8
0
100
AcDbCircle
 10
218.9461616033272
 20
3.630248361983881
 30
0.0
 40
1.220011576012179
100
AcDbArc
 50
0.9276427879976095
 51
74.03697783117127
  0
LINE
  5
4C1B
330
1E
100
AcDbEntity
  8
0
100
AcDbLine
 10
219.2816854228214
 20
35.00000000000048
 30
0.0
 11
219.2816854228214
 21
22.13976411351225
 31
0.0
  0
LINE
  5
4C1C
330
1E
100
AcDbEntity
  8
0
100
AcDbLine
 10
219.2816854228212
 20
35.00000000000059
 30
0.0
 11
219.2816854228212
 21
22.13976411351236
 31
0.0
  0
LINE
  5
4C1F
330
1E
100
AcDbEntity
  8
0
100
AcDbLine
 10
219.2816854228214
 20
22.13976411351225
 30
0.0
 11
220.7816854228214
 21
21.27373870972783
 31
0.0
  0
LINE
  5
4C20
330
1E
100
AcDbEntity
  8
0
100
AcDbLine
 10
219.2816854228212
 20
22.13976411351236
 30
0.0
 11
220.7816854228212
 21
21.27373870972794
 31
0.0
  0
LINE
  5
4C29
330
1E
100
AcDbEntity
  8
0
100
AcDbLine
 10
217.5816854228214
 20
35.00000000000048
 30
0.0
 11
219.2816854228214
 21
35.00000000000048
 31
0.0
  0
LINE
  5
4C2A
330
1E
100
AcDbEntity
  8
0
100
AcDbLine
 10
217.5816854228212
 20
35.00000000000059
 30
0.0
 11
219.2816854228212
 21
35.00000000000059
 31
0.0
  0
LINE
  5
4C2B
330
1E
100
AcDbEntity
  8
0
100
AcDbLine
 10
100.381685422821
 20
21.27373870972784
 30
0.0
 11
100.3816854228211
 21
0.0000000000005116
 31
0.0
  0
LINE
  5
4C2C
330
1E
100
AcDbEntity
  8
0
100
AcDbLine
 10
101.881685422821
 20
22.13976411351227
 30
0.0
 11
101.8816854228211
 21
0.0000000000005116
 31
0.0
  0
LINE
  5
4C2D
330
1E
100
AcDbEntity
  8
0
100
AcDbLine
 10
100.3816854228212
 20
21.27373870972795
 30
0.0
 11
100.3816854228212
 21
0.0000000000006537
 31
0.0
  0
LINE
  5
4C2E
330
1E
100
AcDbEntity
  8
0
100
AcDbLine
 10
101.8816854228212
 20
22.13976411351238
 30
0.0
 11
101.8816854228212
 21
0.0000000000006537
 31
0.0
  0
LINE
  5
4C2F
330
1E
100
AcDbEntity
  8
中心線
100
AcDbLine
 10
100.0978356264498
 20
2.650000000001
 30
0.0
 11
105.8494726008308
 21
2.650000000001
 31
0.0
  0
LINE
  5
4C30
330
1E
100
AcDbEntity
  8
中心線
100
AcDbLine
 10
100.0978356264498
 20
2.650000000001
 30
0.0
 11
105.8494726008308
 21
2.650000000001
 31
0.0
  0
LINE
  5
4C31
330
1E
100
AcDbEntity
  8
0
100
AcDbLine
 10
100.9973575634627
 20
3.650000000001
 30
0.0
 11
100.9973575634627
 21
1.650000000000999
 31
0.0
  0
LINE
  5
4C32
330
1E
100
AcDbEntity
  8
0
100
AcDbLine
 10
100.9973575634627
 20
3.650000000001
 30
0.0
 11
100.9973575634627
 21
1.650000000000999
 31
0.0
  0
ARC
  5
4C33
330
1E
100
AcDbEntity
  8
0
100
AcDbCircle
 10
102.2172092423152
 20
1.669751638018111
 30
0.0
 40
1.220011576012179
100
AcDbArc
 50
180.9276427879976
 51
254.0369778311712
  0
ARC
  5
4C34
330
1E
100
AcDbEntity
  8
0
100
AcDbCircle
 10
102.2172092423152
 20
1.669751638018111
 30
0.0
 40
1.220011576012179
100
AcDbArc
 50
180.9276427879976
 51
254.0369778311712
  0
LINE
  5
4C35
330
1E
100
AcDbEntity
  8
0
100
AcDbLine
 10
103.5816854228212
 20
0.0000000000005116
 30
0.0
 11
100.3816854228211
 21
0.0000000000005116
 31
0.0
  0
LINE
  5
4C36
330
1E
100
AcDbEntity
  8
0
100
AcDbLine
 10
103.5816854228212
 20
0.0000000000006537
 30
0.0
 11
100.3816854228212
 21
0.0000000000006537
 31
0.0
  0
ARC
  5
4C37
330
1E
100
AcDbEntity
  8
0
100
AcDbCircle
 10
102.2172092423152
 20
3.630248361983888
 30
0.0
 40
1.220011576012179
100
AcDbArc
 50
105.9630221688287
 51
179.0723572120024
  0
ARC
  5
4C38
330
1E
100
AcDbEntity
  8
0
100
AcDbCircle
 10
102.2172092423152
 20
3.630248361983888
 30
0.0
 40
1.220011576012179
100
AcDbArc
 50
105.9630221688287
 51
179.0723572120024
  0
LINE
  5
4C39
330
1E
100
AcDbEntity
  8
0
100
AcDbLine
 10
101.881685422821
 20
35.00000000000048
 30
0.0
 11
101.881685422821
 21
22.13976411351227
 31
0.0
  0
LINE
  5
4C3A
330
1E
100
AcDbEntity
  8
0
100
AcDbLine
 10
101.8816854228212
 20
35.0000000000006
 30
0.0
 11
101.8816854228212
 21
22.13976411351238
 31
0.0
  0
LINE
  5
4C3D
330
1E
100
AcDbEntity
  8
0
100
AcDbLine
 10
101.881685422821
 20
22.13976411351227
 30
0.0
 11
100.381685422821
 21
21.27373870972784
 31
0.0
  0
LINE
  5
4C3E
330
1E
100
AcDbEntity
  8
0
100
AcDbLine
 10
101.8816854228212
 20
22.13976411351238
 30
0.0
 11
100.3816854228212
 21
21.27373870972795
 31
0.0
  0
LINE
  5
4C47
330
1E
100
AcDbEntity
  8
0
100
AcDbLine
 10
103.581685422821
 20
35.00000000000048
 30
0.0
 11
101.881685422821
 21
35.00000000000048
 31
0.0
  0
LINE
  5
4C48
330
1E
100
AcDbEntity
  8
0
100
AcDbLine
 10
103.5816854228212
 20
35.0000000000006
 30
0.0
 11
101.8816854228212
 21
35.0000000000006
 31
0.0
  0
LINE
  5
4C49
330
1E
100
AcDbEntity
  8
0
 48
0.27
100
AcDbLine
 10
114.0816854228212
 20
34.50000000000074
 30
0.0
 11
207.0816854228213
 21
34.50000000000074
 31
0.0
  0
LINE
  5
4C4A
330
1E
100
AcDbEntity
  8
0
 48
0.27
100
AcDbLine
 10
114.0816854228212
 20
36.00000000000064
 30
0.0
 11
207.0816854228213
 21
36.00000000000064
 31
0.0
  0
LINE
  5
4C4B
330
1E
100
AcDbEntity
  8
0
 48
0.27
100
AcDbLine
 10
207.0816854228212
 20
-0.000000000000199
 30
0.0
 11
114.0816854228212
 21
0.0000000000002274
 31
0.0
  0
LINE
  5
4C4C
330
1E
100
AcDbEntity
  8
0
 48
0.27
100
AcDbLine
 10
114.0816854228211
 20
2.500000000000595
 30
0.0
 11
207.0816854228212
 21
2.500000000000595
 31
0.0
  0
LINE
  5
4C4D
330
1E
100
AcDbEntity
  8
0
 48
0.27
100
AcDbLine
 10
207.0816854228213
 20
2.500000000000595
 30
0.0
 11
114.0816854228212
 21
2.500000000000595
 31
0.0
  0
LINE
  5
4C4E
330
1E
100
AcDbEntity
  8
0
 48
0.27
100
AcDbLine
 10
114.0816854228212
 20
-0.000000000000199
 30
0.0
 11
207.0816854228212
 21
0.0000000000002274
 31
0.0
  0
LINE
  5
4C4F
330
1E
100
AcDbEntity
  8
0
 48
0.27
100
AcDbLine
 10
207.0816854228212
 20
36.00000000000064
 30
0.0
 11
114.0816854228211
 21
36.00000000000064
 31
0.0
  0
LINE
  5
4C50
330
1E
100
AcDbEntity
  8
0
 48
0.27
100
AcDbLine
 10
114.0816854228212
 20
36.00000000000064
 30
0.0
 11
114.0816854228212
 21
0.0000000000002274
 31
0.0
  0
LINE
  5
4C51
330
1E
100
AcDbEntity
  8
0
 48
0.27
100
AcDbLine
 10
114.0816854228212
 20
0.0000000000002274
 30
0.0
 11
114.0816854228212
 21
35.00000000000023
 31
0.0
  0
LINE
  5
4C52
330
1E
100
AcDbEntity
  8
0
 48
0.27
100
AcDbLine
 10
114.0816854228212
 20
-0.000000000000199
 30
0.0
 11
114.0816854228212
 21
34.99999999999983
 31
0.0
  0
LINE
  5
4C53
330
1E
100
AcDbEntity
  8
0
 48
0.27
100
AcDbLine
 10
114.0816854228211
 20
36.00000000000064
 30
0.0
 11
114.0816854228211
 21
-0.000000000000199
 31
0.0
  0
LINE
  5
4C54
330
1E
100
AcDbEntity
  8
0
 48
0.27
100
AcDbLine
 10
103.5816854228212
 20
0.0000000000002274
 30
0.0
 11
103.5816854228212
 21
35.00000000000023
 31
0.0
  0
LINE
  5
4C55
330
1E
100
AcDbEntity
  8
0
 48
0.27
100
AcDbLine
 10
103.5816854228212
 20
35.00000000000017
 30
0.0
 11
103.5816854228212
 21
0.0000000000002274
 31
0.0
  0
LINE
  5
4C56
330
1E
100
AcDbEntity
  8
0
 48
0.27
100
AcDbLine
 10
103.5816854228212
 20
34.99999999999983
 30
0.0
 11
103.5816854228212
 21
-0.000000000000199
 31
0.0
  0
LINE
  5
4C57
330
1E
100
AcDbEntity
  8
0
 48
0.27
100
AcDbLine
 10
103.5816854228212
 20
2.000000000000226
 30
0.0
 11
114.0816854228212
 21
2.000000000000226
 31
0.0
  0
LINE
  5
4C58
330
1E
100
AcDbEntity
  8
0
 48
0.27
100
AcDbLine
 10
103.5816854228212
 20
0.0000000000002274
 30
0.0
 11
114.0816854228212
 21
0.0000000000002274
 31
0.0
  0
LINE
  5
4C59
330
1E
100
AcDbEntity
  8
0
 48
0.27
100
AcDbLine
 10
103.5816854228212
 20
-0.000000000000199
 30
0.0
 11
114.0816854228212
 21
-0.000000000000199
 31
0.0
  0
LINE
  5
4C5A
330
1E
100
AcDbEntity
  8
0
 48
0.27
100
AcDbLine
 10
103.5816854228212
 20
1.9999999999998
 30
0.0
 11
114.0816854228212
 21
1.9999999999998
 31
0.0
  0
LINE
  5
4C5B
330
1E
100
AcDbEntity
  8
虛線
 48
0.27
100
AcDbLine
 10
125.7789076450436
 20
36.00000000000064
 30
0.0
 11
126.5816854228213
 21
35.1500000000006
 31
0.0
  0
LINE
  5
4C5C
330
1E
100
AcDbEntity
  8
虛線
 48
0.27
100
AcDbLine
 10
125.7789076450434
 20
36.00000000000051
 30
0.0
 11
126.5816854228211
 21
35.15000000000049
 31
0.0
  0
LINE
  5
4C5D
330
1E
100
AcDbEntity
  8
中心線
 48
0.27
100
AcDbLine
 10
103.2402481912778
 20
25.19999999999982
 30
0.0
 11
112.9231226543649
 21
25.19999999999982
 31
0.0
  0
LINE
  5
4C5E
330
1E
100
AcDbEntity
  8
中心線
 48
0.27
100
AcDbLine
 10
103.2402481912777
 20
25.19999999999982
 30
0.0
 11
112.9231226543647
 21
25.19999999999982
 31
0.0
  0
CIRCLE
  5
4C5F
330
1E
100
AcDbEntity
  8
0
 48
0.27
100
AcDbCircle
 10
108.0816854228212
 20
25.20000000000022
 30
0.0
 40
0.7185553324000002
  0
CIRCLE
  5
4C60
330
1E
100
AcDbEntity
  8
0
 48
0.27
100
AcDbCircle
 10
108.0816854228212
 20
25.19999999999982
 30
0.0
 40
0.7185553324000002
  0
CIRCLE
  5
4C61
330
1E
100
AcDbEntity
  8
0
 48
0.27
100
AcDbCircle
 10
108.0816854228212
 20
25.20000000000022
 30
0.0
 40
2.185553324299998
  0
CIRCLE
  5
4C62
330
1E
100
AcDbEntity
  8
0
 48
0.27
100
AcDbCircle
 10
108.0816854228212
 20
25.19999999999982
 30
0.0
 40
2.185553324299998
  0
CIRCLE
  5
4C63
330
1E
100
AcDbEntity
  8
0
 48
0.27
100
AcDbCircle
 10
108.0816854228212
 20
25.20000000000022
 30
0.0
 40
2.75
  0
CIRCLE
  5
4C64
330
1E
100
AcDbEntity
  8
0
 48
0.27
100
AcDbCircle
 10
108.0816854228212
 20
25.20000000000022
 30
0.0
 40
2.486916010899999
  0
CIRCLE
  5
4C65
330
1E
100
AcDbEntity
  8
0
 48
0.27
100
AcDbCircle
 10
108.0816854228212
 20
25.19999999999982
 30
0.0
 40
2.486916010899999
  0
CIRCLE
  5
4C66
330
1E
100
AcDbEntity
  8
0
 48
0.27
100
AcDbCircle
 10
108.0816854228212
 20
25.19999999999982
 30
0.0
 40
2.75
  0
LINE
  5
4C67
330
1E
100
AcDbEntity
  8
0
 48
0.27
100
AcDbLine
 10
103.5816854228212
 20
33.00000000000023
 30
0.0
 11
114.0816854228212
 21
33.00000000000023
 31
0.0
  0
LINE
  5
4C68
330
1E
100
AcDbEntity
  8
0
 48
0.27
100
AcDbLine
 10
103.5816854228212
 20
32.99999999999983
 30
0.0
 11
114.0816854228212
 21
32.99999999999983
 31
0.0
  0
LINE
  5
4C69
330
1E
100
AcDbEntity
  8
中心線
 48
0.27
100
AcDbLine
 10
108.0816854228213
 20
20.35856276845629
 30
0.0
 11
108.0816854228213
 21
30.04143723154334
 31
0.0
  0
LINE
  5
4C6A
330
1E
100
AcDbEntity
  8
中心線
 48
0.27
100
AcDbLine
 10
108.0816854228212
 20
20.35856276845629
 30
0.0
 11
108.0816854228212
 21
30.04143723154334
 31
0.0
  0
LINE
  5
4C6B
330
1E
100
AcDbEntity
  8
0
 48
0.27
100
AcDbLine
 10
114.0816854228212
 20
33.00340749110024
 30
0.0
 11
112.0816854228212
 21
33.00340749110024
 31
0.0
  0
LINE
  5
4C6C
330
1E
100
AcDbEntity
  8
0
 48
0.27
100
AcDbLine
 10
103.5816854228212
 20
35.00000000000023
 30
0.0
 11
114.0816854228212
 21
35.00000000000023
 31
0.0
  0
LINE
  5
4C6D
330
1E
100
AcDbEntity
  8
0
 48
0.27
100
AcDbLine
 10
103.5816854228212
 20
34.99999999999983
 30
0.0
 11
114.0816854228212
 21
34.99999999999983
 31
0.0
  0
LINE
  5
4C6E
330
1E
100
AcDbEntity
  8
虛線
 48
0.27
100
AcDbLine
 10
127.1816854228213
 20
22.25000000000063
 30
0.0
 11
127.1816854228213
 21
35.1500000000006
 31
0.0
  0
LINE
  5
4C6F
330
1E
100
AcDbEntity
  8
虛線
 48
0.27
100
AcDbLine
 10
126.5816854228213
 20
26.00000000000063
 30
0.0
 11
126.5816854228213
 21
35.1500000000006
 31
0.0
  0
LINE
  5
4C70
330
1E
100
AcDbEntity
  8
虛線
 48
0.27
100
AcDbLine
 10
133.9816854228212
 20
35.1500000000006
 30
0.0
 11
133.9816854228212
 21
22.25000000000063
 31
0.0
  0
LINE
  5
4C71
330
1E
100
AcDbEntity
  8
虛線
 48
0.27
100
AcDbLine
 10
134.5816854228213
 20
35.1500000000006
 30
0.0
 11
134.5816854228213
 21
26.00000000000063
 31
0.0
  0
LINE
  5
4C72
330
1E
100
AcDbEntity
  8
虛線
 48
0.27
100
AcDbLine
 10
127.1816854228211
 20
22.25000000000051
 30
0.0
 11
127.1816854228211
 21
35.15000000000049
 31
0.0
  0
LINE
  5
4C73
330
1E
100
AcDbEntity
  8
虛線
 48
0.27
100
AcDbLine
 10
126.5816854228211
 20
26.00000000000051
 30
0.0
 11
126.5816854228211
 21
35.15000000000049
 31
0.0
  0
LINE
  5
4C74
330
1E
100
AcDbEntity
  8
虛線
 48
0.27
100
AcDbLine
 10
133.9816854228211
 20
35.15000000000049
 30
0.0
 11
133.9816854228211
 21
22.25000000000051
 31
0.0
  0
LINE
  5
4C75
330
1E
100
AcDbEntity
  8
虛線
 48
0.27
100
AcDbLine
 10
134.5816854228211
 20
35.15000000000049
 30
0.0
 11
134.5816854228211
 21
26.00000000000051
 31
0.0
  0
LINE
  5
4C76
330
1E
100
AcDbEntity
  8
中心線
 48
0.27
100
AcDbLine
 10
130.5816854228213
 20
20.87325448610938
 30
0.0
 11
130.5816854228213
 21
37.02880689605019
 31
0.0
  0
LINE
  5
4C77
330
1E
100
AcDbEntity
  8
中心線
 48
0.27
100
AcDbLine
 10
130.5816854228211
 20
20.87325448610926
 30
0.0
 11
130.5816854228211
 21
37.02880689605019
 31
0.0
  0
LINE
  5
4C78
330
1E
100
AcDbEntity
  8
虛線
 48
0.27
100
AcDbLine
 10
133.9816854228213
 20
22.25000000000063
 30
0.0
 11
127.1816854228212
 21
22.25000000000063
 31
0.0
  0
LINE
  5
4C79
330
1E
100
AcDbEntity
  8
虛線
 48
0.27
100
AcDbLine
 10
133.9816854228212
 20
22.25000000000063
 30
0.0
 11
130.5816854228213
 21
20.95852072444456
 31
0.0
  0
LINE
  5
4C7A
330
1E
100
AcDbEntity
  8
虛線
 48
0.27
100
AcDbLine
 10
133.9816854228211
 20
22.25000000000051
 30
0.0
 11
127.1816854228211
 21
22.25000000000051
 31
0.0
  0
LINE
  5
4C7B
330
1E
100
AcDbEntity
  8
虛線
 48
0.27
100
AcDbLine
 10
133.9816854228211
 20
22.25000000000051
 30
0.0
 11
130.5816854228211
 21
20.95852072444444
 31
0.0
  0
LINE
  5
4C7C
330
1E
100
AcDbEntity
  8
虛線
 48
0.27
100
AcDbLine
 10
130.5816854228213
 20
20.95852072444456
 30
0.0
 11
127.1816854228213
 21
22.25000000000063
 31
0.0
  0
LINE
  5
4C7D
330
1E
100
AcDbEntity
  8
虛線
 48
0.27
100
AcDbLine
 10
130.5816854228211
 20
20.95852072444444
 30
0.0
 11
127.1816854228211
 21
22.25000000000051
 31
0.0
  0
LINE
  5
4C7E
330
1E
100
AcDbEntity
  8
虛線
 48
0.27
100
AcDbLine
 10
134.5816854228213
 20
26.00000000000063
 30
0.0
 11
126.5816854228213
 21
26.00000000000063
 31
0.0
  0
LINE
  5
4C7F
330
1E
100
AcDbEntity
  8
虛線
 48
0.27
100
AcDbLine
 10
134.5816854228211
 20
26.00000000000051
 30
0.0
 11
126.5816854228211
 21
26.00000000000051
 31
0.0
  0
LINE
  5
4C80
330
1E
100
AcDbEntity
  8
虛線
 48
0.27
100
AcDbLine
 10
135.384463200599
 20
36.00000000000064
 30
0.0
 11
134.5816854228213
 21
35.1500000000006
 31
0.0
  0
LINE
  5
4C81
330
1E
100
AcDbEntity
  8
虛線
 48
0.27
100
AcDbLine
 10
135.3844632005988
 20
36.00000000000051
 30
0.0
 11
134.5816854228211
 21
35.15000000000049
 31
0.0
  0
LINE
  5
4C82
330
1E
100
AcDbEntity
  8
虛線
 48
0.27
100
AcDbLine
 10
134.5816854228213
 20
35.1500000000006
 30
0.0
 11
126.5816854228213
 21
35.1500000000006
 31
0.0
  0
LINE
  5
4C83
330
1E
100
AcDbEntity
  8
虛線
 48
0.27
100
AcDbLine
 10
134.5816854228211
 20
35.15000000000049
 30
0.0
 11
126.5816854228211
 21
35.15000000000049
 31
0.0
  0
LINE
  5
4C84
330
1E
100
AcDbEntity
  8
0
 48
0.27
100
AcDbLine
 10
207.0816854228213
 20
36.00000000000064
 30
0.0
 11
207.0816854228213
 21
-0.000000000000199
 31
0.0
  0
LINE
  5
4C85
330
1E
100
AcDbEntity
  8
0
 48
0.27
100
AcDbLine
 10
207.0816854228212
 20
-0.000000000000199
 30
0.0
 11
207.0816854228212
 21
34.99999999999983
 31
0.0
  0
LINE
  5
4C86
330
1E
100
AcDbEntity
  8
0
 48
0.27
100
AcDbLine
 10
217.5816854228212
 20
34.99999999999983
 30
0.0
 11
217.5816854228212
 21
-0.000000000000199
 31
0.0
  0
LINE
  5
4C87
330
1E
100
AcDbEntity
  8
0
 48
0.27
100
AcDbLine
 10
217.5816854228212
 20
35.00000000000017
 30
0.0
 11
217.5816854228212
 21
0.0000000000002274
 31
0.0
  0
LINE
  5
4C88
330
1E
100
AcDbEntity
  8
0
 48
0.27
100
AcDbLine
 10
217.5816854228212
 20
0.0000000000002274
 30
0.0
 11
217.5816854228212
 21
35.00000000000023
 31
0.0
  0
LINE
  5
4C89
330
1E
100
AcDbEntity
  8
0
 48
0.27
100
AcDbLine
 10
207.0816854228212
 20
0.0000000000002274
 30
0.0
 11
207.0816854228212
 21
35.00000000000023
 31
0.0
  0
LINE
  5
4C8A
330
1E
100
AcDbEntity
  8
0
 48
0.27
100
AcDbLine
 10
207.0816854228213
 20
36.00000000000064
 30
0.0
 11
207.0816854228212
 21
0.0000000000002274
 31
0.0
  0
LINE
  5
4C8B
330
1E
100
AcDbEntity
  8
0
 48
0.27
100
AcDbLine
 10
217.5816854228212
 20
1.9999999999998
 30
0.0
 11
207.0816854228212
 21
1.9999999999998
 31
0.0
  0
LINE
  5
4C8C
330
1E
100
AcDbEntity
  8
0
 48
0.27
100
AcDbLine
 10
217.5816854228212
 20
-0.000000000000199
 30
0.0
 11
207.0816854228212
 21
-0.000000000000199
 31
0.0
  0
LINE
  5
4C8D
330
1E
100
AcDbEntity
  8
0
 48
0.27
100
AcDbLine
 10
217.5816854228212
 20
0.0000000000002274
 30
0.0
 11
207.0816854228212
 21
0.0000000000002274
 31
0.0
  0
LINE
  5
4C8E
330
1E
100
AcDbEntity
  8
0
 48
0.27
100
AcDbLine
 10
217.5816854228212
 20
2.000000000000226
 30
0.0
 11
207.0816854228212
 21
2.000000000000226
 31
0.0
  0
LINE
  5
4C8F
330
1E
100
AcDbEntity
  8
中心線
 48
0.27
100
AcDbLine
 10
217.9231226543647
 20
25.19999999999982
 30
0.0
 11
208.2402481912777
 21
25.19999999999982
 31
0.0
  0
LINE
  5
4C90
330
1E
100
AcDbEntity
  8
中心線
 48
0.27
100
AcDbLine
 10
217.9231226543647
 20
25.19999999999982
 30
0.0
 11
208.2402481912775
 21
25.19999999999982
 31
0.0
  0
LINE
  5
4C91
330
1E
100
AcDbEntity
  8
0
 48
0.27
100
AcDbLine
 10
217.5816854228212
 20
34.99999999999983
 30
0.0
 11
207.0816854228212
 21
34.99999999999983
 31
0.0
  0
LINE
  5
4C92
330
1E
100
AcDbEntity
  8
0
 48
0.27
100
AcDbLine
 10
217.5816854228212
 20
35.00000000000023
 30
0.0
 11
207.0816854228212
 21
35.00000000000023
 31
0.0
  0
LINE
  5
4C93
330
1E
100
AcDbEntity
  8
0
 48
0.27
100
AcDbLine
 10
217.5816854228212
 20
32.99999999999983
 30
0.0
 11
207.0816854228212
 21
32.99999999999983
 31
0.0
  0
LINE
  5
4C94
330
1E
100
AcDbEntity
  8
虛線
 48
0.27
100
AcDbLine
 10
186.5816854228213
 20
35.15000000000049
 30
0.0
 11
186.5816854228213
 21
26.00000000000051
 31
0.0
  0
LINE
  5
4C95
330
1E
100
AcDbEntity
  8
虛線
 48
0.27
100
AcDbLine
 10
187.1816854228214
 20
35.15000000000049
 30
0.0
 11
187.1816854228214
 21
22.25000000000051
 31
0.0
  0
LINE
  5
4C96
330
1E
100
AcDbEntity
  8
虛線
 48
0.27
100
AcDbLine
 10
194.5816854228213
 20
26.00000000000051
 30
0.0
 11
194.5816854228213
 21
35.15000000000049
 31
0.0
  0
LINE
  5
4C97
330
1E
100
AcDbEntity
  8
虛線
 48
0.27
100
AcDbLine
 10
193.9816854228213
 20
22.25000000000051
 30
0.0
 11
193.9816854228213
 21
35.15000000000049
 31
0.0
  0
LINE
  5
4C98
330
1E
100
AcDbEntity
  8
虛線
 48
0.27
100
AcDbLine
 10
186.5816854228212
 20
35.1500000000006
 30
0.0
 11
186.5816854228212
 21
26.00000000000063
 31
0.0
  0
LINE
  5
4C99
330
1E
100
AcDbEntity
  8
虛線
 48
0.27
100
AcDbLine
 10
187.1816854228212
 20
35.1500000000006
 30
0.0
 11
187.1816854228212
 21
22.25000000000063
 31
0.0
  0
LINE
  5
4C9A
330
1E
100
AcDbEntity
  8
虛線
 48
0.27
100
AcDbLine
 10
194.5816854228212
 20
26.00000000000063
 30
0.0
 11
194.5816854228212
 21
35.1500000000006
 31
0.0
  0
LINE
  5
4C9B
330
1E
100
AcDbEntity
  8
虛線
 48
0.27
100
AcDbLine
 10
193.9816854228211
 20
22.25000000000063
 30
0.0
 11
193.9816854228211
 21
35.1500000000006
 31
0.0
  0
LINE
  5
4C9C
330
1E
100
AcDbEntity
  8
中心線
 48
0.27
100
AcDbLine
 10
190.5816854228213
 20
20.87325448610926
 30
0.0
 11
190.5816854228213
 21
37.02880689605019
 31
0.0
  0
LINE
  5
4C9D
330
1E
100
AcDbEntity
  8
中心線
 48
0.27
100
AcDbLine
 10
190.5816854228212
 20
20.87325448610938
 30
0.0
 11
190.5816854228212
 21
37.02880689605019
 31
0.0
  0
LINE
  5
4C9E
330
1E
100
AcDbEntity
  8
虛線
 48
0.27
100
AcDbLine
 10
187.1816854228214
 20
22.25000000000051
 30
0.0
 11
190.5816854228213
 21
20.95852072444444
 31
0.0
  0
LINE
  5
4C9F
330
1E
100
AcDbEntity
  8
虛線
 48
0.27
100
AcDbLine
 10
187.1816854228212
 20
22.25000000000063
 30
0.0
 11
190.5816854228212
 21
20.95852072444456
 31
0.0
  0
LINE
  5
4CA0
330
1E
100
AcDbEntity
  8
虛線
 48
0.27
100
AcDbLine
 10
186.5816854228213
 20
26.00000000000051
 30
0.0
 11
194.5816854228213
 21
26.00000000000051
 31
0.0
  0
LINE
  5
4CA1
330
1E
100
AcDbEntity
  8
虛線
 48
0.27
100
AcDbLine
 10
187.1816854228213
 20
22.25000000000051
 30
0.0
 11
193.9816854228214
 21
22.25000000000051
 31
0.0
  0
LINE
  5
4CA2
330
1E
100
AcDbEntity
  8
虛線
 48
0.27
100
AcDbLine
 10
186.5816854228212
 20
26.00000000000063
 30
0.0
 11
194.5816854228212
 21
26.00000000000063
 31
0.0
  0
LINE
  5
4CA3
330
1E
100
AcDbEntity
  8
虛線
 48
0.27
100
AcDbLine
 10
187.1816854228211
 20
22.25000000000063
 30
0.0
 11
193.9816854228212
 21
22.25000000000063
 31
0.0
  0
LINE
  5
4CA4
330
1E
100
AcDbEntity
  8
虛線
 48
0.27
100
AcDbLine
 10
190.5816854228213
 20
20.95852072444444
 30
0.0
 11
193.9816854228213
 21
22.25000000000051
 31
0.0
  0
LINE
  5
4CA5
330
1E
100
AcDbEntity
  8
虛線
 48
0.27
100
AcDbLine
 10
190.5816854228212
 20
20.95852072444456
 30
0.0
 11
193.9816854228211
 21
22.25000000000063
 31
0.0
  0
LINE
  5
4CA6
330
1E
100
AcDbEntity
  8
中心線
 48
0.27
100
AcDbLine
 10
213.0816854228212
 20
20.35856276845629
 30
0.0
 11
213.0816854228212
 21
30.04143723154334
 31
0.0
  0
LINE
  5
4CA7
330
1E
100
AcDbEntity
  8
中心線
 48
0.27
100
AcDbLine
 10
213.0816854228211
 20
20.35856276845629
 30
0.0
 11
213.0816854228211
 21
30.04143723154334
 31
0.0
  0
CIRCLE
  5
4CA8
330
1E
100
AcDbEntity
  8
0
 48
0.27
100
AcDbCircle
 10
213.0816854228212
 20
25.19999999999982
 30
0.0
 40
2.75
  0
CIRCLE
  5
4CA9
330
1E
100
AcDbEntity
  8
0
 48
0.27
100
AcDbCircle
 10
213.0816854228212
 20
25.20000000000022
 30
0.0
 40
2.75
  0
CIRCLE
  5
4CAA
330
1E
100
AcDbEntity
  8
0
 48
0.27
100
AcDbCircle
 10
213.0816854228212
 20
25.19999999999982
 30
0.0
 40
0.7185553324000002
  0
CIRCLE
  5
4CAB
330
1E
100
AcDbEntity
  8
0
 48
0.27
100
AcDbCircle
 10
213.0816854228212
 20
25.20000000000022
 30
0.0
 40
0.7185553324000002
  0
CIRCLE
  5
4CAC
330
1E
100
AcDbEntity
  8
0
 48
0.27
100
AcDbCircle
 10
213.0816854228212
 20
25.19999999999982
 30
0.0
 40
2.185553324299998
  0
CIRCLE
  5
4CAD
330
1E
100
AcDbEntity
  8
0
 48
0.27
100
AcDbCircle
 10
213.0816854228212
 20
25.20000000000022
 30
0.0
 40
2.185553324299998
  0
CIRCLE
  5
4CAE
330
1E
100
AcDbEntity
  8
0
 48
0.27
100
AcDbCircle
 10
213.0816854228212
 20
25.19999999999982
 30
0.0
 40
2.486916010899999
  0
CIRCLE
  5
4CAF
330
1E
100
AcDbEntity
  8
0
 48
0.27
100
AcDbCircle
 10
213.0816854228212
 20
25.20000000000022
 30
0.0
 40
2.486916010899999
  0
LINE
  5
4CB0
330
1E
100
AcDbEntity
  8
虛線
 48
0.27
100
AcDbLine
 10
186.5816854228213
 20
35.15000000000049
 30
0.0
 11
194.5816854228213
 21
35.15000000000049
 31
0.0
  0
LINE
  5
4CB1
330
1E
100
AcDbEntity
  8
虛線
 48
0.27
100
AcDbLine
 10
186.5816854228212
 20
35.1500000000006
 30
0.0
 11
194.5816854228212
 21
35.1500000000006
 31
0.0
  0
LINE
  5
4CB2
330
1E
100
AcDbEntity
  8
虛線
 48
0.27
100
AcDbLine
 10
185.7789076450436
 20
36.00000000000051
 30
0.0
 11
186.5816854228213
 21
35.15000000000049
 31
0.0
  0
LINE
  5
4CB3
330
1E
100
AcDbEntity
  8
虛線
 48
0.27
100
AcDbLine
 10
185.7789076450435
 20
36.00000000000064
 30
0.0
 11
186.5816854228212
 21
35.1500000000006
 31
0.0
  0
LINE
  5
4CB4
330
1E
100
AcDbEntity
  8
虛線
 48
0.27
100
AcDbLine
 10
195.384463200599
 20
36.00000000000051
 30
0.0
 11
194.5816854228213
 21
35.15000000000049
 31
0.0
  0
LINE
  5
4CB5
330
1E
100
AcDbEntity
  8
虛線
 48
0.27
100
AcDbLine
 10
195.3844632005989
 20
36.00000000000064
 30
0.0
 11
194.5816854228212
 21
35.1500000000006
 31
0.0
  0
TEXT
  5
4CBB
330
1E
100
AcDbEntity
  8
0
100
AcDbText
 10
-10.65198975286327
 20
-43.46879058931199
 30
0.0
 40
5.460000111539303
  1

100
AcDbText
  0
LINE
  5
4D44
330
1E
100
AcDbEntity
  8
中心線
 48
0.27
100
AcDbLine
 10
86.88168718183794
 20
29.50000000000012
 30
0.0
 11
100.9973575634628
 21
29.50000000000012
 31
0.0
  0
ARC
  5
4D45
330
1E
100
AcDbEntity
  8
0
 48
0.27
100
AcDbCircle
 10
101.0733024228211
 20
27.50001933110017
 30
0.0
 40
2.954110999999976
100
AcDbArc
 50
137.3885930045003
 51
222.6114069976006
  0
ARC
  5
4D46
330
1E
100
AcDbEntity
  8
0
 48
0.27
100
AcDbCircle
 10
101.0733034228211
 20
31.50001933110005
 30
0.0
 40
2.954111999999976
100
AcDbArc
 50
137.388598002199
 51
222.6114019998988
  0
LWPOLYLINE
  5
4D47
330
1E
100
AcDbEntity
  8
0
 48
0.27
100
AcDbPolyline
 90
       31
 70
     0
 43
0.0
 10
90.79047442282123
 20
29.50001933110008
 10
90.75765642282119
 20
29.7102743311001
 10
90.71350942282121
 20
29.81576133110008
 10
90.6504764228212
 20
29.91354033110008
 10
90.57100042282121
 20
29.99765333110009
 10
90.47950942282119
 20
30.0635263311001
 10
90.3815894228212
 20
30.10880733110003
 10
90.24895342282119
 20
30.13774833110006
 10
90.1259444228212
 20
30.13508933110007
 10
90.01902042282122
 20
30.10958333110006
 10
89.90281542282119
 20
30.05381533110006
 10
89.79224542282119
 20
29.9643263311001
 10
89.70401542282123
 20
29.84977633110009
 10
89.6473814228212
 20
29.72993733110014
 10
89.61953042282123
 20
29.62628133110008
 10
89.6079094228212
 20
29.50001933110008
 10
89.6407274228212
 20
29.28976433110012
 10
89.68487542282119
 20
29.18427633110008
 10
89.7479074228212
 20
29.08649833110008
 10
89.82738342282123
 20
29.00238533110007
 10
89.91887442282122
 20
28.93651233110007
 10
90.01679442282119
 20
28.89123133110008
 10
90.14943042282125
 20
28.86228933110005
 10
90.27243942282122
 20
28.86494933110009
 10
90.37936342282121
 20
28.89045433110011
 10
90.49556842282122
 20
28.94622233110011
 10
90.60613842282121
 20
29.03571233110006
 10
90.6943684228212
 20
29.15026133110007
 10
90.7510024228212
 20
29.27010033110009
 10
90.77885442282122
 20
29.37375733110014
 10
90.79047442282123
 20
29.50001933110008
  0
ARC
  5
4D48
330
1E
100
AcDbEntity
  8
0
 48
0.27
100
AcDbCircle
 10
94.37085142282118
 20
29.50001933110011
 30
0.0
 40
3.999999999999968
100
AcDbArc
 50
90.0
 51
131.4096219995999
  0
ARC
  5
4D49
330
1E
100
AcDbEntity
  8
0
 48
0.27
100
AcDbCircle
 10
94.37085142282118
 20
29.50001933110011
 30
0.0
 40
3.999999999999968
100
AcDbArc
 50
228.5903779973006
 51
270.0
  0
LINE
  5
4D4A
330
1E
100
AcDbEntity
  8
0
 48
0.27
100
AcDbLine
 10
101.8816854228212
 20
33.50001933110011
 30
0.0
 11
94.37085142282118
 21
33.50001933110011
 31
0.0
  0
LINE
  5
4D4C
330
1E
100
AcDbEntity
  8
0
 48
0.27
100
AcDbLine
 10
94.37085142282118
 20
25.50001933110011
 30
0.0
 11
101.8816854228212
 21
25.50001933110011
 31
0.0
  0
LINE
  5
4D4D
330
1E
100
AcDbEntity
  8
0
 48
0.27
100
AcDbLine
 10
98.11919142282116
 20
33.50001933110011
 30
0.0
 11
98.11919142282116
 21
25.50001933110011
 31
0.0
  0
LINE
  5
4D4E
330
1E
100
AcDbEntity
  8
0
 48
0.27
100
AcDbLine
 10
90.84341442282122
 20
32.50001933110008
 30
0.0
 11
94.74319042282116
 21
32.50001933110008
 31
0.0
  0
LINE
  5
4D4F
330
1E
100
AcDbEntity
  8
0
 48
0.27
100
AcDbLine
 10
90.5970214228212
 20
26.96194633110011
 30
0.0
 11
90.84341442282122
 21
26.50001933110014
 31
0.0
  0
LINE
  5
4D50
330
1E
100
AcDbEntity
  8
0
 48
0.27
100
AcDbLine
 10
90.84341442282122
 20
32.50001933110008
 30
0.0
 11
90.5970214228212
 21
32.0380923311001
 31
0.0
  0
LINE
  5
4D51
330
1E
100
AcDbEntity
  8
0
 48
0.27
100
AcDbLine
 10
95.64403242282116
 20
29.50001933110011
 30
0.0
 11
96.34339642282116
 21
29.50001933110011
 31
0.0
  0
LINE
  5
4D52
330
1E
100
AcDbEntity
  8
0
 48
0.27
100
AcDbLine
 10
94.74319042282116
 20
32.50001933110008
 30
0.0
 11
96.34339642282116
 21
29.50001933110011
 31
0.0
  0
LINE
  5
4D53
330
1E
100
AcDbEntity
  8
0
 48
0.27
100
AcDbLine
 10
94.74319042282116
 20
26.50001933110014
 30
0.0
 11
90.84341442282122
 21
26.50001933110014
 31
0.0
  0
LINE
  5
4D54
330
1E
100
AcDbEntity
  8
0
 48
0.27
100
AcDbLine
 10
96.34339642282116
 20
29.50001933110011
 30
0.0
 11
94.74319042282116
 21
26.50001933110014
 31
0.0
  0
LINE
  5
4D55
330
1E
100
AcDbEntity
  8
0
 48
0.27
100
AcDbLine
 10
90.96449342282118
 20
32.02955333110009
 30
0.0
 11
91.38296042282119
 21
32.27165733110008
 31
0.0
  0
LINE
  5
4D56
330
1E
100
AcDbEntity
  8
0
 48
0.27
100
AcDbLine
 10
90.96449342282118
 20
26.97048433110016
 30
0.0
 11
91.38296042282119
 21
26.72838033110012
 31
0.0
  0
LINE
  5
4D57
330
1E
100
AcDbEntity
  8
0
 48
0.27
100
AcDbLine
 10
91.38296042282119
 20
32.27165733110008
 30
0.0
 11
91.9029004228212
 21
32.44237533110004
 31
0.0
  0
LINE
  5
4D58
330
1E
100
AcDbEntity
  8
0
 48
0.27
100
AcDbLine
 10
91.38296042282119
 20
26.72838033110012
 30
0.0
 11
91.9029004228212
 21
26.55766333110018
 31
0.0
  0
LINE
  5
4D59
330
1E
100
AcDbEntity
  8
0
 48
0.27
100
AcDbLine
 10
91.9029004228212
 20
32.44237533110004
 30
0.0
 11
92.44362042282119
 21
32.50001933110008
 31
0.0
  0
LINE
  5
4D5A
330
1E
100
AcDbEntity
  8
0
 48
0.27
100
AcDbLine
 10
91.9029004228212
 20
26.55766333110018
 30
0.0
 11
92.44362042282119
 21
26.50001933110014
 31
0.0
  0
LINE
  5
4D5B
330
1E
100
AcDbEntity
  8
0
 48
0.27
100
AcDbLine
 10
92.44362042282119
 20
32.50001933110008
 30
0.0
 11
92.98434042282119
 21
32.44237533110004
 31
0.0
  0
LINE
  5
4D5C
330
1E
100
AcDbEntity
  8
0
 48
0.27
100
AcDbLine
 10
92.44362042282119
 20
26.50001933110014
 30
0.0
 11
92.98434042282119
 21
26.55766333110018
 31
0.0
  0
LINE
  5
4D5D
330
1E
100
AcDbEntity
  8
0
 48
0.27
100
AcDbLine
 10
92.98434042282119
 20
32.44237533110004
 30
0.0
 11
93.50428042282116
 21
32.27165733110008
 31
0.0
  0
LINE
  5
4D5E
330
1E
100
AcDbEntity
  8
0
 48
0.27
100
AcDbLine
 10
92.98434042282119
 20
26.55766333110018
 30
0.0
 11
93.50428042282116
 21
26.72838033110012
 31
0.0
  0
LINE
  5
4D5F
330
1E
100
AcDbEntity
  8
0
 48
0.27
100
AcDbLine
 10
93.50428042282116
 20
32.27165733110008
 30
0.0
 11
93.98346042282119
 21
31.99442833110011
 31
0.0
  0
LINE
  5
4D60
330
1E
100
AcDbEntity
  8
0
 48
0.27
100
AcDbLine
 10
93.50428042282116
 20
26.72838033110012
 30
0.0
 11
93.98346042282119
 21
27.00561033110012
 31
0.0
  0
LINE
  5
4D61
330
1E
100
AcDbEntity
  8
0
 48
0.27
100
AcDbLine
 10
93.98346042282119
 20
31.99442833110011
 30
0.0
 11
94.40346442282118
 21
31.62133933110011
 31
0.0
  0
LINE
  5
4D62
330
1E
100
AcDbEntity
  8
0
 48
0.27
100
AcDbLine
 10
93.98346042282119
 20
27.00561033110012
 30
0.0
 11
94.40346442282118
 21
27.37869833110009
 31
0.0
  0
LINE
  5
4D63
330
1E
100
AcDbEntity
  8
0
 48
0.27
100
AcDbLine
 10
94.0438264228212
 20
32.50001933110008
 30
0.0
 11
95.64403242282116
 21
29.50001933110011
 31
0.0
  0
LINE
  5
4D64
330
1E
100
AcDbEntity
  8
0
 48
0.27
100
AcDbLine
 10
95.64403242282116
 20
29.50001933110011
 30
0.0
 11
94.0438264228212
 21
26.50001933110014
 31
0.0
  0
LINE
  5
4D65
330
1E
100
AcDbEntity
  8
0
 48
0.27
100
AcDbLine
 10
94.40346442282118
 20
31.62133933110011
 30
0.0
 11
94.74815342282116
 21
31.1667293311001
 31
0.0
  0
LINE
  5
4D66
330
1E
100
AcDbEntity
  8
0
 48
0.27
100
AcDbLine
 10
94.74815342282116
 20
27.83330833110009
 30
0.0
 11
94.40346442282118
 21
27.37869833110009
 31
0.0
  0
LINE
  5
4D67
330
1E
100
AcDbEntity
  8
0
 48
0.27
100
AcDbLine
 10
94.74815342282116
 20
31.1667293311001
 30
0.0
 11
95.00428042282118
 21
30.6480693311001
 31
0.0
  0
LINE
  5
4D68
330
1E
100
AcDbEntity
  8
0
 48
0.27
100
AcDbLine
 10
95.00428042282118
 20
28.35196833110016
 30
0.0
 11
94.74815342282116
 21
27.83330833110009
 31
0.0
  0
LINE
  5
4D69
330
1E
100
AcDbEntity
  8
0
 48
0.27
100
AcDbLine
 10
95.00428042282118
 20
30.6480693311001
 30
0.0
 11
95.16200242282115
 21
30.08529033110014
 31
0.0
  0
LINE
  5
4D6A
330
1E
100
AcDbEntity
  8
0
 48
0.27
100
AcDbLine
 10
95.16200242282115
 20
28.91474833110008
 30
0.0
 11
95.00428042282118
 21
28.35196833110016
 31
0.0
  0
LINE
  5
4D6B
330
1E
100
AcDbEntity
  8
0
 48
0.27
100
AcDbLine
 10
95.16200242282115
 20
30.08529033110014
 30
0.0
 11
95.21525842282118
 21
29.50001933110011
 31
0.0
  0
LINE
  5
4D6C
330
1E
100
AcDbEntity
  8
0
 48
0.27
100
AcDbLine
 10
95.21525842282118
 20
29.50001933110011
 30
0.0
 11
95.16200242282115
 21
28.91474833110008
 31
0.0
  0
LINE
  5
4D6D
330
1E
100
AcDbEntity
  8
0
 48
0.27
100
AcDbLine
 10
89.53972342282121
 20
31.14024633110006
 30
0.0
 11
89.54269442282122
 21
31.1386313311001
 31
0.0
  0
LINE
  5
4D6E
330
1E
100
AcDbEntity
  8
0
 48
0.27
100
AcDbLine
 10
89.53972342282121
 20
27.85979133110013
 30
0.0
 11
89.54269442282122
 21
27.86140733110011
 31
0.0
  0
LINE
  5
4D6F
330
1E
100
AcDbEntity
  8
0
 48
0.27
100
AcDbLine
 10
88.42701342282124
 20
29.99816133110011
 30
0.0
 11
88.38168542282124
 21
29.50001933110011
 31
0.0
  0
LINE
  5
4D70
330
1E
100
AcDbEntity
  8
0
 48
0.27
100
AcDbLine
 10
88.5612554228212
 20
30.4771593311001
 30
0.0
 11
88.42701342282124
 21
29.99816133110011
 31
0.0
  0
LINE
  5
4D71
330
1E
100
AcDbEntity
  8
0
 48
0.27
100
AcDbLine
 10
88.38168542282124
 20
29.50001933110011
 30
0.0
 11
88.42701342282124
 21
29.00187733110011
 31
0.0
  0
LINE
  5
4D72
330
1E
100
AcDbEntity
  8
0
 48
0.27
100
AcDbLine
 10
88.77925242282122
 20
30.91860733110011
 30
0.0
 11
88.5612554228212
 21
30.4771593311001
 31
0.0
  0
LINE
  5
4D73
330
1E
100
AcDbEntity
  8
0
 48
0.27
100
AcDbLine
 10
88.42701342282124
 20
29.00187733110011
 30
0.0
 11
88.5612554228212
 21
28.52287833110009
 31
0.0
  0
LINE
  5
4D74
330
1E
100
AcDbEntity
  8
0
 48
0.27
100
AcDbLine
 10
89.0726284228212
 20
31.30553933110014
 30
0.0
 11
88.77925242282122
 21
30.91860733110011
 31
0.0
  0
LINE
  5
4D75
330
1E
100
AcDbEntity
  8
0
 48
0.27
100
AcDbLine
 10
88.5612554228212
 20
28.52287833110009
 30
0.0
 11
88.77925242282122
 21
28.08143133110011
 31
0.0
  0
LINE
  5
4D76
330
1E
100
AcDbEntity
  8
0
 48
0.27
100
AcDbLine
 10
89.0726284228212
 20
31.30553933110014
 30
0.0
 11
89.43010642282123
 21
31.6230863311001
 31
0.0
  0
LINE
  5
4D77
330
1E
100
AcDbEntity
  8
0
 48
0.27
100
AcDbLine
 10
88.77925242282122
 20
28.08143133110011
 30
0.0
 11
89.0726284228212
 21
27.69449933110008
 31
0.0
  0
LINE
  5
4D78
330
1E
100
AcDbEntity
  8
0
 48
0.27
100
AcDbLine
 10
88.57571642282122
 20
29.84955533110011
 30
0.0
 11
88.54391042282122
 21
29.50001933110011
 31
0.0
  0
LINE
  5
4D79
330
1E
100
AcDbEntity
  8
0
 48
0.27
100
AcDbLine
 10
88.66991142282122
 20
30.18565933110012
 30
0.0
 11
88.57571642282122
 21
29.84955533110011
 31
0.0
  0
LINE
  5
4D7A
330
1E
100
AcDbEntity
  8
0
 48
0.27
100
AcDbLine
 10
88.54391042282122
 20
29.50001933110011
 30
0.0
 11
88.57571642282122
 21
29.15048333110011
 31
0.0
  0
LINE
  5
4D7B
330
1E
100
AcDbEntity
  8
0
 48
0.27
100
AcDbLine
 10
88.82287542282124
 20
30.49541433110008
 30
0.0
 11
88.66991142282122
 21
30.18565933110012
 31
0.0
  0
LINE
  5
4D7C
330
1E
100
AcDbEntity
  8
0
 48
0.27
100
AcDbLine
 10
88.57571642282122
 20
29.15048333110011
 30
0.0
 11
88.66991142282122
 21
28.8143793311001
 31
0.0
  0
LINE
  5
4D7D
330
1E
100
AcDbEntity
  8
0
 48
0.27
100
AcDbLine
 10
89.43010642282123
 20
31.6230863311001
 30
0.0
 11
89.83795142282122
 21
31.85904533110008
 31
0.0
  0
LINE
  5
4D7E
330
1E
100
AcDbEntity
  8
0
 48
0.27
100
AcDbLine
 10
89.0726284228212
 20
27.69449933110008
 30
0.0
 11
89.43010642282123
 21
27.37695233110012
 31
0.0
  0
LINE
  5
4D7F
330
1E
100
AcDbEntity
  8
0
 48
0.27
100
AcDbLine
 10
89.02873142282123
 20
30.76691633110011
 30
0.0
 11
88.82287542282124
 21
30.49541433110008
 31
0.0
  0
LINE
  5
4D80
330
1E
100
AcDbEntity
  8
0
 48
0.27
100
AcDbLine
 10
88.66991142282122
 20
28.8143793311001
 30
0.0
 11
88.82287542282124
 21
28.50462433110014
 31
0.0
  0
LINE
  5
4D81
330
1E
100
AcDbEntity
  8
0
 48
0.27
100
AcDbLine
 10
89.83795142282122
 20
31.85904533110008
 30
0.0
 11
90.28048842282123
 21
32.00434733110004
 31
0.0
  0
LINE
  5
4D82
330
1E
100
AcDbEntity
  8
0
 48
0.27
100
AcDbLine
 10
89.43010642282123
 20
27.37695233110012
 30
0.0
 11
89.83795142282122
 21
27.14099333110012
 31
0.0
  0
LINE
  5
4D83
330
1E
100
AcDbEntity
  8
0
 48
0.27
100
AcDbLine
 10
89.02873142282123
 20
30.76691633110011
 30
0.0
 11
89.27956642282124
 21
30.98973333110007
 31
0.0
  0
LINE
  5
4D84
330
1E
100
AcDbEntity
  8
0
 48
0.27
100
AcDbLine
 10
88.82287542282124
 20
28.50462433110014
 30
0.0
 11
89.02873142282123
 21
28.23312133110017
 31
0.0
  0
LINE
  5
4D85
330
1E
100
AcDbEntity
  8
0
 48
0.27
100
AcDbLine
 10
90.28048842282123
 20
32.00434733110004
 30
0.0
 11
90.7407114228212
 21
32.05341033110008
 31
0.0
  0
LINE
  5
4D86
330
1E
100
AcDbEntity
  8
0
 48
0.27
100
AcDbLine
 10
89.83795142282122
 20
27.14099333110012
 30
0.0
 11
90.28048842282123
 21
26.9956903311001
 31
0.0
  0
LINE
  5
4D87
330
1E
100
AcDbEntity
  8
0
 48
0.27
100
AcDbLine
 10
89.27956642282124
 20
30.98973333110007
 30
0.0
 11
89.56574342282122
 21
31.15530033110005
 31
0.0
  0
LINE
  5
4D88
330
1E
100
AcDbEntity
  8
0
 48
0.27
100
AcDbLine
 10
89.02873142282123
 20
28.23312133110017
 30
0.0
 11
89.27956642282124
 21
28.01030533110015
 31
0.0
  0
LINE
  5
4D89
330
1E
100
AcDbEntity
  8
0
 48
0.27
100
AcDbLine
 10
91.34537042282119
 20
31.97700033110008
 30
0.0
 11
91.78307442282122
 21
31.83328433110006
 31
0.0
  0
LINE
  5
4D8A
330
1E
100
AcDbEntity
  8
0
 48
0.27
100
AcDbLine
 10
89.56574342282122
 20
31.15530033110005
 30
0.0
 11
89.87626242282122
 21
31.25725633110008
 31
0.0
  0
LINE
  5
4D8B
330
1E
100
AcDbEntity
  8
0
 48
0.27
100
AcDbLine
 10
89.27956642282124
 20
28.01030533110015
 30
0.0
 11
89.56574342282122
 21
27.84473733110014
 31
0.0
  0
LINE
  5
4D8C
330
1E
100
AcDbEntity
  8
0
 48
0.27
100
AcDbLine
 10
91.20093442282119
 20
32.00434733110004
 30
0.0
 11
91.34537042282119
 21
31.97700033110008
 31
0.0
  0
LINE
  5
4D8D
330
1E
100
AcDbEntity
  8
0
 48
0.27
100
AcDbLine
 10
90.7407114228212
 20
32.05341033110008
 30
0.0
 11
91.20093442282119
 21
32.00434733110004
 31
0.0
  0
LINE
  5
4D8E
330
1E
100
AcDbEntity
  8
0
 48
0.27
100
AcDbLine
 10
90.28048842282123
 20
26.9956903311001
 30
0.0
 11
90.7407114228212
 21
26.94662833110013
 31
0.0
  0
LINE
  5
4D8F
330
1E
100
AcDbEntity
  8
0
 48
0.27
100
AcDbLine
 10
91.78307442282122
 20
31.83328433110006
 30
0.0
 11
92.18646542282121
 21
31.5999023311001
 31
0.0
  0
LINE
  5
4D90
330
1E
100
AcDbEntity
  8
0
 48
0.27
100
AcDbLine
 10
91.34537042282119
 20
27.02303833110014
 30
0.0
 11
91.78307442282122
 21
27.16675433110016
 31
0.0
  0
LINE
  5
4D91
330
1E
100
AcDbEntity
  8
0
 48
0.27
100
AcDbLine
 10
92.18646542282121
 20
31.5999023311001
 30
0.0
 11
92.54004042282119
 21
31.28582333110009
 31
0.0
  0
LINE
  5
4D92
330
1E
100
AcDbEntity
  8
0
 48
0.27
100
AcDbLine
 10
91.78307442282122
 20
27.16675433110016
 30
0.0
 11
92.18646542282121
 21
27.40013633110014
 31
0.0
  0
LINE
  5
4D93
330
1E
100
AcDbEntity
  8
0
 48
0.27
100
AcDbLine
 10
89.87626242282122
 20
31.25725633110008
 30
0.0
 11
90.19919242282119
 21
31.29168233110011
 31
0.0
  0
LINE
  5
4D94
330
1E
100
AcDbEntity
  8
0
 48
0.27
100
AcDbLine
 10
89.56574342282122
 20
27.84473733110014
 30
0.0
 11
89.87626242282122
 21
27.74278133110011
 31
0.0
  0
LINE
  5
4D95
330
1E
100
AcDbEntity
  8
0
 48
0.27
100
AcDbLine
 10
91.20093442282119
 20
32.00434733110004
 30
0.0
 11
91.64347142282119
 21
31.85904533110008
 31
0.0
  0
LINE
  5
4D96
330
1E
100
AcDbEntity
  8
0
 48
0.27
100
AcDbLine
 10
91.20093442282119
 20
26.9956903311001
 30
0.0
 11
91.34537042282119
 21
27.02303833110014
 31
0.0
  0
LINE
  5
4D97
330
1E
100
AcDbEntity
  8
0
 48
0.27
100
AcDbLine
 10
90.7407114228212
 20
26.94662833110013
 30
0.0
 11
91.20093442282119
 21
26.9956903311001
 31
0.0
  0
LINE
  5
4D98
330
1E
100
AcDbEntity
  8
0
 48
0.27
100
AcDbLine
 10
92.54004042282119
 20
31.28582333110009
 30
0.0
 11
92.8302114228212
 21
30.90311633110009
 31
0.0
  0
LINE
  5
4D99
330
1E
100
AcDbEntity
  8
0
 48
0.27
100
AcDbLine
 10
92.18646542282121
 20
27.40013633110014
 30
0.0
 11
92.54004042282119
 21
27.7142153311001
 31
0.0
  0
LINE
  5
4D9A
330
1E
100
AcDbEntity
  8
0
 48
0.27
100
AcDbLine
 10
90.19919242282119
 20
31.29168233110011
 30
0.0
 11
90.52212142282121
 21
31.25725633110008
 31
0.0
  0
LINE
  5
4D9B
330
1E
100
AcDbEntity
  8
0
 48
0.27
100
AcDbLine
 10
89.87626242282122
 20
27.74278133110011
 30
0.0
 11
90.19919242282119
 21
27.70835533110014
 31
0.0
  0
LINE
  5
4D9C
330
1E
100
AcDbEntity
  8
0
 48
0.27
100
AcDbLine
 10
91.64347142282119
 20
31.85904533110008
 30
0.0
 11
92.05131542282121
 21
31.6230863311001
 31
0.0
  0
LINE
  5
4D9D
330
1E
100
AcDbEntity
  8
0
 48
0.27
100
AcDbLine
 10
91.20093442282119
 20
26.9956903311001
 30
0.0
 11
91.64347142282119
 21
27.14099333110012
 31
0.0
  0
LINE
  5
4D9E
330
1E
100
AcDbEntity
  8
0
 48
0.27
100
AcDbLine
 10
92.8302114228212
 20
30.90311633110009
 30
0.0
 11
93.04582842282121
 21
30.4664893311001
 31
0.0
  0
LINE
  5
4D9F
330
1E
100
AcDbEntity
  8
0
 48
0.27
100
AcDbLine
 10
92.8302114228212
 20
28.09692233110014
 30
0.0
 11
92.54004042282119
 21
27.7142153311001
 31
0.0
  0
LINE
  5
4DA0
330
1E
100
AcDbEntity
  8
0
 48
0.27
100
AcDbLine
 10
93.04582842282121
 20
30.4664893311001
 30
0.0
 11
93.17860442282118
 21
29.99272133110012
 31
0.0
  0
LINE
  5
4DA1
330
1E
100
AcDbEntity
  8
0
 48
0.27
100
AcDbLine
 10
93.04582842282121
 20
28.53354933110012
 30
0.0
 11
92.8302114228212
 21
28.09692233110014
 31
0.0
  0
LINE
  5
4DA2
330
1E
100
AcDbEntity
  8
0
 48
0.27
100
AcDbLine
 10
92.05131542282121
 20
31.6230863311001
 30
0.0
 11
92.40879442282118
 21
31.30553933110014
 31
0.0
  0
LINE
  5
4DA3
330
1E
100
AcDbEntity
  8
0
 48
0.27
100
AcDbLine
 10
91.64347142282119
 20
27.14099333110012
 30
0.0
 11
92.05131542282121
 21
27.37695233110012
 31
0.0
  0
LINE
  5
4DA4
330
1E
100
AcDbEntity
  8
0
 48
0.27
100
AcDbLine
 10
93.17860442282118
 20
29.99272133110012
 30
0.0
 11
93.2234374228212
 21
29.50001933110011
 31
0.0
  0
LINE
  5
4DA5
330
1E
100
AcDbEntity
  8
0
 48
0.27
100
AcDbLine
 10
93.17860442282118
 20
29.0073173311001
 30
0.0
 11
93.04582842282121
 21
28.53354933110012
 31
0.0
  0
LINE
  5
4DA6
330
1E
100
AcDbEntity
  8
0
 48
0.27
100
AcDbLine
 10
90.52212142282121
 20
31.25725633110008
 30
0.0
 11
90.8326404228212
 21
31.15530033110005
 31
0.0
  0
LINE
  5
4DA7
330
1E
100
AcDbEntity
  8
0
 48
0.27
100
AcDbLine
 10
90.19919242282119
 20
27.70835533110014
 30
0.0
 11
90.52212142282121
 21
27.74278133110011
 31
0.0
  0
LINE
  5
4DA8
330
1E
100
AcDbEntity
  8
0
 48
0.27
100
AcDbLine
 10
93.2234374228212
 20
29.50001933110011
 30
0.0
 11
93.17860442282118
 21
29.0073173311001
 31
0.0
  0
LINE
  5
4DA9
330
1E
100
AcDbEntity
  8
0
 48
0.27
100
AcDbLine
 10
92.40879442282118
 20
31.30553933110014
 30
0.0
 11
92.70216942282116
 21
30.91860733110011
 31
0.0
  0
LINE
  5
4DAA
330
1E
100
AcDbEntity
  8
0
 48
0.27
100
AcDbLine
 10
92.05131542282121
 20
27.37695233110012
 30
0.0
 11
92.40879442282118
 21
27.69449933110008
 31
0.0
  0
LINE
  5
4DAB
330
1E
100
AcDbEntity
  8
0
 48
0.27
100
AcDbLine
 10
90.8326404228212
 20
31.15530033110005
 30
0.0
 11
91.1188174228212
 21
30.98973333110007
 31
0.0
  0
LINE
  5
4DAC
330
1E
100
AcDbEntity
  8
0
 48
0.27
100
AcDbLine
 10
90.52212142282121
 20
27.74278133110011
 30
0.0
 11
90.8326404228212
 21
27.84473733110014
 31
0.0
  0
LINE
  5
4DAD
330
1E
100
AcDbEntity
  8
0
 48
0.27
100
AcDbLine
 10
92.70216942282116
 20
30.91860733110011
 30
0.0
 11
92.92016642282119
 21
30.4771593311001
 31
0.0
  0
LINE
  5
4DAE
330
1E
100
AcDbEntity
  8
0
 48
0.27
100
AcDbLine
 10
92.70216942282116
 20
28.08143133110011
 30
0.0
 11
92.40879442282118
 21
27.69449933110008
 31
0.0
  0
LINE
  5
4DAF
330
1E
100
AcDbEntity
  8
0
 48
0.27
100
AcDbLine
 10
92.92016642282119
 20
30.4771593311001
 30
0.0
 11
93.05440942282118
 21
29.99816133110011
 31
0.0
  0
LINE
  5
4DB0
330
1E
100
AcDbEntity
  8
0
 48
0.27
100
AcDbLine
 10
92.92016642282119
 20
28.52287833110009
 30
0.0
 11
92.70216942282116
 21
28.08143133110011
 31
0.0
  0
LINE
  5
4DB1
330
1E
100
AcDbEntity
  8
0
 48
0.27
100
AcDbLine
 10
91.1188174228212
 20
30.98973333110007
 30
0.0
 11
91.36965242282121
 21
30.76691633110011
 31
0.0
  0
LINE
  5
4DB2
330
1E
100
AcDbEntity
  8
0
 48
0.27
100
AcDbLine
 10
90.8326404228212
 20
27.84473733110014
 30
0.0
 11
91.1188174228212
 21
28.01030533110015
 31
0.0
  0
LINE
  5
4DB3
330
1E
100
AcDbEntity
  8
0
 48
0.27
100
AcDbLine
 10
93.05440942282118
 20
29.99816133110011
 30
0.0
 11
93.09973742282116
 21
29.50001933110011
 31
0.0
  0
LINE
  5
4DB4
330
1E
100
AcDbEntity
  8
0
 48
0.27
100
AcDbLine
 10
93.05440942282118
 20
29.00187733110011
 30
0.0
 11
92.92016642282119
 21
28.52287833110009
 31
0.0
  0
LINE
  5
4DB5
330
1E
100
AcDbEntity
  8
0
 48
0.27
100
AcDbLine
 10
93.09973742282116
 20
29.50001933110011
 30
0.0
 11
93.05440942282118
 21
29.00187733110011
 31
0.0
  0
LINE
  5
4DB6
330
1E
100
AcDbEntity
  8
0
 48
0.27
100
AcDbLine
 10
91.36965242282121
 20
30.76691633110011
 30
0.0
 11
91.57550842282118
 21
30.49541433110008
 31
0.0
  0
LINE
  5
4DB7
330
1E
100
AcDbEntity
  8
0
 48
0.27
100
AcDbLine
 10
91.1188174228212
 20
28.01030533110015
 30
0.0
 11
91.36965242282121
 21
28.23312133110017
 31
0.0
  0
LINE
  5
4DB8
330
1E
100
AcDbEntity
  8
0
 48
0.27
100
AcDbLine
 10
91.57550842282118
 20
30.49541433110008
 30
0.0
 11
91.7284724228212
 21
30.18565933110012
 31
0.0
  0
LINE
  5
4DB9
330
1E
100
AcDbEntity
  8
0
 48
0.27
100
AcDbLine
 10
91.57550842282118
 20
28.50462433110014
 30
0.0
 11
91.36965242282121
 21
28.23312133110017
 31
0.0
  0
LINE
  5
4DBA
330
1E
100
AcDbEntity
  8
0
 48
0.27
100
AcDbLine
 10
91.7284724228212
 20
30.18565933110012
 30
0.0
 11
91.8226674228212
 21
29.84955533110011
 31
0.0
  0
LINE
  5
4DBB
330
1E
100
AcDbEntity
  8
0
 48
0.27
100
AcDbLine
 10
91.7284724228212
 20
28.8143793311001
 30
0.0
 11
91.57550842282118
 21
28.50462433110014
 31
0.0
  0
LINE
  5
4DBC
330
1E
100
AcDbEntity
  8
0
 48
0.27
100
AcDbLine
 10
91.8226674228212
 20
29.84955533110011
 30
0.0
 11
91.8544734228212
 21
29.50001933110011
 31
0.0
  0
LINE
  5
4DBD
330
1E
100
AcDbEntity
  8
0
 48
0.27
100
AcDbLine
 10
91.8226674228212
 20
29.15048333110011
 30
0.0
 11
91.7284724228212
 21
28.8143793311001
 31
0.0
  0
LINE
  5
4DBE
330
1E
100
AcDbEntity
  8
0
 48
0.27
100
AcDbLine
 10
91.8544734228212
 20
29.50001933110011
 30
0.0
 11
91.8226674228212
 21
29.15048333110011
 31
0.0
  0
POINT
  5
4DBF
330
1E
100
AcDbEntity
  8
0
100
AcDbPoint
 10
88.38168542282124
 20
29.50001933110011
 30
0.0
1001
pntflag
1000
endpoint
  0
ARC
  5
4E40
330
1E
100
AcDbEntity
  8
0
 48
0.27
100
AcDbCircle
 10
-2.93306063372208
 20
29.49980692529135
 30
0.0
 40
5.249999999999995
100
AcDbArc
 50
30.24329777399995
 51
329.7566907592999
  0
LWPOLYLINE
  5
4E41
330
1E
100
AcDbEntity
  8
0
 48
0.27
100
AcDbPolyline
 90
       17
 70
     0
 43
0.0
 10
6.01862709357791
 20
29.49980692529134
 10
6.052175394977941
 20
29.28276968279133
 10
6.085066384177925
 20
29.21986544879136
 10
6.121636717977897
 20
29.19032381209134
 10
6.155613875377913
 20
29.19063109209136
 10
6.192106721177927
 20
29.22083538489135
 10
6.22345062217794
 20
29.28060536239133
 10
6.252837282877938
 20
29.41067834309134
 10
6.257804531677938
 20
29.49980692529134
 10
6.224257566277932
 20
29.71684283179133
 10
6.191365241077893
 20
29.77974706579135
 10
6.154794907277922
 20
29.80928870249135
 10
6.120819085877931
 20
29.80898142239134
 10
6.084324904077923
 20
29.77877712959134
 10
6.052982339077905
 20
29.71900715209134
 10
6.023594342377911
 20
29.58893417149134
 10
6.01862709357791
 20
29.49980692529134
  0
ARC
  5
4E42
330
1E
100
AcDbEntity
  8
0
 48
0.27
100
AcDbCircle
 10
-2.93306063372208
 20
29.49980692529135
 30
0.0
 40
3.999999331999998
100
AcDbArc
 50
48.59037799889997
 51
311.4096220032
  0
LINE
  5
4E43
330
1E
100
AcDbEntity
  8
0
 48
0.27
100
AcDbLine
 10
-0.0463088627220945
 20
32.49980609029134
 30
0.0
 11
-0.6236600185220828
 21
33.49980625729134
 31
0.0
  0
LINE
  5
4E44
330
1E
100
AcDbEntity
  8
0
 48
0.27
100
AcDbLine
 10
-5.242461248922085
 20
33.49980625729134
 30
0.0
 11
-0.6236600185220828
 21
33.49980625729134
 31
0.0
  0
LINE
  5
4E45
330
1E
100
AcDbEntity
  8
0
 48
0.27
100
AcDbLine
 10
-5.242461248922085
 20
33.49980625729134
 30
0.0
 11
-7.551861864122074
 21
29.49980692529135
 31
0.0
  0
LINE
  5
4E46
330
1E
100
AcDbEntity
  8
0
 48
0.27
100
AcDbLine
 10
-7.551861864122074
 20
29.49980692529135
 30
0.0
 11
-5.242461248922085
 21
25.49980625729134
 31
0.0
  0
LINE
  5
4E47
330
1E
100
AcDbEntity
  8
0
 48
0.27
100
AcDbLine
 10
-0.6236586825220858
 20
25.49980625729134
 30
0.0
 11
-5.242461248922085
 21
25.49980625729134
 31
0.0
  0
LINE
  5
4E48
330
1E
100
AcDbEntity
  8
0
 48
0.27
100
AcDbLine
 10
-0.0463088627220945
 20
26.49980642429135
 30
0.0
 11
-0.6236586825220858
 21
25.49980625729134
 31
0.0
  0
LINE
  5
4E49
330
1E
100
AcDbEntity
  8
0
 48
0.27
100
AcDbLine
 10
-1.631554610722078
 20
26.49980642429135
 30
0.0
 11
1.382513972477899
 21
26.49980642429135
 31
0.0
  0
LINE
  5
4E4A
330
1E
100
AcDbEntity
  8
0
 48
0.27
100
AcDbLine
 10
1.445412862477914
 20
32.21511914099135
 30
0.0
 11
1.382513972477899
 21
32.49980609029134
 31
0.0
  0
LINE
  5
4E4B
330
1E
100
AcDbEntity
  8
0
 48
0.27
100
AcDbLine
 10
1.382513972477899
 20
26.49980642429135
 30
0.0
 11
1.445412862477914
 21
26.78449337359135
 31
0.0
  0
LINE
  5
4E4C
330
1E
100
AcDbEntity
  8
0
 48
0.27
100
AcDbLine
 10
-1.631554610722078
 20
32.49980609029134
 30
0.0
 11
1.382513972477899
 21
32.49980609029134
 31
0.0
  0
LINE
  5
4E4D
330
1E
100
AcDbEntity
  8
0
 48
0.27
100
AcDbLine
 10
0.9436606146779151
 20
26.55745082549135
 30
0.0
 11
2.945467220977908
 21
27.46326564949136
 31
0.0
  0
LINE
  5
4E4E
330
1E
100
AcDbEntity
  8
0
 48
0.27
100
AcDbLine
 10
6.810681499577888
 20
29.15027052569133
 30
0.0
 11
6.823855797677911
 21
29.49980692529135
 31
0.0
  0
LINE
  5
4E4F
330
1E
100
AcDbEntity
  8
0
 48
0.27
100
AcDbLine
 10
6.771664949377925
 20
28.81416627229134
 30
0.0
 11
6.810681499577888
 21
29.15027052569133
 31
0.0
  0
LINE
  5
4E50
330
1E
100
AcDbEntity
  8
0
 48
0.27
100
AcDbLine
 10
6.823855797677911
 20
29.49980692529135
 30
0.0
 11
6.810681499577888
 21
29.84934332489136
 31
0.0
  0
LINE
  5
4E51
330
1E
100
AcDbEntity
  8
0
 48
0.27
100
AcDbLine
 10
0.7196868590779159
 20
26.49980642429135
 30
0.0
 11
0.9436606146779151
 21
26.55745082549135
 31
0.0
  0
LINE
  5
4E52
330
1E
100
AcDbEntity
  8
0
 48
0.27
100
AcDbLine
 10
0.7196868590779159
 20
32.49980609029134
 30
0.0
 11
0.9436606146779151
 21
32.44216168909134
 31
0.0
  0
LINE
  5
4E53
330
1E
100
AcDbEntity
  8
0
 48
0.27
100
AcDbLine
 10
0.9436606146779151
 20
32.44216168909134
 30
0.0
 11
2.945467220977908
 21
31.53634686509136
 31
0.0
  0
LINE
  5
4E54
330
1E
100
AcDbEntity
  8
0
 48
0.27
100
AcDbLine
 10
6.708305139277915
 20
28.50441195099134
 30
0.0
 11
6.771664949377925
 21
28.81416627229134
 31
0.0
  0
LINE
  5
4E55
330
1E
100
AcDbEntity
  8
0
 48
0.27
100
AcDbLine
 10
6.810681499577888
 20
29.84934332489136
 30
0.0
 11
6.771664949377925
 21
30.18544624229134
 31
0.0
  0
LINE
  5
4E56
330
1E
100
AcDbEntity
  8
0
 48
0.27
100
AcDbLine
 10
6.623036261677901
 20
28.23290865189134
 30
0.0
 11
6.708305139277915
 21
28.50441195099134
 31
0.0
  0
LINE
  5
4E57
330
1E
100
AcDbEntity
  8
0
 48
0.27
100
AcDbLine
 10
5.863681796977892
 20
27.86149792079135
 30
0.0
 11
5.865580253277902
 21
27.86242644089134
 31
0.0
  0
LINE
  5
4E58
330
1E
100
AcDbEntity
  8
0
 48
0.27
100
AcDbLine
 10
6.771664949377925
 20
30.18544624229134
 30
0.0
 11
6.708305139277915
 21
30.49520189959135
 31
0.0
  0
LINE
  5
4E59
330
1E
100
AcDbEntity
  8
0
 48
0.27
100
AcDbLine
 10
0.4957131034779163
 20
26.55745082549135
 30
0.0
 11
0.7196868590779159
 21
26.49980642429135
 31
0.0
  0
LINE
  5
4E5A
330
1E
100
AcDbEntity
  8
0
 48
0.27
100
AcDbLine
 10
0.4957131034779163
 20
32.44216168909134
 30
0.0
 11
0.7196868590779159
 21
32.49980609029134
 31
0.0
  0
LINE
  5
4E5B
330
1E
100
AcDbEntity
  8
0
 48
0.27
100
AcDbLine
 10
6.519136861177917
 20
28.01009187239135
 30
0.0
 11
6.623036261677901
 21
28.23290865189134
 31
0.0
  0
LINE
  5
4E5C
330
1E
100
AcDbEntity
  8
0
 48
0.27
100
AcDbLine
 10
6.708305139277915
 20
30.49520189959135
 30
0.0
 11
6.623036261677901
 21
30.76670386269134
 31
0.0
  0
LINE
  5
4E5D
330
1E
100
AcDbEntity
  8
0
 48
0.27
100
AcDbLine
 10
2.945467220977908
 20
27.46326564949136
 30
0.0
 11
3.186589875277893
 21
27.56166874509137
 31
0.0
  0
LINE
  5
4E5E
330
1E
100
AcDbEntity
  8
0
 48
0.27
100
AcDbLine
 10
2.945467220977908
 20
31.53634686509136
 30
0.0
 11
3.186589875277893
 21
31.43794510549134
 31
0.0
  0
LINE
  5
4E5F
330
1E
100
AcDbEntity
  8
0
 48
0.27
100
AcDbLine
 10
6.400598906377911
 20
27.84452537409136
 30
0.0
 11
6.519136861177917
 21
28.01009187239135
 31
0.0
  0
LINE
  5
4E60
330
1E
100
AcDbEntity
  8
0
 48
0.27
100
AcDbLine
 10
6.623036261677901
 20
30.76670386269134
 30
0.0
 11
6.519136861177917
 21
30.98952064219136
 31
0.0
  0
LINE
  5
4E61
330
1E
100
AcDbEntity
  8
0
 48
0.27
100
AcDbLine
 10
0.2803471971779086
 20
26.72816760459134
 30
0.0
 11
0.4957131034779163
 21
26.55745082549135
 31
0.0
  0
LINE
  5
4E62
330
1E
100
AcDbEntity
  8
0
 48
0.27
100
AcDbLine
 10
0.2803471971779086
 20
32.27144490999136
 30
0.0
 11
0.4957131034779163
 21
32.44216168909134
 31
0.0
  0
LINE
  5
4E63
330
1E
100
AcDbEntity
  8
0
 48
0.27
100
AcDbLine
 10
3.186589875277893
 20
27.56166874509137
 30
0.0
 11
3.401513565477904
 21
27.55254119169135
 31
0.0
  0
LINE
  5
4E64
330
1E
100
AcDbEntity
  8
0
 48
0.27
100
AcDbLine
 10
3.186589875277893
 20
31.43794510549134
 30
0.0
 11
3.401513565477904
 21
31.44707132289133
 31
0.0
  0
LINE
  5
4E65
330
1E
100
AcDbEntity
  8
0
 48
0.27
100
AcDbLine
 10
5.021503335077929
 20
26.99547853509135
 30
0.0
 11
6.271978157877901
 21
27.74256851789135
 31
0.0
  0
LINE
  5
4E66
330
1E
100
AcDbEntity
  8
0
 48
0.27
100
AcDbLine
 10
6.271978157877901
 20
27.74256851789135
 30
0.0
 11
6.400598906377911
 21
27.84452537409136
 31
0.0
  0
LINE
  5
4E67
330
1E
100
AcDbEntity
  8
0
 48
0.27
100
AcDbLine
 10
6.519136861177917
 20
30.98952064219136
 30
0.0
 11
6.400598906377911
 21
31.15508714049133
 31
0.0
  0
LINE
  5
4E68
330
1E
100
AcDbEntity
  8
0
 48
0.27
100
AcDbLine
 10
-2.294381724122084
 20
29.49980692529135
 30
0.0
 11
-1.631554610722078
 21
32.49980609029134
 31
0.0
  0
LINE
  5
4E69
330
1E
100
AcDbEntity
  8
0
 48
0.27
100
AcDbLine
 10
-2.294381724122084
 20
29.49980692529135
 30
0.0
 11
-0.6059673677220819
 21
29.49980692529135
 31
0.0
  0
LINE
  5
4E6A
330
1E
100
AcDbEntity
  8
0
 48
0.27
100
AcDbLine
 10
-1.631554610722078
 20
26.49980642429135
 30
0.0
 11
-2.294381724122084
 21
29.49980692529135
 31
0.0
  0
LINE
  5
4E6B
330
1E
100
AcDbEntity
  8
0
 48
0.27
100
AcDbLine
 10
0.2803471971779086
 20
26.72816760459134
 30
0.0
 11
0.0818643256779179
 21
27.00539700069136
 31
0.0
  0
LINE
  5
4E6C
330
1E
100
AcDbEntity
  8
0
 48
0.27
100
AcDbLine
 10
0.0818643256779179
 20
31.99421551389133
 30
0.0
 11
0.2803471971779086
 21
32.27144490999136
 31
0.0
  0
LINE
  5
4E6D
330
1E
100
AcDbEntity
  8
0
 48
0.27
100
AcDbLine
 10
4.830873472777899
 20
26.94641526329134
 30
0.0
 11
5.021503335077929
 21
26.99547853509135
 31
0.0
  0
LINE
  5
4E6E
330
1E
100
AcDbEntity
  8
0
 48
0.27
100
AcDbLine
 10
4.470041191377894
 20
26.97429892369135
 30
0.0
 11
4.830873472777899
 21
26.94641526329134
 31
0.0
  0
LINE
  5
4E6F
330
1E
100
AcDbEntity
  8
0
 48
0.27
100
AcDbLine
 10
3.401513565477904
 20
27.55254119169135
 30
0.0
 11
3.955460669577907
 21
27.18732415759134
 31
0.0
  0
LINE
  5
4E70
330
1E
100
AcDbEntity
  8
0
 48
0.27
100
AcDbLine
 10
6.138216480577915
 20
27.70814246439134
 30
0.0
 11
6.271978157877901
 21
27.74256851789135
 31
0.0
  0
LINE
  5
4E71
330
1E
100
AcDbEntity
  8
0
 48
0.27
100
AcDbLine
 10
5.021503335077929
 20
32.00413531549133
 30
0.0
 11
6.271978157877901
 21
31.25704399669135
 31
0.0
  0
LINE
  5
4E72
330
1E
100
AcDbEntity
  8
0
 48
0.27
100
AcDbLine
 10
6.271978157877901
 20
31.25704399669135
 30
0.0
 11
6.400598906377911
 21
31.15508714049133
 31
0.0
  0
LINE
  5
4E73
330
1E
100
AcDbEntity
  8
0
 48
0.27
100
AcDbLine
 10
4.830873472777899
 20
32.05319725129135
 30
0.0
 11
5.021503335077929
 21
32.00413531549133
 31
0.0
  0
LINE
  5
4E74
330
1E
100
AcDbEntity
  8
0
 48
0.27
100
AcDbLine
 10
4.470041191377894
 20
32.02531492679135
 30
0.0
 11
4.830873472777899
 21
32.05319725129135
 31
0.0
  0
LINE
  5
4E75
330
1E
100
AcDbEntity
  8
0
 48
0.27
100
AcDbLine
 10
3.210677959177904
 20
27.69704431069134
 30
0.0
 11
3.350758917377906
 21
27.58600398899137
 31
0.0
  0
LINE
  5
4E76
330
1E
100
AcDbEntity
  8
0
 48
0.27
100
AcDbLine
 10
3.955460669577907
 20
27.18732415759134
 30
0.0
 11
4.281492817377899
 21
27.02282512349135
 31
0.0
  0
LINE
  5
4E77
330
1E
100
AcDbEntity
  8
0
 48
0.27
100
AcDbLine
 10
4.281492817377899
 20
27.02282512349135
 30
0.0
 11
4.470041191377894
 21
26.97429892369135
 31
0.0
  0
LINE
  5
4E78
330
1E
100
AcDbEntity
  8
0
 48
0.27
100
AcDbLine
 10
3.401513565477904
 20
31.44707132289133
 30
0.0
 11
3.955460669577907
 21
31.81228835699134
 31
0.0
  0
LINE
  5
4E79
330
1E
100
AcDbEntity
  8
0
 48
0.27
100
AcDbLine
 10
3.210677959177904
 20
31.30256820389134
 30
0.0
 11
3.350758917377906
 21
31.41360852559135
 31
0.0
  0
LINE
  5
4E7A
330
1E
100
AcDbEntity
  8
0
 48
0.27
100
AcDbLine
 10
0.0818643256779179
 20
27.00539700069136
 30
0.0
 11
-0.0921069500220941
 21
27.37848574799134
 31
0.0
  0
LINE
  5
4E7B
330
1E
100
AcDbEntity
  8
0
 48
0.27
100
AcDbLine
 10
-0.0921069500220941
 20
31.62112676659134
 30
0.0
 11
0.0818643256779179
 21
31.99421551389133
 31
0.0
  0
LINE
  5
4E7C
330
1E
100
AcDbEntity
  8
0
 48
0.27
100
AcDbLine
 10
4.640242274477889
 20
26.99547853509135
 30
0.0
 11
4.830873472777899
 21
26.94641526329134
 31
0.0
  0
LINE
  5
4E7D
330
1E
100
AcDbEntity
  8
0
 48
0.27
100
AcDbLine
 10
4.281492817377899
 20
31.97678739109135
 30
0.0
 11
4.470041191377894
 21
32.02531492679135
 31
0.0
  0
LINE
  5
4E7E
330
1E
100
AcDbEntity
  8
0
 48
0.27
100
AcDbLine
 10
3.955460669577907
 20
31.81228835699134
 30
0.0
 11
4.281492817377899
 21
31.97678739109135
 31
0.0
  0
LINE
  5
4E7F
330
1E
100
AcDbEntity
  8
0
 48
0.27
100
AcDbLine
 10
0.0568597456779312
 20
26.49980642429135
 30
0.0
 11
-0.6059673677220819
 21
29.49980692529135
 31
0.0
  0
LINE
  5
4E80
330
1E
100
AcDbEntity
  8
0
 48
0.27
100
AcDbLine
 10
-0.6059673677220819
 20
29.49980692529135
 30
0.0
 11
0.0568597456779312
 21
32.49980609029134
 31
0.0
  0
LINE
  5
4E81
330
1E
100
AcDbEntity
  8
0
 48
0.27
100
AcDbLine
 10
3.210677959177904
 20
27.69704431069134
 30
0.0
 11
3.081577586577911
 21
27.87736292329134
 31
0.0
  0
LINE
  5
4E82
330
1E
100
AcDbEntity
  8
0
 48
0.27
100
AcDbLine
 10
6.004454803377901
 20
27.74256851789135
 30
0.0
 11
6.138216480577915
 21
27.70814246439134
 31
0.0
  0
LINE
  5
4E83
330
1E
100
AcDbEntity
  8
0
 48
0.27
100
AcDbLine
 10
6.138216480577915
 20
31.29147005019135
 30
0.0
 11
6.271978157877901
 21
31.25704399669135
 31
0.0
  0
LINE
  5
4E84
330
1E
100
AcDbEntity
  8
0
 48
0.27
100
AcDbLine
 10
4.640242274477889
 20
32.00413531549133
 30
0.0
 11
4.830873472777899
 21
32.05319725129135
 31
0.0
  0
LINE
  5
4E85
330
1E
100
AcDbEntity
  8
0
 48
0.27
100
AcDbLine
 10
3.786197458677908
 20
31.67811652759134
 30
0.0
 11
3.955460669577907
 21
31.81228835699134
 31
0.0
  0
LINE
  5
4E86
330
1E
100
AcDbEntity
  8
0
 48
0.27
100
AcDbLine
 10
3.081577586577911
 20
31.12224959129135
 30
0.0
 11
3.210677959177904
 21
31.30256820389134
 31
0.0
  0
LINE
  5
4E87
330
1E
100
AcDbEntity
  8
0
 48
0.27
100
AcDbLine
 10
-0.0921069500220941
 20
27.37848574799134
 30
0.0
 11
-0.2348826207220842
 21
27.83309589229133
 31
0.0
  0
LINE
  5
4E88
330
1E
100
AcDbEntity
  8
0
 48
0.27
100
AcDbLine
 10
-0.2348826207220842
 20
31.16651662229134
 30
0.0
 11
-0.0921069500220941
 21
31.62112676659134
 31
0.0
  0
LINE
  5
4E89
330
1E
100
AcDbEntity
  8
0
 48
0.27
100
AcDbLine
 10
3.081577586577911
 20
27.87736292329134
 30
0.0
 11
2.968421040677915
 21
28.12003132989135
 31
0.0
  0
LINE
  5
4E8A
330
1E
100
AcDbEntity
  8
0
 48
0.27
100
AcDbLine
 10
4.456937701277912
 20
27.14078058219134
 30
0.0
 11
4.640242274477889
 21
26.99547853509135
 31
0.0
  0
LINE
  5
4E8B
330
1E
100
AcDbEntity
  8
0
 48
0.27
100
AcDbLine
 10
2.968421040677915
 20
30.87958118469134
 30
0.0
 11
3.081577586577911
 21
31.12224959129135
 31
0.0
  0
LINE
  5
4E8C
330
1E
100
AcDbEntity
  8
0
 48
0.27
100
AcDbLine
 10
5.875832718877892
 20
27.84452537409136
 30
0.0
 11
6.004454803377901
 21
27.74256851789135
 31
0.0
  0
LINE
  5
4E8D
330
1E
100
AcDbEntity
  8
0
 48
0.27
100
AcDbLine
 10
4.456937701277912
 20
31.85883193239134
 30
0.0
 11
4.640242274477889
 21
32.00413531549133
 31
0.0
  0
LINE
  5
4E8E
330
1E
100
AcDbEntity
  8
0
 48
0.27
100
AcDbLine
 10
6.004454803377901
 20
31.25704399669135
 30
0.0
 11
6.138216480577915
 21
31.29147005019135
 31
0.0
  0
LINE
  5
4E8F
330
1E
100
AcDbEntity
  8
0
 48
0.27
100
AcDbLine
 10
2.968421040677915
 20
28.12003132989135
 30
0.0
 11
2.875555665877916
 21
28.41572424889136
 31
0.0
  0
LINE
  5
4E90
330
1E
100
AcDbEntity
  8
0
 48
0.27
100
AcDbLine
 10
-0.2348826207220842
 20
27.83309589229133
 30
0.0
 11
-0.3409730615220869
 21
28.35175655879136
 31
0.0
  0
LINE
  5
4E91
330
1E
100
AcDbEntity
  8
0
 48
0.27
100
AcDbLine
 10
-0.3409730615220869
 20
30.64785729179133
 30
0.0
 11
-0.2348826207220842
 21
31.16651662229134
 31
0.0
  0
LINE
  5
4E92
330
1E
100
AcDbEntity
  8
0
 48
0.27
100
AcDbLine
 10
2.875555665877916
 20
30.58388826569133
 30
0.0
 11
2.968421040677915
 21
30.87958118469134
 31
0.0
  0
LINE
  5
4E93
330
1E
100
AcDbEntity
  8
0
 48
0.27
100
AcDbLine
 10
4.456937701277912
 20
27.14078058219134
 30
0.0
 11
4.288003146477896
 21
27.37673959569135
 31
0.0
  0
LINE
  5
4E94
330
1E
100
AcDbEntity
  8
0
 48
0.27
100
AcDbLine
 10
2.875555665877916
 20
28.41572424889136
 30
0.0
 11
2.806551254877906
 21
28.75307766259136
 31
0.0
  0
LINE
  5
4E95
330
1E
100
AcDbEntity
  8
0
 48
0.27
100
AcDbLine
 10
-0.3409730615220869
 20
28.35175655879136
 30
0.0
 11
-0.4063034719220884
 21
28.91453596019135
 31
0.0
  0
LINE
  5
4E96
330
1E
100
AcDbEntity
  8
0
 48
0.27
100
AcDbLine
 10
-0.4063034719220884
 20
30.08507789029135
 30
0.0
 11
-0.3409730615220869
 21
30.64785729179133
 31
0.0
  0
LINE
  5
4E97
330
1E
100
AcDbEntity
  8
0
 48
0.27
100
AcDbLine
 10
5.875832718877892
 20
31.15508714049133
 30
0.0
 11
6.004454803377901
 21
31.25704399669135
 31
0.0
  0
LINE
  5
4E98
330
1E
100
AcDbEntity
  8
0
 48
0.27
100
AcDbLine
 10
5.875832718877892
 20
27.84452537409136
 30
0.0
 11
5.757294764077931
 21
28.01009187239135
 31
0.0
  0
LINE
  5
4E99
330
1E
100
AcDbEntity
  8
0
 48
0.27
100
AcDbLine
 10
4.288003146477896
 20
31.62287291889133
 30
0.0
 11
4.456937701277912
 21
31.85883193239134
 31
0.0
  0
LINE
  5
4E9A
330
1E
100
AcDbEntity
  8
0
 48
0.27
100
AcDbLine
 10
2.806551254877906
 20
30.24653485199134
 30
0.0
 11
2.875555665877916
 21
30.58388826569133
 31
0.0
  0
LINE
  5
4E9B
330
1E
100
AcDbEntity
  8
0
 48
0.27
100
AcDbLine
 10
2.806551254877906
 20
28.75307766259136
 30
0.0
 11
2.764057096177912
 21
29.11912702479133
 31
0.0
  0
LINE
  5
4E9C
330
1E
100
AcDbEntity
  8
0
 48
0.27
100
AcDbLine
 10
-0.4063034719220884
 20
28.91453596019135
 30
0.0
 11
-0.4283635074220788
 21
29.49980692529135
 31
0.0
  0
LINE
  5
4E9D
330
1E
100
AcDbEntity
  8
0
 48
0.27
100
AcDbLine
 10
-0.4283635074220788
 20
29.49980692529135
 30
0.0
 11
-0.4063034719220884
 21
30.08507789029135
 31
0.0
  0
LINE
  5
4E9E
330
1E
100
AcDbEntity
  8
0
 48
0.27
100
AcDbLine
 10
2.764057096177912
 20
29.88048548979133
 30
0.0
 11
2.806551254877906
 21
30.24653485199134
 31
0.0
  0
LINE
  5
4E9F
330
1E
100
AcDbEntity
  8
0
 48
0.27
100
AcDbLine
 10
2.764057096177912
 20
29.11912702479133
 30
0.0
 11
2.749709789877917
 21
29.49980692529135
 31
0.0
  0
LINE
  5
4EA0
330
1E
100
AcDbEntity
  8
0
 48
0.27
100
AcDbLine
 10
2.749709789877917
 20
29.49980692529135
 30
0.0
 11
2.764057096177912
 21
29.88048548979133
 31
0.0
  0
LINE
  5
4EA1
330
1E
100
AcDbEntity
  8
0
 48
0.27
100
AcDbLine
 10
4.288003146477896
 20
27.37673959569135
 30
0.0
 11
4.139930234877913
 21
27.69428680619134
 31
0.0
  0
LINE
  5
4EA2
330
1E
100
AcDbEntity
  8
0
 48
0.27
100
AcDbLine
 10
5.757294764077931
 20
30.98952064219136
 30
0.0
 11
5.875832718877892
 21
31.15508714049133
 31
0.0
  0
LINE
  5
4EA3
330
1E
100
AcDbEntity
  8
0
 48
0.27
100
AcDbLine
 10
5.757294764077931
 20
28.01009187239135
 30
0.0
 11
5.653395363577891
 21
28.23290865189134
 31
0.0
  0
LINE
  5
4EA4
330
1E
100
AcDbEntity
  8
0
 48
0.27
100
AcDbLine
 10
4.139930234877913
 20
31.30532704439135
 30
0.0
 11
4.288003146477896
 21
31.62287291889133
 31
0.0
  0
LINE
  5
4EA5
330
1E
100
AcDbEntity
  8
0
 48
0.27
100
AcDbLine
 10
5.653395363577891
 20
30.76670386269134
 30
0.0
 11
5.757294764077931
 21
30.98952064219136
 31
0.0
  0
LINE
  5
4EA6
330
1E
100
AcDbEntity
  8
0
 48
0.27
100
AcDbLine
 10
4.139930234877913
 20
27.69428680619134
 30
0.0
 11
4.018410327577916
 21
28.08121785169134
 31
0.0
  0
LINE
  5
4EA7
330
1E
100
AcDbEntity
  8
0
 48
0.27
100
AcDbLine
 10
5.653395363577891
 20
28.23290865189134
 30
0.0
 11
5.568127821977887
 21
28.50441195099134
 31
0.0
  0
LINE
  5
4EA8
330
1E
100
AcDbEntity
  8
0
 48
0.27
100
AcDbLine
 10
4.018410327577916
 20
30.91839466279135
 30
0.0
 11
4.139930234877913
 21
31.30532704439135
 31
0.0
  0
LINE
  5
4EA9
330
1E
100
AcDbEntity
  8
0
 48
0.27
100
AcDbLine
 10
5.568127821977887
 20
30.49520189959135
 30
0.0
 11
5.653395363577891
 21
30.76670386269134
 31
0.0
  0
LINE
  5
4EAA
330
1E
100
AcDbEntity
  8
0
 48
0.27
100
AcDbLine
 10
4.018410327577916
 20
28.08121785169134
 30
0.0
 11
3.928112745177931
 21
28.52266572189133
 31
0.0
  0
LINE
  5
4EAB
330
1E
100
AcDbEntity
  8
0
 48
0.27
100
AcDbLine
 10
5.568127821977887
 20
28.50441195099134
 30
0.0
 11
5.504768011877919
 21
28.81416627229134
 31
0.0
  0
LINE
  5
4EAC
330
1E
100
AcDbEntity
  8
0
 48
0.27
100
AcDbLine
 10
3.928112745177931
 20
30.47694679269135
 30
0.0
 11
4.018410327577916
 21
30.91839466279135
 31
0.0
  0
LINE
  5
4EAD
330
1E
100
AcDbEntity
  8
0
 48
0.27
100
AcDbLine
 10
5.504768011877919
 20
30.18544624229134
 30
0.0
 11
5.568127821977887
 21
30.49520189959135
 31
0.0
  0
LINE
  5
4EAE
330
1E
100
AcDbEntity
  8
0
 48
0.27
100
AcDbLine
 10
3.928112745177931
 20
28.52266572189133
 30
0.0
 11
3.872508416377902
 21
29.00166455009135
 31
0.0
  0
LINE
  5
4EAF
330
1E
100
AcDbEntity
  8
0
 48
0.27
100
AcDbLine
 10
5.504768011877919
 20
28.81416627229134
 30
0.0
 11
5.465750125677891
 21
29.15027052569133
 31
0.0
  0
LINE
  5
4EB0
330
1E
100
AcDbEntity
  8
0
 48
0.27
100
AcDbLine
 10
3.872508416377902
 20
29.99794796449135
 30
0.0
 11
3.928112745177931
 21
30.47694679269135
 31
0.0
  0
LINE
  5
4EB1
330
1E
100
AcDbEntity
  8
0
 48
0.27
100
AcDbLine
 10
5.465750125677891
 20
29.84934332489136
 30
0.0
 11
5.504768011877919
 21
30.18544624229134
 31
0.0
  0
LINE
  5
4EB2
330
1E
100
AcDbEntity
  8
0
 48
0.27
100
AcDbLine
 10
3.872508416377902
 20
29.00166455009135
 30
0.0
 11
3.853732269377891
 21
29.49980692529135
 31
0.0
  0
LINE
  5
4EB3
330
1E
100
AcDbEntity
  8
0
 48
0.27
100
AcDbLine
 10
5.465750125677891
 20
29.15027052569133
 30
0.0
 11
5.452575827577922
 21
29.49980692529135
 31
0.0
  0
LINE
  5
4EB4
330
1E
100
AcDbEntity
  8
0
 48
0.27
100
AcDbLine
 10
5.452575827577922
 20
29.49980692529135
 30
0.0
 11
5.465750125677891
 21
29.84934332489136
 31
0.0
  0
LINE
  5
4EB5
330
1E
100
AcDbEntity
  8
0
 48
0.27
100
AcDbLine
 10
3.853732269377891
 20
29.49980692529135
 30
0.0
 11
3.872508416377902
 21
29.99794796449135
 31
0.0
  0
LINE
  5
4EB6
330
1E
100
AcDbEntity
  8
0
 48
0.27
100
AcDbLine
 10
3.350758917377906
 20
27.58600398899137
 30
0.0
 11
3.401513565477904
 21
27.55254119169135
 31
0.0
  0
LINE
  5
4EB7
330
1E
100
AcDbEntity
  8
0
 48
0.27
100
AcDbLine
 10
3.138236019677908
 20
27.56372217749135
 30
0.0
 11
3.186589875277893
 21
27.56166874509137
 31
0.0
  0
LINE
  5
4EB8
330
1E
100
AcDbEntity
  8
0
 48
0.27
100
AcDbLine
 10
3.350758917377906
 20
31.41360852559135
 30
0.0
 11
3.401513565477904
 21
31.44707132289133
 31
0.0
  0
LINE
  5
4EBA
330
1E
100
AcDbEntity
  8
中心線
 48
0.27
100
AcDbLine
 10
8.323855797677911
 20
29.49980692529135
 30
0.0
 11
-9.683060633722076
 21
29.49980692529135
 31
0.0
  0
POINT
  5
4EBB
330
1E
100
AcDbEntity
  8
0
100
AcDbPoint
 10
6.823855797677911
 20
29.49980692529135
 30
0.0
1001
pntflag
1000
endpoint
  0
MTEXT
  5
4EC7
330
1E
100
AcDbEntity
  8
0
100
AcDbMText
 10
-30.13573515859753
 20
-31.94063909493633
 30
0.0
 40
7.800000159341862
 41
100.6095
 71
     1
 72
     5
  1
\A1;{\fTimes New Roman|b0|i0|c0|p18;HG\fTimes New Roman|b0|i0|c238|p18;L\fTimes New Roman|b0|i0|c0|p18;30HA\PC : 4820 kgf\PC\fProxy 1|b0|i0|c0|p2;\H0.7x;\S^ 0;\fTimes New Roman|b0|i0|c0|p18;\H1.429x;: 11230 kgf}
 73
     1
 44
1.0
1001
ACAD
1000
MTEXTBEGIN
1070
    73
1070
     1
1070
    44
1040
1.0
1070
    74
1070
     0
1000
MTEXTEND
  0
LINE
  5
4F6F
330
1E
100
AcDbEntity
  8
中心線
100
AcDbLine
 10
222.3986522936381
 20
121.9312454266226
 30
0.0
 11
100.2402175260836
 21
121.9312454266226
 31
0.0
  0
LINE
  5
4F70
330
1E
100
AcDbEntity
  8
0
100
AcDbLine
 10
114.0816854228212
 20
93.48240039424213
 30
0.0
 11
207.0816854228213
 21
93.48240039424213
 31
0.0
  0
LINE
  5
4F71
330
1E
100
AcDbEntity
  8
0
100
AcDbLine
 10
114.0816854228212
 20
91.93124542662252
 30
0.0
 11
207.0816854228213
 21
91.93124542662266
 31
0.0
  0
LINE
  5
4F72
330
1E
100
AcDbEntity
  8
0
100
AcDbLine
 10
114.0816854228212
 20
108.4824003942421
 30
0.0
 11
207.0816854228213
 21
108.4824003942421
 31
0.0
  0
LINE
  5
4F73
330
1E
100
AcDbEntity
  8
0
100
AcDbLine
 10
114.0816854228212
 20
107.9824003942421
 30
0.0
 11
207.0816854228213
 21
107.9824003942421
 31
0.0
  0
LINE
  5
4F74
330
1E
100
AcDbEntity
  8
0
100
AcDbLine
 10
114.0816854228212
 20
116.982400394242
 30
0.0
 11
207.0816854228213
 21
116.982400394242
 31
0.0
  0
LINE
  5
4F75
330
1E
100
AcDbEntity
  8
0
100
AcDbLine
 10
114.0816854228212
 20
116.482400394242
 30
0.0
 11
207.0816854228213
 21
116.482400394242
 31
0.0
  0
LINE
  5
4F76
330
1E
100
AcDbEntity
  8
0
100
AcDbLine
 10
114.0816854228212
 20
127.482400394242
 30
0.0
 11
207.0816854228213
 21
127.482400394242
 31
0.0
  0
LINE
  5
4F77
330
1E
100
AcDbEntity
  8
0
100
AcDbLine
 10
114.0816854228212
 20
126.982400394242
 30
0.0
 11
207.0816854228213
 21
126.982400394242
 31
0.0
  0
LINE
  5
4F78
330
1E
100
AcDbEntity
  8
0
100
AcDbLine
 10
114.0816854228212
 20
135.482400394242
 30
0.0
 11
207.0816854228213
 21
135.482400394242
 31
0.0
  0
LINE
  5
4F79
330
1E
100
AcDbEntity
  8
0
100
AcDbLine
 10
114.0816854228212
 20
135.982400394242
 30
0.0
 11
207.0816854228213
 21
135.982400394242
 31
0.0
  0
LINE
  5
4F7A
330
1E
100
AcDbEntity
  8
0
100
AcDbLine
 10
114.0816854228212
 20
150.482400394242
 30
0.0
 11
207.0816854228213
 21
150.482400394242
 31
0.0
  0
LINE
  5
4F7B
330
1E
100
AcDbEntity
  8
0
100
AcDbLine
 10
114.0816854228212
 20
151.9312454266227
 30
0.0
 11
207.0816854228213
 21
151.9312454266226
 31
0.0
  0
LINE
  5
4F7C
330
1E
100
AcDbEntity
  8
0
100
AcDbLine
 10
114.0816854228212
 20
151.9312454266227
 30
0.0
 11
114.0816854228212
 21
91.93124542662252
 31
0.0
  0
ARC
  5
4F8B
330
1E
100
AcDbEntity
  8
標註線
100
AcDbCircle
 10
130.5816854228211
 20
141.9312454266233
 30
0.0
 40
4.0
100
AcDbArc
 50
193.7845635793824
 51
102.5781507675689
  0
CIRCLE
  5
4F8F
330
1E
100
AcDbEntity
  8
0
100
AcDbCircle
 10
130.5816854228211
 20
141.9312454266233
 30
0.0
 40
3.399999999999976
  0
ARC
  5
4FA3
330
1E
100
AcDbEntity
  8
標註線
100
AcDbCircle
 10
130.5816854228211
 20
101.9312454266232
 30
0.0
 40
4.0
100
AcDbArc
 50
257.5437551003004
 51
166.3373422884878
  0
CIRCLE
  5
4FA4
330
1E
100
AcDbEntity
  8
0
100
AcDbCircle
 10
130.5816854228211
 20
101.9312454266232
 30
0.0
 40
3.399999999999976
  0
LINE
  5
4FA6
330
1E
100
AcDbEntity
  8
0
100
AcDbLine
 10
207.0816854228213
 20
151.9312454266226
 30
0.0
 11
207.0816854228213
 21
91.93124542662266
 31
0.0
  0
LINE
  5
4FA7
330
1E
100
AcDbEntity
  8
中心線
100
AcDbLine
 10
160.5816854228212
 20
90.81674351964577
 30
0.0
 11
160.5816854228212
 21
153.0167435196456
 31
0.0
  0
ARC
  5
4FB1
330
1E
100
AcDbEntity
  8
標註線
100
AcDbCircle
 10
190.5816854228212
 20
141.931245426626
 30
0.0
 40
4.0
100
AcDbArc
 50
77.42184923243025
 51
346.2154364206175
  0
CIRCLE
  5
4FB4
330
1E
100
AcDbEntity
  8
0
100
AcDbCircle
 10
190.5816854228212
 20
141.931245426626
 30
0.0
 40
3.399999999999976
  0
CIRCLE
  5
4FC8
330
1E
100
AcDbEntity
  8
0
100
AcDbCircle
 10
190.5816854228212
 20
101.9312454266262
 30
0.0
 40
3.399999999999976
  0
ARC
  5
4FC9
330
1E
100
AcDbEntity
  8
標註線
100
AcDbCircle
 10
190.5816854228212
 20
101.9312454266262
 30
0.0
 40
4.0
100
AcDbArc
 50
13.66265771151219
 51
282.4562448996996
  0
LINE
  5
502B
330
1E
100
AcDbEntity
  8
0
 48
0.27
100
AcDbLine
 10
114.0816854228212
 20
93.01674351898022
 30
0.0
 11
101.881685422821
 21
93.01682616860022
 31
0.0
  0
LINE
  5
502C
330
1E
100
AcDbEntity
  8
0
 48
0.27
100
AcDbLine
 10
101.8816854228213
 20
151.0168261699312
 30
0.0
 11
114.0816854228213
 21
151.0167435203112
 31
0.0
  0
LINE
  5
502D
330
1E
100
AcDbEntity
  8
中心線
 48
0.27
100
AcDbLine
 10
72.30336340172626
 20
110.0847891313874
 30
0.0
 11
72.30336340172626
 21
133.946378140881
 31
0.0
  0
ARC
  5
502E
330
1E
100
AcDbEntity
  8
0
  6
Continuous
100
AcDbCircle
 10
91.36995567772611
 20
113.693438351228
 30
0.0
 40
2.860349020536761
100
AcDbArc
 50
331.4135141737375
 51
16.41351417373787
  0
LINE
  5
502F
330
1E
100
AcDbEntity
  8
0
  6
Continuous
100
AcDbLine
 10
88.11919142282116
 20
111.6796835202172
 30
0.0
 11
88.11919142282116
 21
114.7116794826031
 31
0.0
  0
LINE
  5
5030
330
1E
100
AcDbEntity
  8
0
  6
Continuous
100
AcDbLine
 10
88.11919142282116
 20
114.7116794826031
 30
0.0
 11
93.88161630662208
 21
112.3248049435765
 31
0.0
  0
LINE
  5
5031
330
1E
100
AcDbEntity
  8
0
 48
0.27
100
AcDbLine
 10
103.5816854228212
 20
151.0168146531808
 30
0.0
 11
103.5816854228212
 21
93.01681465184989
 31
0.0
  0
LINE
  5
5032
330
1E
100
AcDbEntity
  8
0
100
AcDbLine
 10
101.8816854228213
 20
151.0168261699311
 30
0.0
 11
101.8816854228211
 21
93.01682616860022
 31
0.0
  0
LINE
  5
5033
330
1E
100
AcDbEntity
  8
0
 48
0.27
100
AcDbLine
 10
52.30336340172584
 20
135.9312454266237
 30
0.0
 11
52.30336340172579
 21
107.9312454266237
 31
0.0
  0
LINE
  5
5034
330
1E
100
AcDbEntity
  8
0
100
AcDbLine
 10
52.30336340172579
 20
107.9312454266237
 30
0.0
 11
100.448606035644
 21
107.9312454266235
 31
0.0
  0
LINE
  5
5035
330
1E
100
AcDbEntity
  8
0
  6
Continuous
100
AcDbLine
 10
88.11919142282116
 20
111.6796835202172
 30
0.0
 11
91.73767140108877
 21
110.1808600380432
 31
0.0
  0
LINE
  5
5036
330
1E
100
AcDbEntity
  8
中心線
100
AcDbLine
 10
100.0978356264499
 20
98.21698031356824
 30
0.0
 11
105.8494726008309
 21
98.21698031356824
 31
0.0
  0
LINE
  5
5037
330
1E
100
AcDbEntity
  8
0
100
AcDbLine
 10
100.9973575634626
 20
99.21698031356807
 30
0.0
 11
100.9973575634626
 21
97.21698031356808
 31
0.0
  0
LINE
  5
5038
330
1E
100
AcDbEntity
  8
0
100
AcDbLine
 10
100.9973575634628
 20
99.21698031356823
 30
0.0
 11
100.9973575634628
 21
97.21698031356822
 31
0.0
  0
ARC
  5
5039
330
1E
100
AcDbEntity
  8
0
100
AcDbCircle
 10
102.2172092423151
 20
97.23673195158518
 30
0.0
 40
1.220011576012179
100
AcDbArc
 50
180.9276427879976
 51
254.0369778311711
  0
ARC
  5
503A
330
1E
100
AcDbEntity
  8
0
100
AcDbCircle
 10
102.2172092423153
 20
97.2367319515853
 30
0.0
 40
1.220011576012179
100
AcDbArc
 50
180.9276427879976
 51
254.0369778311711
  0
ARC
  5
503B
330
1E
100
AcDbEntity
  8
0
100
AcDbCircle
 10
102.2172092423153
 20
99.19722867555108
 30
0.0
 40
1.220011576012179
100
AcDbArc
 50
105.9630221688289
 51
179.0723572120024
  0
LINE
  5
503C
330
1E
100
AcDbEntity
  8
0
  6
Continuous
100
AcDbLine
 10
91.73767140108877
 20
110.1808600380432
 30
0.0
 11
93.88161630662208
 21
112.3248049435765
 31
0.0
  0
CIRCLE
  5
503D
330
1E
100
AcDbEntity
  8
0
100
AcDbCircle
 10
72.30336340172626
 20
121.9312454266226
 30
0.0
 40
7.000000000000382
  0
LINE
  5
503E
330
1E
100
AcDbEntity
  8
中心線
 48
0.27
100
AcDbLine
 10
82.95502671717216
 20
121.9312454266226
 30
0.0
 11
61.55085779280424
 21
121.9312454266226
 31
0.0
  0
LINE
  5
503F
330
1E
100
AcDbEntity
  8
0
100
AcDbLine
 10
52.30336340172584
 20
135.9312454266237
 30
0.0
 11
100.4486060356451
 21
135.9312454266235
 31
0.0
  0
ARC
  5
5040
330
1E
100
AcDbEntity
  8
0
  6
Continuous
100
AcDbCircle
 10
90.86297364906156
 20
113.9034371833803
 30
0.0
 40
2.860349020536761
100
AcDbArc
 50
118.5864858262623
 51
163.5864858262621
  0
CIRCLE
  5
5041
330
1E
100
AcDbEntity
  8
0
100
AcDbCircle
 10
72.30336340172626
 20
121.9312454266226
 30
0.0
 40
4.500000000000368
  0
ARC
  5
5042
330
1E
100
AcDbEntity
  8
0
  6
Continuous
100
AcDbCircle
 10
106.0866254024548
 20
122.0168261692657
 30
0.0
 40
7.967433979633679
100
AcDbArc
 50
163.2213499979121
 51
196.7786500020878
  0
LINE
  5
5043
330
1E
100
AcDbEntity
  8
0
  6
Continuous
100
AcDbLine
 10
98.11919142282116
 20
118.5668260696727
 30
0.0
 11
98.11919142282116
 21
125.4668262688586
 31
0.0
  0
ARC
  5
5044
330
1E
100
AcDbEntity
  8
0
  6
Continuous
100
AcDbCircle
 10
94.52063260033606
 20
122.0168261692657
 30
0.0
 40
4.0
100
AcDbArc
 50
90.0
 51
210.8352048940863
  0
LINE
  5
5045
330
1E
100
AcDbEntity
  8
0
  6
Continuous
100
AcDbLine
 10
98.45844396493056
 20
119.7168263684515
 30
0.0
 11
101.8816854228212
 21
119.7168263684515
 31
0.0
  0
LINE
  5
5046
330
1E
100
AcDbEntity
  8
0
  6
Continuous
100
AcDbLine
 10
98.45844396493056
 20
117.4168261692657
 30
0.0
 11
101.8816854228212
 21
117.4168261692657
 31
0.0
  0
ARC
  5
5047
330
1E
100
AcDbEntity
  8
0
  6
Continuous
100
AcDbCircle
 10
95.37218087542743
 20
116.1842714358479
 30
0.0
 40
1.854133729915247
100
AcDbArc
 50
34.63277999893714
 51
100.367220001062
  0
ARC
  5
5048
330
1E
100
AcDbEntity
  8
0
  6
Continuous
100
AcDbCircle
 10
100.2382013998671
 20
118.5668260696727
 30
0.0
 40
2.119009977045995
100
AcDbArc
 50
147.1327799989379
 51
212.8672200010621
  0
LINE
  5
5049
330
1E
100
AcDbEntity
  8
0
  6
Continuous
100
AcDbLine
 10
90.74778301295626
 20
118.1672770048116
 30
0.0
 11
91.3198602814719
 21
119.5483937051874
 31
0.0
  0
ARC
  5
504A
330
1E
100
AcDbEntity
  8
0
  6
Continuous
100
AcDbCircle
 10
87.61496529667747
 20
117.2578345422758
 30
0.0
 40
2.059673609817604
100
AcDbArc
 50
335.8479011650597
 51
45.84790116506002
  0
ARC
  5
504B
330
1E
100
AcDbEntity
  8
0
  6
Continuous
100
AcDbCircle
 10
90.41407721531712
 20
119.9910985922756
 30
0.0
 40
1.854133729915247
100
AcDbArc
 50
214.6327799989371
 51
280.3672200010621
  0
LINE
  5
504C
330
1E
100
AcDbEntity
  8
0
  6
Continuous
100
AcDbLine
 10
90.50380429669765
 20
120.2077189290567
 30
0.0
 11
96.08172713525533
 21
117.8972676394554
 31
0.0
  0
LINE
  5
504D
330
1E
100
AcDbEntity
  8
0
  6
Continuous
100
AcDbLine
 10
89.70453095548927
 20
118.278102388668
 30
0.0
 11
95.28245379404692
 21
115.9676510990669
 31
0.0
  0
ARC
  5
504E
330
1E
100
AcDbEntity
  8
0
  6
Continuous
100
AcDbCircle
 10
90.62488635631657
 20
112.6116627513899
 30
0.0
 40
6.971504732179472
100
AcDbArc
 50
50.7213499979131
 51
84.27865000208782
  0
LINE
  5
504F
330
1E
100
AcDbEntity
  8
0
  6
Continuous
100
AcDbLine
 10
89.67911614791237
 20
116.3385611258032
 30
0.0
 11
93.92896199746427
 21
114.5782173369238
 31
0.0
  0
ARC
  5
5050
330
1E
100
AcDbEntity
  8
0
  6
Continuous
100
AcDbCircle
 10
95.161371734428
 20
123.5637072767337
 30
0.0
 40
6.971504732179472
100
AcDbArc
 50
230.7213499979131
 51
264.2786500020895
  0
ARC
  5
5051
330
1E
100
AcDbEntity
  8
0
  6
Continuous
100
AcDbCircle
 10
96.03856152831669
 20
113.768666739176
 30
0.0
 40
2.059673609817604
100
AcDbArc
 50
89.15209883494085
 51
159.1520988349398
  0
LINE
  5
5052
330
1E
100
AcDbEntity
  8
0
  6
Continuous
100
AcDbLine
 10
96.32566327742592
 20
115.8567830693338
 30
0.0
 11
96.89778317079174
 21
117.2380026752011
 31
0.0
  0
LINE
  5
5053
330
1E
100
AcDbEntity
  8
0
  6
Continuous
100
AcDbLine
 10
95.65423590097678
 20
118.0168261692657
 30
0.0
 11
98.19181351083617
 21
118.0168261692657
 31
0.0
  0
LINE
  5
5054
330
1E
100
AcDbEntity
  8
0
  6
Continuous
100
AcDbLine
 10
94.46639780927268
 20
116.6269763229361
 30
0.0
 11
95.03847507778832
 21
118.0080930233119
 31
0.0
  0
ARC
  5
5055
330
1E
100
AcDbEntity
  8
0
  6
Continuous
100
AcDbCircle
 10
95.99200005387476
 20
117.6806473026744
 30
0.0
 40
1.854133729915247
100
AcDbArc
 50
214.6327799989371
 51
280.3672200010621
  0
ARC
  5
5056
330
1E
100
AcDbEntity
  8
0
  6
Continuous
100
AcDbCircle
 10
89.7942580368698
 20
118.494722725449
 30
0.0
 40
1.854133729915247
100
AcDbArc
 50
34.63277999893714
 51
100.367220001062
  0
LINE
  5
5057
330
1E
100
AcDbEntity
  8
0
  6
Continuous
100
AcDbLine
 10
88.88847529275654
 20
118.9374274791433
 30
0.0
 11
89.46055256127218
 21
120.3185441795191
 31
0.0
  0
LINE
  5
5058
330
1E
100
AcDbEntity
  8
0
  6
Continuous
100
AcDbLine
 10
98.45844396493056
 20
126.6168261692657
 30
0.0
 11
101.8816854228212
 21
126.6168261692657
 31
0.0
  0
LINE
  5
5059
330
1E
100
AcDbEntity
  8
0
  6
Continuous
100
AcDbLine
 10
98.45844396493056
 20
124.3168259700798
 30
0.0
 11
101.8816854228212
 21
124.3168259700798
 31
0.0
  0
LINE
  5
505A
330
1E
100
AcDbEntity
  8
0
  6
Continuous
100
AcDbLine
 10
94.52063260033606
 20
126.0168261692657
 30
0.0
 11
98.19181351083617
 21
126.0168261692657
 31
0.0
  0
ARC
  5
505B
330
1E
100
AcDbEntity
  8
0
  6
Continuous
100
AcDbCircle
 10
100.2382013998671
 20
125.4668262688586
 30
0.0
 40
2.119009977045995
100
AcDbArc
 50
147.1327799989379
 51
212.8672200010621
  0
LINE
  5
505C
330
1E
100
AcDbEntity
  8
0
100
AcDbLine
 10
100.9973575634626
 20
146.8169803124756
 30
0.0
 11
100.9973575634626
 21
144.8169803124756
 31
0.0
  0
LINE
  5
505D
330
1E
100
AcDbEntity
  8
0
100
AcDbLine
 10
100.9973575634628
 20
146.8169803124758
 30
0.0
 11
100.9973575634628
 21
144.8169803124758
 31
0.0
  0
LINE
  5
505E
330
1E
100
AcDbEntity
  8
中心線
100
AcDbLine
 10
100.0978356264499
 20
145.8169803124758
 30
0.0
 11
105.8494726008309
 21
145.8169803124758
 31
0.0
  0
ARC
  5
505F
330
1E
100
AcDbEntity
  8
0
100
AcDbCircle
 10
102.2172092423151
 20
144.8367319504928
 30
0.0
 40
1.220011576012179
100
AcDbArc
 50
180.9276427879976
 51
254.0369778311711
  0
ARC
  5
5060
330
1E
100
AcDbEntity
  8
0
100
AcDbCircle
 10
102.2172092423153
 20
144.8367319504929
 30
0.0
 40
1.220011576012179
100
AcDbArc
 50
180.9276427879976
 51
254.0369778311711
  0
ARC
  5
5061
330
1E
100
AcDbEntity
  8
0
100
AcDbCircle
 10
102.2172092423153
 20
146.7972286744586
 30
0.0
 40
1.220011576012179
100
AcDbArc
 50
105.9630221688289
 51
179.0723572120024
  0
LINE
  5
5062
330
1E
100
AcDbEntity
  8
中心線
 48
0.27
100
AcDbLine
 10
232.3033634017258
 20
110.0847891313874
 30
0.0
 11
232.3033634017258
 21
133.946378140881
 31
0.0
  0
LINE
  5
5063
330
1E
100
AcDbEntity
  8
0
 48
0.27
100
AcDbLine
 10
252.3033634017256
 20
135.9312454266237
 30
0.0
 11
252.3033634017255
 21
107.9312454266237
 31
0.0
  0
CIRCLE
  5
5066
330
1E
100
AcDbEntity
  8
0
100
AcDbCircle
 10
232.3033634017258
 20
121.9312454266226
 30
0.0
 40
4.500000000000368
  0
CIRCLE
  5
5067
330
1E
100
AcDbEntity
  8
0
100
AcDbCircle
 10
232.3033634017258
 20
121.9312454266226
 30
0.0
 40
7.000000000000382
  0
LINE
  5
5068
330
1E
100
AcDbEntity
  8
中心線
 48
0.27
100
AcDbLine
 10
242.9550267171717
 20
121.9312454266226
 30
0.0
 11
221.5508577928038
 21
121.9312454266226
 31
0.0
  0
LINE
  5
506C
330
1E
100
AcDbEntity
  8
0
 48
0.27
100
AcDbLine
 10
207.0816854228212
 20
93.01674351898016
 30
0.0
 11
219.2816854228214
 21
93.01682616860016
 31
0.0
  0
LINE
  5
506D
330
1E
100
AcDbEntity
  8
0
 48
0.27
100
AcDbLine
 10
217.5816854228213
 20
151.0168146531807
 30
0.0
 11
217.5816854228212
 21
93.0168146518498
 31
0.0
  0
LINE
  5
506E
330
1E
100
AcDbEntity
  8
0
100
AcDbLine
 10
219.2816854228212
 20
151.0168261699311
 30
0.0
 11
219.2816854228214
 21
93.01682616860016
 31
0.0
  0
ARC
  5
506F
330
1E
100
AcDbEntity
  8
0
100
AcDbCircle
 10
218.9461616033273
 20
97.23673195158513
 30
0.0
 40
1.220011576012179
100
AcDbArc
 50
285.9630221688288
 51
359.0723572120023
  0
ARC
  5
5070
330
1E
100
AcDbEntity
  8
0
100
AcDbCircle
 10
218.9461616033272
 20
97.23673195158525
 30
0.0
 40
1.220011576012179
100
AcDbArc
 50
285.9630221688288
 51
359.0723572120023
  0
LINE
  5
5071
330
1E
100
AcDbEntity
  8
中心線
100
AcDbLine
 10
221.0655352191925
 20
98.21698031356817
 30
0.0
 11
215.3138982448115
 21
98.21698031356817
 31
0.0
  0
ARC
  5
5072
330
1E
100
AcDbEntity
  8
0
100
AcDbCircle
 10
218.9461616033272
 20
99.19722867555099
 30
0.0
 40
1.220011576012179
100
AcDbArc
 50
0.9276427879975038
 51
74.03697783117104
  0
LINE
  5
5073
330
1E
100
AcDbEntity
  8
0
100
AcDbLine
 10
220.1660132821798
 20
99.216980313568
 30
0.0
 11
220.1660132821798
 21
97.21698031356801
 31
0.0
  0
LINE
  5
5074
330
1E
100
AcDbEntity
  8
0
100
AcDbLine
 10
220.1660132821797
 20
99.21698031356818
 30
0.0
 11
220.1660132821797
 21
97.21698031356815
 31
0.0
  0
LINE
  5
5075
330
1E
100
AcDbEntity
  8
0
 48
0.27
100
AcDbLine
 10
219.2816854228212
 20
151.0168261699311
 30
0.0
 11
207.0816854228213
 21
151.0167435203111
 31
0.0
  0
LINE
  5
5076
330
1E
100
AcDbEntity
  8
0
100
AcDbLine
 10
220.1660132821799
 20
146.8169803124756
 30
0.0
 11
220.1660132821799
 21
144.8169803124756
 31
0.0
  0
LINE
  5
5077
330
1E
100
AcDbEntity
  8
0
100
AcDbLine
 10
220.1660132821797
 20
146.8169803124758
 30
0.0
 11
220.1660132821797
 21
144.8169803124758
 31
0.0
  0
LINE
  5
5078
330
1E
100
AcDbEntity
  8
中心線
100
AcDbLine
 10
221.0655352191926
 20
145.8169803124758
 30
0.0
 11
215.3138982448116
 21
145.8169803124758
 31
0.0
  0
ARC
  5
5079
330
1E
100
AcDbEntity
  8
0
100
AcDbCircle
 10
218.9461616033274
 20
144.8367319504927
 30
0.0
 40
1.220011576012179
100
AcDbArc
 50
285.9630221688288
 51
359.0723572120023
  0
ARC
  5
507A
330
1E
100
AcDbEntity
  8
0
100
AcDbCircle
 10
218.9461616033272
 20
144.8367319504928
 30
0.0
 40
1.220011576012179
100
AcDbArc
 50
285.9630221688288
 51
359.0723572120023
  0
ARC
  5
507B
330
1E
100
AcDbEntity
  8
0
100
AcDbCircle
 10
218.9461616033272
 20
146.7972286744586
 30
0.0
 40
1.220011576012179
100
AcDbArc
 50
0.9276427879975038
 51
74.03697783117104
  0
LINE
  5
507E
330
1E
100
AcDbEntity
  8
0
100
AcDbLine
 10
252.3033634017255
 20
107.9312454266237
 30
0.0
 11
220.7147648099986
 21
107.9312454266236
 31
0.0
  0
LINE
  5
507F
330
1E
100
AcDbEntity
  8
0
100
AcDbLine
 10
252.3033634017256
 20
135.9312454266237
 30
0.0
 11
220.7147648099972
 21
135.9312454266236
 31
0.0
  0
LINE
  5
508C
330
1E
100
AcDbEntity
  8
中心線
 48
0.1
100
AcDbLine
 10
125.4928853667916
 20
141.9312454266233
 30
0.0
 11
135.6704854788506
 21
141.9312454266233
 31
0.0
  0
LINE
  5
508D
330
1E
100
AcDbEntity
  8
中心線
 48
0.1
100
AcDbLine
 10
130.5816854228211
 20
147.0200454826528
 30
0.0
 11
130.5816854228211
 21
136.8424453705937
 31
0.0
  0
LINE
  5
508F
330
1E
100
AcDbEntity
  8
中心線
 48
0.1
100
AcDbLine
 10
130.5816854228211
 20
107.0200454826528
 30
0.0
 11
130.5816854228211
 21
96.84244537059372
 31
0.0
  0
LINE
  5
5090
330
1E
100
AcDbEntity
  8
中心線
 48
0.1
100
AcDbLine
 10
125.4928853667916
 20
101.9312454266232
 30
0.0
 11
135.6704854788506
 21
101.9312454266232
 31
0.0
  0
LINE
  5
5091
330
1E
100
AcDbEntity
  8
中心線
 48
0.1
100
AcDbLine
 10
190.5816854228212
 20
107.0200454826557
 30
0.0
 11
190.5816854228212
 21
96.84244537059669
 31
0.0
  0
LINE
  5
5092
330
1E
100
AcDbEntity
  8
中心線
 48
0.1
100
AcDbLine
 10
185.4928853667917
 20
101.9312454266262
 30
0.0
 11
195.6704854788507
 21
101.9312454266262
 31
0.0
  0
LINE
  5
5093
330
1E
100
AcDbEntity
  8
中心線
 48
0.1
100
AcDbLine
 10
190.5816854228212
 20
147.0200454826557
 30
0.0
 11
190.5816854228212
 21
136.8424453705966
 31
0.0
  0
LINE
  5
5094
330
1E
100
AcDbEntity
  8
中心線
 48
0.1
100
AcDbLine
 10
185.4928853667917
 20
141.931245426626
 30
0.0
 11
195.6704854788507
 21
141.931245426626
 31
0.0
  0
LINE
  5
51F5
330
1E
100
AcDbEntity
  8
0
100
AcDbLine
 10
11.0671730884835
 20
36.00000000000522
 30
0.0
 11
25.56678693878041
 21
36.00000000000522
 31
0.0
  0
LINE
  5
51FA
330
1E
100
AcDbEntity
  8
0
100
AcDbLine
 10
2.066786938780421
 20
36.00000000000522
 30
0.0
 11
-7.932837071002821
 21
36.00000000000522
 31
0.0
  0
LINE
  5
51FB
330
1E
100
AcDbEntity
  8
0
100
AcDbLine
 10
-16.93309450486488
 20
36.00000000000522
 30
0.0
 11
-31.43299627475734
 21
36.00000000000523
 31
0.0
  0
LINE
  5
520F
330
1E
100
AcDbEntity
  8
0
100
AcDbLine
 10
9.567647325691725
 20
-5.999999999994769
 30
0.0
 11
4.816312701572427
 21
-5.999999999994767
 31
0.0
  0
LINE
  5
5210
330
1E
100
AcDbEntity
  8
0
100
AcDbLine
 10
0.3176473256917269
 20
-5.999999999994769
 30
0.0
 11
-6.183687298427568
 21
-5.999999999994769
 31
0.0
  0
LINE
  5
5211
330
1E
100
AcDbEntity
  8
0
100
AcDbLine
 10
-10.68235267430827
 20
-5.999999999994769
 30
0.0
 11
-15.43368729842757
 21
-5.999999999994767
 31
0.0
  0
LINE
  5
5220
330
1E
100
AcDbEntity
  8
0
100
AcDbLine
 10
-16.23198191372174
 20
0.0000000000052296
 30
0.0
 11
-29.93327064339929
 21
0.0000000000052296
 31
0.0
  0
LINE
  5
5221
330
1E
100
AcDbEntity
  8
0
100
AcDbLine
 10
24.06717308848355
 20
0.0000000000052296
 30
0.0
 11
10.36643847038862
 21
0.0000000000052305
 31
0.0
  0
LINE
  5
52D8
330
1E
100
AcDbEntity
  8
中心線
 48
0.27
100
AcDbLine
 10
-2.933019986367948
 20
-7.999999999994769
 30
0.0
 11
-2.933019986367923
 21
41.00000000000521
 31
0.0
  0
LINE
  5
531D
330
1E
100
AcDbEntity
  8
中心線
 48
0.27
100
AcDbLine
 10
-22.93301998636794
 20
18.95832764959765
 30
0.0
 11
-22.93301998636792
 21
38.00000000000522
 31
0.0
  0
LINE
  5
531E
330
1E
100
AcDbEntity
  8
中心線
 48
0.27
100
AcDbLine
 10
17.06698001363207
 20
18.95822185787985
 30
0.0
 11
17.06698001363208
 21
38.00000000000522
 31
0.0
  0
LINE
  5
536A
330
1E
100
AcDbEntity
  8
0
100
AcDbLine
 10
100.3816854228212
 20
135.8313256625135
 30
0.0
 11
100.3816854228212
 21
126.6168261692657
 31
0.0
  0
LINE
  5
5450
330
1E
100
AcDbEntity
  8
0
100
AcDbLine
 10
100.3816854228212
 20
131.0456933524921
 30
0.0
 11
101.8816854228212
 21
132.0689561544835
 31
0.0
  0
LINE
  5
5451
330
1E
100
AcDbEntity
  8
0
100
AcDbLine
 10
100.3816854228212
 20
135.8313256625135
 30
0.0
 11
101.8816854228212
 21
138.070989046341
 31
0.0
  0
LINE
  5
5454
330
1E
100
AcDbEntity
  8
0
100
AcDbLine
 10
100.3816854228214
 20
108.0311651907317
 30
0.0
 11
100.3816854228213
 21
117.2456646839795
 31
0.0
  0
LINE
  5
5455
330
1E
100
AcDbEntity
  8
0
100
AcDbLine
 10
100.3816854228213
 20
112.8167975007531
 30
0.0
 11
101.8816854228213
 21
111.7935346987617
 31
0.0
  0
LINE
  5
5456
330
1E
100
AcDbEntity
  8
0
100
AcDbLine
 10
100.3816854228214
 20
108.0311651907317
 30
0.0
 11
101.8816854228214
 21
105.7915018069042
 31
0.0
  0
LINE
  5
545D
330
1E
100
AcDbEntity
  8
0
100
AcDbLine
 10
220.7816854228213
 20
135.8313256625133
 30
0.0
 11
220.7816854228213
 21
126.6168261692655
 31
0.0
  0
LINE
  5
545E
330
1E
100
AcDbEntity
  8
0
100
AcDbLine
 10
220.7816854228213
 20
131.045693352492
 30
0.0
 11
219.2816854228212
 21
132.0689561544833
 31
0.0
  0
LINE
  5
545F
330
1E
100
AcDbEntity
  8
0
100
AcDbLine
 10
220.7816854228213
 20
135.8313256625133
 30
0.0
 11
219.2816854228212
 21
138.0709890463408
 31
0.0
  0
LINE
  5
5460
330
1E
100
AcDbEntity
  8
0
100
AcDbLine
 10
220.7816854228211
 20
108.0311651907315
 30
0.0
 11
220.7816854228213
 21
126.6168261692655
 31
0.0
  0
LINE
  5
5461
330
1E
100
AcDbEntity
  8
0
100
AcDbLine
 10
220.7816854228212
 20
112.8167975007529
 30
0.0
 11
219.2816854228211
 21
111.7935346987615
 31
0.0
  0
LINE
  5
5462
330
1E
100
AcDbEntity
  8
0
100
AcDbLine
 10
220.7816854228211
 20
108.0311651907315
 30
0.0
 11
219.281685422821
 21
105.791501806904
 31
0.0
  0
ENDSEC
  0
SECTION
  2
OBJECTS
  0
DICTIONARY
  5
C
330
0
100
AcDbDictionary
281
     1
  3
ACAD_COLOR
350
3D97
  3
ACAD_GROUP
350
D
  3
ACAD_LAYOUT
350
19
  3
ACAD_MATERIAL
350
3D96
  3
ACAD_MLINESTYLE
350
16
  3
ACAD_PLOTSETTINGS
350
18
  3
ACAD_PLOTSTYLENAME
350
E
  3
ACAD_TABLESTYLE
350
50CE
  3
ACAD_VISUALSTYLE
350
5473
  3
ACDBHEADERROUNDTRIPXREC
350
54C9
  3
AcDbVariableDictionary
350
3E63
  3
DWGPROPS
350
54C8
  0
DICTIONARY
  5
43C2
330
2
100
AcDbDictionary
280
     1
281
     1
  3
ACAD_LAYERSTATES
360
43C3
  0
DICTIONARY
  5
3D1E
330
1E
100
AcDbDictionary
280
     1
281
     1
  3
ACAD_LAYOUTSELFREF
360
3D92
  3
ACAD_SORTENTS
360
51FD
  0
DICTIONARY
  5
3D20
330
1A
100
AcDbDictionary
280
     1
281
     1
  3
ACAD_LAYOUTSELFREF
360
3D91
  0
DICTIONARY
  5
3D97
102
{ACAD_REACTORS
330
C
102
}
330
C
100
AcDbDictionary
281
     1
  0
DICTIONARY
  5
D
102
{ACAD_REACTORS
330
C
102
}
330
C
100
AcDbDictionary
281
     1
  3
*A1
350
4143
  3
*A10
350
414A
  3
*A11
350
414B
  3
*A12
350
43BC
  3
*A13
350
4235
  3
*A14
350
4239
  3
*A15
350
423B
  3
*A16
350
43B8
  3
*A17
350
4236
  3
*A18
350
4237
  3
*A19
350
4238
  3
*A2
350
43C0
  3
*A20
350
423C
  3
*A21
350
4240
  3
*A22
350
4373
  3
*A23
350
43BD
  3
*A24
350
423D
  3
*A25
350
423E
  3
*A26
350
423F
  3
*A27
350
4374
  3
*A28
350
4377
  3
*A29
350
4379
  3
*A3
350
43C1
  3
*A30
350
4375
  3
*A31
350
4145
  3
*A32
350
4376
  3
*A33
350
437A
  3
*A34
350
437D
  3
*A35
350
437F
  3
*A36
350
437B
  3
*A37
350
414D
  3
*A38
350
437C
  3
*A39
350
4146
  3
*A4
350
43B7
  3
*A40
350
43B9
  3
*A41
350
43B5
  3
*A42
350
423A
  3
*A43
350
43B6
  3
*A44
350
414E
  3
*A45
350
43BE
  3
*A46
350
43BA
  3
*A47
350
4241
  3
*A48
350
43BB
  3
*A49
350
4144
  3
*A5
350
4148
  3
*A50
350
4147
  3
*A51
350
4378
  3
*A52
350
43BF
  3
*A6
350
414C
  3
*A7
350
414F
  3
*A8
350
437E
  3
*A9
350
4149
  0
DICTIONARY
  5
19
102
{ACAD_REACTORS
330
C
102
}
330
C
100
AcDbDictionary
281
     1
  3
Model
350
21
  3
配置1
350
1D
  0
DICTIONARY
  5
3D96
102
{ACAD_REACTORS
330
C
102
}
330
C
100
AcDbDictionary
281
     1
  3
ByBlock
350
5471
  3
ByLayer
350
5470
  3
Global
350
5472
  0
DICTIONARY
  5
16
102
{ACAD_REACTORS
330
C
102
}
330
C
100
AcDbDictionary
281
     1
  3
Standard
350
17
  0
DICTIONARY
  5
18
102
{ACAD_REACTORS
330
C
102
}
330
C
100
AcDbDictionary
281
     1
  3
LANSRO
350
4150
  0
ACDBDICTIONARYWDFLT
  5
E
102
{ACAD_REACTORS
330
C
102
}
330
C
100
AcDbDictionary
281
     1
  3
Normal
350
F
100
AcDbDictionaryWithDefault
340
F
  0
DICTIONARY
  5
50CE
102
{ACAD_REACTORS
330
C
102
}
330
C
100
AcDbDictionary
281
     1
  3
Standard
350
50CF
  0
DICTIONARY
  5
5473
102
{ACAD_REACTORS
330
C
102
}
330
C
100
AcDbDictionary
281
     1
  3
2dWireframe
350
5479
  3
3D Hidden
350
547B
  3
3dWireframe
350
547A
  3
Basic
350
5478
  3
Brighten
350
547F
  3
ColorChange
350
5483
  3
Conceptual
350
547C
  3
Dim
350
547E
  3
Facepattern
350
5482
  3
Flat
350
5474
  3
FlatWithEdges
350
5475
  3
Gouraud
350
5476
  3
GouraudWithEdges
350
5477
  3
Linepattern
350
5481
  3
Realistic
350
547D
  3
Thicken
350
5480
  0
DICTIONARY
  5
54C9
102
{ACAD_REACTORS
330
C
102
}
330
C
100
AcDbDictionary
281
     1
  3
COLORDICT
350
54CB
  3
MATERIALDICT
350
54CA
  0
DICTIONARY
  5
3E63
102
{ACAD_REACTORS
330
C
102
}
330
C
100
AcDbDictionary
281
     1
  3
CTABLESTYLE
350
51D0
  3
DIMASSOC
350
3E64
  3
INDEXCTL
350
54B0
  3
PROJECTNAME
350
3E65
  3
SORTENTS
350
54AF
  0
XRECORD
  5
54C8
102
{ACAD_REACTORS
330
C
102
}
330
C
100
AcDbXrecord
280
     1
  1
DWGPROPS COOKIE
  2

  3

  4

  6

  7

  8
tony4321
  9

300
=
301
=
302
=
303
=
304
=
305
=
306
=
307
=
308
=
309
=
 40
0.10352625
 41
2444975.333333334
 42
2454358.626669178
  1

 90
        0
  0
DICTIONARY
  5
43C3
102
{ACAD_REACTORS
330
43C2
102
}
330
43C2
100
AcDbDictionary
281
     1
  0
XRECORD
  5
3D92
102
{ACAD_REACTORS
330
3D1E
102
}
330
3D1E
100
AcDbXrecord
280
     1
340
1E
  0
SORTENTSTABLE
  5
51FD
102
{ACAD_REACTORS
330
3D1E
102
}
330
3D1E
100
AcDbSortentsTable
330
1E
331
4E4C
  5
4E50
331
4E8B
  5
4E8F
331
5060
  5
5068
331
5068
  5
5071
331
520F
  5
5221
331
4E93
  5
4E97
331
4E54
  5
4E58
331
5031
  5
5037
331
4C5A
  5
4C5E
331
4ABD
  5
4AC1
331
5070
  5
5076
331
4BE4
  5
4BEB
331
4C99
  5
4C9D
331
4D50
  5
4D54
331
4E9B
  5
4E9F
331
4F72
  5
4F78
331
4E5C
  5
4E60
331
5039
  5
503F
331
4D58
  5
4D5C
331
4D97
  5
4D9B
331
4C62
  5
4C66
331
4CA1
  5
4CA5
331
5078
  5
508C
331
4BEC
  5
4BF9
331
4E64
  5
4E68
331
4F7A
  5
4FA4
331
4C2B
  5
4C2F
331
4A31
  5
4A35
331
497C
  5
4980
331
49BB
  5
49BF
331
4D60
  5
4D64
331
4D9F
  5
4DA3
331
4A8E
  5
4A93
331
4C33
  5
4C37
331
4C6A
  5
4C6E
331
4CA9
  5
4CAD
331
4908
  5
4908
331
49FA
  5
49FE
331
4910
  5
4910
331
494F
  5
494F
331
4D68
  5
4D6C
331
4BFC
  5
4C00
331
4A96
  5
4A9B
331
4C72
  5
4C76
331
4DA7
  5
4DAB
331
49C3
  5
49C7
331
49CB
  5
49D1
331
4A02
  5
4A06
331
4918
  5
4918
331
4957
  5
495B
331
4994
  5
4998
331
4A0A
  5
4A0E
331
5041
  5
5047
331
4DAD
  5
4DB1
331
4E6C
  5
4E70
331
4EA3
  5
4EA7
331
5090
  5
51FA
331
5049
  5
504F
331
4DB5
  5
4DB9
331
4E74
  5
4E78
331
4EAB
  5
4EAF
331
4C7A
  5
4C7E
331
4C04
  5
4C08
331
4CB1
  5
4CB5
331
4D70
  5
4D74
331
4A9E
  5
4AA2
331
4EB3
  5
4EB7
331
4DBD
  5
4E41
331
4E7C
  5
4E80
331
5051
  5
5057
331
4BC5
  5
4BC9
331
4920
  5
4920
331
4C82
  5
4C86
331
4BCD
  5
4BD1
331
4C0C
  5
4C10
331
5059
  5
505F
331
4E84
  5
4E88
331
4EBB
  5
4F73
331
4A5F
  5
4A63
331
4E45
  5
4E49
331
4AA6
  5
4AAB
331
4D78
  5
4D7C
331
499C
  5
49A4
331
4D80
  5
4D84
331
4C4B
  5
4C4F
331
4C8A
  5
4C8E
331
4AAE
  5
4AB2
331
4BD5
  5
4BD9
331
4A67
  5
4A6B
331
4C14
  5
4C18
331
495D
  5
4961
331
4A12
  5
4A16
331
4A1A
  5
4A1E
331
4930
  5
4930
331
4965
  5
4969
331
4D49
  5
4D4E
331
4D88
  5
4D8C
331
49A4
  5
49A8
331
4C1C
  5
4C20
331
4C53
  5
4C57
331
4AB6
  5
4ABA
331
4BDD
  5
4BE1
331
4C92
  5
4C96
331
49DB
  5
49E2
331
4A6F
  5
4A73
331
49E3
  5
49E7
331
4A22
  5
4A26
331
4938
  5
4938
331
496D
  5
4971
331
49AC
  5
49B0
331
49EB
  5
49EF
331
4A2A
  5
4A2E
331
4975
  5
4979
331
49B4
  5
49B8
331
4E8C
  5
4E90
331
5061
  5
506C
331
4E4D
  5
4E51
331
5032
  5
5038
331
4E55
  5
4E59
331
4E94
  5
4E98
331
5210
  5
52D8
331
4D51
  5
4D55
331
4D90
  5
4D94
331
4C5B
  5
4C5F
331
5220
  5
531E
331
4ABE
  5
4AC2
331
4F73
  5
4F79
331
503A
  5
5040
331
4E5D
  5
4E61
331
4E9C
  5
4EA0
331
5071
  5
5077
331
4BE5
  5
4BEC
331
4C9A
  5
4C9E
331
4940
  5
4940
331
4CA2
  5
4CA6
331
4D59
  5
4D5D
331
4BED
  5
4BFA
331
5079
  5
508D
331
4F7B
  5
4FA6
331
4A87
  5
4A8B
331
4C2C
  5
4C30
331
4E65
  5
4E69
331
4C63
  5
4C67
331
4D98
  5
4D9C
331
49BC
  5
49C0
331
4DA0
  5
4DA4
331
4909
  5
4909
331
4948
  5
4948
331
4C6B
  5
4C6F
331
4CAA
  5
4CAE
331
4BF5
  5
4BFC
331
4A8F
  5
4A94
331
4C34
  5
4C38
331
4D61
  5
4D65
331
497D
  5
4981
331
4950
  5
4954
331
4985
  5
498F
331
49C4
  5
49C8
331
4D69
  5
4D6D
331
4C73
  5
4C77
331
4BFD
  5
4C01
331
4911
  5
4911
331
49FB
  5
49FF
331
4A97
  5
4A9C
331
4A03
  5
4A07
331
4A42
  5
4A49
331
498D
  5
4994
331
49CC
  5
49D5
331
4919
  5
4919
331
4A0B
  5
4A0F
331
4995
  5
4999
331
52D8
  5
4951
331
4EA4
  5
4EA8
331
4F8B
  5
4FB1
331
4DAE
  5
4DB2
331
4E6D
  5
4E71
331
5042
  5
5048
331
504A
  5
5050
331
5091
  5
51FB
331
4A48
  5
4A4D
331
4E75
  5
4E79
331
4EAC
  5
4EB0
331
4DB6
  5
4DBA
331
4FA3
  5
4FC8
331
4D71
  5
4D75
331
4C7B
  5
4C7F
331
4A9F
  5
4AA3
331
5052
  5
5058
331
4BC6
  5
4BCA
331
4DBE
  5
4E42
331
4E7D
  5
4E81
331
4EB4
  5
4EB8
331
4C05
  5
4C09
331
4CB2
  5
4CBB
331
4921
  5
4921
331
4D79
  5
4D7D
331
4C0D
  5
4C11
331
4A60
  5
4A64
331
4AA7
  5
4AAC
331
4E46
  5
4E4A
331
4E85
  5
4E89
331
505A
  5
5060
331
4BCE
  5
4BD2
331
4C83
  5
4C87
331
4A13
  5
4A17
331
495E
  5
4962
331
4C8B
  5
4C8F
331
4C15
  5
4C19
331
4C4C
  5
4C50
331
4D81
  5
4D85
331
499D
  5
49A5
331
4A68
  5
4A6C
331
4AAF
  5
4AB3
331
4BD6
  5
4BDA
331
49A5
  5
49A9
331
4931
  5
4931
331
4966
  5
496A
331
4A1B
  5
4A1F
331
4C93
  5
4C97
331
4D4A
  5
4D4F
331
4BDE
  5
4BE2
331
4AB7
  5
4ABB
331
4C54
  5
4C58
331
4D89
  5
4D8D
331
49AD
  5
49B1
331
49E4
  5
49E8
331
4939
  5
4939
331
496E
  5
4972
331
4A23
  5
4A27
331
4A2B
  5
4A2F
331
4976
  5
497A
331
49B5
  5
49B9
331
49EC
  5
49F4
331
502B
  5
5031
331
4E4E
  5
4E52
331
4E8D
  5
4E91
331
5062
  5
506D
331
5211
  5
531D
331
4A70
  5
4A74
331
4E95
  5
4E99
331
4E56
  5
4E5A
331
5033
  5
5039
331
4D91
  5
4D95
331
4ABF
  5
4BB0
331
4C5C
  5
4C60
331
4C9B
  5
4C9F
331
503B
  5
5041
331
5072
  5
5078
331
4E9D
  5
4EA1
331
4F74
  5
4F7A
331
5221
  5
5292
331
4D52
  5
4D56
331
4E5E
  5
4E62
331
4941
  5
4941
331
4D5A
  5
4D5E
331
4D99
  5
4D9D
331
4C2D
  5
4C31
331
4C64
  5
4C68
331
4BEE
  5
4BFB
331
4CA3
  5
4CA7
331
507A
  5
508F
331
4E66
  5
4E6A
331
4F7C
  5
4FA7
331
4A88
  5
4A8C
331
49F4
  5
49F8
331
4A33
  5
4A3D
331
4949
  5
4949
331
49BD
  5
49C1
331
4D62
  5
4D66
331
4DA1
  5
4DA5
331
490A
  5
490A
331
4A90
  5
4A95
331
4C35
  5
4C39
331
4C6C
  5
4C70
331
4CAB
  5
4CAF
331
49FC
  5
4A00
331
4912
  5
4912
331
4D6A
  5
4D6E
331
4951
  5
4955
331
4BFE
  5
4C02
331
4C74
  5
4C78
331
49C5
  5
49C9
331
491A
  5
491A
331
4A04
  5
4A08
331
4996
  5
499A
331
4A0C
  5
4A10
331
5043
  5
5049
331
4DAF
  5
4DB3
331
4E6E
  5
4E72
331
4EA5
  5
4EA9
331
5092
  5
51FC
331
4A49
  5
4A4F
331
4A98
  5
4A9D
331
4EAD
  5
4EB1
331
4FA4
  5
4FC9
331
4DB7
  5
4DBB
331
4E76
  5
4E7A
331
504B
  5
5051
331
4C7C
  5
4C80
331
4CB3
  5
4D44
331
4BC7
  5
4BCB
331
4C06
  5
4C0A
331
4AA0
  5
4AA4
331
4C3D
  5
4C43
331
4D72
  5
4D76
331
4EB5
  5
4EB9
331
4FB4
  5
502E
331
4DBF
  5
4E43
331
4E7E
  5
4E82
331
5053
  5
5059
331
4D7A
  5
4D7E
331
4C84
  5
4C88
331
4BCF
  5
4BD3
331
4C0E
  5
4C12
331
4CBB
  5
4D47
331
4922
  5
4922
331
4E86
  5
4E8A
331
505B
  5
5061
331
51FA
  5
5211
331
4A61
  5
4A65
331
4E47
  5
4E4B
331
4AA8
  5
4AAD
331
4A14
  5
4A18
331
499E
  5
49A6
331
49D5
  5
49DF
331
4D82
  5
4D86
331
4C4D
  5
4C51
331
4C8C
  5
4C90
331
4AB0
  5
4AB4
331
4BD7
  5
4BDB
331
4A69
  5
4A6D
331
4C16
  5
4C1A
331
495F
  5
4963
331
4A1C
  5
4A20
331
4932
  5
4932
331
4967
  5
496B
331
4D8A
  5
4D8E
331
49A6
  5
49AA
331
4C55
  5
4C59
331
4BDF
  5
4BE3
331
4C94
  5
4C98
331
49E5
  5
49E9
331
4A24
  5
4A28
331
493A
  5
493A
331
496F
  5
4973
331
49AE
  5
49B2
331
49B6
  5
49BA
331
49ED
  5
49F5
331
4977
  5
497B
331
4A2C
  5
4A30
331
502C
  5
5032
331
4E4F
  5
4E53
331
4E8E
  5
4E92
331
5063
  5
506E
331
4A71
  5
4A75
331
5034
  5
503A
331
4AB8
  5
4ABC
331
4E57
  5
4E5B
331
4E96
  5
4E9A
331
4C9C
  5
4CA0
331
4D53
  5
4D57
331
4AC0
  5
4BB1
331
4C5D
  5
4C61
331
4D92
  5
4D96
331
4F75
  5
4F7B
331
503C
  5
5042
331
4E5F
  5
4E63
331
4E9E
  5
4EA2
331
5073
  5
5079
331
4903
  5
4903
331
4942
  5
4942
331
4CA4
  5
4CA8
331
4D5B
  5
4D5F
331
4C2E
  5
4C32
331
507B
  5
5090
331
4A89
  5
4A8D
331
4E67
  5
4E6B
331
4BB0
  5
4BC0
331
4C65
  5
4C69
331
4D9A
  5
4D9E
331
49BE
  5
49C2
331
49F5
  5
49F9
331
4DA2
  5
4DA6
331
490B
  5
490B
331
4C6D
  5
4C71
331
4CAC
  5
4CB0
331
4A91
  5
4A96
331
4C36
  5
4C3A
331
4D63
  5
4D67
331
497F
  5
4983
331
4952
  5
4956
331
49C6
  5
49CA
331
4D6B
  5
4D6F
331
4C75
  5
4C79
331
4BFF
  5
4C03
331
4913
  5
4913
331
49FD
  5
4A01
331
4A05
  5
4A09
331
498F
  5
4995
331
4A44
  5
4A4A
331
491B
  5
491B
331
4A0D
  5
4A11
331
4997
  5
499B
331
4DA8
  5
4DAC
331
5044
  5
504A
331
4EA6
  5
4EAA
331
4DB0
  5
4DB4
331
4E6F
  5
4E73
331
4BC0
  5
4BC4
331
504C
  5
5052
331
4E77
  5
4E7B
331
4EAE
  5
4EB2
331
5093
  5
51FE
331
4A4A
  5
4A50
331
4DB8
  5
4DBC
331
4A99
  5
4A9E
331
4D73
  5
4D77
331
4C3E
  5
4C44
331
4C7D
  5
4C81
331
4AA1
  5
4AA5
331
5054
  5
505A
331
4BC8
  5
4BCC
331
4E40
  5
4E44
331
4E7F
  5
4E83
331
4EB6
  5
4F6F
331
4C07
  5
4C0B
331
4CB4
  5
4D45
331
4958
  5
495C
331
4D7B
  5
4D7F
331
4C0F
  5
4C13
331
51FB
  5
5220
331
4A62
  5
4A66
331
4E87
  5
4E8B
331
505C
  5
5062
331
4BD0
  5
4BD4
331
4C85
  5
4C89
331
49D6
  5
49E0
331
4A15
  5
4A19
331
492B
  5
492B
331
4960
  5
4964
331
4C8D
  5
4C91
331
4D44
  5
4D48
331
4BD8
  5
4BDC
331
4C17
  5
4C1B
331
4A6A
  5
4A6E
331
4AB1
  5
4AB5
331
4C4E
  5
4C52
331
4D83
  5
4D87
331
499F
  5
49A7
331
49A7
  5
49AB
331
4D8B
  5
4D8F
331
4C95
  5
4C99
331
4D4C
  5
4D50
331
4933
  5
4933
331
4968
  5
496C
331
4A1D
  5
4A21
331
4C1F
  5
4C23
331
4C56
  5
4C5A
331
4A25
  5
4A29
331
49AF
  5
49B3
331
49E6
  5
49EA
331
493B
  5
493B
331
4970
  5
4974
331
4A2D
  5
4A31
331
49B7
  5
49BB
331
49EE
  5
49F6
331
4E48
  5
4E4C
331
502D
  5
5033
331
4E50
  5
4E54
331
4E8F
  5
4E93
331
4BE0
  5
4BE4
331
506C
  5
5072
331
4A72
  5
4A76
331
4E97
  5
4E9B
331
4E58
  5
4E5C
331
5035
  5
503B
331
4AB9
  5
4ABD
331
4D93
  5
4D97
331
4C5E
  5
4C62
331
4AC1
  5
4BB2
331
503D
  5
5043
331
5074
  5
507A
331
4BE8
  5
4BED
331
4C9D
  5
4CA1
331
4E60
  5
4E64
331
4E9F
  5
4EA3
331
4F76
  5
4F7C
331
4D54
  5
4D58
331
4943
  5
4943
331
4978
  5
497C
331
4D5C
  5
4D60
331
4D9B
  5
4D9F
331
4C2F
  5
4C33
331
4A8A
  5
4A8E
331
4BB1
  5
4BC1
331
4C66
  5
4C6A
331
4CA5
  5
4CA9
331
4904
  5
4904
331
49F6
  5
49FA
331
4A35
  5
4A3F
331
490C
  5
490C
331
494B
  5
494B
331
4980
  5
4984
331
4CAD
  5
4CB1
331
4D64
  5
4D68
331
4C37
  5
4C3D
331
4C6E
  5
4C72
331
4DA3
  5
4DA7
331
49BF
  5
49C3
331
49C7
  5
49CB
331
49FE
  5
4A02
331
4914
  5
4914
331
4D6C
  5
4D70
331
4953
  5
4957
331
4A3D
  5
4A42
331
4C76
  5
4C7A
331
49CF
  5
49D6
331
491C
  5
491C
331
4A06
  5
4A0A
331
4A0E
  5
4A12
331
4E68
  5
4E6C
331
4DA9
  5
4DAD
331
5045
  5
504B
331
4DB1
  5
4DB5
331
4E70
  5
4E74
331
4EA7
  5
4EAB
331
508C
  5
5093
331
4C00
  5
4C04
331
5094
  5
520F
331
4EAF
  5
4EB3
331
4FA6
  5
502B
331
4DB9
  5
4DBD
331
4E78
  5
4E7C
331
504D
  5
5053
331
4BC1
  5
4BC5
331
4C7E
  5
4C82
331
4BC9
  5
4BCD
331
4C08
  5
4C0C
331
4CB5
  5
4D46
331
5055
  5
505B
331
4EB7
  5
4F70
331
4AA2
  5
4AA6
331
4D74
  5
4D78
331
4E41
  5
4E45
331
4E80
  5
4E84
331
4998
  5
499C
331
4D7C
  5
4D80
331
4C47
  5
4C4B
331
4C86
  5
4C8A
331
4BD1
  5
4BD5
331
4C10
  5
4C14
331
4959
  5
495D
331
505D
  5
5063
331
4A63
  5
4A67
331
4AAA
  5
4AAE
331
4961
  5
4965
331
4A16
  5
4A1A
331
4D84
  5
4D88
331
4C4F
  5
4C53
331
4C8E
  5
4C92
331
4AB2
  5
4AB6
331
4BD9
  5
4BDD
331
4A6B
  5
4A6F
331
4C18
  5
4C1C
331
4D45
  5
4D49
331
492C
  5
492C
331
4A1E
  5
4A22
331
4934
  5
4934
331
4969
  5
496D
331
4D4D
  5
4D51
331
4D8C
  5
4D90
331
49A8
  5
49AC
331
4C57
  5
4C5B
331
4C96
  5
4C9A
331
49DF
  5
49E3
331
49E7
  5
49EB
331
4A26
  5
4A2A
331
493C
  5
493C
331
4971
  5
4975
331
49B0
  5
49B4
331
49EF
  5
49F7
331
4E88
  5
4E8C
331
4E49
  5
4E4D
331
502E
  5
5034
331
4E51
  5
4E55
331
4E90
  5
4E94
331
4EC7
  5
4F74
331
4C20
  5
4C24
331
4A73
  5
4A77
331
4ABA
  5
4ABE
331
4F6F
  5
4F75
331
5036
  5
503C
331
4E59
  5
4E5D
331
4E98
  5
4E9C
331
506D
  5
5073
331
4BE1
  5
4BE5
331
4C9E
  5
4CA2
331
4D55
  5
4D59
331
4A83
  5
4A88
331
4AC2
  5
4BB3
331
4C5F
  5
4C63
331
4D94
  5
4D98
331
4F77
  5
4F8B
331
4E61
  5
4E65
331
503E
  5
5044
331
5075
  5
507B
331
49B8
  5
49BC
331
4D9C
  5
4DA0
331
4905
  5
4905
331
4CA6
  5
4CAA
331
4D5D
  5
4D61
331
4944
  5
4944
331
4979
  5
497D
331
4C30
  5
4C34
331
4A8B
  5
4A8F
331
4BB2
  5
4BC2
331
4C67
  5
4C6B
331
4A36
  5
4A40
331
49C0
  5
49C4
331
49F7
  5
49FB
331
4DA4
  5
4DA8
331
490D
  5
490D
331
4C6F
  5
4C73
331
4BF9
  5
4BFD
331
4CAE
  5
4CB2
331
4A93
  5
4A97
331
4D65
  5
4D69
331
4981
  5
4985
331
4A3E
  5
4A44
331
4954
  5
4958
331
4989
  5
4991
331
49C8
  5
49CC
331
4D6D
  5
4D71
331
4C77
  5
4C7B
331
4915
  5
4915
331
49FF
  5
4A03
331
4A07
  5
4A0B
331
491D
  5
491D
331
4991
  5
4996
331
4A46
  5
4A4C
331
4A0F
  5
4A13
331
4EA0
  5
4EA4
331
4DAA
  5
4DAE
331
4E69
  5
4E6D
331
5046
  5
504C
331
508D
  5
5094
331
4E71
  5
4E75
331
4EA8
  5
4EAC
331
4DB2
  5
4DB6
331
4F8F
  5
4FB4
331
4C38
  5
4C3E
331
4A9B
  5
4A9F
331
4BC2
  5
4BC6
331
504E
  5
5054
331
4A4C
  5
4A51
331
4C01
  5
4C05
331
4E79
  5
4E7D
331
4EB0
  5
4EB4
331
4DBA
  5
4DBE
331
4FA7
  5
502C
331
4D75
  5
4D79
331
4C7F
  5
4C83
331
4AA3
  5
4AA7
331
4BCA
  5
4BCE
331
4A5C
  5
4A60
331
5056
  5
505C
331
4E42
  5
4E46
331
4E81
  5
4E85
331
4EB8
  5
4F71
331
51F5
  5
5210
331
4C09
  5
4C0D
331
49D0
  5
49DA
331
4925
  5
4925
331
495A
  5
495E
331
4D7D
  5
4D81
331
4999
  5
499D
331
4C11
  5
4C15
331
4C48
  5
4C4C
331
4A64
  5
4A68
331
4AAB
  5
4AAF
331
505E
  5
5066
331
4BD2
  5
4BD6
331
4C87
  5
4C8B
331
492D
  5
492D
331
4962
  5
4966
331
4A17
  5
4A1B
331
4C8F
  5
4C93
331
4D46
  5
4D4A
331
4BDA
  5
4BDE
331
4C19
  5
4C1D
331
4A6C
  5
4A70
331
4AB3
  5
4AB7
331
4C50
  5
4C54
331
4D85
  5
4D89
331
49A9
  5
49AD
331
49E0
  5
49E4
331
4D8D
  5
4D91
331
4C97
  5
4C9B
331
4D4E
  5
4D52
331
4935
  5
4935
331
496A
  5
496E
331
4A1F
  5
4A23
331
4A27
  5
4A2B
331
4972
  5
4976
331
49B1
  5
49B5
331
49E8
  5
49EC
331
493D
  5
493D
331
4A2F
  5
4A33
331
4E4A
  5
4E4E
331
4E89
  5
4E8D
331
5066
  5
506F
331
502F
  5
5035
331
4E52
  5
4E56
331
4E91
  5
4E95
331
4C58
  5
4C5C
331
4BE2
  5
4BE8
331
506E
  5
5074
331
4A74
  5
4A78
331
4E99
  5
4E9D
331
4F70
  5
4F76
331
4E5A
  5
4E5E
331
5037
  5
503D
331
4ABB
  5
4ABF
331
4D95
  5
4D99
331
4C60
  5
4C64
331
4C9F
  5
4CA3
331
4BEA
  5
4BEE
331
503F
  5
5045
331
5076
  5
507E
331
4E62
  5
4E66
331
4F78
  5
4F8F
331
4A84
  5
4A89
331
4C29
  5
4C2D
331
4D56
  5
4D5A
331
497A
  5
497E
331
49B9
  5
49BD
331
4D5E
  5
4D62
331
4D9D
  5
4DA1
331
4C31
  5
4C35
331
4A8C
  5
4A90
331
4BB3
  5
4BC3
331
4C68
  5
4C6C
331
507E
  5
5091
331
4CA7
  5
4CAB
331
4906
  5
4906
331
49F8
  5
49FC
331
490E
  5
490E
331
4CAF
  5
4CB3
331
4D66
  5
4D6A
331
4BFA
  5
4BFE
331
4A94
  5
4A98
331
4C70
  5
4C74
331
4DA5
  5
4DA9
331
49C1
  5
49C5
331
49C9
  5
49CF
331
4A00
  5
4A04
331
4916
  5
4916
331
4D6E
  5
4D72
331
4955
  5
4959
331
4A3F
  5
4A46
331
491E
  5
491E
331
4A08
  5
4A0C
331
4E6A
  5
4E6E
331
4EA1
  5
4EA5
331
4DAB
  5
4DAF
331
5047
  5
504D
331
4DB3
  5
4DB7
331
4E72
  5
4E76
331
4EA9
  5
4EAD
331
4C02
  5
4C06
331
4C39
  5
4C3F
331
4A4D
  5
4A52
331
531D
  5
4953
331
4A9C
  5
4AA0
331
4EB1
  5
4EB5
331
4DBB
  5
4DBF
331
4E7A
  5
4E7E
331
504F
  5
5055
331
4BC3
  5
4BC7
331
4C78
  5
4C7C
331
4C80
  5
4C84
331
4BCB
  5
4BCF
331
4C0A
  5
4C0E
331
5057
  5
505D
331
4A5D
  5
4A61
331
4E82
  5
4E86
331
4E43
  5
4E47
331
4FC8
  5
502F
331
4AA4
  5
4AA8
331
4D76
  5
4D7A
331
499A
  5
499E
331
49D1
  5
49DB
331
4D7E
  5
4D82
331
4C49
  5
4C4D
331
4C88
  5
4C8C
331
4AAC
  5
4AB0
331
4BD3
  5
4BD7
331
505F
  5
5067
331
4A65
  5
4A69
331
4C12
  5
4C16
331
4926
  5
4926
331
495B
  5
495F
331
4A10
  5
4A14
331
492E
  5
492E
331
4963
  5
4967
331
4A18
  5
4A1C
331
4D47
  5
4D4C
331
4D86
  5
4D8A
331
4C51
  5
4C55
331
4C90
  5
4C94
331
4AB4
  5
4AB8
331
4BDB
  5
4BDF
331
4A6D
  5
4A71
331
4C1A
  5
4C1E
331
49E1
  5
49E5
331
4A20
  5
4A24
331
4936
  5
4936
331
496B
  5
496F
331
4D4F
  5
4D53
331
4D8E
  5
4D92
331
49AA
  5
49AE
331
49E9
  5
49ED
331
4A28
  5
4A2C
331
493E
  5
493E
331
4973
  5
4977
331
49B2
  5
49B6
331
4E8A
  5
4E8E
331
4E4B
  5
4E4F
331
5030
  5
5036
331
4E53
  5
4E57
331
4E92
  5
4E96
331
5067
  5
5070
331
4C59
  5
4C5D
331
4A75
  5
4A79
331
4ABC
  5
4AC0
331
4F71
  5
4F77
331
5038
  5
503E
331
4E5B
  5
4E5F
331
4E9A
  5
4E9E
331
506F
  5
5075
331
4BE3
  5
4BEA
331
4C98
  5
4C9C
331
4CA0
  5
4CA4
331
4D57
  5
4D5B
331
4BEB
  5
4BF5
331
5077
  5
507F
331
4F79
  5
4FA3
331
4A85
  5
4A8A
331
4C2A
  5
4C2E
331
4E63
  5
4E67
331
4C61
  5
4C65
331
4D96
  5
4D9A
331
49BA
  5
49BE
331
4D9E
  5
4DA2
331
4907
  5
4907
331
4C69
  5
4C6D
331
4CA8
  5
4CAC
331
507F
  5
5092
331
4A8D
  5
4A91
331
4C32
  5
4C36
331
4D5F
  5
4D63
331
4946
  5
4946
331
497B
  5
497F
331
4983
  5
498B
331
49C2
  5
49C6
331
4DA6
  5
4DAA
331
490F
  5
490F
331
49F9
  5
49FD
331
4C71
  5
4C75
331
4BFB
  5
4BFF
331
4A95
  5
4A99
331
4D67
  5
4D6B
331
4A40
  5
4A48
331
4956
  5
495A
331
498B
  5
4993
331
49CA
  5
49D0
331
4D6F
  5
4D73
331
4917
  5
4917
331
4A01
  5
4A05
331
4A09
  5
4A0D
331
491F
  5
491F
331
4993
  5
4997
331
4EA2
  5
4EA6
331
4DAC
  5
4DB0
331
4E6B
  5
4E6F
331
5040
  5
5046
331
5048
  5
504E
331
4E73
  5
4E77
331
4EAA
  5
4EAE
331
508F
  5
51F5
331
4DB4
  5
4DB8
331
4C3A
  5
4C40
331
4C79
  5
4C7D
331
531E
  5
4952
331
4A9D
  5
4AA1
331
4FB1
  5
502D
331
5050
  5
5056
331
4BC4
  5
4BC8
331
4E7B
  5
4E7F
331
4EB2
  5
4EB6
331
4C03
  5
4C07
331
4CB0
  5
4CB4
331
4DBC
  5
4E40
331
4D77
  5
4D7B
331
4C0B
  5
4C0F
331
4AA5
  5
4AAA
331
4BCC
  5
4BD0
331
4C81
  5
4C85
331
4FC9
  5
5030
331
5058
  5
505E
331
4E44
  5
4E48
331
4E83
  5
4E87
331
4EBA
  5
4F72
331
4A5E
  5
4A62
331
4A11
  5
4A15
331
495C
  5
4960
331
4D7F
  5
4D83
331
499B
  5
499F
331
4C13
  5
4C17
331
4C4A
  5
4C4E
331
4A66
  5
4A6A
331
4AAD
  5
4AB1
331
4BD4
  5
4BD8
331
4C89
  5
4C8D
331
49DA
  5
49E1
331
492F
  5
492F
331
4964
  5
4968
331
4A19
  5
4A1D
331
4C91
  5
4C95
331
4D48
  5
4D4D
331
4BDC
  5
4BE0
331
4C1B
  5
4C1F
331
4A6E
  5
4A72
331
4AB5
  5
4AB9
331
4C52
  5
4C56
331
4D87
  5
4D8B
331
49AB
  5
49AF
331
49E2
  5
49E6
331
4D8F
  5
4D93
331
4937
  5
4937
331
496C
  5
4970
331
4A21
  5
4A25
331
4A29
  5
4A2D
331
493F
  5
493F
331
4974
  5
4978
331
49B3
  5
49B7
331
49EA
  5
49EE
  0
XRECORD
  5
3D91
102
{ACAD_REACTORS
330
3D20
102
}
330
3D20
100
AcDbXrecord
280
     1
340
1A
  0
GROUP
  5
4143
102
{ACAD_REACTORS
330
D
102
}
330
D
100
AcDbGroup
300

 70
     1
 71
     1
  0
GROUP
  5
414A
102
{ACAD_REACTORS
330
D
102
}
330
D
100
AcDbGroup
300

 70
     1
 71
     1
  0
GROUP
  5
414B
102
{ACAD_REACTORS
330
D
102
}
330
D
100
AcDbGroup
300

 70
     1
 71
     1
  0
GROUP
  5
43BC
102
{ACAD_REACTORS
330
D
102
}
330
D
100
AcDbGroup
300

 70
     1
 71
     1
  0
GROUP
  5
4235
102
{ACAD_REACTORS
330
D
102
}
330
D
100
AcDbGroup
300

 70
     1
 71
     1
  0
GROUP
  5
4239
102
{ACAD_REACTORS
330
D
102
}
330
D
100
AcDbGroup
300

 70
     1
 71
     1
  0
GROUP
  5
423B
102
{ACAD_REACTORS
330
D
102
}
330
D
100
AcDbGroup
300

 70
     1
 71
     1
  0
GROUP
  5
43B8
102
{ACAD_REACTORS
330
D
102
}
330
D
100
AcDbGroup
300

 70
     1
 71
     1
  0
GROUP
  5
4236
102
{ACAD_REACTORS
330
D
102
}
330
D
100
AcDbGroup
300

 70
     1
 71
     1
  0
GROUP
  5
4237
102
{ACAD_REACTORS
330
D
102
}
330
D
100
AcDbGroup
300

 70
     1
 71
     1
  0
GROUP
  5
4238
102
{ACAD_REACTORS
330
D
102
}
330
D
100
AcDbGroup
300

 70
     1
 71
     1
  0
GROUP
  5
43C0
102
{ACAD_REACTORS
330
D
102
}
330
D
100
AcDbGroup
300

 70
     1
 71
     1
  0
GROUP
  5
423C
102
{ACAD_REACTORS
330
D
102
}
330
D
100
AcDbGroup
300

 70
     1
 71
     1
  0
GROUP
  5
4240
102
{ACAD_REACTORS
330
D
102
}
330
D
100
AcDbGroup
300

 70
     1
 71
     1
  0
GROUP
  5
4373
102
{ACAD_REACTORS
330
D
102
}
330
D
100
AcDbGroup
300

 70
     1
 71
     1
  0
GROUP
  5
43BD
102
{ACAD_REACTORS
330
D
102
}
330
D
100
AcDbGroup
300

 70
     1
 71
     1
  0
GROUP
  5
423D
102
{ACAD_REACTORS
330
D
102
}
330
D
100
AcDbGroup
300

 70
     1
 71
     1
  0
GROUP
  5
423E
102
{ACAD_REACTORS
330
D
102
}
330
D
100
AcDbGroup
300

 70
     1
 71
     1
  0
GROUP
  5
423F
102
{ACAD_REACTORS
330
D
102
}
330
D
100
AcDbGroup
300

 70
     1
 71
     1
  0
GROUP
  5
4374
102
{ACAD_REACTORS
330
D
102
}
330
D
100
AcDbGroup
300

 70
     1
 71
     1
  0
GROUP
  5
4377
102
{ACAD_REACTORS
330
D
102
}
330
D
100
AcDbGroup
300

 70
     1
 71
     1
  0
GROUP
  5
4379
102
{ACAD_REACTORS
330
D
102
}
330
D
100
AcDbGroup
300

 70
     1
 71
     1
  0
GROUP
  5
43C1
102
{ACAD_REACTORS
330
D
102
}
330
D
100
AcDbGroup
300

 70
     1
 71
     1
  0
GROUP
  5
4375
102
{ACAD_REACTORS
330
D
102
}
330
D
100
AcDbGroup
300

 70
     1
 71
     1
  0
GROUP
  5
4145
102
{ACAD_REACTORS
330
D
102
}
330
D
100
AcDbGroup
300

 70
     1
 71
     1
  0
GROUP
  5
4376
102
{ACAD_REACTORS
330
D
102
}
330
D
100
AcDbGroup
300

 70
     1
 71
     1
  0
GROUP
  5
437A
102
{ACAD_REACTORS
330
D
102
}
330
D
100
AcDbGroup
300

 70
     1
 71
     1
  0
GROUP
  5
437D
102
{ACAD_REACTORS
330
D
102
}
330
D
100
AcDbGroup
300

 70
     1
 71
     1
  0
GROUP
  5
437F
102
{ACAD_REACTORS
330
D
102
}
330
D
100
AcDbGroup
300

 70
     1
 71
     1
  0
GROUP
  5
437B
102
{ACAD_REACTORS
330
D
102
}
330
D
100
AcDbGroup
300

 70
     1
 71
     1
  0
GROUP
  5
414D
102
{ACAD_REACTORS
330
D
102
}
330
D
100
AcDbGroup
300

 70
     1
 71
     1
  0
GROUP
  5
437C
102
{ACAD_REACTORS
330
D
102
}
330
D
100
AcDbGroup
300

 70
     1
 71
     1
  0
GROUP
  5
4146
102
{ACAD_REACTORS
330
D
102
}
330
D
100
AcDbGroup
300

 70
     1
 71
     1
  0
GROUP
  5
43B7
102
{ACAD_REACTORS
330
D
102
}
330
D
100
AcDbGroup
300

 70
     1
 71
     1
  0
GROUP
  5
43B9
102
{ACAD_REACTORS
330
D
102
}
330
D
100
AcDbGroup
300

 70
     1
 71
     1
  0
GROUP
  5
43B5
102
{ACAD_REACTORS
330
D
102
}
330
D
100
AcDbGroup
300

 70
     1
 71
     1
  0
GROUP
  5
423A
102
{ACAD_REACTORS
330
D
102
}
330
D
100
AcDbGroup
300

 70
     1
 71
     1
  0
GROUP
  5
43B6
102
{ACAD_REACTORS
330
D
102
}
330
D
100
AcDbGroup
300

 70
     1
 71
     1
  0
GROUP
  5
414E
102
{ACAD_REACTORS
330
D
102
}
330
D
100
AcDbGroup
300

 70
     1
 71
     1
  0
GROUP
  5
43BE
102
{ACAD_REACTORS
330
D
102
}
330
D
100
AcDbGroup
300

 70
     1
 71
     1
  0
GROUP
  5
43BA
102
{ACAD_REACTORS
330
D
102
}
330
D
100
AcDbGroup
300

 70
     1
 71
     1
  0
GROUP
  5
4241
102
{ACAD_REACTORS
330
D
102
}
330
D
100
AcDbGroup
300

 70
     1
 71
     1
  0
GROUP
  5
43BB
102
{ACAD_REACTORS
330
D
102
}
330
D
100
AcDbGroup
300

 70
     1
 71
     1
  0
GROUP
  5
4144
102
{ACAD_REACTORS
330
D
102
}
330
D
100
AcDbGroup
300

 70
     1
 71
     1
  0
GROUP
  5
4148
102
{ACAD_REACTORS
330
D
102
}
330
D
100
AcDbGroup
300

 70
     1
 71
     1
  0
GROUP
  5
4147
102
{ACAD_REACTORS
330
D
102
}
330
D
100
AcDbGroup
300

 70
     1
 71
     1
  0
GROUP
  5
4378
102
{ACAD_REACTORS
330
D
102
}
330
D
100
AcDbGroup
300

 70
     1
 71
     1
  0
GROUP
  5
43BF
102
{ACAD_REACTORS
330
D
102
}
330
D
100
AcDbGroup
300

 70
     1
 71
     1
  0
GROUP
  5
414C
102
{ACAD_REACTORS
330
D
102
}
330
D
100
AcDbGroup
300

 70
     1
 71
     1
  0
GROUP
  5
414F
102
{ACAD_REACTORS
330
D
102
}
330
D
100
AcDbGroup
300

 70
     1
 71
     1
  0
GROUP
  5
437E
102
{ACAD_REACTORS
330
D
102
}
330
D
100
AcDbGroup
300

 70
     1
 71
     1
  0
GROUP
  5
4149
102
{ACAD_REACTORS
330
D
102
}
330
D
100
AcDbGroup
300

 70
     1
 71
     1
  0
LAYOUT
  5
21
102
{ACAD_XDICTIONARY
360
54CE
102
}
102
{ACAD_REACTORS
330
19
102
}
330
19
100
AcDbPlotSettings
  1

  2
HP 2200
  4

  6

 40
0.0
 41
0.0
 42
0.0
 43
0.0
 44
0.0
 45
0.0
 46
0.0
 47
0.0
 48
0.0
 49
0.0
140
0.0
141
0.0
142
1.0
143
1.0
 70
  1712
 72
     0
 73
     0
 74
     0
  7
AAA.ctb
 75
     0
147
1.0
148
0.0
149
0.0
100
AcDbLayout
  1
Model
 70
     1
 71
     0
 10
0.0
 20
0.0
 11
12.0
 21
9.0
 12
0.0
 22
0.0
 32
0.0
 14
0.0
 24
0.0
 34
0.0
 15
0.0
 25
0.0
 35
0.0
146
0.0
 13
0.0
 23
0.0
 33
0.0
 16
1.0
 26
0.0
 36
0.0
 17
0.0
 27
1.0
 37
0.0
 76
     0
330
1E
331
5465
  0
LAYOUT
  5
1D
102
{ACAD_XDICTIONARY
360
54CC
102
}
102
{ACAD_REACTORS
330
19
102
}
330
19
100
AcDbPlotSettings
  1

  2
HP 2200
  4

  6

 40
0.0
 41
0.0
 42
0.0
 43
0.0
 44
0.0
 45
0.0
 46
0.0
 47
0.0
 48
0.0
 49
0.0
140
0.0
141
0.0
142
1.0
143
1.0
 70
   688
 72
     0
 73
     0
 74
     5
  7
AAA.ctb
 75
    16
147
1.0
148
0.0
149
0.0
100
AcDbLayout
  1
配置1
 70
     0
 71
     1
 10
0.0
 20
0.0
 11
12.0
 21
9.0
 12
0.0
 22
0.0
 32
0.0
 14
1.000000000000000E+20
 24
1.000000000000000E+20
 34
1.000000000000000E+20
 15
-1.000000000000000E+20
 25
-1.000000000000000E+20
 35
-1.000000000000000E+20
146
0.0
 13
0.0
 23
0.0
 33
0.0
 16
1.0
 26
0.0
 36
0.0
 17
0.0
 27
1.0
 37
0.0
 76
     0
330
1A
  0
MATERIAL
  5
5471
330
3D96
100
AcDbMaterial
  1
ByBlock
  0
MATERIAL
  5
5470
330
3D96
100
AcDbMaterial
  1
ByLayer
  0
MATERIAL
  5
5472
330
3D96
100
AcDbMaterial
  1
Global
  0
MLINESTYLE
  5
17
102
{ACAD_REACTORS
330
16
102
}
330
16
100
AcDbMlineStyle
  2
STANDARD
 70
     0
  3

 62
   256
 51
90.0
 52
90.0
 71
     2
 49
0.5
 62
   256
  6
BYLAYER
 49
-0.5
 62
   256
  6
BYLAYER
  0
PLOTSETTINGS
  5
4150
102
{ACAD_XDICTIONARY
360
54D0
102
}
102
{ACAD_REACTORS
330
18
102
}
330
18
100
AcDbPlotSettings
  1
LANSRO
  2
\\1260\HP2200
  4
A4
  6

 40
6.043083190917967
 41
6.762742042541503
 42
7.736419677734375
 43
5.027069091796875
 44
209.9733276367186
 45
296.9683227539062
 46
5.15
 47
0.0
 48
0.0
 49
0.0
140
0.0
141
0.0
142
1.0
143
0.8829829263240881
 70
  1716
 72
     1
 73
     1
 74
     0
  7
AAA.ctb
 75
     0
147
1.132524729739748
148
-132.297014905803
149
-71.78507365635891
  0
ACDBPLACEHOLDER
  5
F
102
{ACAD_REACTORS
330
E
102
}
330
E
  0
TABLESTYLE
  5
50CF
102
{ACAD_XDICTIONARY
360
54B8
102
}
102
{ACAD_REACTORS
330
50CE
102
}
330
50CE
100
AcDbTableStyle
  3
Standard
 70
     0
 71
     0
 40
0.06
 41
0.06
280
     0
281
     0
  7
STANDARD
140
0.18
170
     2
 62
     0
 63
     7
283
     0
274
    -2
284
     1
 64
     0
275
    -2
285
     1
 65
     0
276
    -2
286
     1
 66
     0
277
    -2
287
     1
 67
     0
278
    -2
288
     1
 68
     0
279
    -2
289
     1
 69
     0
  7
STANDARD
140
0.25
170
     5
 62
     0
 63
     7
283
     0
274
    -2
284
     1
 64
     0
275
    -2
285
     1
 65
     0
276
    -2
286
     1
 66
     0
277
    -2
287
     1
 67
     0
278
    -2
288
     1
 68
     0
279
    -2
289
     1
 69
     0
  7
STANDARD
140
0.18
170
     5
 62
     0
 63
     7
283
     0
274
    -2
284
     1
 64
     0
275
    -2
285
     1
 65
     0
276
    -2
286
     1
 66
     0
277
    -2
287
     1
 67
     0
278
    -2
288
     1
 68
     0
279
    -2
289
     1
 69
     0
1001
ACAD
1001
ACAD
1000
AcRTDxfName
1000
TABLESTYLE
  0
VISUALSTYLE
  5
5479
102
{ACAD_REACTORS
330
5473
102
}
330
5473
100
AcDbVisualStyle
  2
2dWireframe
 70
     4
 71
     0
 72
     2
 73
     0
 90
        0
 40
-0.6
 41
-30.0
 62
     5
 63
     7
 74
     1
 91
        4
 64
     7
 65
   257
 75
     1
175
     1
 42
1.0
 92
        0
 66
   257
 43
1.0
 76
     1
 77
     6
 78
     2
 67
     7
 79
     5
170
     0
171
     0
290
     0
174
     0
 93
        1
 44
0.0
173
     0
291
     0
 45
0.0
1001
ACAD
1000
AcDbSavedByObjectVersion
1070
     0
1001
ACAD
1000
AcRTDxfName
1000
VISUALSTYLE
  0
VISUALSTYLE
  5
547B
102
{ACAD_REACTORS
330
5473
102
}
330
5473
100
AcDbVisualStyle
  2
3D Hidden
 70
     6
 71
     1
 72
     2
 73
     2
 90
        0
 40
-0.6
 41
-30.0
 62
     5
 63
     7
 74
     2
 91
        2
 64
     7
 65
   257
 75
     2
175
     1
 42
40.0
 92
        0
 66
   257
 43
1.0
 76
     1
 77
     6
 78
     2
 67
     7
 79
     3
170
     0
171
     0
290
     0
174
     0
 93
        1
 44
0.0
173
     0
291
     0
 45
0.0
1001
ACAD
1000
AcDbSavedByObjectVersion
1070
     0
1001
ACAD
1000
AcRTDxfName
1000
VISUALSTYLE
  0
VISUALSTYLE
  5
547A
102
{ACAD_REACTORS
330
5473
102
}
330
5473
100
AcDbVisualStyle
  2
3dWireframe
 70
     5
 71
     0
 72
     2
 73
     0
 90
        0
 40
-0.6
 41
-30.0
 62
     5
 63
     7
 74
     1
 91
        4
 64
     7
 65
   257
 75
     1
175
     1
 42
1.0
 92
        0
 66
   257
 43
1.0
 76
     1
 77
     6
 78
     2
 67
     7
 79
     5
170
     0
171
     0
290
     0
174
     0
 93
        1
 44
0.0
173
     0
291
     0
 45
0.0
1001
ACAD
1000
AcDbSavedByObjectVersion
1070
     0
1001
ACAD
1000
AcRTDxfName
1000
VISUALSTYLE
  0
VISUALSTYLE
  5
5478
102
{ACAD_REACTORS
330
5473
102
}
330
5473
100
AcDbVisualStyle
  2
Basic
 70
     7
 71
     1
 72
     0
 73
     1
 90
        0
 40
-0.6
 41
-30.0
 62
     5
 63
     7
 74
     0
 91
        4
 64
     7
 65
   257
 75
     1
175
     1
 42
1.0
 92
        8
 66
     7
 43
1.0
 76
     1
 77
     6
 78
     2
 67
     7
 79
     5
170
     0
171
     0
290
     0
174
     0
 93
        1
 44
0.0
173
     0
291
     1
 45
0.0
1001
ACAD
1000
AcDbSavedByObjectVersion
1070
     0
1001
ACAD
1000
AcRTDxfName
1000
VISUALSTYLE
  0
VISUALSTYLE
  5
547F
102
{ACAD_REACTORS
330
5473
102
}
330
5473
100
AcDbVisualStyle
  2
Brighten
 70
    12
 71
     2
 72
     2
 73
     0
 90
        0
 40
-0.6
 41
-30.0
 62
     5
 63
     7
 74
     1
 91
        4
 64
     7
 65
   257
 75
     1
175
     1
 42
1.0
 92
        8
 66
     7
 43
1.0
 76
     1
 77
     6
 78
     2
 67
     7
 79
     5
170
     0
171
     0
290
     0
174
     0
 93
        1
 44
50.0
173
     0
291
     1
 45
0.0
1001
ACAD
1000
AcDbSavedByObjectVersion
1070
     0
1001
ACAD
1000
AcRTDxfName
1000
VISUALSTYLE
  0
VISUALSTYLE
  5
5483
102
{ACAD_REACTORS
330
5473
102
}
330
5473
100
AcDbVisualStyle
  2
ColorChange
 70
    16
 71
     2
 72
     2
 73
     3
 90
        0
 40
-0.6
 41
-30.0
 62
     5
 63
     8
 74
     1
 91
        4
 64
     7
 65
   257
 75
     1
175
     1
 42
1.0
 92
        8
 66
     8
 43
1.0
 76
     1
 77
     6
 78
     2
 67
     7
 79
     5
170
     0
171
     0
290
     0
174
     0
 93
        1
 44
0.0
173
     0
291
     1
 45
0.0
1001
ACAD
1000
AcDbSavedByObjectVersion
1070
     0
1001
ACAD
1000
AcRTDxfName
1000
VISUALSTYLE
  0
VISUALSTYLE
  5
547C
102
{ACAD_REACTORS
330
5473
102
}
330
5473
100
AcDbVisualStyle
  2
Conceptual
 70
     9
 71
     3
 72
     2
 73
     0
 90
        0
 40
-0.6
 41
-30.0
 62
     5
 63
     7
 74
     2
 91
        2
 64
     7
 65
   257
 75
     1
175
     1
 42
40.0
 92
        8
 66
     7
 43
1.0
 76
     1
 77
     6
 78
     2
 67
     7
 79
     3
170
     0
171
     0
290
     0
174
     0
 93
        1
 44
0.0
173
     0
291
     0
 45
0.0
1001
ACAD
1000
AcDbSavedByObjectVersion
1070
     0
1001
ACAD
1000
AcRTDxfName
1000
VISUALSTYLE
  0
VISUALSTYLE
  5
547E
102
{ACAD_REACTORS
330
5473
102
}
330
5473
100
AcDbVisualStyle
  2
Dim
 70
    11
 71
     2
 72
     2
 73
     0
 90
        0
 40
-0.6
 41
-30.0
 62
     5
 63
     7
 74
     1
 91
        4
 64
     7
 65
   257
 75
     1
175
     1
 42
1.0
 92
        8
 66
     7
 43
1.0
 76
     1
 77
     6
 78
     2
 67
     7
 79
     5
170
     0
171
     0
290
     0
174
     0
 93
        1
 44
-50.0
173
     0
291
     1
 45
0.0
1001
ACAD
1000
AcDbSavedByObjectVersion
1070
     0
1001
ACAD
1000
AcRTDxfName
1000
VISUALSTYLE
  0
VISUALSTYLE
  5
5482
102
{ACAD_REACTORS
330
5473
102
}
330
5473
100
AcDbVisualStyle
  2
Facepattern
 70
    15
 71
     2
 72
     2
 73
     0
 90
        0
 40
-0.6
 41
-30.0
 62
     5
 63
     7
 74
     1
 91
        4
 64
     7
 65
   257
 75
     1
175
     1
 42
1.0
 92
        8
 66
     7
 43
1.0
 76
     1
 77
     6
 78
     2
 67
     7
 79
     5
170
     0
171
     0
290
     0
174
     0
 93
        1
 44
0.0
173
     0
291
     1
 45
0.0
1001
ACAD
1000
AcDbSavedByObjectVersion
1070
     0
1001
ACAD
1000
AcRTDxfName
1000
VISUALSTYLE
  0
VISUALSTYLE
  5
5474
102
{ACAD_REACTORS
330
5473
102
}
330
5473
100
AcDbVisualStyle
  2
Flat
 70
     0
 71
     2
 72
     1
 73
     1
 90
        2
 40
-0.6
 41
30.0
 62
     5
 63
     7
 74
     0
 91
        4
 64
     7
 65
   257
 75
     1
175
     1
 42
1.0
 92
        8
 66
     7
 43
1.0
 76
     1
 77
     6
 78
     2
 67
     7
 79
     5
170
     0
171
     0
290
     0
174
     0
 93
       13
 44
0.0
173
     0
291
     1
 45
0.0
1001
ACAD
1000
AcDbSavedByObjectVersion
1070
     0
1001
ACAD
1000
AcRTDxfName
1000
VISUALSTYLE
  0
VISUALSTYLE
  5
5475
102
{ACAD_REACTORS
330
5473
102
}
330
5473
100
AcDbVisualStyle
  2
FlatWithEdges
 70
     1
 71
     2
 72
     1
 73
     1
 90
        2
 40
-0.6
 41
30.0
 62
     5
 63
     7
 74
     1
 91
        4
 64
     7
 65
   257
 75
     1
175
     1
 42
1.0
 92
        0
 66
   257
 43
1.0
 76
     1
 77
     6
 78
     2
 67
     7
 79
     5
170
     0
171
     0
290
     0
174
     0
 93
       13
 44
0.0
173
     0
291
     1
 45
0.0
1001
ACAD
1000
AcDbSavedByObjectVersion
1070
     0
1001
ACAD
1000
AcRTDxfName
1000
VISUALSTYLE
  0
VISUALSTYLE
  5
5476
102
{ACAD_REACTORS
330
5473
102
}
330
5473
100
AcDbVisualStyle
  2
Gouraud
 70
     2
 71
     2
 72
     2
 73
     1
 90
        2
 40
-0.6
 41
30.0
 62
     5
 63
     7
 74
     0
 91
        4
 64
     7
 65
   257
 75
     1
175
     1
 42
1.0
 92
        0
 66
     7
 43
1.0
 76
     1
 77
     6
 78
     2
 67
     7
 79
     5
170
     0
171
     0
290
     0
174
     0
 93
       13
 44
0.0
173
     0
291
     1
 45
0.0
1001
ACAD
1000
AcDbSavedByObjectVersion
1070
     0
1001
ACAD
1000
AcRTDxfName
1000
VISUALSTYLE
  0
VISUALSTYLE
  5
5477
102
{ACAD_REACTORS
330
5473
102
}
330
5473
100
AcDbVisualStyle
  2
GouraudWithEdges
 70
     3
 71
     2
 72
     2
 73
     1
 90
        2
 40
-0.6
 41
30.0
 62
     5
 63
     7
 74
     1
 91
        4
 64
     7
 65
   257
 75
     1
175
     1
 42
1.0
 92
        0
 66
   257
 43
1.0
 76
     1
 77
     6
 78
     2
 67
     7
 79
     5
170
     0
171
     0
290
     0
174
     0
 93
       13
 44
0.0
173
     0
291
     1
 45
0.0
1001
ACAD
1000
AcDbSavedByObjectVersion
1070
     0
1001
ACAD
1000
AcRTDxfName
1000
VISUALSTYLE
  0
VISUALSTYLE
  5
5481
102
{ACAD_REACTORS
330
5473
102
}
330
5473
100
AcDbVisualStyle
  2
Linepattern
 70
    14
 71
     2
 72
     2
 73
     0
 90
        0
 40
-0.6
 41
-30.0
 62
     5
 63
     7
 74
     1
 91
        4
 64
     7
 65
   257
 75
     7
175
     7
 42
1.0
 92
        8
 66
     7
 43
1.0
 76
     1
 77
     6
 78
     2
 67
     7
 79
     5
170
     0
171
     0
290
     0
174
     0
 93
        1
 44
0.0
173
     0
291
     1
 45
0.0
1001
ACAD
1000
AcDbSavedByObjectVersion
1070
     0
1001
ACAD
1000
AcRTDxfName
1000
VISUALSTYLE
  0
VISUALSTYLE
  5
547D
102
{ACAD_REACTORS
330
5473
102
}
330
5473
100
AcDbVisualStyle
  2
Realistic
 70
     8
 71
     2
 72
     2
 73
     0
 90
        0
 40
-0.6
 41
-30.0
 62
     5
 63
     7
 74
     1
 91
        0
 64
     7
 65
   257
 75
     1
175
     1
 42
1.0
 92
        8
 66
     8
 43
1.0
 76
     1
 77
     6
 78
     2
 67
     7
 79
     5
170
     0
171
     0
290
     0
174
     0
 93
       13
 44
0.0
173
     0
291
     0
 45
0.0
1001
ACAD
1000
AcDbSavedByObjectVersion
1070
     0
1001
ACAD
1000
AcRTDxfName
1000
VISUALSTYLE
  0
VISUALSTYLE
  5
5480
102
{ACAD_REACTORS
330
5473
102
}
330
5473
100
AcDbVisualStyle
  2
Thicken
 70
    13
 71
     2
 72
     2
 73
     0
 90
        0
 40
-0.6
 41
-30.0
 62
     5
 63
     7
 74
     1
 91
        4
 64
     7
 65
   257
 75
     1
175
     1
 42
1.0
 92
       12
 66
     7
 43
1.0
 76
     1
 77
     6
 78
     2
 67
     7
 79
     5
170
     0
171
     0
290
     0
174
     0
 93
        1
 44
0.0
173
     0
291
     1
 45
0.0
1001
ACAD
1000
AcDbSavedByObjectVersion
1070
     0
1001
ACAD
1000
AcRTDxfName
1000
VISUALSTYLE
  0
XRECORD
  5
54CB
102
{ACAD_REACTORS
330
54C9
102
}
330
54C9
100
AcDbXrecord
280
     1
340
3D97
  0
XRECORD
  5
54CA
102
{ACAD_REACTORS
330
54C9
102
}
330
54C9
100
AcDbXrecord
280
     1
340
3D96
  0
DICTIONARYVAR
  5
51D0
102
{ACAD_REACTORS
330
3E63
102
}
330
3E63
100
DictionaryVariables
280
     0
  1
STANDARD
  0
DICTIONARYVAR
  5
3E64
102
{ACAD_REACTORS
330
3E63
102
}
330
3E63
100
DictionaryVariables
280
     0
  1
1
  0
DICTIONARYVAR
  5
54B0
102
{ACAD_REACTORS
330
3E63
102
}
330
3E63
100
DictionaryVariables
280
     0
  1
0
  0
DICTIONARYVAR
  5
3E65
102
{ACAD_REACTORS
330
3E63
102
}
330
3E63
100
DictionaryVariables
280
     0
  1

  0
DICTIONARYVAR
  5
54AF
102
{ACAD_REACTORS
330
3E63
102
}
330
3E63
100
DictionaryVariables
280
     0
  1
127
  0
DICTIONARY
  5
54CE
330
21
100
AcDbDictionary
280
     1
281
     1
  3
ACAD_XREC_ROUNDTRIP
360
54CF
  0
DICTIONARY
  5
54CC
330
1D
100
AcDbDictionary
280
     1
281
     1
  3
ACAD_XREC_ROUNDTRIP
360
54CD
  0
DICTIONARY
  5
54D0
330
4150
100
AcDbDictionary
280
     1
281
     1
  3
ACAD_XREC_ROUNDTRIP
360
54D1
  0
DICTIONARY
  5
54B8
330
50CF
100
AcDbDictionary
280
     1
281
     1
  3
ACAD_XREC_ROUNDTRIP
360
54B9
  0
XRECORD
  5
54CF
102
{ACAD_REACTORS
330
54CE
102
}
330
54CE
100
AcDbXrecord
280
     1
102
SHADEPLOT
 70
     0
102
SHADEPLOTRESLEVEL
 70
     2
102
SHADEPLOTCUSTOMDPI
 70
   300
  0
XRECORD
  5
54CD
102
{ACAD_REACTORS
330
54CC
102
}
330
54CC
100
AcDbXrecord
280
     1
102
SHADEPLOT
 70
     0
102
SHADEPLOTRESLEVEL
 70
     2
102
SHADEPLOTCUSTOMDPI
 70
   300
  0
XRECORD
  5
54D1
102
{ACAD_REACTORS
330
54D0
102
}
330
54D0
100
AcDbXrecord
280
     1
102
SHADEPLOT
 70
     0
102
SHADEPLOTRESLEVEL
 70
     2
102
SHADEPLOTCUSTOMDPI
 70
   300
  0
XRECORD
  5
54B9
102
{ACAD_REACTORS
330
54B8
102
}
330
54B8
100
AcDbXrecord
280
     1
102
ACAD_ROUNDTRIP_PRE2007_TABLESTYLE
 90
        4
 91
        0
  1

 92
        4
 93
        0
  2

 94
        4
 95
        0
  3

  0
ENDSEC
  0
EOF
