  0
SECTION
  2
HEADER
  9
$ACADVER
  1
AC1015
  9
$ACADMAINTVER
 70
    20
  9
$DWGCODEPAGE
  3
ANSI_950
  9
$INSBASE
 10
0.0
 20
0.0
 30
0.0
  9
$EXTMIN
 10
-17.00666422439269
 20
-52.72666976850485
 30
-36.44793738232224
  9
$EXTMAX
 10
217.8244849839392
 20
101.7426581292346
 30
31.44793833084626
  9
$LIMMIN
 10
0.0
 20
0.0
  9
$LIMMAX
 10
420.0
 20
297.0
  9
$ORTHOMODE
 70
     1
  9
$REGENMODE
 70
     1
  9
$FILLMODE
 70
     1
  9
$QTEXTMODE
 70
     0
  9
$MIRRTEXT
 70
     0
  9
$LTSCALE
 40
1.199999999999999
  9
$ATTMODE
 70
     1
  9
$TEXTSIZE
 40
2.5
  9
$TRACEWID
 40
1.0
  9
$TEXTSTYLE
  7
型式2
  9
$CLAYER
  8
0
  9
$CELTYPE
  6
BYLAYER
  9
$CECOLOR
 62
   256
  9
$CELTSCALE
 40
1.0
  9
$DISPSILH
 70
     0
  9
$DIMSCALE
 40
1.0
  9
$DIMASZ
 40
0.18
  9
$DIMEXO
 40
0.0625
  9
$DIMDLI
 40
0.38
  9
$DIMRND
 40
0.0
  9
$DIMDLE
 40
0.0
  9
$DIMEXE
 40
0.18
  9
$DIMTP
 40
0.0
  9
$DIMTM
 40
0.0
  9
$DIMTXT
 40
0.18
  9
$DIMCEN
 40
0.09
  9
$DIMTSZ
 40
0.0
  9
$DIMTOL
 70
     0
  9
$DIMLIM
 70
     0
  9
$DIMTIH
 70
     1
  9
$DIMTOH
 70
     1
  9
$DIMSE1
 70
     0
  9
$DIMSE2
 70
     0
  9
$DIMTAD
 70
     0
  9
$DIMZIN
 70
     0
  9
$DIMBLK
  1

  9
$DIMASO
 70
     1
  9
$DIMSHO
 70
     1
  9
$DIMPOST
  1

  9
$DIMAPOST
  1

  9
$DIMALT
 70
     0
  9
$DIMALTD
 70
     2
  9
$DIMALTF
 40
25.4
  9
$DIMLFAC
 40
1.0
  9
$DIMTOFL
 70
     0
  9
$DIMTVP
 40
0.0
  9
$DIMTIX
 70
     0
  9
$DIMSOXD
 70
     0
  9
$DIMSAH
 70
     0
  9
$DIMBLK1
  1

  9
$DIMBLK2
  1

  9
$DIMSTYLE
  2
Standard
  9
$DIMCLRD
 70
     0
  9
$DIMCLRE
 70
     0
  9
$DIMCLRT
 70
     0
  9
$DIMTFAC
 40
1.0
  9
$DIMGAP
 40
0.09
  9
$DIMJUST
 70
     0
  9
$DIMSD1
 70
     0
  9
$DIMSD2
 70
     0
  9
$DIMTOLJ
 70
     1
  9
$DIMTZIN
 70
     0
  9
$DIMALTZ
 70
     0
  9
$DIMALTTZ
 70
     0
  9
$DIMUPT
 70
     0
  9
$DIMDEC
 70
     8
  9
$DIMTDEC
 70
     8
  9
$DIMALTU
 70
     2
  9
$DIMALTTD
 70
     2
  9
$DIMTXSTY
  7
STANDARD
  9
$DIMAUNIT
 70
     0
  9
$DIMADEC
 70
     0
  9
$DIMALTRND
 40
0.0
  9
$DIMAZIN
 70
     0
  9
$DIMDSEP
 70
    46
  9
$DIMATFIT
 70
     3
  9
$DIMFRAC
 70
     0
  9
$DIMLDRBLK
  1

  9
$DIMLUNIT
 70
     2
  9
$DIMLWD
 70
    -2
  9
$DIMLWE
 70
    -2
  9
$DIMTMOVE
 70
     0
  9
$LUNITS
 70
     2
  9
$LUPREC
 70
     4
  9
$SKETCHINC
 40
1.0
  9
$FILLETRAD
 40
0.0
  9
$AUNITS
 70
     0
  9
$AUPREC
 70
     0
  9
$MENU
  1
.
  9
$ELEVATION
 40
0.0
  9
$PELEVATION
 40
0.0
  9
$THICKNESS
 40
0.0
  9
$LIMCHECK
 70
     0
  9
$CHAMFERA
 40
0.0
  9
$CHAMFERB
 40
0.0
  9
$CHAMFERC
 40
20.0
  9
$CHAMFERD
 40
0.0
  9
$SKPOLY
 70
     0
  9
$TDCREATE
 40
2452648.449707060
  9
$TDUCREATE
 40
2452648.116373727
  9
$TDUPDATE
 40
2454358.625947986
  9
$TDUUPDATE
 40
2454358.292614653
  9
$TDINDWG
 40
1.0563464468
  9
$TDUSRTIMER
 40
1.0563461458
  9
$USRTIMER
 70
     1
  9
$ANGBASE
 50
0.0
  9
$ANGDIR
 70
     0
  9
$PDMODE
 70
    35
  9
$PDSIZE
 40
0.0
  9
$PLINEWID
 40
0.0
  9
$SPLFRAME
 70
     0
  9
$SPLINETYPE
 70
     6
  9
$SPLINESEGS
 70
    30
  9
$HANDSEED
  5
13FCA
  9
$SURFTAB1
 70
     6
  9
$SURFTAB2
 70
     6
  9
$SURFTYPE
 70
     6
  9
$SURFU
 70
     6
  9
$SURFV
 70
     6
  9
$UCSBASE
  2

  9
$UCSNAME
  2

  9
$UCSORG
 10
0.0
 20
0.0
 30
0.0
  9
$UCSXDIR
 10
1.0
 20
0.0
 30
0.0
  9
$UCSYDIR
 10
0.0
 20
1.0
 30
0.0
  9
$UCSORTHOREF
  2

  9
$UCSORTHOVIEW
 70
     0
  9
$UCSORGTOP
 10
0.0
 20
0.0
 30
0.0
  9
$UCSORGBOTTOM
 10
0.0
 20
0.0
 30
0.0
  9
$UCSORGLEFT
 10
0.0
 20
0.0
 30
0.0
  9
$UCSORGRIGHT
 10
0.0
 20
0.0
 30
0.0
  9
$UCSORGFRONT
 10
0.0
 20
0.0
 30
0.0
  9
$UCSORGBACK
 10
0.0
 20
0.0
 30
0.0
  9
$PUCSBASE
  2

  9
$PUCSNAME
  2

  9
$PUCSORG
 10
0.0
 20
0.0
 30
0.0
  9
$PUCSXDIR
 10
1.0
 20
0.0
 30
0.0
  9
$PUCSYDIR
 10
0.0
 20
1.0
 30
0.0
  9
$PUCSORTHOREF
  2

  9
$PUCSORTHOVIEW
 70
     0
  9
$PUCSORGTOP
 10
0.0
 20
0.0
 30
0.0
  9
$PUCSORGBOTTOM
 10
0.0
 20
0.0
 30
0.0
  9
$PUCSORGLEFT
 10
0.0
 20
0.0
 30
0.0
  9
$PUCSORGRIGHT
 10
0.0
 20
0.0
 30
0.0
  9
$PUCSORGFRONT
 10
0.0
 20
0.0
 30
0.0
  9
$PUCSORGBACK
 10
0.0
 20
0.0
 30
0.0
  9
$USERI1
 70
     0
  9
$USERI2
 70
     0
  9
$USERI3
 70
     0
  9
$USERI4
 70
     0
  9
$USERI5
 70
     0
  9
$USERR1
 40
0.0
  9
$USERR2
 40
0.0
  9
$USERR3
 40
0.0
  9
$USERR4
 40
0.0
  9
$USERR5
 40
0.0
  9
$WORLDVIEW
 70
     1
  9
$SHADEDGE
 70
     3
  9
$SHADEDIF
 70
    70
  9
$TILEMODE
 70
     1
  9
$MAXACTVP
 70
    48
  9
$PINSBASE
 10
0.0
 20
0.0
 30
0.0
  9
$PLIMCHECK
 70
     0
  9
$PEXTMIN
 10
1.000000000000000E+20
 20
1.000000000000000E+20
 30
1.000000000000000E+20
  9
$PEXTMAX
 10
-1.000000000000000E+20
 20
-1.000000000000000E+20
 30
-1.000000000000000E+20
  9
$PLIMMIN
 10
0.0
 20
0.0
  9
$PLIMMAX
 10
420.0
 20
297.0
  9
$UNITMODE
 70
     0
  9
$VISRETAIN
 70
     1
  9
$PLINEGEN
 70
     0
  9
$PSLTSCALE
 70
     1
  9
$TREEDEPTH
 70
  3020
  9
$CMLSTYLE
  2
STANDARD
  9
$CMLJUST
 70
     0
  9
$CMLSCALE
 40
20.0
  9
$PROXYGRAPHICS
 70
     1
  9
$MEASUREMENT
 70
     0
  9
$CELWEIGHT
370
    -1
  9
$ENDCAPS
280
     0
  9
$JOINSTYLE
280
     0
  9
$LWDISPLAY
290
     0
  9
$INSUNITS
 70
     4
  9
$HYPERLINKBASE
  1

  9
$STYLESHEET
  1
AAA.CTB
  9
$XEDIT
290
     1
  9
$CEPSNTYPE
380
     0
  9
$PSTYLEMODE
290
     1
  9
$FINGERPRINTGUID
  2
{39E6D4C8-9137-4BAE-85E5-615910EF8948}
  9
$VERSIONGUID
  2
{C3C9873F-67DF-41A5-9BA4-2DC6A91E4F43}
  9
$EXTNAMES
290
     1
  9
$PSVPSCALE
 40
0.0
  9
$OLESTARTUP
290
     0
  0
ENDSEC
  0
SECTION
  2
CLASSES
  0
CLASS
  1
ACDBDICTIONARYWDFLT
  2
AcDbDictionaryWithDefault
  3
ObjectDBX Classes
 90
        0
280
     0
281
     0
  0
CLASS
  1
ACDBPLACEHOLDER
  2
AcDbPlaceHolder
  3
ObjectDBX Classes
 90
        0
280
     0
281
     0
  0
CLASS
  1
LAYOUT
  2
AcDbLayout
  3
ObjectDBX Classes
 90
        0
280
     0
281
     0
  0
CLASS
  1
DICTIONARYVAR
  2
AcDbDictionaryVar
  3
ObjectDBX Classes
 90
        0
280
     0
281
     0
  0
CLASS
  1
PLOTSETTINGS
  2
AcDbPlotSettings
  3
ObjectDBX Classes
 90
        0
280
     0
281
     0
  0
CLASS
  1
TABLESTYLE
  2
AcDbTableStyle
  3
ObjectDBX Classes
 90
     4095
280
     0
281
     0
  0
CLASS
  1
SORTENTSTABLE
  2
AcDbSortentsTable
  3
ObjectDBX Classes
 90
        0
280
     0
281
     0
  0
CLASS
  1
MATERIAL
  2
AcDbMaterial
  3
ObjectDBX Classes
 90
        0
280
     0
281
     0
  0
CLASS
  1
VISUALSTYLE
  2
AcDbVisualStyle
  3
ObjectDBX Classes
 90
     4095
280
     0
281
     0
  0
ENDSEC
  0
SECTION
  2
TABLES
  0
TABLE
  2
VPORT
  5
8
102
{ACAD_XDICTIONARY
360
13F34
102
}
330
0
100
AcDbSymbolTable
 70
     2
  0
VPORT
  5
13FBF
330
8
100
AcDbSymbolTableRecord
100
AcDbViewportTableRecord
  2
*Active
 70
     0
 10
0.0
 20
0.0
 11
1.0
 21
1.0
 12
100.4089103797732
 22
24.5079941803649
 13
0.0
 23
0.0
 14
10.0
 24
10.0
 15
10.0
 25
10.0
 16
0.0
 26
0.0
 36
1.0
 17
0.0
 27
0.0
 37
0.0
 40
155.6618517815806
 41
1.516709511568123
 42
50.0
 43
0.0
 44
0.0
 50
0.0
 51
0.0
 71
     0
 72
 20000
 73
     1
 74
     0
 75
     0
 76
     0
 77
     0
 78
     1
281
     0
 65
     1
110
0.0
120
0.0
130
0.0
111
1.0
121
0.0
131
0.0
112
0.0
122
1.0
132
0.0
 79
     0
146
0.0
  0
ENDTAB
  0
TABLE
  2
LTYPE
  5
5
330
0
100
AcDbSymbolTable
 70
     3
  0
LTYPE
  5
14
330
5
100
AcDbSymbolTableRecord
100
AcDbLinetypeTableRecord
  2
BYBLOCK
 70
     0
  3

 72
    65
 73
     0
 40
0.0
  0
LTYPE
  5
15
330
5
100
AcDbSymbolTableRecord
100
AcDbLinetypeTableRecord
  2
BYLAYER
 70
     0
  3

 72
    65
 73
     0
 40
0.0
  0
LTYPE
  5
13FB3
330
5
100
AcDbSymbolTableRecord
100
AcDbLinetypeTableRecord
  2
Continuous
 70
     0
  3
Solid line
 72
    65
 73
     0
 40
0.0
  0
LTYPE
  5
2D
330
5
100
AcDbSymbolTableRecord
100
AcDbLinetypeTableRecord
  2
CENTER2
 70
     0
  3
Center (.5x) ___ _ ___ _ ___ _ ___ _ ___ _ ___
 72
    65
 73
     4
 40
28.57499999999999
 49
19.05
 74
     0
 49
-3.174999999999998
 74
     0
 49
3.174999999999998
 74
     0
 49
-3.174999999999998
 74
     0
  0
LTYPE
  5
2E
330
5
100
AcDbSymbolTableRecord
100
AcDbLinetypeTableRecord
  2
DASHED2
 70
     0
  3
Dashed (.5x) _ _ _ _ _ _ _ _ _ _ _ _ _ _ _ _ _
 72
    65
 73
     2
 40
9.524999999999996
 49
6.349999999999997
 74
     0
 49
-3.174999999999998
 74
     0
  0
ENDTAB
  0
TABLE
  2
LAYER
  5
2
102
{ACAD_XDICTIONARY
360
DDEF
102
}
330
0
100
AcDbSymbolTable
 70
     7
  0
LAYER
  5
10
330
2
100
AcDbSymbolTableRecord
100
AcDbLayerTableRecord
  2
0
 70
     0
 62
     7
  6
Continuous
370
    -3
390
F
  0
LAYER
  5
30
330
2
100
AcDbSymbolTableRecord
100
AcDbLayerTableRecord
  2
虛線
 70
     0
 62
     6
  6
DASHED2
370
    -3
390
F
  0
LAYER
  5
32
330
2
100
AcDbSymbolTableRecord
100
AcDbLayerTableRecord
  2
指線
 70
     0
 62
     3
  6
Continuous
370
    -3
390
F
  0
LAYER
  5
34
330
2
100
AcDbSymbolTableRecord
100
AcDbLayerTableRecord
  2
中心線
 70
     0
 62
     4
  6
CENTER2
370
    -3
390
F
  0
LAYER
  5
13796
330
2
100
AcDbSymbolTableRecord
100
AcDbLayerTableRecord
  2
建構線
 70
     0
 62
     1
  6
Continuous
370
    -3
390
F
  0
LAYER
  5
139E4
330
2
100
AcDbSymbolTableRecord
100
AcDbLayerTableRecord
  2
AM4
 70
     0
 62
     3
  6
Continuous
370
    15
390
F
  0
LAYER
  5
13A61
330
2
100
AcDbSymbolTableRecord
100
AcDbLayerTableRecord
  2
Defpoints
 70
     0
 62
     7
  6
Continuous
290
     0
370
    -3
390
F
  0
ENDTAB
  0
TABLE
  2
STYLE
  5
3
330
0
100
AcDbSymbolTable
 70
     2
  0
STYLE
  5
11
330
3
100
AcDbSymbolTableRecord
100
AcDbTextStyleTableRecord
  2
STANDARD
 70
     0
 40
0.0
 41
1.0
 50
0.0
 71
     0
 42
2.5
  3
isocp.shx
  4
chineset.shx
  0
STYLE
  5
58
330
3
100
AcDbSymbolTableRecord
100
AcDbTextStyleTableRecord
  2
型式2
 70
     0
 40
0.0
 41
1.0
 50
0.0
 71
     0
 42
2.5
  3
KAIU.TTF
  4

1001
ACAD
1000
DFKai-SB
1071
    34881
  0
ENDTAB
  0
TABLE
  2
VIEW
  5
6
330
0
100
AcDbSymbolTable
 70
     0
  0
ENDTAB
  0
TABLE
  2
UCS
  5
7
330
0
100
AcDbSymbolTable
 70
     0
  0
ENDTAB
  0
TABLE
  2
APPID
  5
9
330
0
100
AcDbSymbolTable
 70
     5
  0
APPID
  5
12
330
9
100
AcDbSymbolTableRecord
100
AcDbRegAppTableRecord
  2
ACAD
 70
     0
  0
APPID
  5
131A7
330
9
100
AcDbSymbolTableRecord
100
AcDbRegAppTableRecord
  2
CONTENTBLOCKICON
 70
     0
  0
APPID
  5
13880
330
9
100
AcDbSymbolTableRecord
100
AcDbRegAppTableRecord
  2
TCAD
 70
     0
  0
APPID
  5
13881
330
9
100
AcDbSymbolTableRecord
100
AcDbRegAppTableRecord
  2
pntflag
 70
     0
  0
APPID
  5
13EE7
330
9
100
AcDbSymbolTableRecord
100
AcDbRegAppTableRecord
  2
ACAD_EXEMPT_FROM_CAD_STANDARDS
 70
     0
  0
ENDTAB
  0
TABLE
  2
DIMSTYLE
  5
A
330
0
100
AcDbSymbolTable
 70
     1
100
AcDbDimStyleTable
 71
     1
340
13235
  0
DIMSTYLE
105
13235
330
A
100
AcDbSymbolTableRecord
100
AcDbDimStyleTableRecord
  2
Standard
 70
     0
271
     8
272
     8
340
11
  0
ENDTAB
  0
TABLE
  2
BLOCK_RECORD
  5
1
330
0
100
AcDbSymbolTable
 70
     3
  0
BLOCK_RECORD
  5
1F
102
{ACAD_XDICTIONARY
360
131A3
102
}
330
1
100
AcDbSymbolTableRecord
100
AcDbBlockTableRecord
  2
*MODEL_SPACE
340
131AF
  0
BLOCK_RECORD
  5
1B
102
{ACAD_XDICTIONARY
360
131A1
102
}
330
1
100
AcDbSymbolTableRecord
100
AcDbBlockTableRecord
  2
*PAPER_SPACE
340
131B0
  0
BLOCK_RECORD
  5
1377B
330
1
100
AcDbSymbolTableRecord
100
AcDbBlockTableRecord
  2
I1
340
0
102
{BLKREFS
331
13A21
331
13A32
331
13A36
331
13A37
331
13A38
331
13B78
102
}
  0
BLOCK_RECORD
  5
13980
330
1
100
AcDbSymbolTableRecord
100
AcDbBlockTableRecord
  2
34310002_f
340
0
  0
BLOCK_RECORD
  5
139DD
330
1
100
AcDbSymbolTableRecord
100
AcDbBlockTableRecord
  2
A$C031D26F0
340
0
102
{BLKREFS
331
13A08
331
13A09
331
13A10
331
13A11
102
}
  0
ENDTAB
  0
ENDSEC
  0
SECTION
  2
BLOCKS
  0
BLOCK
  5
20
330
1F
100
AcDbEntity
  8
0
100
AcDbBlockBegin
  2
*MODEL_SPACE
 70
     0
 10
0.0
 20
0.0
 30
0.0
  3
*MODEL_SPACE
  1

  0
ENDBLK
  5
21
330
1F
100
AcDbEntity
  8
0
100
AcDbBlockEnd
  0
BLOCK
  5
1C
330
1B
100
AcDbEntity
 67
     1
  8
0
100
AcDbBlockBegin
  2
*PAPER_SPACE
 70
     0
 10
0.0
 20
0.0
 30
0.0
  3
*PAPER_SPACE
  1

  0
ENDBLK
  5
1D
330
1B
100
AcDbEntity
 67
     1
  8
0
100
AcDbBlockEnd
  0
BLOCK
  5
13780
330
1377B
100
AcDbEntity
  8
0
100
AcDbBlockBegin
  2
I1
 70
     0
 10
0.0
 20
0.0
 30
0.0
  3
I1
  1

  0
LINE
  5
1377C
330
1377B
100
AcDbEntity
  8
中心線
100
AcDbLine
 10
-1.783849796371328
 20
0.0
 30
0.0
 11
3.967787178009642
 21
0.0
 31
0.0
  0
ARC
  5
1377D
330
1377B
100
AcDbEntity
  8
0
100
AcDbCircle
 10
0.335523819494028
 20
0.9802483619828873
 30
0.0
 40
1.220011576012179
100
AcDbArc
 50
105.9630221688284
 51
179.0723572120024
  0
LINE
  5
1377E
330
1377B
100
AcDbEntity
  8
0
100
AcDbLine
 10
-0.88432785935845
 20
1.0
 30
0.0
 11
-0.88432785935845
 21
-1.0
 31
0.0
  0
ARC
  5
1377F
330
1377B
100
AcDbEntity
  8
0
100
AcDbCircle
 10
0.335523819494028
 20
-0.9802483619828873
 30
0.0
 40
1.220011576012179
100
AcDbArc
 50
180.9276427879975
 51
254.0369778311715
  0
ENDBLK
  5
13781
330
1377B
100
AcDbEntity
  8
0
100
AcDbBlockEnd
  0
BLOCK
  5
13986
330
13980
100
AcDbEntity
  8
0
100
AcDbBlockBegin
  2
34310002_f
 70
     0
 10
0.0
 20
0.0
 30
0.0
  3
34310002_f
  1

  0
CIRCLE
  5
13981
330
13980
100
AcDbEntity
  8
0
 48
0.27
100
AcDbCircle
 10
0.0
 20
0.0
 30
0.0
 40
0.25
  0
LWPOLYLINE
  5
13982
330
13980
100
AcDbEntity
  8
0
 48
0.27
100
AcDbPolyline
 90
        6
 70
     1
 43
0.0
 10
0.0
 20
2.886751345948126
 10
-2.5
 20
1.44337567297407
 10
-2.5
 20
-1.443375672974056
 10
0.0
 20
-2.88675134594812
 10
2.5
 20
-1.443375672974063
 10
2.5
 20
1.443375672974063
  0
LINE
  5
13983
330
13980
100
AcDbEntity
  8
中心線
 48
0.27
100
AcDbLine
 10
-0.0000000000000003
 20
-4.38675134594812
 30
0.0
 11
-0.0000000000000002
 21
4.386751345948127
 31
0.0
  0
LINE
  5
13984
330
13980
100
AcDbEntity
  8
中心線
 48
0.27
100
AcDbLine
 10
4.0
 20
-0.0000000000000007
 30
0.0
 11
-4.0
 21
-0.0000000000000006
 31
0.0
  0
POINT
  5
13985
330
13980
100
AcDbEntity
  8
0
100
AcDbPoint
 10
2.5
 20
-0.0000000000000007
 30
0.0
1001
pntflag
1000
endpoint
  0
ENDBLK
  5
13987
330
13980
100
AcDbEntity
  8
0
100
AcDbBlockEnd
  0
BLOCK
  5
139E2
330
139DD
100
AcDbEntity
  8
0
100
AcDbBlockBegin
  2
A$C031D26F0
 70
     0
 10
0.0
 20
0.0
 30
0.0
  3
A$C031D26F0
  1

  0
LINE
  5
139DE
330
139DD
100
AcDbEntity
  8
中心線
100
AcDbLine
 10
-2.5
 20
0.0
 30
0.0
 11
2.5
 21
0.0
 31
0.0
  0
ARC
  5
139DF
330
139DD
100
AcDbEntity
  8
AM4
100
AcDbCircle
 10
0.0
 20
0.0
 30
0.0
 40
1.999999999999914
100
AcDbArc
 50
264.2608295227335
 51
185.7391704772664
  0
CIRCLE
  5
139E0
330
139DD
100
AcDbEntity
  8
0
100
AcDbCircle
 10
0.0
 20
0.0
 30
0.0
 40
1.649999999999919
  0
LINE
  5
139E1
330
139DD
100
AcDbEntity
  8
中心線
100
AcDbLine
 10
0.0
 20
-2.5
 30
0.0
 11
0.0
 21
2.5
 31
0.0
  0
ENDBLK
  5
139E3
330
139DD
100
AcDbEntity
  8
0
100
AcDbBlockEnd
  0
ENDSEC
  0
SECTION
  2
ENTITIES
  0
LINE
  5
1344B
330
1F
100
AcDbEntity
  8
中心線
 48
0.27
100
AcDbLine
 10
0.0
 20
25.86999999999998
 30
0.0
 11
0.0
 21
10.88706380469305
 31
0.0
  0
LINE
  5
1344C
330
1F
100
AcDbEntity
  8
0
 48
0.27
100
AcDbLine
 10
-17.0
 20
14.49999999999992
 30
0.0
 11
-17.0
 21
19.50000000000001
 31
0.0
  0
LINE
  5
1344D
330
1F
100
AcDbEntity
  8
虛線
 48
0.27
100
AcDbLine
 10
-11.00000000000011
 20
20.14999999999999
 30
0.0
 11
-11.00000000000011
 21
16.49999999999997
 31
0.0
  0
LINE
  5
1344E
330
1F
100
AcDbEntity
  8
虛線
 48
0.27
100
AcDbLine
 10
-15.00000000000011
 20
20.14999999999999
 30
0.0
 11
-15.00000000000011
 21
16.49999999999997
 31
0.0
  0
LINE
  5
1344F
330
1F
100
AcDbEntity
  8
虛線
 48
0.27
100
AcDbLine
 10
-14.75
 20
20.14999999999999
 30
0.0
 11
-14.75
 21
14.89999999999997
 31
0.0
  0
LINE
  5
13450
330
1F
100
AcDbEntity
  8
虛線
 48
0.27
100
AcDbLine
 10
-11.25
 20
20.14999999999999
 30
0.0
 11
-11.25
 21
14.89999999999997
 31
0.0
  0
LINE
  5
13455
330
1F
100
AcDbEntity
  8
中心線
 48
0.27
100
AcDbLine
 10
-13.0
 20
22.49999999999998
 30
0.0
 11
-13.0
 21
12.73963702891812
 31
0.0
  0
LINE
  5
13456
330
1F
100
AcDbEntity
  8
0
 48
0.27
100
AcDbLine
 10
17.0
 20
19.49999999999997
 30
0.0
 11
17.0
 21
9.149999999999987
 31
0.0
  0
LINE
  5
13463
330
1F
100
AcDbEntity
  8
0
 48
0.27
100
AcDbLine
 10
-9.440000000000054
 20
9.753027668099873
 30
0.0
 11
-7.731266123953672
 21
11.46176481105798
 31
0.0
  0
LINE
  5
13464
330
1F
100
AcDbEntity
  8
0
 48
0.27
100
AcDbLine
 10
-7.738218759763299
 20
5.103988936286665
 30
0.0
 11
-9.440000000000054
 21
6.805771015400051
 31
0.0
  0
LINE
  5
13465
330
1F
100
AcDbEntity
  8
0
 48
0.27
100
AcDbLine
 10
-7.5
 20
7.609345046299987
 30
0.0
 11
-9.440000000000054
 21
6.805771015400051
 31
0.0
  0
LINE
  5
13466
330
1F
100
AcDbEntity
  8
0
 48
0.27
100
AcDbLine
 10
-9.643013411000266
 20
0.7999999999999652
 30
0.0
 11
-6.739804700000036
 21
3.703208711000169
 31
0.0
  0
LINE
  5
13467
330
1F
100
AcDbEntity
  8
0
 48
0.27
100
AcDbLine
 10
-6.899439100000057
 20
0.7999999999999936
 30
0.0
 11
-15.70000000000004
 21
0.799999999999951
 31
0.0
  0
LINE
  5
13468
330
1F
100
AcDbEntity
  8
0
 48
0.27
100
AcDbLine
 10
-7.5
 20
8.949454443499957
 30
0.0
 11
-9.440000000000054
 21
9.753027668100044
 31
0.0
  0
LINE
  5
13469
330
1F
100
AcDbEntity
  8
0
 48
0.27
100
AcDbLine
 10
-15.20000000000004
 20
19.49999999999998
 30
0.0
 11
15.20000000000004
 21
19.49999999999998
 31
0.0
  0
LINE
  5
1346B
330
1F
100
AcDbEntity
  8
0
 48
0.27
100
AcDbLine
 10
-16.20000000000004
 20
1.799999999999979
 30
0.0
 11
-16.20000000000004
 21
18.50000000000009
 31
0.0
  0
ARC
  5
1346C
330
1F
100
AcDbEntity
  8
0
 48
0.27
100
AcDbCircle
 10
-13.25
 20
10.99999999999998
 30
0.0
 40
3.0
100
AcDbArc
 50
270.0
 51
90.0
  0
LINE
  5
1346D
330
1F
100
AcDbEntity
  8
0
 48
0.27
100
AcDbLine
 10
-16.70000000000004
 20
1.799999999999993
 30
0.0
 11
-16.70000000000004
 21
14.19999999999997
 31
0.0
  0
LINE
  5
1346E
330
1F
100
AcDbEntity
  8
0
 48
0.27
100
AcDbLine
 10
-15.20000000000004
 20
0.7999999999999794
 30
0.0
 11
-16.20000000000004
 21
1.799999999999979
 31
0.0
  0
LINE
  5
1346F
330
1F
100
AcDbEntity
  8
0
 48
0.27
100
AcDbLine
 10
-16.70000000000004
 20
1.799999999999979
 30
0.0
 11
-15.70000000000004
 21
0.799999999999951
 31
0.0
  0
LINE
  5
13470
330
1F
100
AcDbEntity
  8
0
 48
0.27
100
AcDbLine
 10
-13.25
 20
8.000000000000094
 30
0.0
 11
-16.20000000000004
 21
8.000000000000094
 31
0.0
  0
LINE
  5
13471
330
1F
100
AcDbEntity
  8
0
 48
0.27
100
AcDbLine
 10
-9.440000000000054
 20
6.805771015400051
 30
0.0
 11
-9.440000000000054
 21
9.753027668099873
 31
0.0
  0
LINE
  5
13472
330
1F
100
AcDbEntity
  8
0
 48
0.27
100
AcDbLine
 10
-13.25
 20
14.00000000000009
 30
0.0
 11
-16.20000000000004
 21
14.00000000000009
 31
0.0
  0
LINE
  5
13473
330
1F
100
AcDbEntity
  8
虛線
 48
0.27
100
AcDbLine
 10
-14.75
 20
14.89999999999997
 30
0.0
 11
-13.0
 21
13.88963702891812
 31
0.0
  0
LINE
  5
13474
330
1F
100
AcDbEntity
  8
虛線
 48
0.27
100
AcDbLine
 10
-14.75
 20
14.89999999999997
 30
0.0
 11
-11.25
 21
14.89999999999997
 31
0.0
  0
LINE
  5
13475
330
1F
100
AcDbEntity
  8
虛線
 48
0.27
100
AcDbLine
 10
-11.25
 20
14.89999999999997
 30
0.0
 11
-13.0
 21
13.88963702891812
 31
0.0
  0
LINE
  5
13476
330
1F
100
AcDbEntity
  8
0
 48
0.27
100
AcDbLine
 10
-16.20000000000004
 20
18.50000000000009
 30
0.0
 11
-15.20000000000004
 21
19.49999999999998
 31
0.0
  0
LINE
  5
13477
330
1F
100
AcDbEntity
  8
0
 48
0.27
100
AcDbLine
 10
-17.0
 20
14.49999999999992
 30
0.0
 11
-16.70000000000004
 21
14.19999999999997
 31
0.0
  0
LINE
  5
13478
330
1F
100
AcDbEntity
  8
虛線
 48
0.27
100
AcDbLine
 10
-15.00000000000011
 20
16.49999999999997
 30
0.0
 11
-11.00000000000011
 21
16.49999999999997
 31
0.0
  0
LINE
  5
13479
330
1F
100
AcDbEntity
  8
0
 48
0.27
100
AcDbLine
 10
16.20000000000004
 20
18.50000000000009
 30
0.0
 11
16.20000000000004
 21
1.799999999999979
 31
0.0
  0
LINE
  5
1347A
330
1F
100
AcDbEntity
  8
0
 48
0.27
100
AcDbLine
 10
7.731266123953217
 20
11.46176481105798
 30
0.0
 11
9.439999999999939
 21
9.753027668100212
 31
0.0
  0
LINE
  5
1347B
330
1F
100
AcDbEntity
  8
0
 48
0.27
100
AcDbLine
 10
6.63449091250004
 20
9.814965185700071
 30
0.0
 11
7.042859542199948
 21
10.91980573350006
 31
0.0
  0
ARC
  5
1347E
330
1F
100
AcDbEntity
  8
0
 48
0.27
100
AcDbCircle
 10
13.24999999999988
 20
10.99999999999998
 30
0.0
 40
3.0
100
AcDbArc
 50
90.0
 51
270.0
  0
ARC
  5
1347F
330
1F
100
AcDbEntity
  8
0
 48
0.27
100
AcDbCircle
 10
6.821506203499892
 20
11.43420120340003
 30
0.0
 40
1.629999999999999
100
AcDbArc
 50
186.5882452203976
 51
263.4117571311989
  0
LINE
  5
13480
330
1F
100
AcDbEntity
  8
0
 48
0.27
100
AcDbLine
 10
7.042859542199948
 20
10.91980573350006
 30
0.0
 11
8.569999999999936
 21
9.392662356099986
 31
0.0
  0
LINE
  5
13481
330
1F
100
AcDbEntity
  8
0
 48
0.27
100
AcDbLine
 10
-6.63449091250004
 20
9.814965185700071
 30
0.0
 11
-7.042859542200062
 21
10.91980573350006
 31
0.0
  0
LINE
  5
13483
330
1F
100
AcDbEntity
  8
0
 48
0.27
100
AcDbLine
 10
-8.57000000000005
 20
9.392662356099986
 30
0.0
 11
-7.042859542200062
 21
10.91980573350006
 31
0.0
  0
ARC
  5
13484
330
1F
100
AcDbEntity
  8
0
 48
0.27
100
AcDbCircle
 10
-6.821506203400076
 20
11.43420120340003
 30
0.0
 40
1.629999999999999
100
AcDbArc
 50
276.588242868801
 51
353.4117547796019
  0
LINE
  5
13485
330
1F
100
AcDbEntity
  8
0
 48
0.27
100
AcDbLine
 10
16.69999999999982
 20
8.849999999999976
 30
0.0
 11
16.69999999999982
 21
1.799999999999979
 31
0.0
  0
LINE
  5
13486
330
1F
100
AcDbEntity
  8
0
 48
0.27
100
AcDbLine
 10
15.70000000000004
 20
0.799999999999951
 30
0.0
 11
6.89943909999988
 21
0.7999999999999936
 31
0.0
  0
LINE
  5
13487
330
1F
100
AcDbEntity
  8
0
 48
0.27
100
AcDbLine
 10
9.439999999999939
 20
6.805771015400051
 30
0.0
 11
7.738218759875053
 21
5.103988936306943
 31
0.0
  0
LINE
  5
13488
330
1F
100
AcDbEntity
  8
0
 48
0.27
100
AcDbLine
 10
7.5
 20
7.609345046299987
 30
0.0
 11
9.439999999999939
 21
6.805771015400051
 31
0.0
  0
LINE
  5
13489
330
1F
100
AcDbEntity
  8
0
 48
0.27
100
AcDbLine
 10
6.739804700000036
 20
3.703208711000169
 30
0.0
 11
9.643013410999996
 21
0.7999999999999794
 31
0.0
  0
LINE
  5
1348A
330
1F
100
AcDbEntity
  8
0
 48
0.27
100
AcDbLine
 10
7.5
 20
8.949454443499957
 30
0.0
 11
9.439999999999939
 21
9.753027668100155
 31
0.0
  0
LINE
  5
1348B
330
1F
100
AcDbEntity
  8
0
 48
0.27
100
AcDbLine
 10
5.86980470000003
 20
4.465940914200056
 30
0.0
 11
5.86980470000003
 21
3.3428429117
 31
0.0
  0
LINE
  5
1348C
330
1F
100
AcDbEntity
  8
0
 48
0.27
100
AcDbLine
 10
4.799804699999639
 20
4.909149261700004
 30
0.0
 11
6.739804700000036
 21
4.105574378200098
 31
0.0
  0
LINE
  5
1348D
330
1F
100
AcDbEntity
  8
0
 48
0.27
100
AcDbLine
 10
4.799804699999639
 20
2.899634400000063
 30
0.0
 11
4.799804699999639
 21
4.909149261700004
 31
0.0
  0
ARC
  5
1348E
330
1F
100
AcDbEntity
  8
0
 48
0.27
100
AcDbCircle
 10
6.494457708500931
 20
4.567334224584878
 30
0.0
 40
0.5
100
AcDbArc
 50
315.0000150107542
 51
354.0111902439174
  0
ARC
  5
1348F
330
1F
100
AcDbEntity
  8
0
 48
0.27
100
AcDbCircle
 10
-6.494457708974891
 20
4.567334229100405
 30
0.0
 40
0.5
100
AcDbArc
 50
185.9888100162231
 51
224.999984978191
  0
LINE
  5
13490
330
1F
100
AcDbEntity
  8
0
 48
0.27
100
AcDbLine
 10
-4.799804699999981
 20
4.909149261700004
 30
0.0
 11
-6.739804700000036
 21
4.105574382200071
 31
0.0
  0
LINE
  5
13491
330
1F
100
AcDbEntity
  8
0
 48
0.27
100
AcDbLine
 10
-5.869804700000257
 20
3.3428429117
 30
0.0
 11
-5.869804700000257
 21
4.465940914200056
 31
0.0
  0
LINE
  5
13492
330
1F
100
AcDbEntity
  8
0
 48
0.27
100
AcDbLine
 10
-4.799804699999981
 20
4.909149261700004
 30
0.0
 11
-4.799804699999981
 21
2.899634400000063
 31
0.0
  0
LINE
  5
13493
330
1F
100
AcDbEntity
  8
0
 48
0.27
100
AcDbLine
 10
-4.799804699999981
 20
2.899634400000063
 30
0.0
 11
-6.899439100000057
 21
0.7999999999999936
 31
0.0
  0
LINE
  5
13494
330
1F
100
AcDbEntity
  8
0
 48
0.27
100
AcDbLine
 10
-8.412647611700016
 20
0.7999999999999794
 30
0.0
 11
-5.869804700000257
 21
3.3428429117
 31
0.0
  0
LINE
  5
13495
330
1F
100
AcDbEntity
  8
0
 48
0.27
100
AcDbLine
 10
-6.739804700000036
 20
4.105574382200071
 30
0.0
 11
-6.848011192262786
 21
4.213780931201863
 31
0.0
  0
LINE
  5
13496
330
1F
100
AcDbEntity
  8
0
 48
0.27
100
AcDbLine
 10
-6.739804700000036
 20
3.703208711000169
 30
0.0
 11
-6.739804700000036
 21
4.105574382200071
 31
0.0
  0
LINE
  5
13497
330
1F
100
AcDbEntity
  8
0
 48
0.27
100
AcDbLine
 10
-4.799804699999981
 20
2.899634400000063
 30
0.0
 11
-6.739804700000036
 21
3.703208711000169
 31
0.0
  0
LINE
  5
13498
330
1F
100
AcDbEntity
  8
0
 48
0.27
100
AcDbLine
 10
6.848011191720615
 20
4.213780926617952
 30
0.0
 11
6.739804700000036
 21
4.105574378200098
 31
0.0
  0
LINE
  5
13499
330
1F
100
AcDbEntity
  8
0
 48
0.27
100
AcDbLine
 10
6.739804700000036
 20
4.105574378200098
 30
0.0
 11
6.739804700000036
 21
3.703208711000169
 31
0.0
  0
LINE
  5
1349A
330
1F
100
AcDbEntity
  8
0
 48
0.27
100
AcDbLine
 10
4.799804699999639
 20
2.899634400000063
 30
0.0
 11
6.739804700000036
 21
3.703208711000169
 31
0.0
  0
LINE
  5
1349B
330
1F
100
AcDbEntity
  8
0
 48
0.27
100
AcDbLine
 10
8.412647611775977
 20
0.7999999999999794
 30
0.0
 11
5.86980470000003
 21
3.3428429117
 31
0.0
  0
LINE
  5
1349C
330
1F
100
AcDbEntity
  8
0
 48
0.27
100
AcDbLine
 10
6.89943909999988
 20
0.7999999999999936
 30
0.0
 11
4.799804699999639
 21
2.899634400000063
 31
0.0
  0
LINE
  5
1349F
330
1F
100
AcDbEntity
  8
0
 48
0.27
100
AcDbLine
 10
-6.310801169199977
 20
4.906937612899961
 30
0.0
 11
-6.962996147126887
 21
4.392772687018631
 31
0.0
  0
LINE
  5
134A0
330
1F
100
AcDbEntity
  8
0
 48
0.27
100
AcDbLine
 10
-6.648080611200157
 20
6.757425237500097
 30
0.0
 11
-7.051246334100143
 21
5.647382274499914
 31
0.0
  0
ARC
  5
134A1
330
1F
100
AcDbEntity
  8
0
 48
0.27
100
AcDbCircle
 10
-6.821506203400076
 20
5.136677396500072
 30
0.0
 40
0.5600000000000001
100
AcDbArc
 50
335.7794840316987
 51
114.2205550404995
  0
LINE
  5
134A2
330
1F
100
AcDbEntity
  8
0
 48
0.27
100
AcDbLine
 10
-7.5
 20
7.609345046299987
 30
0.0
 11
-6.648080611200157
 21
6.757425237500097
 31
0.0
  0
LINE
  5
134A3
330
1F
100
AcDbEntity
  8
0
 48
0.27
100
AcDbLine
 10
-7.499999999964416
 20
8.94945444347085
 30
0.0
 11
-7.499999999964416
 21
7.609345046300215
 31
0.0
  0
LINE
  5
134A4
330
1F
100
AcDbEntity
  8
0
 48
0.27
100
AcDbLine
 10
-7.5
 20
8.949454443499957
 30
0.0
 11
-7.5
 21
7.609345046299987
 31
0.0
  0
LINE
  5
134A5
330
1F
100
AcDbEntity
  8
0
 48
0.27
100
AcDbLine
 10
-8.57000000000005
 20
7.166136689100067
 30
0.0
 11
-8.57000000000005
 21
9.392662356099986
 31
0.0
  0
LINE
  5
134A6
330
1F
100
AcDbEntity
  8
0
 48
0.27
100
AcDbLine
 10
-7.051246334100143
 20
5.647382274499914
 30
0.0
 11
-7.559669704201951
 21
4.989169042150177
 31
0.0
  0
LINE
  5
134A7
330
1F
100
AcDbEntity
  8
0
 48
0.27
100
AcDbLine
 10
-7.051246334100143
 20
5.647382274499914
 30
0.0
 11
-8.57000000000005
 21
7.166136689100067
 31
0.0
  0
ARC
  5
134A8
330
1F
100
AcDbEntity
  8
0
 48
0.27
100
AcDbCircle
 10
-7.48900000000026
 20
4.463000000000061
 30
0.0
 40
0.5
100
AcDbArc
 50
5.988810016223113
 51
84.01116181987163
  0
ARC
  5
134A9
330
1F
100
AcDbEntity
  8
0
 48
0.27
100
AcDbCircle
 10
-7.384665282029913
 20
5.45754223973959
 30
0.0
 40
0.5
100
AcDbArc
 50
224.999985878311
 51
264.0111618198716
  0
LINE
  5
134AB
330
1F
100
AcDbEntity
  8
0
 48
0.27
100
AcDbLine
 10
-5.200758379900094
 20
5.310103151699972
 30
0.0
 11
-6.31080116999999
 21
4.906937613700161
 31
0.0
  0
LINE
  5
134AC
330
1F
100
AcDbEntity
  8
0
 48
0.27
100
AcDbLine
 10
-5.200758379900094
 20
5.310103151699972
 30
0.0
 11
-4.799804699999981
 21
4.909149261700004
 31
0.0
  0
LINE
  5
134AD
330
1F
100
AcDbEntity
  8
0
 48
0.27
100
AcDbLine
 10
-5.869804701100179
 20
4.465940913700006
 30
0.0
 11
-6.31080116999999
 21
4.906937613700161
 31
0.0
  0
ARC
  5
134AE
330
1F
100
AcDbEntity
  8
0
 48
0.27
100
AcDbCircle
 10
-6.821506203400076
 20
5.136677396500072
 30
0.0
 40
1.629999999999999
100
AcDbArc
 50
6.107611780399468
 51
83.89239397910079
  0
LINE
  5
134AF
330
1F
100
AcDbEntity
  8
0
 48
0.27
100
AcDbLine
 10
-6.63449091250004
 20
9.814965185700071
 30
0.0
 11
-7.5
 21
8.949454443499957
 31
0.0
  0
LINE
  5
134B0
330
1F
100
AcDbEntity
  8
0
 48
0.27
100
AcDbLine
 10
7.500000000035356
 20
8.94945444347085
 30
0.0
 11
7.500000000035356
 21
7.609345046300215
 31
0.0
  0
LINE
  5
134B1
330
1F
100
AcDbEntity
  8
0
 48
0.27
100
AcDbLine
 10
7.5
 20
7.609345046299987
 30
0.0
 11
7.5
 21
8.949454443499957
 31
0.0
  0
LINE
  5
134B2
330
1F
100
AcDbEntity
  8
0
 48
0.27
100
AcDbLine
 10
8.569999999999936
 20
9.392662356099986
 30
0.0
 11
8.569999999999936
 21
7.166136689100067
 31
0.0
  0
ARC
  5
134B3
330
1F
100
AcDbEntity
  8
0
 48
0.27
100
AcDbCircle
 10
7.384665282132117
 20
5.457542239750278
 30
0.0
 40
0.5
100
AcDbArc
 50
275.9888381742207
 51
315.0000141232453
  0
LINE
  5
134B4
330
1F
100
AcDbEntity
  8
0
 48
0.27
100
AcDbLine
 10
6.648080611199587
 20
6.757425237500097
 30
0.0
 11
7.051246334199844
 21
5.647382274499914
 31
0.0
  0
LINE
  5
134B5
330
1F
100
AcDbEntity
  8
0
 48
0.27
100
AcDbLine
 10
6.310801168500006
 20
4.906937615300075
 30
0.0
 11
6.962996147310831
 21
4.392772684269497
 31
0.0
  0
ARC
  5
134B6
330
1F
100
AcDbEntity
  8
0
 48
0.27
100
AcDbCircle
 10
6.821506203499892
 20
5.136677396500072
 30
0.0
 40
0.5600000000000001
100
AcDbArc
 50
65.77944495950046
 51
204.2205159683009
  0
LINE
  5
134B8
330
1F
100
AcDbEntity
  8
0
 48
0.27
100
AcDbLine
 10
6.310801167699878
 20
4.906937614500004
 30
0.0
 11
5.869804698900112
 21
4.465940914600063
 31
0.0
  0
LINE
  5
134B9
330
1F
100
AcDbEntity
  8
0
 48
0.27
100
AcDbLine
 10
4.799804699999639
 20
4.909149261700004
 30
0.0
 11
5.200758379900094
 21
5.310103151699972
 31
0.0
  0
LINE
  5
134BA
330
1F
100
AcDbEntity
  8
0
 48
0.27
100
AcDbLine
 10
5.200758379900094
 20
5.310103151699972
 30
0.0
 11
6.310801167699878
 21
4.906937614500004
 31
0.0
  0
ARC
  5
134BB
330
1F
100
AcDbEntity
  8
0
 48
0.27
100
AcDbCircle
 10
6.821506203499892
 20
5.136677396500072
 30
0.0
 40
1.629999999999999
100
AcDbArc
 50
96.1076060208992
 51
173.8923882196005
  0
LINE
  5
134BC
330
1F
100
AcDbEntity
  8
0
 48
0.27
100
AcDbLine
 10
6.648080611199587
 20
6.757425237500097
 30
0.0
 11
7.5
 21
7.609345046299987
 31
0.0
  0
LINE
  5
134BD
330
1F
100
AcDbEntity
  8
0
 48
0.27
100
AcDbLine
 10
7.051246334199844
 20
5.647382274499914
 30
0.0
 11
7.55966970429597
 21
4.989169042157679
 31
0.0
  0
ARC
  5
134BE
330
1F
100
AcDbEntity
  8
0
 48
0.27
100
AcDbCircle
 10
7.489000000000031
 20
4.463000000000061
 30
0.0
 40
0.5
100
AcDbArc
 50
95.98883817421414
 51
174.0111902439173
  0
LINE
  5
134BF
330
1F
100
AcDbEntity
  8
0
 48
0.27
100
AcDbLine
 10
8.569999999999936
 20
7.166136689100067
 30
0.0
 11
7.051246334199844
 21
5.647382274499914
 31
0.0
  0
LINE
  5
134C0
330
1F
100
AcDbEntity
  8
0
 48
0.27
100
AcDbLine
 10
7.5
 20
8.949454443499957
 30
0.0
 11
6.63449091250004
 21
9.814965185700071
 31
0.0
  0
LINE
  5
134C1
330
1F
100
AcDbEntity
  8
0
 48
0.27
100
AcDbLine
 10
16.20000000000004
 20
1.799999999999979
 30
0.0
 11
15.20000000000004
 21
0.7999999999999794
 31
0.0
  0
LINE
  5
134C2
330
1F
100
AcDbEntity
  8
0
 48
0.27
100
AcDbLine
 10
16.69999999999982
 20
1.799999999999979
 30
0.0
 11
15.70000000000004
 21
0.799999999999951
 31
0.0
  0
LINE
  5
134C3
330
1F
100
AcDbEntity
  8
0
 48
0.27
100
AcDbLine
 10
9.439999999999939
 20
9.753027668100212
 30
0.0
 11
9.439999999999939
 21
6.805771015400051
 31
0.0
  0
LINE
  5
134C4
330
1F
100
AcDbEntity
  8
0
 48
0.27
100
AcDbLine
 10
13.24999999999988
 20
8.000000000000094
 30
0.0
 11
16.20000000000004
 21
8.000000000000094
 31
0.0
  0
ARC
  5
134C5
330
1F
100
AcDbEntity
  8
0
 48
0.27
100
AcDbCircle
 10
0.0
 20
16.00000000000009
 30
0.0
 40
3.0
100
AcDbArc
 50
301.4239064858001
 51
238.5760935141998
  0
LINE
  5
134C7
330
1F
100
AcDbEntity
  8
0
 48
0.27
100
AcDbLine
 10
4.949456226317579
 20
11.49999999996445
 30
0.0
 11
-4.949456226246637
 21
11.49999999996445
 31
0.0
  0
LINE
  5
134C8
330
1F
100
AcDbEntity
  8
中心線
 48
0.27
100
AcDbLine
 10
-3.394263050102495
 20
16.00000000000009
 30
0.0
 11
3.39426305010204
 21
16.00000000000009
 31
0.0
  0
LINE
  5
134C9
330
1F
100
AcDbEntity
  8
0
 48
0.27
100
AcDbLine
 10
4.949456226299843
 20
11.49999999999998
 30
0.0
 11
-4.949456226300184
 21
11.49999999999998
 31
0.0
  0
LINE
  5
134CA
330
1F
100
AcDbEntity
  8
0
 48
0.27
100
AcDbLine
 10
-5.392664969599876
 20
12.57000000000003
 30
0.0
 11
5.392664969599876
 21
12.57000000000003
 31
0.0
  0
ARC
  5
134CB
330
1F
100
AcDbEntity
  8
0
 48
0.27
100
AcDbCircle
 10
0.0
 20
16.00000000000009
 30
0.0
 40
3.0
100
AcDbArc
 50
238.5760935141998
 51
301.4239064858001
  0
LINE
  5
134CC
330
1F
100
AcDbEntity
  8
0
 48
0.27
100
AcDbLine
 10
-6.307110504199954
 20
11.65555407670005
 30
0.0
 11
-6.962763803291977
 21
12.1679004682068
 31
0.0
  0
LINE
  5
134CD
330
1F
100
AcDbEntity
  8
0
 48
0.27
100
AcDbLine
 10
-6.848765042956188
 20
12.34426776937827
 30
0.0
 11
-5.753033622200063
 21
13.43999999999998
 31
0.0
  0
ARC
  5
134CE
330
1F
100
AcDbEntity
  8
0
 48
0.27
100
AcDbCircle
 10
-6.821506203400076
 20
11.43420120340003
 30
0.0
 40
0.5600000000000001
100
AcDbArc
 50
246.7169474446987
 51
23.28297609000022
  0
LINE
  5
134CF
330
1F
100
AcDbEntity
  8
0
 48
0.27
100
AcDbLine
 10
-7.042859542200062
 20
10.91980573350006
 30
0.0
 11
-7.554920606591962
 21
11.57575560652519
 31
0.0
  0
ARC
  5
134D0
330
1F
100
AcDbEntity
  8
0
 48
0.27
100
AcDbCircle
 10
-7.48900000000026
 20
12.10200000000005
 30
0.0
 40
0.5
100
AcDbArc
 50
276.3895456483096
 51
353.6105762354623
  0
ARC
  5
134D1
330
1F
100
AcDbEntity
  8
0
 48
0.27
100
AcDbCircle
 10
-7.377712395383355
 20
11.1082117584422
 30
0.0
 40
0.5
100
AcDbArc
 50
96.38954564830964
 51
135.0000547715693
  0
ARC
  5
134D2
330
1F
100
AcDbEntity
  8
0
 48
0.27
100
AcDbCircle
 10
-6.495211521705299
 20
11.99071450944226
 30
0.0
 40
0.5
100
AcDbArc
 50
135.0000211739304
 51
173.6105762354624
  0
LINE
  5
134D4
330
1F
100
AcDbEntity
  8
0
 48
0.27
100
AcDbLine
 10
-4.949456226300184
 20
11.49999999999998
 30
0.0
 11
-5.753033622200063
 21
13.43999999999998
 31
0.0
  0
LINE
  5
134D5
330
1F
100
AcDbEntity
  8
0
 48
0.27
100
AcDbLine
 10
-6.307110647799959
 20
11.65555393319996
 30
0.0
 11
-5.392665053700055
 21
12.57000020299999
 31
0.0
  0
LINE
  5
134D6
330
1F
100
AcDbEntity
  8
0
 48
0.27
100
AcDbLine
 10
-5.202270193400066
 20
11.24718584600007
 30
0.0
 11
-6.307110647799959
 21
11.65555393319996
 31
0.0
  0
LINE
  5
134D7
330
1F
100
AcDbEntity
  8
0
 48
0.27
100
AcDbLine
 10
-4.949456226300184
 20
11.49999999999998
 30
0.0
 11
-5.202270193400066
 21
11.24718584600007
 31
0.0
  0
LINE
  5
134D8
330
1F
100
AcDbEntity
  8
0
 48
0.27
100
AcDbLine
 10
-5.753033622200063
 20
13.43999999999998
 30
0.0
 11
-1.564097183681495
 21
13.43999999999998
 31
0.0
  0
ARC
  5
134D9
330
1F
100
AcDbEntity
  8
0
 48
0.27
100
AcDbCircle
 10
7.377712395383013
 20
11.1082117584422
 30
0.0
 40
0.5
100
AcDbArc
 50
44.99994522843985
 51
83.61045435169037
  0
LINE
  5
134DA
330
1F
100
AcDbEntity
  8
0
 48
0.27
100
AcDbLine
 10
1.564097183681383
 20
13.43999999999998
 30
0.0
 11
5.753034352199961
 21
13.43999999999998
 31
0.0
  0
LINE
  5
134DB
330
1F
100
AcDbEntity
  8
0
 48
0.27
100
AcDbLine
 10
5.753034352199961
 20
13.43999999999998
 30
0.0
 11
6.848764950901909
 21
12.34426859143251
 31
0.0
  0
LINE
  5
134DC
330
1F
100
AcDbEntity
  8
0
 48
0.27
100
AcDbLine
 10
6.307110372099941
 20
11.65555363459996
 30
0.0
 11
6.962763832630002
 21
12.1679009699342
 31
0.0
  0
ARC
  5
134DD
330
1F
100
AcDbEntity
  8
0
 48
0.27
100
AcDbCircle
 10
6.821506203499892
 20
11.43420120340003
 30
0.0
 40
0.5600000000000001
100
AcDbArc
 50
156.7170239099994
 51
293.2830525552942
  0
LINE
  5
134DF
330
1F
100
AcDbEntity
  8
0
 48
0.27
100
AcDbLine
 10
5.392664885499924
 20
12.56999979689997
 30
0.0
 11
6.307110228499936
 21
11.65555377819991
 31
0.0
  0
LINE
  5
134E0
330
1F
100
AcDbEntity
  8
0
 48
0.27
100
AcDbLine
 10
4.949456226299843
 20
11.49999999999998
 30
0.0
 11
5.753034352199961
 21
13.43999999999998
 31
0.0
  0
LINE
  5
134E1
330
1F
100
AcDbEntity
  8
0
 48
0.27
100
AcDbLine
 10
5.202270193499997
 20
11.24718584600007
 30
0.0
 11
4.949456226299843
 21
11.49999999999998
 31
0.0
  0
LINE
  5
134E2
330
1F
100
AcDbEntity
  8
0
 48
0.27
100
AcDbLine
 10
5.202270193499997
 20
11.24718584600007
 30
0.0
 11
6.307110228499936
 21
11.65555377819991
 31
0.0
  0
ARC
  5
134E3
330
1F
100
AcDbEntity
  8
0
 48
0.27
100
AcDbCircle
 10
6.495211429651021
 20
11.99071533149672
 30
0.0
 40
0.5
100
AcDbArc
 50
6.389376369905712
 51
44.99997882606002
  0
LINE
  5
134E4
330
1F
100
AcDbEntity
  8
0
 48
0.27
100
AcDbLine
 10
7.042859542199948
 20
10.91980573350006
 30
0.0
 11
7.554920606591621
 21
11.57575560652519
 31
0.0
  0
ARC
  5
134E5
330
1F
100
AcDbEntity
  8
0
 48
0.27
100
AcDbCircle
 10
7.489000000000031
 20
12.10200000000005
 30
0.0
 40
0.5
100
AcDbArc
 50
186.3893763699057
 51
263.6104543516903
  0
LINE
  5
134E6
330
1F
100
AcDbEntity
  8
0
 48
0.27
100
AcDbLine
 10
13.24999999999988
 20
14.00000000000009
 30
0.0
 11
16.20000000000004
 21
14.00000000000009
 31
0.0
  0
LINE
  5
134EA
330
1F
100
AcDbEntity
  8
0
 48
0.27
100
AcDbLine
 10
17.0
 20
9.149999999999987
 30
0.0
 11
16.69999999999982
 21
8.849999999999976
 31
0.0
  0
LINE
  5
134EB
330
1F
100
AcDbEntity
  8
0
 48
0.27
100
AcDbLine
 10
15.20000000000004
 20
19.49999999999998
 30
0.0
 11
16.20000000000004
 21
18.50000000000009
 31
0.0
  0
LINE
  5
134ED
330
1F
100
AcDbEntity
  8
0
 48
0.27
100
AcDbLine
 10
-16.00000000000011
 20
20.49999999999995
 30
0.0
 11
-9.0
 21
20.49999999999998
 31
0.0
  0
LINE
  5
134EE
330
1F
100
AcDbEntity
  8
0
 48
0.27
100
AcDbLine
 10
-16.00000000000011
 20
20.49999999999995
 30
0.0
 11
-17.0
 21
19.50000000000001
 31
0.0
  0
LINE
  5
134EF
330
1F
100
AcDbEntity
  8
虛線
 48
0.27
100
AcDbLine
 10
-15.35000000000013
 20
20.49999999999998
 30
0.0
 11
-15.00000000000011
 21
20.14999999999999
 31
0.0
  0
LINE
  5
134F0
330
1F
100
AcDbEntity
  8
虛線
 48
0.27
100
AcDbLine
 10
-11.00000000000011
 20
20.14999999999999
 30
0.0
 11
-10.65000000000032
 21
20.49999999999998
 31
0.0
  0
LINE
  5
134F1
330
1F
100
AcDbEntity
  8
虛線
 48
0.27
100
AcDbLine
 10
-15.00000000000011
 20
20.14999999999999
 30
0.0
 11
-11.00000000000011
 21
20.14999999999999
 31
0.0
  0
LINE
  5
134F2
330
1F
100
AcDbEntity
  8
0
 48
0.27
100
AcDbLine
 10
8.999999999999886
 20
20.49999999999995
 30
0.0
 11
16.0
 21
20.49999999999998
 31
0.0
  0
LINE
  5
134F3
330
1F
100
AcDbEntity
  8
0
 48
0.27
100
AcDbLine
 10
-3.000000000000113
 20
20.49999999999995
 30
0.0
 11
2.999999999999886
 21
20.49999999999998
 31
0.0
  0
LINE
  5
134F4
330
1F
100
AcDbEntity
  8
0
 48
0.27
100
AcDbLine
 10
-8.5
 20
19.99999999999998
 30
0.0
 11
-3.500000000000113
 21
19.99999999999998
 31
0.0
  0
LINE
  5
134F5
330
1F
100
AcDbEntity
  8
0
 48
0.27
100
AcDbLine
 10
-3.000000000000113
 20
20.49999999999995
 30
0.0
 11
-3.500000000000113
 21
19.99999999999998
 31
0.0
  0
LINE
  5
134F6
330
1F
100
AcDbEntity
  8
0
 48
0.27
100
AcDbLine
 10
-8.5
 20
19.99999999999998
 30
0.0
 11
-9.0
 21
20.49999999999998
 31
0.0
  0
LINE
  5
134F7
330
1F
100
AcDbEntity
  8
0
 48
0.27
100
AcDbLine
 10
2.999999999999886
 20
20.49999999999998
 30
0.0
 11
3.5
 21
19.99999999999995
 31
0.0
  0
LINE
  5
134F8
330
1F
100
AcDbEntity
  8
0
 48
0.27
100
AcDbLine
 10
8.499999999999657
 20
19.99999999999992
 30
0.0
 11
8.999999999999886
 21
20.49999999999995
 31
0.0
  0
LINE
  5
134F9
330
1F
100
AcDbEntity
  8
0
 48
0.27
100
AcDbLine
 10
8.5
 20
19.99999999999995
 30
0.0
 11
3.5
 21
19.99999999999998
 31
0.0
  0
LINE
  5
134FB
330
1F
100
AcDbEntity
  8
0
 48
0.27
100
AcDbLine
 10
16.0
 20
20.49999999999998
 30
0.0
 11
17.0
 21
19.49999999999997
 31
0.0
  0
LINE
  5
13525
330
1F
100
AcDbEntity
  8
指線
 48
0.27
100
AcDbLine
 10
12.69394366859127
 20
11.54826701233439
 30
0.0
 11
10.55966317351138
 21
11.5486496415708
 31
0.0
  0
LINE
  5
13526
330
1F
100
AcDbEntity
  8
指線
 48
0.27
100
AcDbLine
 10
12.69377414930825
 20
10.45234903520029
 30
0.0
 11
10.55949365422837
 21
10.45273166443668
 31
0.0
  0
LINE
  5
13547
330
1F
100
AcDbEntity
  8
指線
 48
0.27
100
AcDbLine
 10
13.78985944653776
 20
11.54809738862878
 30
0.0
 11
15.92853208790077
 21
11.54781865816383
 31
0.0
  0
LINE
  5
13548
330
1F
100
AcDbEntity
  8
指線
 48
0.27
100
AcDbLine
 10
13.78968992725499
 20
10.45217941149493
 30
0.0
 11
15.92836256861801
 21
10.45190068102972
 31
0.0
  0
LINE
  5
13555
330
1F
100
AcDbEntity
  8
指線
 48
0.27
100
AcDbLine
 10
12.69377414930825
 20
10.45234903520029
 30
0.0
 11
12.69361917228905
 21
9.450445957364234
 31
0.0
  0
LINE
  5
13562
330
1F
100
AcDbEntity
  8
指線
 48
0.27
100
AcDbLine
 10
13.78968992725499
 20
10.45217941149493
 30
0.0
 11
13.78953495045482
 21
9.450276333663618
 31
0.0
  0
LINE
  5
13590
330
1F
100
AcDbEntity
  8
指線
 48
0.27
100
AcDbLine
 10
12.6940986453912
 20
12.55017009016546
 30
0.0
 11
12.69394366859127
 21
11.54826701233439
 31
0.0
  0
LINE
  5
13591
330
1F
100
AcDbEntity
  8
指線
 48
0.27
100
AcDbLine
 10
13.79001442355696
 20
12.5500004664651
 30
0.0
 11
13.78985944653776
 21
11.54809738862878
 31
0.0
  0
CIRCLE
  5
13693
330
1F
100
AcDbEntity
  8
指線
 48
0.27
100
AcDbCircle
 10
13.24999999999988
 20
10.99999999999998
 30
0.0
 40
2.733551208880354
  0
ARC
  5
13694
330
1F
100
AcDbEntity
  8
指線
 48
0.27
100
AcDbCircle
 10
13.24999999999988
 20
10.99999999999998
 30
0.0
 40
1.640957465861141
100
AcDbArc
 50
109.8017739016578
 51
160.4747460815319
  0
ARC
  5
13695
330
1F
100
AcDbEntity
  8
指線
 48
0.27
100
AcDbCircle
 10
13.24999999999988
 20
10.99999999999998
 30
0.0
 40
1.640957465861141
100
AcDbArc
 50
19.50753063170162
 51
70.78675677481015
  0
ARC
  5
13696
330
1F
100
AcDbEntity
  8
指線
 48
0.27
100
AcDbCircle
 10
13.24999999999988
 20
10.99999999999998
 30
0.0
 40
1.640957465861141
100
AcDbArc
 50
289.195517915618
 51
340.4929998358231
  0
ARC
  5
13697
330
1F
100
AcDbEntity
  8
指線
 48
0.27
100
AcDbCircle
 10
13.24999999999988
 20
10.99999999999998
 30
0.0
 40
1.640957465861141
100
AcDbArc
 50
199.48927687566
 51
250.1805007887793
  0
CIRCLE
  5
13698
330
1F
100
AcDbEntity
  8
指線
 48
0.27
100
AcDbCircle
 10
-13.25
 20
10.99999999999998
 30
0.0
 40
2.733551208880354
  0
ARC
  5
13699
330
1F
100
AcDbEntity
  8
指線
 48
0.27
100
AcDbCircle
 10
-13.25
 20
10.99999999999998
 30
0.0
 40
1.640957465861141
100
AcDbArc
 50
199.48927687566
 51
250.1805007887793
  0
ARC
  5
1369A
330
1F
100
AcDbEntity
  8
指線
 48
0.27
100
AcDbCircle
 10
-13.25
 20
10.99999999999998
 30
0.0
 40
1.640957465861141
100
AcDbArc
 50
289.195517915618
 51
340.4929998358231
  0
LINE
  5
1369B
330
1F
100
AcDbEntity
  8
指線
 48
0.27
100
AcDbLine
 10
-12.71031007274489
 20
10.45217941149493
 30
0.0
 11
-12.71046504954507
 21
9.450276333663618
 31
0.0
  0
LINE
  5
1369C
330
1F
100
AcDbEntity
  8
指線
 48
0.27
100
AcDbLine
 10
-13.80622585069163
 20
10.45234903520029
 30
0.0
 11
-13.80638082771084
 21
9.450445957364234
 31
0.0
  0
ARC
  5
1369D
330
1F
100
AcDbEntity
  8
指線
 48
0.27
100
AcDbCircle
 10
-13.25
 20
10.99999999999998
 30
0.0
 40
1.640957465861141
100
AcDbArc
 50
109.8017739016578
 51
160.4747460815319
  0
LINE
  5
1369E
330
1F
100
AcDbEntity
  8
指線
 48
0.27
100
AcDbLine
 10
-13.80590135460869
 20
12.55017009016546
 30
0.0
 11
-13.80605633140861
 21
11.54826701233439
 31
0.0
  0
LINE
  5
1369F
330
1F
100
AcDbEntity
  8
指線
 48
0.27
100
AcDbLine
 10
-13.80622585069163
 20
10.45234903520029
 30
0.0
 11
-15.94050634577151
 21
10.45273166443668
 31
0.0
  0
LINE
  5
136A0
330
1F
100
AcDbEntity
  8
指線
 48
0.27
100
AcDbLine
 10
-13.80605633140861
 20
11.54826701233439
 30
0.0
 11
-15.9403368264885
 21
11.5486496415708
 31
0.0
  0
ARC
  5
136A1
330
1F
100
AcDbEntity
  8
指線
 48
0.27
100
AcDbCircle
 10
-13.25
 20
10.99999999999998
 30
0.0
 40
1.640957465861141
100
AcDbArc
 50
19.50753063170162
 51
70.78675677481015
  0
LINE
  5
136A2
330
1F
100
AcDbEntity
  8
指線
 48
0.27
100
AcDbLine
 10
-12.70998557644292
 20
12.5500004664651
 30
0.0
 11
-12.71014055346212
 21
11.54809738862878
 31
0.0
  0
LINE
  5
136A3
330
1F
100
AcDbEntity
  8
指線
 48
0.27
100
AcDbLine
 10
-12.71031007274489
 20
10.45217941149493
 30
0.0
 11
-10.57163743138188
 21
10.45190068102972
 31
0.0
  0
LINE
  5
136A4
330
1F
100
AcDbEntity
  8
指線
 48
0.27
100
AcDbLine
 10
-12.71014055346212
 20
11.54809738862878
 30
0.0
 11
-10.57146791209911
 21
11.54781865816383
 31
0.0
  0
LINE
  5
1370C
330
1F
100
AcDbEntity
  8
0
 48
0.27
100
AcDbLine
 10
7.500000000035356
 20
0.1994390999644615
 30
0.0
 11
7.500000000035356
 21
-2.800048830035581
 31
0.0
  0
LINE
  5
1370D
330
1F
100
AcDbEntity
  8
虛線
 48
0.27
100
AcDbLine
 10
2.250308041280959
 20
5.895600375885447
 30
0.0
 11
2.250308041280959
 21
-3.000000000035544
 31
0.0
  0
LINE
  5
1370E
330
1F
100
AcDbEntity
  8
0
 48
0.27
100
AcDbLine
 10
-7.499999999964416
 20
0.1994391000356295
 30
0.0
 11
-7.499999999964416
 21
-2.800048830035581
 31
0.0
  0
LINE
  5
1370F
330
1F
100
AcDbEntity
  8
虛線
 48
0.27
100
AcDbLine
 10
-2.24969195871904
 20
5.895600375885447
 30
0.0
 11
-2.24969195871904
 21
-3.000000000035544
 31
0.0
  0
LINE
  5
13710
330
1F
100
AcDbEntity
  8
中心線
 48
0.27
100
AcDbLine
 10
0.0000000000353566
 20
12.49999999996445
 30
0.0
 11
0.0000000000353566
 21
-4.688378900035576
 31
0.0
  0
LINE
  5
13711
330
1F
100
AcDbEntity
  8
虛線
 48
0.27
100
AcDbLine
 10
2.250308041280959
 20
-3.000000000035544
 30
0.0
 11
-2.24969195871904
 21
-3.000000000035544
 31
0.0
  0
LINE
  5
13712
330
1F
100
AcDbEntity
  8
0
 48
0.27
100
AcDbLine
 10
6.799858100035294
 20
-3.500000000035544
 30
0.0
 11
-6.800048799964656
 21
-3.500000000035544
 31
0.0
  0
LINE
  5
13713
330
1F
100
AcDbEntity
  8
0
 48
0.27
100
AcDbLine
 10
-7.500340899964726
 20
-2.800324740035551
 30
0.0
 11
-6.800333499964607
 21
-3.500331763275556
 31
0.0
  0
LINE
  5
13714
330
1F
100
AcDbEntity
  8
虛線
 48
0.27
100
AcDbLine
 10
-2.24969195871904
 20
-3.000000000035544
 30
0.0
 11
-2.749691958719381
 21
-3.500000000035544
 31
0.0
  0
LINE
  5
13715
330
1F
100
AcDbEntity
  8
虛線
 48
0.27
100
AcDbLine
 10
2.250308041280959
 20
-3.000000000035544
 30
0.0
 11
2.750308041280618
 21
-3.500000000035544
 31
0.0
  0
LINE
  5
13716
330
1F
100
AcDbEntity
  8
0
 48
0.27
100
AcDbLine
 10
7.499729600035267
 20
-2.800129180035543
 30
0.0
 11
6.799700700035599
 21
-3.500157780895579
 31
0.0
  0
LINE
  5
13717
330
1F
100
AcDbEntity
  8
虛線
 48
0.27
100
AcDbLine
 10
3.750308041280959
 20
11.29999999996439
 30
0.0
 11
3.750308041280959
 21
6.1956003758854
 31
0.0
  0
ARC
  5
13718
330
1F
100
AcDbEntity
  8
0
 48
0.27
100
AcDbCircle
 10
6.821506203499892
 20
11.43420120340003
 30
0.0
 40
1.629999999999999
100
AcDbArc
 50
186.5882452203976
 51
263.4117571311989
  0
LINE
  5
13719
330
1F
100
AcDbEntity
  8
虛線
 48
0.27
100
AcDbLine
 10
-3.74969195871904
 20
11.29999999996439
 30
0.0
 11
-3.74969195871904
 21
6.1956003758854
 31
0.0
  0
ARC
  5
1371A
330
1F
100
AcDbEntity
  8
0
 48
0.27
100
AcDbCircle
 10
-6.821506203400076
 20
11.43420120340003
 30
0.0
 40
1.629999999999999
100
AcDbArc
 50
276.588242868801
 51
353.4117547796019
  0
LINE
  5
1371B
330
1F
100
AcDbEntity
  8
0
 48
0.27
100
AcDbLine
 10
4.799804699999639
 20
2.899634400000063
 30
0.0
 11
4.799804699999639
 21
4.909149261700004
 31
0.0
  0
LINE
  5
1371C
330
1F
100
AcDbEntity
  8
0
 48
0.27
100
AcDbLine
 10
-4.799804699999981
 20
4.909149261700004
 30
0.0
 11
-4.799804699999981
 21
2.899634400000063
 31
0.0
  0
LINE
  5
1371D
330
1F
100
AcDbEntity
  8
0
 48
0.27
100
AcDbLine
 10
-4.799804699999981
 20
2.899634400000063
 30
0.0
 11
-7.499999999964416
 21
0.1994391000356295
 31
0.0
  0
LINE
  5
1371E
330
1F
100
AcDbEntity
  8
0
 48
0.27
100
AcDbLine
 10
7.500000000035356
 20
0.199439099964561
 30
0.0
 11
4.799804699999639
 21
2.899634400000063
 31
0.0
  0
LINE
  5
1371F
330
1F
100
AcDbEntity
  8
虛線
 48
0.27
100
AcDbLine
 10
3.750308041280959
 20
6.1956003758854
 30
0.0
 11
-3.74969195871904
 21
6.1956003758854
 31
0.0
  0
LINE
  5
13720
330
1F
100
AcDbEntity
  8
虛線
 48
0.27
100
AcDbLine
 10
2.250308041280959
 20
5.895600375885447
 30
0.0
 11
-2.24969195871904
 21
5.895600375885447
 31
0.0
  0
LINE
  5
13721
330
1F
100
AcDbEntity
  8
0
 48
0.27
100
AcDbLine
 10
-7.5
 20
7.609345046299987
 30
0.0
 11
-6.648080611200157
 21
6.757425237500097
 31
0.0
  0
LINE
  5
13722
330
1F
100
AcDbEntity
  8
0
 48
0.27
100
AcDbLine
 10
-7.499999999964416
 20
8.94945444347085
 30
0.0
 11
-7.499999999964416
 21
7.609345046300215
 31
0.0
  0
LINE
  5
13723
330
1F
100
AcDbEntity
  8
0
 48
0.27
100
AcDbLine
 10
-7.5
 20
8.949454443499957
 30
0.0
 11
-7.5
 21
7.609345046299987
 31
0.0
  0
LINE
  5
13724
330
1F
100
AcDbEntity
  8
虛線
 48
0.27
100
AcDbLine
 10
-2.24969195871904
 20
5.895600375885447
 30
0.0
 11
-2.549691958719335
 21
6.1956003758854
 31
0.0
  0
LINE
  5
13725
330
1F
100
AcDbEntity
  8
0
 48
0.27
100
AcDbLine
 10
-5.200758379900094
 20
5.310103151699972
 30
0.0
 11
-4.799804699999981
 21
4.909149261700004
 31
0.0
  0
ARC
  5
13726
330
1F
100
AcDbEntity
  8
0
 48
0.27
100
AcDbCircle
 10
-6.821506203400076
 20
5.136677396500072
 30
0.0
 40
1.629999999999999
100
AcDbArc
 50
6.107611780399468
 51
83.89239397910079
  0
LINE
  5
13727
330
1F
100
AcDbEntity
  8
0
 48
0.27
100
AcDbLine
 10
-6.63449091250004
 20
9.814965185700071
 30
0.0
 11
-7.5
 21
8.949454443499957
 31
0.0
  0
LINE
  5
13728
330
1F
100
AcDbEntity
  8
0
 48
0.27
100
AcDbLine
 10
7.500000000035356
 20
8.94945444347085
 30
0.0
 11
7.500000000035356
 21
7.609345046300215
 31
0.0
  0
LINE
  5
13729
330
1F
100
AcDbEntity
  8
0
 48
0.27
100
AcDbLine
 10
7.5
 20
7.609345046299987
 30
0.0
 11
7.5
 21
8.949454443499957
 31
0.0
  0
LINE
  5
1372A
330
1F
100
AcDbEntity
  8
虛線
 48
0.27
100
AcDbLine
 10
2.250308041280959
 20
5.895600375885447
 30
0.0
 11
2.550308041280914
 21
6.1956003758854
 31
0.0
  0
LINE
  5
1372B
330
1F
100
AcDbEntity
  8
0
 48
0.27
100
AcDbLine
 10
4.799804699999639
 20
4.909149261700004
 30
0.0
 11
5.200758379900094
 21
5.310103151699972
 31
0.0
  0
ARC
  5
1372C
330
1F
100
AcDbEntity
  8
0
 48
0.27
100
AcDbCircle
 10
6.821506203499892
 20
5.136677396500072
 30
0.0
 40
1.629999999999999
100
AcDbArc
 50
96.1076060208992
 51
173.8923882196005
  0
LINE
  5
1372D
330
1F
100
AcDbEntity
  8
0
 48
0.27
100
AcDbLine
 10
6.648080611199587
 20
6.757425237500097
 30
0.0
 11
7.5
 21
7.609345046299987
 31
0.0
  0
LINE
  5
1372E
330
1F
100
AcDbEntity
  8
0
 48
0.27
100
AcDbLine
 10
7.5
 20
8.949454443499957
 30
0.0
 11
6.63449091250004
 21
9.814965185700071
 31
0.0
  0
LINE
  5
1372F
330
1F
100
AcDbEntity
  8
虛線
 48
0.27
100
AcDbLine
 10
3.750308041280959
 20
11.29999999996439
 30
0.0
 11
-3.74969195871904
 21
11.29999999996439
 31
0.0
  0
LINE
  5
13730
330
1F
100
AcDbEntity
  8
0
 48
0.27
100
AcDbLine
 10
4.949456226317579
 20
11.49999999996445
 30
0.0
 11
-4.949456226246637
 21
11.49999999996445
 31
0.0
  0
LINE
  5
13731
330
1F
100
AcDbEntity
  8
0
 48
0.27
100
AcDbLine
 10
4.949456226299843
 20
11.49999999999998
 30
0.0
 11
-4.949456226300184
 21
11.49999999999998
 31
0.0
  0
LINE
  5
13732
330
1F
100
AcDbEntity
  8
虛線
 48
0.27
100
AcDbLine
 10
-3.74969195871904
 20
11.29999999996439
 30
0.0
 11
-3.865162012557107
 21
11.49999999996445
 31
0.0
  0
LINE
  5
13733
330
1F
100
AcDbEntity
  8
0
 48
0.27
100
AcDbLine
 10
-4.949456226300184
 20
11.49999999999998
 30
0.0
 11
-5.202270193400066
 21
11.24718584600007
 31
0.0
  0
LINE
  5
13734
330
1F
100
AcDbEntity
  8
虛線
 48
0.27
100
AcDbLine
 10
3.750308041280959
 20
11.29999999996439
 30
0.0
 11
3.865778095118912
 21
11.49999999996445
 31
0.0
  0
LINE
  5
13735
330
1F
100
AcDbEntity
  8
0
 48
0.27
100
AcDbLine
 10
5.202270193499997
 20
11.24718584600007
 30
0.0
 11
4.949456226299843
 21
11.49999999999998
 31
0.0
  0
LINE
  5
13815
330
1F
100
AcDbEntity
  8
0
 48
0.27
100
AcDbLine
 10
217.8215981909247
 20
11.49999999996446
 30
0.0
 11
168.4708658778091
 21
11.49999999996446
 31
0.0
  0
LINE
  5
13817
330
1F
100
AcDbEntity
  8
0
 48
0.27
100
AcDbLine
 10
217.8215981909247
 20
0.1997365999644529
 30
0.0
 11
91.85026008783742
 21
0.1997365999644529
 31
0.0
  0
LINE
  5
13818
330
1F
100
AcDbEntity
  8
0
 48
0.27
100
AcDbLine
 10
217.8215981909247
 20
2.90035853231674
 30
0.0
 11
168.470865844926
 21
2.90002890853766
 31
0.0
  0
LINE
  5
13819
330
1F
100
AcDbEntity
  8
0
 48
0.27
100
AcDbLine
 10
217.8215981909248
 20
4.909149261688511
 30
0.0
 11
168.4708658449259
 21
4.909149261688511
 31
0.0
  0
LINE
  5
1381A
330
1F
100
AcDbEntity
  8
0
 48
0.27
100
AcDbLine
 10
217.8215981909248
 20
5.429045078543692
 30
0.0
 11
168.470865844926
 21
5.429045078543692
 31
0.0
  0
LINE
  5
1381B
330
1F
100
AcDbEntity
  8
0
 48
0.27
100
AcDbLine
 10
217.8215981909248
 20
6.638483419949507
 30
0.0
 11
168.4708658449259
 21
6.638483419949415
 31
0.0
  0
LINE
  5
1381C
330
1F
100
AcDbEntity
  8
0
 48
0.27
100
AcDbLine
 10
217.8215981909247
 20
7.609345046300219
 30
0.0
 11
168.470865844926
 21
7.609345046300219
 31
0.0
  0
LINE
  5
1381D
330
1F
100
AcDbEntity
  8
0
 48
0.27
100
AcDbLine
 10
217.8215981909247
 20
8.949454443470855
 30
0.0
 11
168.4708658449259
 21
8.949454443470855
 31
0.0
  0
LINE
  5
1381E
330
1F
100
AcDbEntity
  8
0
 48
0.27
100
AcDbLine
 10
107.070865842321
 20
9.935412789365145
 30
0.0
 11
90.76163070326179
 21
9.935412789365145
 31
0.0
  0
LINE
  5
1381F
330
1F
100
AcDbEntity
  8
0
 48
0.27
100
AcDbLine
 10
217.8215981909248
 20
11.12673806342671
 30
0.0
 11
168.470865856178
 21
11.12673806342668
 31
0.0
  0
LINE
  5
13821
330
1F
100
AcDbEntity
  8
0
 48
0.27
100
AcDbLine
 10
80.07129014967905
 20
5.899999999964661
 30
0.0
 11
80.37129014967922
 21
6.199999999964447
 31
0.0
  0
LINE
  5
13822
330
1F
100
AcDbEntity
  8
0
 48
0.27
100
AcDbLine
 10
74.07129014967882
 20
6.199999999964447
 30
0.0
 11
81.57129014967916
 21
6.199999999964447
 31
0.0
  0
LINE
  5
13823
330
1F
100
AcDbEntity
  8
0
 48
0.27
100
AcDbLine
 10
74.07129014967882
 20
11.30439962404368
 30
0.0
 11
81.57129014967916
 21
11.30439962404368
 31
0.0
  0
LINE
  5
13824
330
1F
100
AcDbEntity
  8
0
 48
0.27
100
AcDbLine
 10
80.07129014967905
 20
-2.995600375956438
 30
0.0
 11
80.57568977375821
 21
-3.500000000035533
 31
0.0
  0
LINE
  5
13825
330
1F
100
AcDbEntity
  8
0
 48
0.27
100
AcDbLine
 10
217.8215981909248
 20
-3.500000000035477
 30
0.0
 11
57.82159819092476
 21
-3.500000000035544
 31
0.0
  0
LINE
  5
13826
330
1F
100
AcDbEntity
  8
0
 48
0.27
100
AcDbLine
 10
57.82159819092476
 20
11.49999999996446
 30
0.0
 11
57.82159819092476
 21
-3.500000000035533
 31
0.0
  0
LINE
  5
13827
330
1F
100
AcDbEntity
  8
0
 48
0.27
100
AcDbLine
 10
75.57129014967904
 20
5.899999999964661
 30
0.0
 11
75.57129014967904
 21
-2.995600375956438
 31
0.0
  0
LINE
  5
13828
330
1F
100
AcDbEntity
  8
0
 48
0.27
100
AcDbLine
 10
80.07129014967905
 20
5.899999999964661
 30
0.0
 11
80.07129014967905
 21
-2.995600375956438
 31
0.0
  0
LINE
  5
13829
330
1F
100
AcDbEntity
  8
中心線
 48
0.27
100
AcDbLine
 10
77.82129014967904
 20
12.59999999996454
 30
0.0
 11
77.82129014967904
 21
-4.500000000035476
 31
0.0
  0
LINE
  5
1382A
330
1F
100
AcDbEntity
  8
0
 48
0.27
100
AcDbLine
 10
75.57129014967904
 20
-2.995600375956438
 30
0.0
 11
80.07129014967905
 21
-2.995600375956438
 31
0.0
  0
LINE
  5
1382B
330
1F
100
AcDbEntity
  8
0
 48
0.27
100
AcDbLine
 10
75.57129014967904
 20
-2.995600375956438
 30
0.0
 11
75.06689052560045
 21
-3.500000000035533
 31
0.0
  0
LINE
  5
1382C
330
1F
100
AcDbEntity
  8
0
 48
0.27
100
AcDbLine
 10
75.57129014967904
 20
5.899999999964661
 30
0.0
 11
80.07129014967905
 21
5.899999999964661
 31
0.0
  0
LINE
  5
1382D
330
1F
100
AcDbEntity
  8
0
 48
0.27
100
AcDbLine
 10
74.07129014967882
 20
11.30439962404368
 30
0.0
 11
74.07129014967882
 21
6.199999999964447
 31
0.0
  0
LINE
  5
1382E
330
1F
100
AcDbEntity
  8
0
 48
0.27
100
AcDbLine
 10
75.57129014967904
 20
5.899999999964661
 30
0.0
 11
75.27129014967896
 21
6.199999999964447
 31
0.0
  0
LINE
  5
1382F
330
1F
100
AcDbEntity
  8
0
 48
0.27
100
AcDbLine
 10
74.07129014967882
 20
11.30439962404368
 30
0.0
 11
73.9583602199873
 21
11.49999999996446
 31
0.0
  0
LINE
  5
13830
330
1F
100
AcDbEntity
  8
0
 48
0.27
100
AcDbLine
 10
217.8215981909248
 20
-2.800048830035457
 30
0.0
 11
91.41016912345957
 21
-2.800048830035457
 31
0.0
  0
LINE
  5
13831
330
1F
100
AcDbEntity
  8
建構線
 48
0.27
100
AcDbLine
 10
91.32252068874777
 20
6.049831080258329
 30
0.0
 11
90.72424684574345
 21
2.169272852258739
 31
0.0
  0
LINE
  5
13832
330
1F
100
AcDbEntity
  8
建構線
 48
0.27
100
AcDbLine
 10
91.17295222799658
 20
-2.014945839121486
 30
0.0
 11
91.62165761025006
 21
-3.500000000035533
 31
0.0
  0
LINE
  5
13833
330
1F
100
AcDbEntity
  8
建構線
 48
0.27
100
AcDbLine
 10
91.99558029227182
 20
0.6749091527839717
 30
0.0
 11
91.17295222799658
 21
-2.014945839121486
 31
0.0
  0
LINE
  5
13834
330
1F
100
AcDbEntity
  8
建構線
 48
0.27
100
AcDbLine
 10
90.72424684574345
 20
2.169272852258739
 30
0.0
 11
91.99558029227182
 21
0.6749091527839717
 31
0.0
  0
LINE
  5
13835
330
1F
100
AcDbEntity
  8
0
 48
0.27
100
AcDbLine
 10
81.57129014967916
 20
11.30439962404368
 30
0.0
 11
81.57129014967916
 21
6.199999999964447
 31
0.0
  0
LINE
  5
13836
330
1F
100
AcDbEntity
  8
0
 48
0.27
100
AcDbLine
 10
81.57129014967916
 20
11.30439962404368
 30
0.0
 11
81.68422007937067
 21
11.49999999996446
 31
0.0
  0
LINE
  5
13837
330
1F
100
AcDbEntity
  8
建構線
 48
0.27
100
AcDbLine
 10
90.35032416372157
 20
8.370882579536141
 30
0.0
 11
91.32252068874777
 21
6.049831080258329
 31
0.0
  0
LINE
  5
13838
330
1F
100
AcDbEntity
  8
建構線
 48
0.27
100
AcDbLine
 10
91.17295222799658
 20
11.49999999996446
 30
0.0
 11
90.35032416372157
 21
8.370882579536141
 31
0.0
  0
LINE
  5
13839
330
1F
100
AcDbEntity
  8
虛線
 48
0.27
100
AcDbLine
 10
135.5712901496791
 20
0.7999999999999599
 30
0.0
 11
135.5712901496791
 21
-2.995600375956438
 31
0.0
  0
LINE
  5
1383A
330
1F
100
AcDbEntity
  8
虛線
 48
0.27
100
AcDbLine
 10
140.0712901496791
 20
0.7999999999999599
 30
0.0
 11
140.0712901496791
 21
-2.995600375956438
 31
0.0
  0
LINE
  5
1383B
330
1F
100
AcDbEntity
  8
中心線
 48
0.27
100
AcDbLine
 10
137.8215981909247
 20
1.495261818933534
 30
0.0
 11
137.8215981909247
 21
-4.500000000035476
 31
0.0
  0
LINE
  5
1383C
330
1F
100
AcDbEntity
  8
虛線
 48
0.27
100
AcDbLine
 10
135.5712901496791
 20
-2.995600375956438
 30
0.0
 11
140.0712901496791
 21
-2.995600375956438
 31
0.0
  0
LINE
  5
1383D
330
1F
100
AcDbEntity
  8
虛線
 48
0.27
100
AcDbLine
 10
135.5712901496791
 20
-2.995600375956438
 30
0.0
 11
135.0668905256007
 21
-3.500000000035533
 31
0.0
  0
LINE
  5
1383E
330
1F
100
AcDbEntity
  8
虛線
 48
0.27
100
AcDbLine
 10
140.0712901496791
 20
-2.995600375956438
 30
0.0
 11
140.5756897737583
 21
-3.500000000035533
 31
0.0
  0
LINE
  5
13864
330
1F
100
AcDbEntity
  8
0
 48
0.27
100
AcDbLine
 10
217.8215981909248
 20
11.49999999996446
 30
0.0
 11
217.8215981909248
 21
-3.500000000035533
 31
0.0
  0
LINE
  5
13865
330
1F
100
AcDbEntity
  8
中心線
 48
0.27
100
AcDbLine
 10
197.8212901496796
 20
12.59999999996454
 30
0.0
 11
197.8212901496796
 21
-4.500000000035476
 31
0.0
  0
LINE
  5
13866
330
1F
100
AcDbEntity
  8
虛線
 48
0.27
100
AcDbLine
 10
200.0712901496796
 20
5.899999999964661
 30
0.0
 11
200.0712901496796
 21
-2.995600375956438
 31
0.0
  0
LINE
  5
13867
330
1F
100
AcDbEntity
  8
虛線
 48
0.27
100
AcDbLine
 10
195.5712901496796
 20
5.899999999964661
 30
0.0
 11
195.5712901496796
 21
-2.995600375956438
 31
0.0
  0
LINE
  5
13868
330
1F
100
AcDbEntity
  8
虛線
 48
0.27
100
AcDbLine
 10
195.5712901496796
 20
-2.995600375956438
 30
0.0
 11
195.0668905256008
 21
-3.500000000035477
 31
0.0
  0
LINE
  5
13869
330
1F
100
AcDbEntity
  8
虛線
 48
0.27
100
AcDbLine
 10
200.0712901496796
 20
-2.995600375956438
 30
0.0
 11
200.5756897737588
 21
-3.500000000035533
 31
0.0
  0
LINE
  5
1386A
330
1F
100
AcDbEntity
  8
虛線
 48
0.27
100
AcDbLine
 10
195.5712901496796
 20
-2.995600375956438
 30
0.0
 11
200.0712901496796
 21
-2.995600375956438
 31
0.0
  0
LINE
  5
1386B
330
1F
100
AcDbEntity
  8
虛線
 48
0.27
100
AcDbLine
 10
195.5712901496796
 20
5.899999999964661
 30
0.0
 11
195.2712901496797
 21
6.199999999964447
 31
0.0
  0
LINE
  5
1386C
330
1F
100
AcDbEntity
  8
虛線
 48
0.27
100
AcDbLine
 10
194.0712901496788
 20
6.199999999964447
 30
0.0
 11
201.5712901496795
 21
6.199999999964447
 31
0.0
  0
LINE
  5
1386D
330
1F
100
AcDbEntity
  8
虛線
 48
0.27
100
AcDbLine
 10
194.0712901496788
 20
11.30439962404368
 30
0.0
 11
201.5712901496795
 21
11.30439962404368
 31
0.0
  0
LINE
  5
1386E
330
1F
100
AcDbEntity
  8
虛線
 48
0.27
100
AcDbLine
 10
194.0712901496788
 20
11.30439962404368
 30
0.0
 11
194.0712901496788
 21
6.199999999964447
 31
0.0
  0
LINE
  5
1386F
330
1F
100
AcDbEntity
  8
虛線
 48
0.27
100
AcDbLine
 10
194.0712901496788
 20
11.30439962404368
 30
0.0
 11
193.9583602199879
 21
11.49999999996446
 31
0.0
  0
LINE
  5
13870
330
1F
100
AcDbEntity
  8
虛線
 48
0.27
100
AcDbLine
 10
201.5712901496795
 20
11.30439962404368
 30
0.0
 11
201.5712901496795
 21
6.199999999964447
 31
0.0
  0
LINE
  5
13871
330
1F
100
AcDbEntity
  8
虛線
 48
0.27
100
AcDbLine
 10
200.0712901496796
 20
5.899999999964661
 30
0.0
 11
200.3712901496796
 21
6.199999999964447
 31
0.0
  0
LINE
  5
13872
330
1F
100
AcDbEntity
  8
虛線
 48
0.27
100
AcDbLine
 10
195.5712901496796
 20
5.899999999964661
 30
0.0
 11
200.0712901496796
 21
5.899999999964661
 31
0.0
  0
LINE
  5
13873
330
1F
100
AcDbEntity
  8
虛線
 48
0.27
100
AcDbLine
 10
201.5712901496795
 20
11.30439962404368
 30
0.0
 11
201.6842200793713
 21
11.49999999996446
 31
0.0
  0
LINE
  5
13874
330
1F
100
AcDbEntity
  8
0
 48
0.27
100
AcDbLine
 10
107.0708658310688
 20
11.12673806342665
 30
0.0
 11
91.07482368148788
 21
11.12673806342663
 31
0.0
  0
LINE
  5
13875
330
1F
100
AcDbEntity
  8
0
 48
0.27
100
AcDbLine
 10
107.0708658094378
 20
11.49999999996446
 30
0.0
 11
57.82159819092476
 21
11.49999999996446
 31
0.0
  0
LINE
  5
13876
330
1F
100
AcDbEntity
  8
0
 48
0.27
100
AcDbLine
 10
107.070865842321
 20
8.949454443470855
 30
0.0
 11
90.50242758092329
 21
8.949454443470862
 31
0.0
  0
LINE
  5
13877
330
1F
100
AcDbEntity
  8
0
 48
0.27
100
AcDbLine
 10
107.070865842321
 20
7.609345046300219
 30
0.0
 11
90.66930206822709
 21
7.609345046300219
 31
0.0
  0
LINE
  5
13878
330
1F
100
AcDbEntity
  8
0
 48
0.27
100
AcDbLine
 10
107.070865842321
 20
6.638483419949317
 30
0.0
 11
91.0759575430036
 21
6.638483419949286
 31
0.0
  0
LINE
  5
13879
330
1F
100
AcDbEntity
  8
0
 48
0.27
100
AcDbLine
 10
107.070865842321
 20
5.429045078543692
 30
0.0
 11
91.22681280212223
 21
5.429045078543692
 31
0.0
  0
LINE
  5
1387A
330
1F
100
AcDbEntity
  8
0
 48
0.27
100
AcDbLine
 10
107.070865842321
 20
4.909149261688511
 30
0.0
 11
91.14665936799324
 21
4.909149261688511
 31
0.0
  0
LINE
  5
1387B
330
1F
100
AcDbEntity
  8
0
 48
0.27
100
AcDbLine
 10
107.070865842321
 20
2.899653019013608
 30
0.0
 11
90.836835773538
 21
2.899553634618888
 31
0.0
  0
MTEXT
  5
1387F
330
1F
100
AcDbEntity
  8
0
100
AcDbMText
 10
-16.177099919236
 20
-17.77536289469323
 30
0.0
 40
7.449612372967187
 41
70.3632
 71
     1
 72
     5
  3
\A1;{\fTimes New Roman|b0|i0|c0|p18;HG\fTimes New Roman|b0|i0|c238|p18;L\fTimes New Roman|b0|i0|c0|p18;15CA\PC\f???|b0|i0|c0|p65; \fTimes New Roman|b0|i0|c0|p18;: 1160 kgf\PC\f@\U+FFBC\U+FFD0\U+FFB7\U+FFA2\U+FFC5\U+FFE9|b0|i0|c136|p65;\H0.7x;\S^ 0; \f
  1
Times New Roman|b0|i0|c0|p18;\H1.429x;: 2581 kgf}
  7
型式2
 73
     1
 44
1.0
1001
ACAD
1000
MTEXTBEGIN
1070
    73
1070
     1
1070
    44
1040
1.0
1070
    74
1070
     0
1000
MTEXTEND
  0
LINE
  5
1399A
330
1F
100
AcDbEntity
  8
中心線
 48
0.27
100
AcDbLine
 10
113.0462756716978
 20
16.00000000000009
 30
0.0
 11
99.92086584232081
 21
16.00000000000009
 31
0.0
  0
ARC
  5
1399B
330
1F
100
AcDbEntity
  8
0
 48
0.27
100
AcDbCircle
 10
-104.570865765592
 20
35.23347686392492
 30
0.6323677910580319
 40
1.658312395177669
210
-0.0000000000000001
220
0.8660254037844374
230
-0.5000000000000025
100
AcDbArc
 50
299.4962084965612
 51
60.50379150343133
  0
ARC
  5
1399C
330
1F
100
AcDbEntity
  8
0
 48
0.27
100
AcDbCircle
 10
104.5708657655928
 20
-37.39854037338537
 30
5.617632208941436
 40
1.658312395177813
210
0.0000000000000001
220
-0.8660254037844396
230
-0.4999999999999981
100
AcDbArc
 50
119.4962084965724
 51
240.5037915034295
  0
ARC
  5
1399D
330
1F
100
AcDbEntity
  8
0
 48
0.27
100
AcDbCircle
 10
104.5708657655924
 20
15.99932149409279
 30
-2.499999999999928
 40
1.658312395177744
100
AcDbArc
 50
119.4962084965744
 51
240.5037915034333
  0
LINE
  5
1399E
330
1F
100
AcDbEntity
  8
0
 48
0.27
100
AcDbLine
 10
103.754369261393
 20
18.88675134594821
 30
0.0
 11
108.5708658423207
 21
18.88675134594821
 31
0.0
  0
LINE
  5
1399F
330
1F
100
AcDbEntity
  8
0
 48
0.27
100
AcDbLine
 10
103.754369261393
 20
13.11324865405195
 30
0.0
 11
108.0075014527551
 21
13.11324865405195
 31
0.0
  0
ARC
  5
139A0
330
1F
100
AcDbEntity
  8
0
 48
0.27
100
AcDbCircle
 10
104.5708657655924
 20
15.99932149409279
 30
0.0
 40
2.999999999999998
100
AcDbArc
 50
179.9870414916012
 51
254.2068309517419
  0
ARC
  5
139A1
330
1F
100
AcDbEntity
  8
0
 48
0.27
100
AcDbCircle
 10
101.6708658423208
 20
16.00000000000009
 30
0.0
 40
0.25
100
AcDbArc
 50
111.3333270897199
 51
248.66667291028
  0
ARC
  5
139A2
330
1F
100
AcDbEntity
  8
0
 48
0.27
100
AcDbCircle
 10
104.5708657655924
 20
15.99932149409279
 30
0.0
 40
2.999999999999998
100
AcDbArc
 50
105.7931690482683
 51
179.9870414916012
  0
LINE
  5
139A3
330
1F
100
AcDbEntity
  8
0
 48
0.27
100
AcDbLine
 10
108.5708658423207
 20
18.88675134594824
 30
0.0
 11
108.5708658423207
 21
13.11324865405195
 31
0.0
  0
LINE
  5
139A4
330
1F
100
AcDbEntity
  8
0
 48
0.27
100
AcDbLine
 10
108.5708658423207
 20
17.44269716706678
 30
2.499999999999928
 11
103.7543691846644
 21
17.44269716706678
 31
2.499999999999928
  0
LINE
  5
139A5
330
1F
100
AcDbEntity
  8
0
 48
0.27
100
AcDbLine
 10
108.5708658423207
 20
14.55594582111866
 30
2.49999999999996
 11
103.7543691846647
 21
14.55594582111866
 31
2.49999999999996
  0
LINE
  5
139FE
330
1F
100
AcDbEntity
  8
0
100
AcDbLine
 10
157.4708658436234
 20
66.74146780011231
 30
0.0
 11
157.4708658436234
 21
100.7414678001123
 31
0.0
  0
LINE
  5
139FF
330
1F
100
AcDbEntity
  8
中心線
100
AcDbLine
 10
137.7708658436235
 20
65.74146780011232
 30
0.0
 11
137.7708658436235
 21
101.7414678001123
 31
0.0
  0
LINE
  5
13A00
330
1F
100
AcDbEntity
  8
0
100
AcDbLine
 10
118.0708658436235
 20
66.74146780011231
 30
0.0
 11
118.0708658436235
 21
100.7414678001123
 31
0.0
  0
LINE
  5
13A01
330
1F
100
AcDbEntity
  8
0
100
AcDbLine
 10
157.4708658436234
 20
99.74146780011231
 30
0.0
 11
118.0708658436235
 21
99.74146780011231
 31
0.0
  0
LINE
  5
13A02
330
1F
100
AcDbEntity
  8
0
100
AcDbLine
 10
157.4708658436234
 20
100.7414678001123
 30
0.0
 11
118.0708658436235
 21
100.7414678001123
 31
0.0
  0
LINE
  5
13A03
330
1F
100
AcDbEntity
  8
0
100
AcDbLine
 10
157.4708658436234
 20
92.79146780011215
 30
0.0
 11
118.0708658436235
 21
92.79146780011215
 31
0.0
  0
LINE
  5
13A04
330
1F
100
AcDbEntity
  8
0
100
AcDbLine
 10
157.4708658436234
 20
92.29146780011216
 30
0.0
 11
118.0708658436235
 21
92.29146780011216
 31
0.0
  0
LINE
  5
13A05
330
1F
100
AcDbEntity
  8
0
100
AcDbLine
 10
157.4708658436234
 20
86.69146780011201
 30
0.0
 11
118.0708658436235
 21
86.69146780011201
 31
0.0
  0
LINE
  5
13A06
330
1F
100
AcDbEntity
  8
0
100
AcDbLine
 10
157.4708658436234
 20
87.19146780011191
 30
0.0
 11
118.0708658436235
 21
87.19146780011202
 31
0.0
  0
LINE
  5
13A07
330
1F
100
AcDbEntity
  8
中心線
100
AcDbLine
 10
98.77427615496504
 20
83.74146780011221
 30
0.0
 11
168.5682473870458
 21
83.74146780011232
 31
0.0
  0
INSERT
  5
13A08
330
1F
100
AcDbEntity
  8
0
100
AcDbBlockReference
  2
A$C031D26F0
 10
124.7708658436235
 20
96.74146780011231
 30
0.0
 50
270.0
  0
INSERT
  5
13A09
330
1F
100
AcDbEntity
  8
0
100
AcDbBlockReference
  2
A$C031D26F0
 10
150.7708658436235
 20
96.74146780011231
 30
0.0
 50
270.0
  0
LINE
  5
13A0A
330
1F
100
AcDbEntity
  8
0
100
AcDbLine
 10
157.4708658436234
 20
80.79146780011239
 30
0.0
 11
118.0708658436235
 21
80.79146780011239
 31
0.0
  0
LINE
  5
13A0B
330
1F
100
AcDbEntity
  8
0
100
AcDbLine
 10
157.4708658436234
 20
80.29146780011227
 30
0.0
 11
118.0708658436235
 21
80.29146780011236
 31
0.0
  0
LINE
  5
13A0C
330
1F
100
AcDbEntity
  8
0
100
AcDbLine
 10
157.4708658436234
 20
74.69146780011215
 30
0.0
 11
118.0708658436235
 21
74.69146780011226
 31
0.0
  0
LINE
  5
13A0D
330
1F
100
AcDbEntity
  8
0
100
AcDbLine
 10
157.4708658436234
 20
75.19146780011215
 30
0.0
 11
118.0708658436235
 21
75.19146780011226
 31
0.0
  0
LINE
  5
13A0E
330
1F
100
AcDbEntity
  8
0
100
AcDbLine
 10
157.4708658436234
 20
67.7414678001122
 30
0.0
 11
118.0708658436235
 21
67.74146780011232
 31
0.0
  0
LINE
  5
13A0F
330
1F
100
AcDbEntity
  8
0
100
AcDbLine
 10
157.4708658436234
 20
66.74146780011231
 30
0.0
 11
118.0708658436235
 21
66.74146780011231
 31
0.0
  0
INSERT
  5
13A10
330
1F
100
AcDbEntity
  8
0
100
AcDbBlockReference
  2
A$C031D26F0
 10
124.7708658436235
 20
70.74146780011232
 30
0.0
 50
270.0
  0
INSERT
  5
13A11
330
1F
100
AcDbEntity
  8
0
100
AcDbBlockReference
  2
A$C031D26F0
 10
150.7708658436235
 20
70.74146780011232
 30
0.0
 50
270.0
  0
LINE
  5
13A14
330
1F
100
AcDbEntity
  8
0
 48
0.27
100
AcDbLine
 10
217.8215981909247
 20
76.24146780011219
 30
0.0
 11
168.4708658449259
 21
76.24146780011219
 31
0.0
  0
LINE
  5
13A15
330
1F
100
AcDbEntity
  8
0
 48
0.27
100
AcDbLine
 10
217.8215981909247
 20
91.24146780011221
 30
0.0
 11
168.4708658449259
 21
91.24146780011214
 31
0.0
  0
LINE
  5
13A16
330
1F
100
AcDbEntity
  8
0
 48
0.27
100
AcDbLine
 10
107.0708658423485
 20
76.24146780011217
 30
0.0
 11
57.82159819092474
 21
76.24146780011219
 31
0.0
  0
LINE
  5
13A17
330
1F
100
AcDbEntity
  8
0
 48
0.27
100
AcDbLine
 10
107.070865842321
 20
91.24146780011214
 30
0.0
 11
57.82159819092476
 21
91.24146780011221
 31
0.0
  0
LINE
  5
13A18
330
1F
100
AcDbEntity
  8
0
100
AcDbLine
 10
107.070865842321
 20
0.7999999999999599
 30
0.0
 11
107.070865842321
 21
10.91980573360007
 31
0.0
  0
LINE
  5
13A19
330
1F
100
AcDbEntity
  8
0
100
AcDbLine
 10
108.5708658423208
 20
0.7999999999999599
 30
0.0
 11
108.5708658423207
 21
19.49999999999999
 31
0.0
  0
LINE
  5
13A1A
330
1F
100
AcDbEntity
  8
0
100
AcDbLine
 10
110.0708658423207
 20
19.4999999999352
 30
0.0
 11
110.0708658423207
 21
0.7999999999999599
 31
0.0
  0
LINE
  5
13A1D
330
1F
100
AcDbEntity
  8
0
100
AcDbLine
 10
107.070865842321
 20
12.57000000000028
 30
0.0
 11
108.5708658423207
 21
13.44
 31
0.0
  0
LINE
  5
13A1E
330
1F
100
AcDbEntity
  8
0
100
AcDbLine
 10
107.070865842321
 20
10.93241362210001
 30
0.0
 11
107.0708657474208
 21
12.570000203
 31
0.0
  0
LINE
  5
13A1F
330
1F
100
AcDbEntity
  8
0
100
AcDbLine
 10
110.0708658423207
 20
18.50000000000013
 30
0.0
 11
108.5708658423207
 21
18.50000000000013
 31
0.0
  0
LINE
  5
13A20
330
1F
100
AcDbEntity
  8
0
100
AcDbLine
 10
110.0708658423207
 20
19.49999999999999
 30
0.0
 11
108.5708658423207
 21
19.49999999999999
 31
0.0
  0
INSERT
  5
13A21
330
1F
100
AcDbEntity
  8
0
100
AcDbBlockReference
  2
I1
 10
108.5708658423207
 20
11.00000000000002
 30
0.0
  0
LINE
  5
13A22
330
1F
100
AcDbEntity
  8
0
100
AcDbLine
 10
110.0708658423208
 20
99.94146780011231
 30
0.0
 11
110.0708658423208
 21
67.54146780011232
 31
0.0
  0
LINE
  5
13A23
330
1F
100
AcDbEntity
  8
0
100
AcDbLine
 10
108.5708658423207
 20
67.54146780011232
 30
0.0
 11
108.5708658423207
 21
99.94146780011231
 31
0.0
  0
LINE
  5
13A24
330
1F
100
AcDbEntity
  8
0
100
AcDbLine
 10
166.9708658449262
 20
67.54146780011232
 30
0.0
 11
166.9708658449262
 21
99.94146780011231
 31
0.0
  0
LINE
  5
13A25
330
1F
100
AcDbEntity
  8
0
100
AcDbLine
 10
165.4708658449262
 20
99.94146780011231
 30
0.0
 11
165.4708658449262
 21
67.54146780011232
 31
0.0
  0
ARC
  5
13A26
330
1F
100
AcDbEntity
  8
0
 48
0.27
100
AcDbCircle
 10
104.5708657655928
 20
-71.26927427344134
 30
-53.04819979560138
 40
1.658312395177813
210
0.0000000000000001
220
-0.8660254037844396
230
-0.4999999999999981
100
AcDbArc
 50
119.4962084965724
 51
240.5037915034295
  0
ARC
  5
13A27
330
1F
100
AcDbEntity
  8
0
 48
0.27
100
AcDbCircle
 10
104.5708657655924
 20
83.74078929420504
 30
-2.499999999999928
 40
1.658312395177744
100
AcDbArc
 50
119.4962084965744
 51
240.5037915034333
  0
LINE
  5
13A28
330
1F
100
AcDbEntity
  8
0
 48
0.27
100
AcDbLine
 10
103.754369261393
 20
80.85471645416419
 30
0.0
 11
108.5708658423207
 21
80.85471645416419
 31
0.0
  0
LINE
  5
13A29
330
1F
100
AcDbEntity
  8
0
 48
0.27
100
AcDbLine
 10
103.754369261393
 20
86.62821914606045
 30
0.0
 11
108.5708658423207
 21
86.62821914606045
 31
0.0
  0
ARC
  5
13A2B
330
1F
100
AcDbEntity
  8
0
 48
0.27
100
AcDbCircle
 10
104.5708657655924
 20
83.74078929420504
 30
0.0
 40
2.999999999999998
100
AcDbArc
 50
105.7931690482683
 51
179.9870414916012
  0
ARC
  5
13A2C
330
1F
100
AcDbEntity
  8
0
 48
0.27
100
AcDbCircle
 10
104.5708657655924
 20
83.74078929420504
 30
0.0
 40
2.999999999999998
100
AcDbArc
 50
179.9870414916012
 51
254.2068309517419
  0
ARC
  5
13A2E
330
1F
100
AcDbEntity
  8
0
 48
0.27
100
AcDbCircle
 10
101.6708658423208
 20
83.74146780011232
 30
0.0
 40
0.25
100
AcDbArc
 50
111.3333270897199
 51
248.66667291028
  0
LINE
  5
13A2F
330
1F
100
AcDbEntity
  8
0
 48
0.27
100
AcDbLine
 10
108.5708658423207
 20
82.29741362123091
 30
2.49999999999996
 11
103.7543691846646
 21
82.29741362123091
 31
2.49999999999996
  0
LINE
  5
13A30
330
1F
100
AcDbEntity
  8
0
 48
0.27
100
AcDbLine
 10
108.5708658423207
 20
85.18416496717902
 30
2.499999999999928
 11
103.7543691846644
 21
85.18416496717902
 31
2.499999999999928
  0
ARC
  5
13A31
330
1F
100
AcDbEntity
  8
0
 48
0.27
100
AcDbCircle
 10
-104.570865765592
 20
69.10421076398119
 30
59.29819979560068
 40
1.658312395177669
210
-0.0000000000000001
220
0.8660254037844374
230
-0.5000000000000025
100
AcDbArc
 50
299.4962084965612
 51
60.50379150343133
  0
INSERT
  5
13A32
330
1F
100
AcDbEntity
  8
0
100
AcDbBlockReference
  2
I1
 10
108.5708658423207
 20
70.49146780011231
 30
0.0
  0
INSERT
  5
13A36
330
1F
100
AcDbEntity
  8
0
100
AcDbBlockReference
  2
I1
 10
108.5708658423202
 20
96.99146780011117
 30
0.0
 41
-1.0
 50
180.0000000000023
  0
INSERT
  5
13A37
330
1F
100
AcDbEntity
  8
0
100
AcDbBlockReference
  2
I1
 10
166.9708658449262
 20
70.49146780011231
 30
0.0
 41
-1.0
  0
INSERT
  5
13A38
330
1F
100
AcDbEntity
  8
0
100
AcDbBlockReference
  2
I1
 10
166.9708658449267
 20
96.99146780011117
 30
0.0
 50
179.9999999999977
  0
LINE
  5
13A39
330
1F
100
AcDbEntity
  8
中心線
 48
0.27
100
AcDbLine
 10
77.82159819092477
 20
89.21533502754227
 30
0.0
 11
77.82159819092477
 21
78.26760057268211
 31
0.0
  0
LINE
  5
13A3A
330
1F
100
AcDbEntity
  8
中心線
 48
0.27
100
AcDbLine
 10
83.29546541835481
 20
83.74146780011221
 30
0.0
 11
72.3477309634947
 21
83.74146780011221
 31
0.0
  0
CIRCLE
  5
13A3B
330
1F
100
AcDbEntity
  8
0
100
AcDbCircle
 10
77.82159819092477
 20
83.74146780011219
 30
0.0
 40
3.75
  0
CIRCLE
  5
13A3C
330
1F
100
AcDbEntity
  8
0
100
AcDbCircle
 10
77.82159819092477
 20
83.74146780011219
 30
0.0
 40
2.25
  0
CIRCLE
  5
13A3D
330
1F
100
AcDbEntity
  8
0
100
AcDbCircle
 10
197.8215981909248
 20
83.74146780011219
 30
0.0
 40
2.25
  0
LINE
  5
13A3E
330
1F
100
AcDbEntity
  8
中心線
 48
0.27
100
AcDbLine
 10
197.8215981909248
 20
89.21533502754227
 30
0.0
 11
197.8215981909248
 21
78.26760057268211
 31
0.0
  0
CIRCLE
  5
13A3F
330
1F
100
AcDbEntity
  8
0
100
AcDbCircle
 10
197.8215981909248
 20
83.74146780011219
 30
0.0
 40
3.75
  0
LINE
  5
13A40
330
1F
100
AcDbEntity
  8
中心線
 48
0.27
100
AcDbLine
 10
203.2954654183549
 20
83.74146780011221
 30
0.0
 11
192.3477309634947
 21
83.74146780011221
 31
0.0
  0
LINE
  5
13A7D
330
1F
100
AcDbEntity
  8
0
100
AcDbLine
 10
57.82159819092476
 20
91.24146780011221
 30
0.0
 11
57.82159819092476
 21
76.24146780011219
 31
0.0
  0
LINE
  5
13A83
330
1F
100
AcDbEntity
  8
0
100
AcDbLine
 10
217.8215981909247
 20
91.24146780011221
 30
0.0
 11
217.8215981909247
 21
76.24146780011219
 31
0.0
  0
LINE
  5
13AA7
330
1F
100
AcDbEntity
  8
0
100
AcDbLine
 10
108.5708658423207
 20
99.94146780011231
 30
0.0
 11
118.0708658436235
 21
99.94146780011231
 31
0.0
  0
LINE
  5
13AA8
330
1F
100
AcDbEntity
  8
0
100
AcDbLine
 10
108.5708658423207
 20
67.54146780011232
 30
0.0
 11
118.0708658436235
 21
67.54146780011232
 31
0.0
  0
LINE
  5
13AA9
330
1F
100
AcDbEntity
  8
0
100
AcDbLine
 10
166.9708658449262
 20
67.54146780011232
 30
0.0
 11
157.4708658436234
 21
67.54146780011232
 31
0.0
  0
LINE
  5
13AAA
330
1F
100
AcDbEntity
  8
0
100
AcDbLine
 10
166.9708658449262
 20
99.94146780011231
 30
0.0
 11
157.4708658436234
 21
99.94146780011231
 31
0.0
  0
LINE
  5
13B45
330
1F
100
AcDbEntity
  8
0
 48
0.27
100
AcDbLine
 10
157.4708658436237
 20
0.7999999999999598
 30
0.0
 11
157.4708658436237
 21
20.49999999999998
 31
0.0
  0
LINE
  5
13B46
330
1F
100
AcDbEntity
  8
0
 48
0.27
100
AcDbLine
 10
118.0708658436232
 20
20.49999999999998
 30
0.0
 11
118.0708658436232
 21
0.7999999999999598
 31
0.0
  0
LINE
  5
13B49
330
1F
100
AcDbEntity
  8
0
 48
0.27
100
AcDbLine
 10
110.0708658423207
 20
19.4999999999352
 30
0.0
 11
110.0708658423207
 21
0.7999999999999599
 31
0.0
  0
CIRCLE
  5
13B4C
330
1F
100
AcDbEntity
  8
0
 48
0.27
100
AcDbCircle
 10
113.2208658437861
 20
14.99999999856721
 30
0.0
 40
1.899999999674358
  0
LINE
  5
13B4D
330
1F
100
AcDbEntity
  8
中心線
 48
0.27
100
AcDbLine
 10
113.2208658437861
 20
17.33995531566791
 30
0.0
 11
113.2208658437861
 21
12.66004468146639
 31
0.0
  0
LINE
  5
13B4E
330
1F
100
AcDbEntity
  8
中心線
 48
0.27
100
AcDbLine
 10
110.8809105266854
 20
14.99999999856721
 30
0.0
 11
115.5608211608872
 21
14.99999999856721
 31
0.0
  0
CIRCLE
  5
13B4F
330
1F
100
AcDbEntity
  8
0
 48
0.27
100
AcDbCircle
 10
113.2208658437861
 20
14.99999999856721
 30
0.0
 40
1.571452208743
  0
CIRCLE
  5
13B50
330
1F
100
AcDbEntity
  8
0
 48
0.27
100
AcDbCircle
 10
113.2208658437861
 20
14.99999999856721
 30
0.0
 40
1.645636899076534
  0
CIRCLE
  5
13B51
330
1F
100
AcDbEntity
  8
0
 48
0.27
100
AcDbCircle
 10
113.2208658437861
 20
14.99999999856721
 30
0.0
 40
0.7500000010746155
  0
LINE
  5
13B52
330
1F
100
AcDbEntity
  8
0
 48
0.27
100
AcDbLine
 10
110.0708658423207
 20
19.4999999999352
 30
0.0
 11
118.0708658423205
 21
19.4999999999352
 31
0.0
  0
LINE
  5
13B53
330
1F
100
AcDbEntity
  8
0
 48
0.27
100
AcDbLine
 10
110.0708658423207
 20
18.49999999850223
 30
0.0
 11
118.0708658436232
 21
18.49999999850223
 31
0.0
  0
LINE
  5
13B58
330
1F
100
AcDbEntity
  8
0
 48
0.27
100
AcDbLine
 10
165.4708658449262
 20
19.4999999999352
 30
0.0
 11
165.4708658449262
 21
0.7999999999999599
 31
0.0
  0
LINE
  5
13B5B
330
1F
100
AcDbEntity
  8
0
 48
0.27
100
AcDbLine
 10
165.4708658449262
 20
18.49999999850223
 30
0.0
 11
157.4708658436237
 21
18.49999999850223
 31
0.0
  0
LINE
  5
13B5C
330
1F
100
AcDbEntity
  8
0
 48
0.27
100
AcDbLine
 10
165.4708658449262
 20
19.4999999999352
 30
0.0
 11
157.4708658449264
 21
19.4999999999352
 31
0.0
  0
LINE
  5
13B61
330
1F
100
AcDbEntity
  8
中心線
 48
0.27
100
AcDbLine
 10
162.3208658434607
 20
17.33995531566791
 30
0.0
 11
162.3208658434607
 21
12.66004468146639
 31
0.0
  0
CIRCLE
  5
13B62
330
1F
100
AcDbEntity
  8
0
 48
0.27
100
AcDbCircle
 10
162.3208658434607
 20
14.99999999856721
 30
0.0
 40
1.899999999674358
  0
CIRCLE
  5
13B63
330
1F
100
AcDbEntity
  8
0
 48
0.27
100
AcDbCircle
 10
162.3208658434607
 20
14.99999999856721
 30
0.0
 40
1.645636899076534
  0
CIRCLE
  5
13B64
330
1F
100
AcDbEntity
  8
0
 48
0.27
100
AcDbCircle
 10
162.3208658434607
 20
14.99999999856721
 30
0.0
 40
1.571452208743
  0
CIRCLE
  5
13B65
330
1F
100
AcDbEntity
  8
0
 48
0.27
100
AcDbCircle
 10
162.3208658434607
 20
14.99999999856721
 30
0.0
 40
0.7500000010746155
  0
LINE
  5
13B66
330
1F
100
AcDbEntity
  8
中心線
 48
0.27
100
AcDbLine
 10
164.6608211605614
 20
14.99999999856721
 30
0.0
 11
159.9809105263596
 21
14.99999999856721
 31
0.0
  0
LINE
  5
13B67
330
1F
100
AcDbEntity
  8
0
 48
0.27
100
AcDbLine
 10
118.0708658436232
 20
19.50000000000001
 30
0.0
 11
157.4708658436237
 21
19.5
 31
0.0
  0
LINE
  5
13B68
330
1F
100
AcDbEntity
  8
0
 48
0.27
100
AcDbLine
 10
118.0708658436232
 20
20.49999999999998
 30
0.0
 11
157.4708658436237
 21
20.49999999999998
 31
0.0
  0
LINE
  5
13B6F
330
1F
100
AcDbEntity
  8
0
100
AcDbLine
 10
168.4708658449259
 20
0.7999999999999599
 30
0.0
 11
168.4708658449259
 21
10.91980573360006
 31
0.0
  0
LINE
  5
13B70
330
1F
100
AcDbEntity
  8
0
100
AcDbLine
 10
166.9708658449262
 20
0.7999999999999599
 30
0.0
 11
166.9708658449262
 21
19.49999999999998
 31
0.0
  0
LINE
  5
13B71
330
1F
100
AcDbEntity
  8
0
100
AcDbLine
 10
165.4708658449262
 20
19.49999999993519
 30
0.0
 11
165.4708658449262
 21
0.7999999999999599
 31
0.0
  0
LINE
  5
13B74
330
1F
100
AcDbEntity
  8
0
100
AcDbLine
 10
168.4708658449259
 20
12.57000000000026
 30
0.0
 11
166.9708658449262
 21
13.43999999999999
 31
0.0
  0
LINE
  5
13B75
330
1F
100
AcDbEntity
  8
0
100
AcDbLine
 10
168.4708658449259
 20
10.9324136221
 30
0.0
 11
168.4708659398261
 21
12.57000020299999
 31
0.0
  0
LINE
  5
13B76
330
1F
100
AcDbEntity
  8
0
100
AcDbLine
 10
165.4708658449262
 20
18.50000000000012
 30
0.0
 11
166.9708658449262
 21
18.50000000000012
 31
0.0
  0
LINE
  5
13B77
330
1F
100
AcDbEntity
  8
0
100
AcDbLine
 10
165.4708658449262
 20
19.49999999999998
 30
0.0
 11
166.9708658449262
 21
19.49999999999998
 31
0.0
  0
INSERT
  5
13B78
330
1F
100
AcDbEntity
  8
0
100
AcDbBlockReference
  2
I1
 10
-166.9708658449262
 20
11.00000000000001
 30
0.0
 43
-1.0
210
0.0
220
0.0
230
-1.0
  0
LINE
  5
13B7C
330
1F
100
AcDbEntity
  8
0
100
AcDbLine
 10
107.070865842321
 20
0.7999999999999599
 30
0.0
 11
168.4708658449259
 21
0.7999999999999599
 31
0.0
  0
LINE
  5
13B7E
330
1F
100
AcDbEntity
  8
0
100
AcDbLine
 10
108.5708658423207
 20
1.799999999999979
 30
0.0
 11
166.9708658449262
 21
1.799999999999979
 31
0.0
  0
LINE
  5
13EA5
330
1F
100
AcDbEntity
  8
0
100
AcDbLine
 10
107.070865842321
 20
88.69092402641241
 30
0.0
 11
108.5708658423207
 21
89.49450142231228
 31
0.0
  0
LINE
  5
13EA6
330
1F
100
AcDbEntity
  8
0
100
AcDbLine
 10
107.070865842321
 20
91.24146780007663
 30
0.0
 11
108.5708658423207
 21
93.18146780011229
 31
0.0
  0
LINE
  5
13EA7
330
1F
100
AcDbEntity
  8
0
100
AcDbLine
 10
107.070865842321
 20
86.62821914606045
 30
0.0
 11
107.070865842321
 21
91.24146780007663
 31
0.0
  0
LINE
  5
13EA8
330
1F
100
AcDbEntity
  8
0
100
AcDbLine
 10
107.070865842321
 20
78.792011573812
 30
0.0
 11
108.5708658423207
 21
77.98843417791212
 31
0.0
  0
LINE
  5
13EA9
330
1F
100
AcDbEntity
  8
0
100
AcDbLine
 10
107.070865842321
 20
76.24146780014775
 30
0.0
 11
108.5708658423207
 21
74.30146780011212
 31
0.0
  0
LINE
  5
13EAA
330
1F
100
AcDbEntity
  8
0
100
AcDbLine
 10
107.070865842321
 20
80.85471645416395
 30
0.0
 11
107.070865842321
 21
76.24146780014775
 31
0.0
  0
LINE
  5
13EB1
330
1F
100
AcDbEntity
  8
0
100
AcDbLine
 10
168.4708658449259
 20
88.69092402641241
 30
0.0
 11
166.9708658449261
 21
89.49450142231228
 31
0.0
  0
LINE
  5
13EB2
330
1F
100
AcDbEntity
  8
0
100
AcDbLine
 10
168.4708658449259
 20
91.24146780007663
 30
0.0
 11
166.9708658449261
 21
93.18146780011229
 31
0.0
  0
LINE
  5
13EB3
330
1F
100
AcDbEntity
  8
0
100
AcDbLine
 10
168.4708658449259
 20
86.62821914606045
 30
0.0
 11
168.4708658449259
 21
91.24146780007663
 31
0.0
  0
LINE
  5
13EB4
330
1F
100
AcDbEntity
  8
0
100
AcDbLine
 10
168.4708658449259
 20
78.792011573812
 30
0.0
 11
166.9708658449261
 21
77.98843417791212
 31
0.0
  0
LINE
  5
13EB5
330
1F
100
AcDbEntity
  8
0
100
AcDbLine
 10
168.4708658449259
 20
76.24146780014775
 30
0.0
 11
166.9708658449261
 21
74.30146780011212
 31
0.0
  0
LINE
  5
13EB6
330
1F
100
AcDbEntity
  8
0
100
AcDbLine
 10
168.4708658449259
 20
86.62821914606045
 30
0.0
 11
168.4708658449259
 21
76.24146780014775
 31
0.0
  0
LINE
  5
13F60
330
1F
100
AcDbEntity
  8
虛線
 48
0.27
100
AcDbLine
 10
14.99999999999988
 20
20.15
 30
0.0
 11
14.99999999999988
 21
16.49999999999998
 31
0.0
  0
LINE
  5
13F61
330
1F
100
AcDbEntity
  8
虛線
 48
0.27
100
AcDbLine
 10
10.99999999999988
 20
20.15
 30
0.0
 11
10.99999999999988
 21
16.49999999999998
 31
0.0
  0
LINE
  5
13F62
330
1F
100
AcDbEntity
  8
虛線
 48
0.27
100
AcDbLine
 10
11.25
 20
20.15
 30
0.0
 11
11.25
 21
14.89999999999998
 31
0.0
  0
LINE
  5
13F63
330
1F
100
AcDbEntity
  8
虛線
 48
0.27
100
AcDbLine
 10
14.75
 20
20.15
 30
0.0
 11
14.75
 21
14.89999999999998
 31
0.0
  0
LINE
  5
13F64
330
1F
100
AcDbEntity
  8
中心線
 48
0.27
100
AcDbLine
 10
13.0
 20
22.49999999999999
 30
0.0
 11
13.0
 21
12.73963702891813
 31
0.0
  0
LINE
  5
13F65
330
1F
100
AcDbEntity
  8
虛線
 48
0.27
100
AcDbLine
 10
11.25
 20
14.89999999999998
 30
0.0
 11
13.0
 21
13.88963702891812
 31
0.0
  0
LINE
  5
13F66
330
1F
100
AcDbEntity
  8
虛線
 48
0.27
100
AcDbLine
 10
11.25
 20
14.89999999999998
 30
0.0
 11
14.75
 21
14.89999999999998
 31
0.0
  0
LINE
  5
13F67
330
1F
100
AcDbEntity
  8
虛線
 48
0.27
100
AcDbLine
 10
14.75
 20
14.89999999999998
 30
0.0
 11
13.0
 21
13.88963702891812
 31
0.0
  0
LINE
  5
13F68
330
1F
100
AcDbEntity
  8
虛線
 48
0.27
100
AcDbLine
 10
10.99999999999988
 20
16.49999999999998
 30
0.0
 11
14.99999999999988
 21
16.49999999999998
 31
0.0
  0
LINE
  5
13F69
330
1F
100
AcDbEntity
  8
虛線
 48
0.27
100
AcDbLine
 10
10.64999999999986
 20
20.49999999999999
 30
0.0
 11
10.99999999999988
 21
20.15
 31
0.0
  0
LINE
  5
13F6A
330
1F
100
AcDbEntity
  8
虛線
 48
0.27
100
AcDbLine
 10
14.99999999999988
 20
20.15
 30
0.0
 11
15.34999999999968
 21
20.49999999999999
 31
0.0
  0
LINE
  5
13F6B
330
1F
100
AcDbEntity
  8
虛線
 48
0.27
100
AcDbLine
 10
10.99999999999988
 20
20.15
 30
0.0
 11
14.99999999999988
 21
20.15
 31
0.0
  0
LINE
  5
13F6C
330
1F
100
AcDbEntity
  8
虛線
 48
0.27
100
AcDbLine
 10
152.7708658436234
 20
20.15000000000001
 30
0.0
 11
152.7708658436234
 21
16.49999999999999
 31
0.0
  0
LINE
  5
13F6D
330
1F
100
AcDbEntity
  8
虛線
 48
0.27
100
AcDbLine
 10
148.7708658436234
 20
20.15000000000001
 30
0.0
 11
148.7708658436234
 21
16.49999999999999
 31
0.0
  0
LINE
  5
13F6E
330
1F
100
AcDbEntity
  8
虛線
 48
0.27
100
AcDbLine
 10
149.0208658436235
 20
20.15000000000001
 30
0.0
 11
149.0208658436235
 21
14.89999999999999
 31
0.0
  0
LINE
  5
13F6F
330
1F
100
AcDbEntity
  8
虛線
 48
0.27
100
AcDbLine
 10
152.5208658436234
 20
20.15000000000001
 30
0.0
 11
152.5208658436234
 21
14.89999999999999
 31
0.0
  0
LINE
  5
13F70
330
1F
100
AcDbEntity
  8
中心線
 48
0.27
100
AcDbLine
 10
150.7708658436235
 20
22.5
 30
0.0
 11
150.7708658436235
 21
12.73963702891814
 31
0.0
  0
LINE
  5
13F71
330
1F
100
AcDbEntity
  8
虛線
 48
0.27
100
AcDbLine
 10
149.0208658436235
 20
14.89999999999999
 30
0.0
 11
150.7708658436235
 21
13.88963702891813
 31
0.0
  0
LINE
  5
13F72
330
1F
100
AcDbEntity
  8
虛線
 48
0.27
100
AcDbLine
 10
149.0208658436235
 20
14.89999999999999
 30
0.0
 11
152.5208658436234
 21
14.89999999999999
 31
0.0
  0
LINE
  5
13F73
330
1F
100
AcDbEntity
  8
虛線
 48
0.27
100
AcDbLine
 10
152.5208658436234
 20
14.89999999999999
 30
0.0
 11
150.7708658436235
 21
13.88963702891813
 31
0.0
  0
LINE
  5
13F74
330
1F
100
AcDbEntity
  8
虛線
 48
0.27
100
AcDbLine
 10
148.7708658436234
 20
16.49999999999999
 30
0.0
 11
152.7708658436234
 21
16.49999999999999
 31
0.0
  0
LINE
  5
13F75
330
1F
100
AcDbEntity
  8
虛線
 48
0.27
100
AcDbLine
 10
148.4208658436233
 20
20.5
 30
0.0
 11
148.7708658436234
 21
20.15000000000001
 31
0.0
  0
LINE
  5
13F76
330
1F
100
AcDbEntity
  8
虛線
 48
0.27
100
AcDbLine
 10
152.7708658436234
 20
20.15000000000001
 30
0.0
 11
153.1208658436231
 21
20.5
 31
0.0
  0
LINE
  5
13F77
330
1F
100
AcDbEntity
  8
虛線
 48
0.27
100
AcDbLine
 10
148.7708658436234
 20
20.15000000000001
 30
0.0
 11
152.7708658436234
 21
20.15000000000001
 31
0.0
  0
LINE
  5
13F78
330
1F
100
AcDbEntity
  8
虛線
 48
0.27
100
AcDbLine
 10
126.7708658436232
 20
20.15000000000001
 30
0.0
 11
126.7708658436232
 21
16.49999999999999
 31
0.0
  0
LINE
  5
13F79
330
1F
100
AcDbEntity
  8
虛線
 48
0.27
100
AcDbLine
 10
122.7708658436232
 20
20.15000000000001
 30
0.0
 11
122.7708658436232
 21
16.49999999999999
 31
0.0
  0
LINE
  5
13F7A
330
1F
100
AcDbEntity
  8
虛線
 48
0.27
100
AcDbLine
 10
123.0208658436233
 20
20.15000000000001
 30
0.0
 11
123.0208658436233
 21
14.89999999999999
 31
0.0
  0
LINE
  5
13F7B
330
1F
100
AcDbEntity
  8
虛線
 48
0.27
100
AcDbLine
 10
126.5208658436233
 20
20.15000000000001
 30
0.0
 11
126.5208658436233
 21
14.89999999999999
 31
0.0
  0
LINE
  5
13F7C
330
1F
100
AcDbEntity
  8
中心線
 48
0.27
100
AcDbLine
 10
124.7708658436234
 20
22.5
 30
0.0
 11
124.7708658436234
 21
12.73963702891814
 31
0.0
  0
LINE
  5
13F7D
330
1F
100
AcDbEntity
  8
虛線
 48
0.27
100
AcDbLine
 10
123.0208658436233
 20
14.89999999999999
 30
0.0
 11
124.7708658436234
 21
13.88963702891813
 31
0.0
  0
LINE
  5
13F7E
330
1F
100
AcDbEntity
  8
虛線
 48
0.27
100
AcDbLine
 10
123.0208658436233
 20
14.89999999999999
 30
0.0
 11
126.5208658436233
 21
14.89999999999999
 31
0.0
  0
LINE
  5
13F7F
330
1F
100
AcDbEntity
  8
虛線
 48
0.27
100
AcDbLine
 10
126.5208658436233
 20
14.89999999999999
 30
0.0
 11
124.7708658436234
 21
13.88963702891813
 31
0.0
  0
LINE
  5
13F80
330
1F
100
AcDbEntity
  8
虛線
 48
0.27
100
AcDbLine
 10
122.7708658436232
 20
16.49999999999999
 30
0.0
 11
126.7708658436232
 21
16.49999999999999
 31
0.0
  0
LINE
  5
13F81
330
1F
100
AcDbEntity
  8
虛線
 48
0.27
100
AcDbLine
 10
122.4208658436232
 20
20.5
 30
0.0
 11
122.7708658436232
 21
20.15000000000001
 31
0.0
  0
LINE
  5
13F82
330
1F
100
AcDbEntity
  8
虛線
 48
0.27
100
AcDbLine
 10
126.7708658436232
 20
20.15000000000001
 30
0.0
 11
127.120865843623
 21
20.5
 31
0.0
  0
LINE
  5
13F83
330
1F
100
AcDbEntity
  8
虛線
 48
0.27
100
AcDbLine
 10
122.7708658436232
 20
20.15000000000001
 30
0.0
 11
126.7708658436232
 21
20.15000000000001
 31
0.0
  0
CIRCLE
  5
13FBA
330
1F
100
AcDbEntity
  8
0
 48
0.27
100
AcDbCircle
 10
0.0
 20
16.00000000000009
 30
0.0
 40
0.25
  0
LWPOLYLINE
  5
13FBB
330
1F
100
AcDbEntity
  8
0
 48
0.27
100
AcDbPolyline
 90
        6
 70
     1
 43
0.0
 10
0.0
 20
18.88675134594822
 10
-2.5
 20
17.44337567297416
 10
-2.5
 20
14.55662432702603
 10
0.0
 20
13.11324865405197
 10
2.5
 20
14.55662432702603
 10
2.5
 20
17.44337567297415
  0
LINE
  5
13FBC
330
1F
100
AcDbEntity
  8
中心線
 48
0.27
100
AcDbLine
 10
-0.0000000000000003
 20
11.61324865405197
 30
0.0
 11
-0.0000000000000002
 21
20.38675134594822
 31
0.0
  0
LINE
  5
13FBD
330
1F
100
AcDbEntity
  8
中心線
 48
0.27
100
AcDbLine
 10
4.0
 20
16.00000000000009
 30
0.0
 11
-4.0
 21
16.00000000000009
 31
0.0
  0
ENDSEC
  0
SECTION
  2
OBJECTS
  0
DICTIONARY
  5
C
330
0
100
AcDbDictionary
281
     1
  3
ACAD_COLOR
350
13437
  3
ACAD_GROUP
350
D
  3
ACAD_LAYOUT
350
1A
  3
ACAD_MATERIAL
350
13436
  3
ACAD_MLINESTYLE
350
17
  3
ACAD_PLOTSETTINGS
350
19
  3
ACAD_PLOTSTYLENAME
350
E
  3
ACAD_TABLESTYLE
350
13BC8
  3
ACAD_VISUALSTYLE
350
13ECF
  3
ACDBHEADERROUNDTRIPXREC
350
13FC1
  3
ACDBVARIABLEDICTIONARY
350
4E
  3
DWGPROPS
350
13FC0
  0
DICTIONARY
  5
13F34
330
8
100
AcDbDictionary
280
     1
281
     1
  0
DICTIONARY
  5
DDEF
330
2
100
AcDbDictionary
280
     1
281
     1
  3
ACAD_LAYERFILTERS
360
E68E
  3
ACAD_LAYERSTATES
360
DDF0
  0
DICTIONARY
  5
131A3
330
1F
100
AcDbDictionary
280
     1
281
     1
  3
ACAD_LAYOUTSELFREF
360
1342D
  3
ACAD_SORTENTS
360
13D1D
  0
DICTIONARY
  5
131A1
330
1B
100
AcDbDictionary
280
     1
281
     1
  3
ACAD_LAYOUTSELFREF
360
1342C
  0
DICTIONARY
  5
13437
102
{ACAD_REACTORS
330
C
102
}
330
C
100
AcDbDictionary
281
     1
  0
DICTIONARY
  5
D
102
{ACAD_REACTORS
330
C
102
}
330
C
100
AcDbDictionary
281
     1
  3
*A1
350
DDE2
  3
*A10
350
136DB
  3
*A11
350
DDE9
  3
*A12
350
DDEE
  3
*A13
350
13738
  3
*A14
350
137A3
  3
*A15
350
137A5
  3
*A16
350
136D8
  3
*A17
350
DDE8
  3
*A18
350
13739
  3
*A19
350
DDE5
  3
*A2
350
136D4
  3
*A20
350
1373E
  3
*A21
350
137A7
  3
*A22
350
137A9
  3
*A23
350
13737
  3
*A24
350
DDE4
  3
*A25
350
1373F
  3
*A26
350
DDE7
  3
*A27
350
13798
  3
*A28
350
137AB
  3
*A29
350
137AC
  3
*A3
350
1373D
  3
*A30
350
136D6
  3
*A31
350
13799
  3
*A32
350
DDE3
  3
*A33
350
1379D
  3
*A34
350
137AE
  3
*A35
350
137AF
  3
*A36
350
136DD
  3
*A37
350
1379E
  3
*A38
350
136D5
  3
*A39
350
DDEA
  3
*A4
350
137B1
  3
*A40
350
DDEC
  3
*A41
350
1373B
  3
*A42
350
137A2
  3
*A43
350
136DC
  3
*A44
350
DDE6
  3
*A45
350
136D2
  3
*A46
350
13741
  3
*A47
350
137A6
  3
*A48
350
1373A
  3
*A49
350
136D7
  3
*A5
350
136D9
  3
*A50
350
1379B
  3
*A51
350
137AA
  3
*A52
350
13740
  3
*A53
350
13736
  3
*A54
350
137A0
  3
*A55
350
137AD
  3
*A56
350
1379A
  3
*A57
350
1373C
  3
*A58
350
137A4
  3
*A59
350
137B0
  3
*A6
350
1379F
  3
*A60
350
13742
  3
*A61
350
137A8
  3
*A62
350
DDED
  3
*A63
350
1379C
  3
*A64
350
DDEB
  3
*A65
350
136D3
  3
*A7
350
137A1
  3
*A8
350
136D1
  3
*A9
350
136DA
  0
DICTIONARY
  5
1A
102
{ACAD_REACTORS
330
C
102
}
330
C
100
AcDbDictionary
281
     1
  3
Model
350
131AF
  3
配置1
350
131B0
  0
DICTIONARY
  5
13436
102
{ACAD_REACTORS
330
C
102
}
330
C
100
AcDbDictionary
281
     1
  3
ByBlock
350
13ECD
  3
ByLayer
350
13ECC
  3
Global
350
13ECE
  0
DICTIONARY
  5
17
102
{ACAD_REACTORS
330
C
102
}
330
C
100
AcDbDictionary
281
     1
  3
STANDARD
350
18
  0
DICTIONARY
  5
19
102
{ACAD_REACTORS
330
C
102
}
330
C
100
AcDbDictionary
281
     1
  3
LANSRO
350
1AB
  0
ACDBDICTIONARYWDFLT
  5
E
102
{ACAD_REACTORS
330
C
102
}
330
C
100
AcDbDictionary
281
     1
  3
Normal
350
F
100
AcDbDictionaryWithDefault
340
F
  0
DICTIONARY
  5
13BC8
102
{ACAD_REACTORS
330
C
102
}
330
C
100
AcDbDictionary
281
     1
  3
Standard
350
13BC9
  0
DICTIONARY
  5
13ECF
102
{ACAD_REACTORS
330
C
102
}
330
C
100
AcDbDictionary
281
     1
  3
2dWireframe
350
13ED5
  3
3D Hidden
350
13ED7
  3
3dWireframe
350
13ED6
  3
Basic
350
13ED4
  3
Brighten
350
13EDB
  3
ColorChange
350
13EDF
  3
Conceptual
350
13ED8
  3
Dim
350
13EDA
  3
Facepattern
350
13EDE
  3
Flat
350
13ED0
  3
FlatWithEdges
350
13ED1
  3
Gouraud
350
13ED2
  3
GouraudWithEdges
350
13ED3
  3
Linepattern
350
13EDD
  3
Realistic
350
13ED9
  3
Thicken
350
13EDC
  0
DICTIONARY
  5
13FC1
102
{ACAD_REACTORS
330
C
102
}
330
C
100
AcDbDictionary
281
     1
  3
COLORDICT
350
13FC3
  3
MATERIALDICT
350
13FC2
  0
DICTIONARY
  5
4E
102
{ACAD_REACTORS
330
C
102
}
330
C
100
AcDbDictionary
281
     1
  3
CTABLESTYLE
350
13DAD
  3
DIMASSOC
350
13518
  3
INDEXCTL
350
13F52
  3
PROJECTNAME
350
13519
  3
SORTENTS
350
4F
  0
XRECORD
  5
13FC0
102
{ACAD_REACTORS
330
C
102
}
330
C
100
AcDbXrecord
280
     1
  1
DWGPROPS COOKIE
  2

  3

  4

  6

  7

  8
tony4321
  9

300
=
301
=
302
=
303
=
304
=
305
=
306
=
307
=
308
=
309
=
 40
1.056346087962962
 41
2452648.44970706
 42
2454358.625947986
  1

 90
        0
  0
DICTIONARY
  5
E68E
102
{ACAD_REACTORS
330
DDEF
102
}
330
DDEF
100
AcDbDictionary
280
     1
281
     1
  0
DICTIONARY
  5
DDF0
102
{ACAD_REACTORS
330
DDEF
102
}
330
DDEF
100
AcDbDictionary
281
     1
  0
XRECORD
  5
1342D
102
{ACAD_REACTORS
330
131A3
102
}
330
131A3
100
AcDbXrecord
280
     1
340
1F
  0
SORTENTSTABLE
  5
13D1D
102
{ACAD_REACTORS
330
131A3
102
}
330
131A3
100
AcDbSortentsTable
330
1F
331
1348E
  5
1348F
331
139A2
  5
139A6
331
13A3F
  5
13AA7
331
13B4C
  5
13B50
331
13EB3
  5
13EB4
331
13AA9
  5
13B3D
331
13A02
  5
13A06
331
13B5C
  5
13B60
331
13B64
  5
13B68
331
13A1A
  5
13A20
331
136A3
  5
136A4
331
13496
  5
13497
331
134CD
  5
134CE
331
1381A
  5
1381B
331
1344F
  5
1344F
331
134D5
  5
134D6
331
13822
  5
13823
331
1382A
  5
1382D
331
134DD
  5
134DF
331
13467
  5
13467
331
134A6
  5
134A7
331
13713
  5
13714
331
1371B
  5
1371C
331
134AE
  5
134AF
331
134E5
  5
134E6
331
13832
  5
13835
331
1346F
  5
1346F
331
13A20
  5
13A24
331
13A0D
  5
13A11
331
13B74
  5
13B78
331
13873
  5
13877
331
1387B
  5
1399B
331
13A30
  5
13A37
331
13A15
  5
13A19
331
1399B
  5
1399F
331
13723
  5
13724
331
134B6
  5
134B8
331
134ED
  5
134EE
331
1383A
  5
1383D
331
13477
  5
13477
331
13694
  5
13695
331
1372B
  5
1372C
331
1347F
  5
13480
331
134BE
  5
134BF
331
134F5
  5
134F6
331
1386A
  5
1386E
331
13487
  5
13488
331
1369C
  5
1369D
331
13733
  5
13734
331
13525
  5
13526
331
1348F
  5
13490
331
13A38
  5
13A3C
331
13EB4
  5
13EB5
331
139A3
  5
139FE
331
13B78
  5
13C6A
331
13B4D
  5
13B51
331
13AAA
  5
13B3E
331
13A03
  5
13A07
331
13B65
  5
13B69
331
1381B
  5
1381C
331
134CE
  5
134CF
331
13450
  5
13450
331
13497
  5
13498
331
136A4
  5
1370C
331
1370C
  5
1370D
331
1349F
  5
134A0
331
134D6
  5
134D7
331
13823
  5
13824
331
13555
  5
13562
331
134A7
  5
134A8
331
13714
  5
13715
331
1382B
  5
1382E
331
13468
  5
13468
331
1371C
  5
1371D
331
134AF
  5
134B0
331
134E6
  5
134E7
331
13833
  5
13836
331
13988
  5
1399D
331
13A2B
  5
13A2F
331
13B75
  5
13B7C
331
13874
  5
13878
331
13A21
  5
13A25
331
13A0E
  5
13A14
331
13A16
  5
13A1A
331
13EA5
  5
13EA6
331
13A31
  5
13A38
331
13A83
  5
13AAA
331
1399C
  5
139A0
331
13470
  5
13470
331
1383B
  5
1383E
331
134EE
  5
134EF
331
13478
  5
13478
331
13724
  5
13725
331
1372C
  5
1372D
331
134BF
  5
134C0
331
134F6
  5
134F7
331
13480
  5
13481
331
13695
  5
13696
331
13734
  5
13735
331
1386B
  5
1386F
331
134C7
  5
134C8
331
13488
  5
13489
331
1369D
  5
1369E
331
13526
  5
13547
331
13A39
  5
13A3D
331
139A4
  5
139FF
331
13B4E
  5
13B52
331
13EB5
  5
13EB6
331
13A04
  5
13A08
331
13B66
  5
13B6A
331
13490
  5
13491
331
13498
  5
13499
331
134CF
  5
134D0
331
1381C
  5
1381D
331
13824
  5
13825
331
1370D
  5
1370E
331
134A0
  5
134A1
331
134D7
  5
134D8
331
1382C
  5
1382F
331
134DF
  5
134E0
331
13469
  5
13469
331
134A8
  5
134A9
331
13715
  5
13716
331
1371D
  5
1371E
331
13834
  5
13837
331
13A2C
  5
13A30
331
13875
  5
13879
331
13A22
  5
13A26
331
13A0F
  5
13A15
331
13B76
  5
13B7E
331
13A32
  5
13A39
331
13A17
  5
13A1D
331
13EA6
  5
13EA7
331
1399D
  5
139A1
331
134B0
  5
134B1
331
13471
  5
13471
331
13725
  5
13726
331
134B8
  5
134B9
331
134EF
  5
134F0
331
1383C
  5
13864
331
13479
  5
1347A
331
13696
  5
13697
331
1372D
  5
1372E
331
13481
  5
13483
331
134C0
  5
134C1
331
134F7
  5
134F8
331
13864
  5
13867
331
1386C
  5
13870
331
13489
  5
1348A
331
1369E
  5
1369F
331
13735
  5
13815
331
13815
  5
13817
331
13A3A
  5
13A3E
331
13B4F
  5
13B53
331
13EB6
  5
13EEF
331
139A5
  5
13A00
331
13A05
  5
13A09
331
13A1D
  5
13A21
331
13B67
  5
13B6B
331
134C8
  5
134C9
331
13491
  5
13492
331
1381D
  5
1381E
331
134D0
  5
134D1
331
13547
  5
13548
331
13499
  5
1349A
331
1370E
  5
1370F
331
134A1
  5
134A2
331
134D8
  5
134D9
331
13825
  5
13826
331
13716
  5
13717
331
134A9
  5
134AB
331
134E0
  5
134E1
331
1382D
  5
13830
331
13835
  5
13838
331
1371E
  5
1371F
331
13A2D
  5
13A31
331
13A08
  5
13A0C
331
13B6F
  5
13B75
331
13B77
  5
13C5C
331
13876
  5
1387A
331
13A23
  5
13A27
331
13A10
  5
13A16
331
13A7D
  5
13AA9
331
13EA7
  5
13EA8
331
1399E
  5
139A2
331
13472
  5
13472
331
134B1
  5
134B2
331
1383D
  5
13865
331
134F0
  5
134F1
331
1347A
  5
1347B
331
134B9
  5
134BA
331
13726
  5
13727
331
1372E
  5
1372F
331
13865
  5
13868
331
134C1
  5
134C2
331
134F8
  5
134F9
331
13697
  5
13698
331
1369F
  5
136A0
331
1386D
  5
13871
331
1348A
  5
1348B
331
13A3B
  5
13A3F
331
139A6
  5
13A01
331
13B50
  5
13B54
331
139FE
  5
13A02
331
13B58
  5
13B5E
331
13B45
  5
13B4D
331
13A06
  5
13A0A
331
13A1E
  5
13A22
331
13492
  5
13493
331
134C9
  5
134CA
331
1344B
  5
1344B
331
13548
  5
13555
331
1349A
  5
1349B
331
134D1
  5
134D2
331
1381E
  5
1381F
331
13826
  5
13827
331
134D9
  5
134DA
331
13463
  5
13463
331
134A2
  5
134A3
331
1370F
  5
13710
331
1382E
  5
13831
331
134E1
  5
134E2
331
1346B
  5
1346B
331
13717
  5
13718
331
1371F
  5
13720
331
13836
  5
13839
331
13B68
  5
13B6C
331
13A2E
  5
13A32
331
13A09
  5
13A0D
331
13B70
  5
13B76
331
13877
  5
1387B
331
13A24
  5
13A28
331
13A11
  5
13A17
331
1387F
  5
1399C
331
13EA8
  5
13EA9
331
1399F
  5
139A3
331
134B2
  5
134B3
331
13473
  5
13473
331
13590
  5
13591
331
13727
  5
13728
331
1347B
  5
1347E
331
134BA
  5
134BB
331
134F1
  5
134F2
331
1383E
  5
13866
331
13866
  5
13869
331
13698
  5
13699
331
1372F
  5
13730
331
13483
  5
13484
331
134C2
  5
134C3
331
134F9
  5
134FA
331
1386E
  5
13872
331
1348B
  5
1348C
331
13817
  5
13818
331
13A3C
  5
13A40
331
13B49
  5
13B4F
331
13B7C
  5
13C94
331
13B51
  5
13B55
331
139FF
  5
13A03
331
13A07
  5
13A0B
331
13B61
  5
13B65
331
13B46
  5
13B4E
331
13A1F
  5
13A23
331
134CA
  5
134CB
331
1344C
  5
1344C
331
13493
  5
13494
331
136A0
  5
136A1
331
134D2
  5
134D4
331
1381F
  5
13821
331
1349B
  5
1349C
331
13710
  5
13711
331
134A3
  5
134A4
331
134DA
  5
134DB
331
13827
  5
1382A
331
13464
  5
13464
331
13718
  5
13719
331
1346C
  5
1346C
331
134AB
  5
134AC
331
134E2
  5
134E3
331
1382F
  5
13832
331
13837
  5
1383A
331
13B71
  5
13B77
331
13870
  5
13874
331
13A0A
  5
13A0E
331
13A2F
  5
13A36
331
13878
  5
1387F
331
13A25
  5
13A29
331
13EA9
  5
13EAA
331
134EA
  5
134EB
331
13591
  5
13693
331
13474
  5
13474
331
134B3
  5
134B4
331
13720
  5
13721
331
134F2
  5
134F3
331
134BB
  5
134BC
331
13728
  5
13729
331
13730
  5
13731
331
13867
  5
1386B
331
134C3
  5
134C4
331
13484
  5
13485
331
13699
  5
1369A
331
1348C
  5
1348D
331
1386F
  5
13873
331
139A0
  5
139A4
331
13A3D
  5
13A7D
331
13EB1
  5
13EB2
331
13B52
  5
13B56
331
13AA7
  5
13B3B
331
13A00
  5
13A04
331
13B62
  5
13B66
331
13A18
  5
13A1E
331
136A1
  5
136A2
331
13494
  5
13495
331
134CB
  5
134CC
331
13818
  5
13819
331
1344D
  5
1344D
331
13455
  5
13455
331
1349C
  5
1349F
331
13828
  5
1382B
331
134DB
  5
134DC
331
13465
  5
13465
331
134A4
  5
134A5
331
13711
  5
13712
331
13719
  5
1371A
331
13830
  5
13833
331
134E3
  5
134E4
331
13562
  5
13590
331
1346D
  5
1346D
331
134AC
  5
134AD
331
13A28
  5
13A2D
331
13A40
  5
13AA8
331
13A0B
  5
13A0F
331
13871
  5
13875
331
13879
  5
13988
331
13A26
  5
13A2B
331
13EAA
  5
13EB1
331
13A36
  5
13A3A
331
13721
  5
13722
331
134B4
  5
134B5
331
134EB
  5
134EC
331
13838
  5
1383B
331
13475
  5
13475
331
13729
  5
1372A
331
134BC
  5
134BD
331
134F3
  5
134F4
331
13868
  5
1386C
331
134FB
  5
134FC
331
1369A
  5
1369B
331
13485
  5
13486
331
134C4
  5
134C5
331
13731
  5
13732
331
1348D
  5
1348E
331
13EB2
  5
13EB3
331
139A1
  5
139A5
331
13A3E
  5
13A83
331
13B7E
  5
13EA5
331
13B53
  5
13B57
331
13AA8
  5
13B3C
331
13A01
  5
13A05
331
13B5B
  5
13B5F
331
13A19
  5
13A1F
331
13B63
  5
13B67
331
13819
  5
1381A
331
134CC
  5
134CD
331
1344E
  5
1344E
331
13495
  5
13496
331
136A2
  5
136A3
331
134D4
  5
134D5
331
13821
  5
13822
331
13456
  5
13456
331
13712
  5
13713
331
134A5
  5
134A6
331
134DC
  5
134DD
331
13829
  5
1382C
331
13466
  5
13466
331
1371A
  5
1371B
331
1346E
  5
1346E
331
134AD
  5
134AE
331
134E4
  5
134E5
331
13831
  5
13834
331
13A29
  5
13A2E
331
13872
  5
13876
331
13A0C
  5
13A10
331
1387A
  5
1399A
331
13A27
  5
13A2C
331
13A14
  5
13A18
331
13A37
  5
13A3B
331
1399A
  5
1399E
331
13839
  5
1383C
331
13476
  5
13476
331
134B5
  5
134B6
331
13722
  5
13723
331
1372A
  5
1372B
331
134F4
  5
134F5
331
13693
  5
13694
331
1347E
  5
1347F
331
134BD
  5
134BE
331
13732
  5
13733
331
13869
  5
1386D
331
134C5
  5
134C7
331
13486
  5
13487
331
1369B
  5
1369C
  0
XRECORD
  5
1342C
102
{ACAD_REACTORS
330
131A1
102
}
330
131A1
100
AcDbXrecord
280
     1
340
1B
  0
GROUP
  5
DDE2
102
{ACAD_REACTORS
330
D
102
}
330
D
100
AcDbGroup
300

 70
     1
 71
     1
  0
GROUP
  5
136DB
102
{ACAD_REACTORS
330
D
102
}
330
D
100
AcDbGroup
300

 70
     1
 71
     1
  0
GROUP
  5
DDE9
102
{ACAD_REACTORS
330
D
102
}
330
D
100
AcDbGroup
300

 70
     1
 71
     1
  0
GROUP
  5
DDEE
102
{ACAD_REACTORS
330
D
102
}
330
D
100
AcDbGroup
300

 70
     1
 71
     1
  0
GROUP
  5
13738
102
{ACAD_REACTORS
330
D
102
}
330
D
100
AcDbGroup
300

 70
     1
 71
     1
  0
GROUP
  5
137A3
102
{ACAD_REACTORS
330
D
102
}
330
D
100
AcDbGroup
300

 70
     1
 71
     1
  0
GROUP
  5
137A5
102
{ACAD_REACTORS
330
D
102
}
330
D
100
AcDbGroup
300

 70
     1
 71
     1
  0
GROUP
  5
136D8
102
{ACAD_REACTORS
330
D
102
}
330
D
100
AcDbGroup
300

 70
     1
 71
     1
  0
GROUP
  5
DDE8
102
{ACAD_REACTORS
330
D
102
}
330
D
100
AcDbGroup
300

 70
     1
 71
     1
  0
GROUP
  5
13739
102
{ACAD_REACTORS
330
D
102
}
330
D
100
AcDbGroup
300

 70
     1
 71
     1
  0
GROUP
  5
DDE5
102
{ACAD_REACTORS
330
D
102
}
330
D
100
AcDbGroup
300

 70
     1
 71
     1
  0
GROUP
  5
136D4
102
{ACAD_REACTORS
330
D
102
}
330
D
100
AcDbGroup
300

 70
     1
 71
     1
  0
GROUP
  5
1373E
102
{ACAD_REACTORS
330
D
102
}
330
D
100
AcDbGroup
300

 70
     1
 71
     1
  0
GROUP
  5
137A7
102
{ACAD_REACTORS
330
D
102
}
330
D
100
AcDbGroup
300

 70
     1
 71
     1
  0
GROUP
  5
137A9
102
{ACAD_REACTORS
330
D
102
}
330
D
100
AcDbGroup
300

 70
     1
 71
     1
  0
GROUP
  5
13737
102
{ACAD_REACTORS
330
D
102
}
330
D
100
AcDbGroup
300

 70
     1
 71
     1
  0
GROUP
  5
DDE4
102
{ACAD_REACTORS
330
D
102
}
330
D
100
AcDbGroup
300

 70
     1
 71
     1
  0
GROUP
  5
1373F
102
{ACAD_REACTORS
330
D
102
}
330
D
100
AcDbGroup
300

 70
     1
 71
     1
  0
GROUP
  5
DDE7
102
{ACAD_REACTORS
330
D
102
}
330
D
100
AcDbGroup
300

 70
     1
 71
     1
  0
GROUP
  5
13798
102
{ACAD_REACTORS
330
D
102
}
330
D
100
AcDbGroup
300

 70
     1
 71
     1
  0
GROUP
  5
137AB
102
{ACAD_REACTORS
330
D
102
}
330
D
100
AcDbGroup
300

 70
     1
 71
     1
  0
GROUP
  5
137AC
102
{ACAD_REACTORS
330
D
102
}
330
D
100
AcDbGroup
300

 70
     1
 71
     1
  0
GROUP
  5
1373D
102
{ACAD_REACTORS
330
D
102
}
330
D
100
AcDbGroup
300

 70
     1
 71
     1
  0
GROUP
  5
136D6
102
{ACAD_REACTORS
330
D
102
}
330
D
100
AcDbGroup
300

 70
     1
 71
     1
  0
GROUP
  5
13799
102
{ACAD_REACTORS
330
D
102
}
330
D
100
AcDbGroup
300

 70
     1
 71
     1
  0
GROUP
  5
DDE3
102
{ACAD_REACTORS
330
D
102
}
330
D
100
AcDbGroup
300

 70
     1
 71
     1
  0
GROUP
  5
1379D
102
{ACAD_REACTORS
330
D
102
}
330
D
100
AcDbGroup
300

 70
     1
 71
     1
  0
GROUP
  5
137AE
102
{ACAD_REACTORS
330
D
102
}
330
D
100
AcDbGroup
300

 70
     1
 71
     1
  0
GROUP
  5
137AF
102
{ACAD_REACTORS
330
D
102
}
330
D
100
AcDbGroup
300

 70
     1
 71
     1
  0
GROUP
  5
136DD
102
{ACAD_REACTORS
330
D
102
}
330
D
100
AcDbGroup
300

 70
     1
 71
     1
  0
GROUP
  5
1379E
102
{ACAD_REACTORS
330
D
102
}
330
D
100
AcDbGroup
300

 70
     1
 71
     1
  0
GROUP
  5
136D5
102
{ACAD_REACTORS
330
D
102
}
330
D
100
AcDbGroup
300

 70
     1
 71
     1
  0
GROUP
  5
DDEA
102
{ACAD_REACTORS
330
D
102
}
330
D
100
AcDbGroup
300

 70
     1
 71
     1
  0
GROUP
  5
137B1
102
{ACAD_REACTORS
330
D
102
}
330
D
100
AcDbGroup
300

 70
     1
 71
     1
  0
GROUP
  5
DDEC
102
{ACAD_REACTORS
330
D
102
}
330
D
100
AcDbGroup
300

 70
     1
 71
     1
  0
GROUP
  5
1373B
102
{ACAD_REACTORS
330
D
102
}
330
D
100
AcDbGroup
300

 70
     1
 71
     1
  0
GROUP
  5
137A2
102
{ACAD_REACTORS
330
D
102
}
330
D
100
AcDbGroup
300

 70
     1
 71
     1
  0
GROUP
  5
136DC
102
{ACAD_REACTORS
330
D
102
}
330
D
100
AcDbGroup
300

 70
     1
 71
     1
  0
GROUP
  5
DDE6
102
{ACAD_REACTORS
330
D
102
}
330
D
100
AcDbGroup
300

 70
     1
 71
     1
  0
GROUP
  5
136D2
102
{ACAD_REACTORS
330
D
102
}
330
D
100
AcDbGroup
300

 70
     1
 71
     1
  0
GROUP
  5
13741
102
{ACAD_REACTORS
330
D
102
}
330
D
100
AcDbGroup
300

 70
     1
 71
     1
  0
GROUP
  5
137A6
102
{ACAD_REACTORS
330
D
102
}
330
D
100
AcDbGroup
300

 70
     1
 71
     1
  0
GROUP
  5
1373A
102
{ACAD_REACTORS
330
D
102
}
330
D
100
AcDbGroup
300

 70
     1
 71
     1
  0
GROUP
  5
136D7
102
{ACAD_REACTORS
330
D
102
}
330
D
100
AcDbGroup
300

 70
     1
 71
     1
  0
GROUP
  5
136D9
102
{ACAD_REACTORS
330
D
102
}
330
D
100
AcDbGroup
300

 70
     1
 71
     1
  0
GROUP
  5
1379B
102
{ACAD_REACTORS
330
D
102
}
330
D
100
AcDbGroup
300

 70
     1
 71
     1
  0
GROUP
  5
137AA
102
{ACAD_REACTORS
330
D
102
}
330
D
100
AcDbGroup
300

 70
     1
 71
     1
  0
GROUP
  5
13740
102
{ACAD_REACTORS
330
D
102
}
330
D
100
AcDbGroup
300

 70
     1
 71
     1
  0
GROUP
  5
13736
102
{ACAD_REACTORS
330
D
102
}
330
D
100
AcDbGroup
300

 70
     1
 71
     1
  0
GROUP
  5
137A0
102
{ACAD_REACTORS
330
D
102
}
330
D
100
AcDbGroup
300

 70
     1
 71
     1
  0
GROUP
  5
137AD
102
{ACAD_REACTORS
330
D
102
}
330
D
100
AcDbGroup
300

 70
     1
 71
     1
  0
GROUP
  5
1379A
102
{ACAD_REACTORS
330
D
102
}
330
D
100
AcDbGroup
300

 70
     1
 71
     1
  0
GROUP
  5
1373C
102
{ACAD_REACTORS
330
D
102
}
330
D
100
AcDbGroup
300

 70
     1
 71
     1
  0
GROUP
  5
137A4
102
{ACAD_REACTORS
330
D
102
}
330
D
100
AcDbGroup
300

 70
     1
 71
     1
  0
GROUP
  5
137B0
102
{ACAD_REACTORS
330
D
102
}
330
D
100
AcDbGroup
300

 70
     1
 71
     1
  0
GROUP
  5
1379F
102
{ACAD_REACTORS
330
D
102
}
330
D
100
AcDbGroup
300

 70
     1
 71
     1
  0
GROUP
  5
13742
102
{ACAD_REACTORS
330
D
102
}
330
D
100
AcDbGroup
300

 70
     1
 71
     1
  0
GROUP
  5
137A8
102
{ACAD_REACTORS
330
D
102
}
330
D
100
AcDbGroup
300

 70
     1
 71
     1
  0
GROUP
  5
DDED
102
{ACAD_REACTORS
330
D
102
}
330
D
100
AcDbGroup
300

 70
     1
 71
     1
  0
GROUP
  5
1379C
102
{ACAD_REACTORS
330
D
102
}
330
D
100
AcDbGroup
300

 70
     1
 71
     1
  0
GROUP
  5
DDEB
102
{ACAD_REACTORS
330
D
102
}
330
D
100
AcDbGroup
300

 70
     1
 71
     1
  0
GROUP
  5
136D3
102
{ACAD_REACTORS
330
D
102
}
330
D
100
AcDbGroup
300

 70
     1
 71
     1
  0
GROUP
  5
137A1
102
{ACAD_REACTORS
330
D
102
}
330
D
100
AcDbGroup
300

 70
     1
 71
     1
  0
GROUP
  5
136D1
102
{ACAD_REACTORS
330
D
102
}
330
D
100
AcDbGroup
300

 70
     1
 71
     1
  0
GROUP
  5
136DA
102
{ACAD_REACTORS
330
D
102
}
330
D
100
AcDbGroup
300

 70
     1
 71
     1
  0
LAYOUT
  5
131AF
102
{ACAD_XDICTIONARY
360
13FC6
102
}
102
{ACAD_REACTORS
330
1A
102
}
330
1A
100
AcDbPlotSettings
  1

  2
none_device
  4
Letter_(8.50_x_11.00_Inches)
  6

 40
6.349999904632567
 41
6.349999904632567
 42
6.350006103515625
 43
6.350006103515625
 44
215.8999938964844
 45
279.3999938964844
 46
0.0
 47
0.0
 48
0.0
 49
0.0
140
0.0
141
0.0
142
1.0
143
1.0
 70
 11952
 72
     0
 73
     1
 74
     0
  7
AAA.ctb
 75
     0
147
1.0
148
915.0833476707436
149
3561.084043959095
100
AcDbLayout
  1
Model
 70
     1
 71
     0
 10
0.0
 20
0.0
 11
12.0
 21
9.0
 12
0.0
 22
0.0
 32
0.0
 14
0.0
 24
0.0
 34
0.0
 15
0.0
 25
0.0
 35
0.0
146
0.0
 13
0.0
 23
0.0
 33
0.0
 16
1.0
 26
0.0
 36
0.0
 17
0.0
 27
1.0
 37
0.0
 76
     0
330
1F
331
13EC1
  0
LAYOUT
  5
131B0
102
{ACAD_XDICTIONARY
360
13FC8
102
}
102
{ACAD_REACTORS
330
1A
102
}
330
1A
100
AcDbPlotSettings
  1

  2
HP 2200
  4

  6

 40
0.0
 41
0.0
 42
0.0
 43
0.0
 44
0.0
 45
0.0
 46
0.0
 47
0.0
 48
0.0
 49
0.0
140
0.0
141
0.0
142
1.0
143
1.0
 70
   688
 72
     0
 73
     0
 74
     5
  7
AAA.ctb
 75
    16
147
1.0
148
0.0
149
0.0
100
AcDbLayout
  1
配置1
 70
     1
 71
     1
 10
0.0
 20
0.0
 11
420.0
 21
297.0
 12
0.0
 22
0.0
 32
0.0
 14
1.000000000000000E+20
 24
1.000000000000000E+20
 34
1.000000000000000E+20
 15
-1.000000000000000E+20
 25
-1.000000000000000E+20
 35
-1.000000000000000E+20
146
0.0
 13
0.0
 23
0.0
 33
0.0
 16
1.0
 26
0.0
 36
0.0
 17
0.0
 27
1.0
 37
0.0
 76
     0
330
1B
  0
MATERIAL
  5
13ECD
330
13436
100
AcDbMaterial
  1
ByBlock
  0
MATERIAL
  5
13ECC
330
13436
100
AcDbMaterial
  1
ByLayer
  0
MATERIAL
  5
13ECE
330
13436
100
AcDbMaterial
  1
Global
  0
MLINESTYLE
  5
18
102
{ACAD_REACTORS
330
17
102
}
330
17
100
AcDbMlineStyle
  2
STANDARD
 70
     0
  3

 62
   256
 51
90.0
 52
90.0
 71
     2
 49
0.5
 62
   256
  6
BYLAYER
 49
-0.5
 62
   256
  6
BYLAYER
  0
PLOTSETTINGS
  5
1AB
102
{ACAD_XDICTIONARY
360
13FC4
102
}
102
{ACAD_REACTORS
330
19
102
}
330
19
100
AcDbPlotSettings
  1
LANSRO
  2
\\1260\HP2200
  4
A4
  6

 40
6.043083190917967
 41
6.762742042541503
 42
7.736419677734375
 43
5.027069091796875
 44
209.9733276367186
 45
296.9683227539062
 46
5.15
 47
0.0
 48
0.0
 49
0.0
140
0.0
141
0.0
142
1.0
143
0.8829829263240881
 70
  1716
 72
     1
 73
     1
 74
     0
  7
AAA.ctb
 75
     0
147
1.132524729739748
148
-132.297014905803
149
-71.78507365635891
  0
ACDBPLACEHOLDER
  5
F
102
{ACAD_REACTORS
330
E
102
}
330
E
  0
TABLESTYLE
  5
13BC9
102
{ACAD_XDICTIONARY
360
13FA9
102
}
102
{ACAD_REACTORS
330
13BC8
102
}
330
13BC8
100
AcDbTableStyle
  3
Standard
 70
     0
 71
     0
 40
0.06
 41
0.06
280
     0
281
     0
  7
STANDARD
140
0.18
170
     2
 62
     0
 63
     7
283
     0
274
    -2
284
     1
 64
     0
275
    -2
285
     1
 65
     0
276
    -2
286
     1
 66
     0
277
    -2
287
     1
 67
     0
278
    -2
288
     1
 68
     0
279
    -2
289
     1
 69
     0
  7
STANDARD
140
0.25
170
     5
 62
     0
 63
     7
283
     0
274
    -2
284
     1
 64
     0
275
    -2
285
     1
 65
     0
276
    -2
286
     1
 66
     0
277
    -2
287
     1
 67
     0
278
    -2
288
     1
 68
     0
279
    -2
289
     1
 69
     0
  7
STANDARD
140
0.18
170
     5
 62
     0
 63
     7
283
     0
274
    -2
284
     1
 64
     0
275
    -2
285
     1
 65
     0
276
    -2
286
     1
 66
     0
277
    -2
287
     1
 67
     0
278
    -2
288
     1
 68
     0
279
    -2
289
     1
 69
     0
1001
ACAD
1001
ACAD
1000
AcRTDxfName
1000
TABLESTYLE
  0
VISUALSTYLE
  5
13ED5
102
{ACAD_REACTORS
330
13ECF
102
}
330
13ECF
100
AcDbVisualStyle
  2
2dWireframe
 70
     4
 71
     0
 72
     2
 73
     0
 90
        0
 40
-0.6
 41
-30.0
 62
     5
 63
     7
 74
     1
 91
        4
 64
     7
 65
   257
 75
     1
175
     1
 42
1.0
 92
        0
 66
   257
 43
1.0
 76
     1
 77
     6
 78
     2
 67
     7
 79
     5
170
     0
171
     0
290
     0
174
     0
 93
        1
 44
0.0
173
     0
291
     0
 45
0.0
1001
ACAD
1000
AcDbSavedByObjectVersion
1070
     0
1001
ACAD
1000
AcRTDxfName
1000
VISUALSTYLE
  0
VISUALSTYLE
  5
13ED7
102
{ACAD_REACTORS
330
13ECF
102
}
330
13ECF
100
AcDbVisualStyle
  2
3D Hidden
 70
     6
 71
     1
 72
     2
 73
     2
 90
        0
 40
-0.6
 41
-30.0
 62
     5
 63
     7
 74
     2
 91
        2
 64
     7
 65
   257
 75
     2
175
     1
 42
40.0
 92
        0
 66
   257
 43
1.0
 76
     1
 77
     6
 78
     2
 67
     7
 79
     3
170
     0
171
     0
290
     0
174
     0
 93
        1
 44
0.0
173
     0
291
     0
 45
0.0
1001
ACAD
1000
AcDbSavedByObjectVersion
1070
     0
1001
ACAD
1000
AcRTDxfName
1000
VISUALSTYLE
  0
VISUALSTYLE
  5
13ED6
102
{ACAD_REACTORS
330
13ECF
102
}
330
13ECF
100
AcDbVisualStyle
  2
3dWireframe
 70
     5
 71
     0
 72
     2
 73
     0
 90
        0
 40
-0.6
 41
-30.0
 62
     5
 63
     7
 74
     1
 91
        4
 64
     7
 65
   257
 75
     1
175
     1
 42
1.0
 92
        0
 66
   257
 43
1.0
 76
     1
 77
     6
 78
     2
 67
     7
 79
     5
170
     0
171
     0
290
     0
174
     0
 93
        1
 44
0.0
173
     0
291
     0
 45
0.0
1001
ACAD
1000
AcDbSavedByObjectVersion
1070
     0
1001
ACAD
1000
AcRTDxfName
1000
VISUALSTYLE
  0
VISUALSTYLE
  5
13ED4
102
{ACAD_REACTORS
330
13ECF
102
}
330
13ECF
100
AcDbVisualStyle
  2
Basic
 70
     7
 71
     1
 72
     0
 73
     1
 90
        0
 40
-0.6
 41
-30.0
 62
     5
 63
     7
 74
     0
 91
        4
 64
     7
 65
   257
 75
     1
175
     1
 42
1.0
 92
        8
 66
     7
 43
1.0
 76
     1
 77
     6
 78
     2
 67
     7
 79
     5
170
     0
171
     0
290
     0
174
     0
 93
        1
 44
0.0
173
     0
291
     1
 45
0.0
1001
ACAD
1000
AcDbSavedByObjectVersion
1070
     0
1001
ACAD
1000
AcRTDxfName
1000
VISUALSTYLE
  0
VISUALSTYLE
  5
13EDB
102
{ACAD_REACTORS
330
13ECF
102
}
330
13ECF
100
AcDbVisualStyle
  2
Brighten
 70
    12
 71
     2
 72
     2
 73
     0
 90
        0
 40
-0.6
 41
-30.0
 62
     5
 63
     7
 74
     1
 91
        4
 64
     7
 65
   257
 75
     1
175
     1
 42
1.0
 92
        8
 66
     7
 43
1.0
 76
     1
 77
     6
 78
     2
 67
     7
 79
     5
170
     0
171
     0
290
     0
174
     0
 93
        1
 44
50.0
173
     0
291
     1
 45
0.0
1001
ACAD
1000
AcDbSavedByObjectVersion
1070
     0
1001
ACAD
1000
AcRTDxfName
1000
VISUALSTYLE
  0
VISUALSTYLE
  5
13EDF
102
{ACAD_REACTORS
330
13ECF
102
}
330
13ECF
100
AcDbVisualStyle
  2
ColorChange
 70
    16
 71
     2
 72
     2
 73
     3
 90
        0
 40
-0.6
 41
-30.0
 62
     5
 63
     8
 74
     1
 91
        4
 64
     7
 65
   257
 75
     1
175
     1
 42
1.0
 92
        8
 66
     8
 43
1.0
 76
     1
 77
     6
 78
     2
 67
     7
 79
     5
170
     0
171
     0
290
     0
174
     0
 93
        1
 44
0.0
173
     0
291
     1
 45
0.0
1001
ACAD
1000
AcDbSavedByObjectVersion
1070
     0
1001
ACAD
1000
AcRTDxfName
1000
VISUALSTYLE
  0
VISUALSTYLE
  5
13ED8
102
{ACAD_REACTORS
330
13ECF
102
}
330
13ECF
100
AcDbVisualStyle
  2
Conceptual
 70
     9
 71
     3
 72
     2
 73
     0
 90
        0
 40
-0.6
 41
-30.0
 62
     5
 63
     7
 74
     2
 91
        2
 64
     7
 65
   257
 75
     1
175
     1
 42
40.0
 92
        8
 66
     7
 43
1.0
 76
     1
 77
     6
 78
     2
 67
     7
 79
     3
170
     0
171
     0
290
     0
174
     0
 93
        1
 44
0.0
173
     0
291
     0
 45
0.0
1001
ACAD
1000
AcDbSavedByObjectVersion
1070
     0
1001
ACAD
1000
AcRTDxfName
1000
VISUALSTYLE
  0
VISUALSTYLE
  5
13EDA
102
{ACAD_REACTORS
330
13ECF
102
}
330
13ECF
100
AcDbVisualStyle
  2
Dim
 70
    11
 71
     2
 72
     2
 73
     0
 90
        0
 40
-0.6
 41
-30.0
 62
     5
 63
     7
 74
     1
 91
        4
 64
     7
 65
   257
 75
     1
175
     1
 42
1.0
 92
        8
 66
     7
 43
1.0
 76
     1
 77
     6
 78
     2
 67
     7
 79
     5
170
     0
171
     0
290
     0
174
     0
 93
        1
 44
-50.0
173
     0
291
     1
 45
0.0
1001
ACAD
1000
AcDbSavedByObjectVersion
1070
     0
1001
ACAD
1000
AcRTDxfName
1000
VISUALSTYLE
  0
VISUALSTYLE
  5
13EDE
102
{ACAD_REACTORS
330
13ECF
102
}
330
13ECF
100
AcDbVisualStyle
  2
Facepattern
 70
    15
 71
     2
 72
     2
 73
     0
 90
        0
 40
-0.6
 41
-30.0
 62
     5
 63
     7
 74
     1
 91
        4
 64
     7
 65
   257
 75
     1
175
     1
 42
1.0
 92
        8
 66
     7
 43
1.0
 76
     1
 77
     6
 78
     2
 67
     7
 79
     5
170
     0
171
     0
290
     0
174
     0
 93
        1
 44
0.0
173
     0
291
     1
 45
0.0
1001
ACAD
1000
AcDbSavedByObjectVersion
1070
     0
1001
ACAD
1000
AcRTDxfName
1000
VISUALSTYLE
  0
VISUALSTYLE
  5
13ED0
102
{ACAD_REACTORS
330
13ECF
102
}
330
13ECF
100
AcDbVisualStyle
  2
Flat
 70
     0
 71
     2
 72
     1
 73
     1
 90
        2
 40
-0.6
 41
30.0
 62
     5
 63
     7
 74
     0
 91
        4
 64
     7
 65
   257
 75
     1
175
     1
 42
1.0
 92
        8
 66
     7
 43
1.0
 76
     1
 77
     6
 78
     2
 67
     7
 79
     5
170
     0
171
     0
290
     0
174
     0
 93
       13
 44
0.0
173
     0
291
     1
 45
0.0
1001
ACAD
1000
AcDbSavedByObjectVersion
1070
     0
1001
ACAD
1000
AcRTDxfName
1000
VISUALSTYLE
  0
VISUALSTYLE
  5
13ED1
102
{ACAD_REACTORS
330
13ECF
102
}
330
13ECF
100
AcDbVisualStyle
  2
FlatWithEdges
 70
     1
 71
     2
 72
     1
 73
     1
 90
        2
 40
-0.6
 41
30.0
 62
     5
 63
     7
 74
     1
 91
        4
 64
     7
 65
   257
 75
     1
175
     1
 42
1.0
 92
        0
 66
   257
 43
1.0
 76
     1
 77
     6
 78
     2
 67
     7
 79
     5
170
     0
171
     0
290
     0
174
     0
 93
       13
 44
0.0
173
     0
291
     1
 45
0.0
1001
ACAD
1000
AcDbSavedByObjectVersion
1070
     0
1001
ACAD
1000
AcRTDxfName
1000
VISUALSTYLE
  0
VISUALSTYLE
  5
13ED2
102
{ACAD_REACTORS
330
13ECF
102
}
330
13ECF
100
AcDbVisualStyle
  2
Gouraud
 70
     2
 71
     2
 72
     2
 73
     1
 90
        2
 40
-0.6
 41
30.0
 62
     5
 63
     7
 74
     0
 91
        4
 64
     7
 65
   257
 75
     1
175
     1
 42
1.0
 92
        0
 66
     7
 43
1.0
 76
     1
 77
     6
 78
     2
 67
     7
 79
     5
170
     0
171
     0
290
     0
174
     0
 93
       13
 44
0.0
173
     0
291
     1
 45
0.0
1001
ACAD
1000
AcDbSavedByObjectVersion
1070
     0
1001
ACAD
1000
AcRTDxfName
1000
VISUALSTYLE
  0
VISUALSTYLE
  5
13ED3
102
{ACAD_REACTORS
330
13ECF
102
}
330
13ECF
100
AcDbVisualStyle
  2
GouraudWithEdges
 70
     3
 71
     2
 72
     2
 73
     1
 90
        2
 40
-0.6
 41
30.0
 62
     5
 63
     7
 74
     1
 91
        4
 64
     7
 65
   257
 75
     1
175
     1
 42
1.0
 92
        0
 66
   257
 43
1.0
 76
     1
 77
     6
 78
     2
 67
     7
 79
     5
170
     0
171
     0
290
     0
174
     0
 93
       13
 44
0.0
173
     0
291
     1
 45
0.0
1001
ACAD
1000
AcDbSavedByObjectVersion
1070
     0
1001
ACAD
1000
AcRTDxfName
1000
VISUALSTYLE
  0
VISUALSTYLE
  5
13EDD
102
{ACAD_REACTORS
330
13ECF
102
}
330
13ECF
100
AcDbVisualStyle
  2
Linepattern
 70
    14
 71
     2
 72
     2
 73
     0
 90
        0
 40
-0.6
 41
-30.0
 62
     5
 63
     7
 74
     1
 91
        4
 64
     7
 65
   257
 75
     7
175
     7
 42
1.0
 92
        8
 66
     7
 43
1.0
 76
     1
 77
     6
 78
     2
 67
     7
 79
     5
170
     0
171
     0
290
     0
174
     0
 93
        1
 44
0.0
173
     0
291
     1
 45
0.0
1001
ACAD
1000
AcDbSavedByObjectVersion
1070
     0
1001
ACAD
1000
AcRTDxfName
1000
VISUALSTYLE
  0
VISUALSTYLE
  5
13ED9
102
{ACAD_REACTORS
330
13ECF
102
}
330
13ECF
100
AcDbVisualStyle
  2
Realistic
 70
     8
 71
     2
 72
     2
 73
     0
 90
        0
 40
-0.6
 41
-30.0
 62
     5
 63
     7
 74
     1
 91
        0
 64
     7
 65
   257
 75
     1
175
     1
 42
1.0
 92
        8
 66
     8
 43
1.0
 76
     1
 77
     6
 78
     2
 67
     7
 79
     5
170
     0
171
     0
290
     0
174
     0
 93
       13
 44
0.0
173
     0
291
     0
 45
0.0
1001
ACAD
1000
AcDbSavedByObjectVersion
1070
     0
1001
ACAD
1000
AcRTDxfName
1000
VISUALSTYLE
  0
VISUALSTYLE
  5
13EDC
102
{ACAD_REACTORS
330
13ECF
102
}
330
13ECF
100
AcDbVisualStyle
  2
Thicken
 70
    13
 71
     2
 72
     2
 73
     0
 90
        0
 40
-0.6
 41
-30.0
 62
     5
 63
     7
 74
     1
 91
        4
 64
     7
 65
   257
 75
     1
175
     1
 42
1.0
 92
       12
 66
     7
 43
1.0
 76
     1
 77
     6
 78
     2
 67
     7
 79
     5
170
     0
171
     0
290
     0
174
     0
 93
        1
 44
0.0
173
     0
291
     1
 45
0.0
1001
ACAD
1000
AcDbSavedByObjectVersion
1070
     0
1001
ACAD
1000
AcRTDxfName
1000
VISUALSTYLE
  0
XRECORD
  5
13FC3
102
{ACAD_REACTORS
330
13FC1
102
}
330
13FC1
100
AcDbXrecord
280
     1
340
13437
  0
XRECORD
  5
13FC2
102
{ACAD_REACTORS
330
13FC1
102
}
330
13FC1
100
AcDbXrecord
280
     1
340
13436
  0
DICTIONARYVAR
  5
13DAD
102
{ACAD_REACTORS
330
4E
102
}
330
4E
100
DictionaryVariables
280
     0
  1
STANDARD
  0
DICTIONARYVAR
  5
13518
102
{ACAD_REACTORS
330
4E
102
}
330
4E
100
DictionaryVariables
280
     0
  1
1
  0
DICTIONARYVAR
  5
13F52
102
{ACAD_REACTORS
330
4E
102
}
330
4E
100
DictionaryVariables
280
     0
  1
0
  0
DICTIONARYVAR
  5
13519
102
{ACAD_REACTORS
330
4E
102
}
330
4E
100
DictionaryVariables
280
     0
  1

  0
DICTIONARYVAR
  5
4F
102
{ACAD_REACTORS
330
4E
102
}
330
4E
100
DictionaryVariables
280
     0
  1
96
  0
DICTIONARY
  5
13FC6
330
131AF
100
AcDbDictionary
280
     1
281
     1
  3
ACAD_XREC_ROUNDTRIP
360
13FC7
  0
DICTIONARY
  5
13FC8
330
131B0
100
AcDbDictionary
280
     1
281
     1
  3
ACAD_XREC_ROUNDTRIP
360
13FC9
  0
DICTIONARY
  5
13FC4
330
1AB
100
AcDbDictionary
280
     1
281
     1
  3
ACAD_XREC_ROUNDTRIP
360
13FC5
  0
DICTIONARY
  5
13FA9
330
13BC9
100
AcDbDictionary
280
     1
281
     1
  3
ACAD_XREC_ROUNDTRIP
360
13FAA
  0
XRECORD
  5
13FC7
102
{ACAD_REACTORS
330
13FC6
102
}
330
13FC6
100
AcDbXrecord
280
     1
102
SHADEPLOT
 70
     0
102
SHADEPLOTRESLEVEL
 70
     2
102
SHADEPLOTCUSTOMDPI
 70
   300
  0
XRECORD
  5
13FC9
102
{ACAD_REACTORS
330
13FC8
102
}
330
13FC8
100
AcDbXrecord
280
     1
102
SHADEPLOT
 70
     0
102
SHADEPLOTRESLEVEL
 70
     2
102
SHADEPLOTCUSTOMDPI
 70
   300
  0
XRECORD
  5
13FC5
102
{ACAD_REACTORS
330
13FC4
102
}
330
13FC4
100
AcDbXrecord
280
     1
102
SHADEPLOT
 70
     0
102
SHADEPLOTRESLEVEL
 70
     2
102
SHADEPLOTCUSTOMDPI
 70
   300
  0
XRECORD
  5
13FAA
102
{ACAD_REACTORS
330
13FA9
102
}
330
13FA9
100
AcDbXrecord
280
     1
102
ACAD_ROUNDTRIP_PRE2007_TABLESTYLE
 90
        4
 91
        0
  1

 92
        4
 93
        0
  2

 94
        4
 95
        0
  3

  0
ENDSEC
  0
EOF
