ISO-10303-21;
HEADER;
FILE_DESCRIPTION( ( '' ), '1' );
FILE_NAME( '//partserver001.servicenet/client_exchange/iodir/jobs/output/wkb10150234_no1/STEP/lxs_40_2_03.stp', '2008-04-10T05:53:47', ( '' ), ( '' ), ' ', ' ', ' ' );
FILE_SCHEMA( ( 'CONFIG_CONTROL_DESIGN' ) );
ENDSEC;
DATA;
#1 = DESIGN_CONTEXT( '', #27, 'design' );
#2 = APPLICATION_PROTOCOL_DEFINITION( 'INTERNATIONAL STANDARD', 'config_control_design', 1994, #27 );
#3 = PRODUCT_CATEGORY_RELATIONSHIP( 'NONE', 'NONE', #28, #29 );
#4 = DATE_AND_TIME( #30, #31 );
#5 = DATE_TIME_ROLE( 'creation_date' );
#6 = DATE_TIME_ROLE( 'classification_date' );
#7 = PERSON_AND_ORGANIZATION_ROLE( 'creator' );
#8 = PERSON_AND_ORGANIZATION_ROLE( 'design_supplier' );
#9 = PERSON_AND_ORGANIZATION_ROLE( 'classification_officer' );
#10 = PERSON_AND_ORGANIZATION_ROLE( 'design_owner' );
#11 = APPROVAL_PERSON_ORGANIZATION( #32, #33, #34 );
#12 = APPROVAL_DATE_TIME( #4, #33 );
#13 = CC_DESIGN_APPROVAL( #33, ( #35, #36, #37 ) );
#14 = CC_DESIGN_DATE_AND_TIME_ASSIGNMENT( #4, #5, ( #37 ) );
#15 = CC_DESIGN_DATE_AND_TIME_ASSIGNMENT( #4, #6, ( #35 ) );
#16 = CC_DESIGN_PERSON_AND_ORGANIZATION_ASSIGNMENT( #32, #10, ( #38 ) );
#17 = CC_DESIGN_PERSON_AND_ORGANIZATION_ASSIGNMENT( #32, #7, ( #37 ) );
#18 = CC_DESIGN_PERSON_AND_ORGANIZATION_ASSIGNMENT( #32, #7, ( #36 ) );
#19 = CC_DESIGN_PERSON_AND_ORGANIZATION_ASSIGNMENT( #32, #8, ( #36 ) );
#20 = CC_DESIGN_SECURITY_CLASSIFICATION( #35, ( #36 ) );
#21 = CC_DESIGN_PERSON_AND_ORGANIZATION_ASSIGNMENT( #32, #9, ( #35 ) );
#22 = SHAPE_DEFINITION_REPRESENTATION( #39, #40 );
#23 =  ( GEOMETRIC_REPRESENTATION_CONTEXT( 3 )GLOBAL_UNCERTAINTY_ASSIGNED_CONTEXT( ( #43 ) )GLOBAL_UNIT_ASSIGNED_CONTEXT( ( #45, #46, #47 ) )REPRESENTATION_CONTEXT( 'NONE', 'WORKSPACE' ) );
#27 = APPLICATION_CONTEXT( 'CONFIGURATION CONTROLLED 3D DESIGNS OF MECHANICAL PARTS AND ASSEMBLIES' );
#28 = PRODUCT_CATEGORY( 'part', 'NONE' );
#29 = PRODUCT_RELATED_PRODUCT_CATEGORY( 'detail', ' ', ( #38 ) );
#30 = CALENDAR_DATE( 2008, 10, 3 );
#31 = LOCAL_TIME( 7, 53, 47.0000000000000, #49 );
#32 = PERSON_AND_ORGANIZATION( #50, #51 );
#33 = APPROVAL( #52, 'SOLID MODEL' );
#34 = APPROVAL_ROLE( 'APPROVED' );
#35 = SECURITY_CLASSIFICATION( '', '', #53 );
#36 = PRODUCT_DEFINITION_FORMATION_WITH_SPECIFIED_SOURCE( ' ', 'NONE', #38, .NOT_KNOWN. );
#37 = PRODUCT_DEFINITION( 'NONE', 'NONE', #36, #1 );
#38 = PRODUCT( '1', '1', 'PART-1-DESC', ( #54 ) );
#39 = PRODUCT_DEFINITION_SHAPE( 'NONE', 'NONE', #37 );
#40 = ADVANCED_BREP_SHAPE_REPRESENTATION( '1', ( #55, #56 ), #23 );
#43 = UNCERTAINTY_MEASURE_WITH_UNIT( LENGTH_MEASURE( 1.00000000000000E-006 ), #45, '', '' );
#45 =  ( CONVERSION_BASED_UNIT( 'MILLIMETRE', #59 )LENGTH_UNIT(  )NAMED_UNIT( #62 ) );
#46 =  ( NAMED_UNIT( #64 )PLANE_ANGLE_UNIT(  )SI_UNIT( $, .RADIAN. ) );
#47 =  ( NAMED_UNIT( #64 )SOLID_ANGLE_UNIT(  )SI_UNIT( $, .STERADIAN. ) );
#49 = COORDINATED_UNIVERSAL_TIME_OFFSET( 1, 0, .AHEAD. );
#50 = PERSON( '', 'UNSPECIFIED', $, $, $, $ );
#51 = ORGANIZATION( 'UNSPECIFIED', 'UNSPECIFIED', 'UNSPECIFIED' );
#52 = APPROVAL_STATUS( 'approved' );
#53 = SECURITY_CLASSIFICATION_LEVEL( 'unclassified' );
#54 = MECHANICAL_CONTEXT( '', #27, 'mechanical' );
#55 = MANIFOLD_SOLID_BREP( '1', #70 );
#56 = AXIS2_PLACEMENT_3D( '', #71, #72, #73 );
#59 = LENGTH_MEASURE_WITH_UNIT( LENGTH_MEASURE( 1.00000000000000 ), #74 );
#62 = DIMENSIONAL_EXPONENTS( 1.00000000000000, 0.000000000000000, 0.000000000000000, 0.000000000000000, 0.000000000000000, 0.000000000000000, 0.000000000000000 );
#64 = DIMENSIONAL_EXPONENTS( 0.000000000000000, 0.000000000000000, 0.000000000000000, 0.000000000000000, 0.000000000000000, 0.000000000000000, 0.000000000000000 );
#70 = CLOSED_SHELL( '', ( #75, #76, #77, #78, #79, #80, #81, #82, #83, #84 ) );
#71 = CARTESIAN_POINT( '', ( 0.000000000000000, 0.000000000000000, 0.000000000000000 ) );
#72 = DIRECTION( '', ( 0.000000000000000, 0.000000000000000, 1.00000000000000 ) );
#73 = DIRECTION( '', ( 1.00000000000000, 0.000000000000000, 0.000000000000000 ) );
#74 =  ( NAMED_UNIT( #62 )LENGTH_UNIT(  )SI_UNIT( .MILLI., .METRE. ) );
#75 = ADVANCED_FACE( '', ( #86 ), #87, .F. );
#76 = ADVANCED_FACE( '', ( #88 ), #89, .F. );
#77 = ADVANCED_FACE( '', ( #90 ), #91, .T. );
#78 = ADVANCED_FACE( '', ( #92 ), #93, .T. );
#79 = ADVANCED_FACE( '', ( #94 ), #95, .F. );
#80 = ADVANCED_FACE( '', ( #96 ), #97, .F. );
#81 = ADVANCED_FACE( '', ( #98 ), #99, .T. );
#82 = ADVANCED_FACE( '', ( #100 ), #101, .T. );
#83 = ADVANCED_FACE( '', ( #102 ), #103, .T. );
#84 = ADVANCED_FACE( '', ( #104 ), #105, .F. );
#86 = FACE_OUTER_BOUND( '', #106, .T. );
#87 = CYLINDRICAL_SURFACE( '', #107, 20.0000000000000 );
#88 = FACE_OUTER_BOUND( '', #108, .T. );
#89 = CYLINDRICAL_SURFACE( '', #109, 20.0000000000000 );
#90 = FACE_OUTER_BOUND( '', #110, .T. );
#91 = CYLINDRICAL_SURFACE( '', #111, 28.2500000000000 );
#92 = FACE_OUTER_BOUND( '', #112, .T. );
#93 = CYLINDRICAL_SURFACE( '', #113, 28.2500000000000 );
#94 = FACE_OUTER_BOUND( '', #114, .T. );
#95 = PLANE( '', #115 );
#96 = FACE_OUTER_BOUND( '', #116, .T. );
#97 = PLANE( '', #117 );
#98 = FACE_OUTER_BOUND( '', #118, .T. );
#99 = PLANE( '', #119 );
#100 = FACE_OUTER_BOUND( '', #120, .T. );
#101 = CYLINDRICAL_SURFACE( '', #121, 28.2500000000000 );
#102 = FACE_OUTER_BOUND( '', #122, .T. );
#103 = PLANE( '', #123 );
#104 = FACE_OUTER_BOUND( '', #124, .T. );
#105 = CYLINDRICAL_SURFACE( '', #125, 20.0000000000000 );
#106 = EDGE_LOOP( '', ( #126, #127, #128, #129 ) );
#107 = AXIS2_PLACEMENT_3D( '', #130, #131, #132 );
#108 = EDGE_LOOP( '', ( #133, #134, #135, #136 ) );
#109 = AXIS2_PLACEMENT_3D( '', #137, #138, #139 );
#110 = EDGE_LOOP( '', ( #140, #141, #142, #143 ) );
#111 = AXIS2_PLACEMENT_3D( '', #144, #145, #146 );
#112 = EDGE_LOOP( '', ( #147, #148, #149, #150 ) );
#113 = AXIS2_PLACEMENT_3D( '', #151, #152, #153 );
#114 = EDGE_LOOP( '', ( #154, #155, #156, #157 ) );
#115 = AXIS2_PLACEMENT_3D( '', #158, #159, #160 );
#116 = EDGE_LOOP( '', ( #161, #162, #163, #164 ) );
#117 = AXIS2_PLACEMENT_3D( '', #165, #166, #167 );
#118 = EDGE_LOOP( '', ( #168, #169, #170, #171, #172, #173, #174, #175 ) );
#119 = AXIS2_PLACEMENT_3D( '', #176, #177, #178 );
#120 = EDGE_LOOP( '', ( #179, #180, #181, #182 ) );
#121 = AXIS2_PLACEMENT_3D( '', #183, #184, #185 );
#122 = EDGE_LOOP( '', ( #186, #187, #188, #189, #190, #191, #192, #193 ) );
#123 = AXIS2_PLACEMENT_3D( '', #194, #195, #196 );
#124 = EDGE_LOOP( '', ( #197, #198, #199, #200 ) );
#125 = AXIS2_PLACEMENT_3D( '', #201, #202, #203 );
#126 = ORIENTED_EDGE( '', *, *, #204, .F. );
#127 = ORIENTED_EDGE( '', *, *, #205, .T. );
#128 = ORIENTED_EDGE( '', *, *, #206, .T. );
#129 = ORIENTED_EDGE( '', *, *, #207, .F. );
#130 = CARTESIAN_POINT( '', ( 0.000000000000000, 0.000000000000000, 3.95000000000000 ) );
#131 = DIRECTION( '', ( 0.000000000000000, 0.000000000000000, -1.00000000000000 ) );
#132 = DIRECTION( '', ( -2.44921270764475E-016, 1.00000000000000, 0.000000000000000 ) );
#133 = ORIENTED_EDGE( '', *, *, #208, .F. );
#134 = ORIENTED_EDGE( '', *, *, #209, .F. );
#135 = ORIENTED_EDGE( '', *, *, #210, .T. );
#136 = ORIENTED_EDGE( '', *, *, #211, .T. );
#137 = CARTESIAN_POINT( '', ( 0.000000000000000, 0.000000000000000, 3.95000000000000 ) );
#138 = DIRECTION( '', ( 0.000000000000000, 0.000000000000000, -1.00000000000000 ) );
#139 = DIRECTION( '', ( -2.44921270764475E-016, 1.00000000000000, 0.000000000000000 ) );
#140 = ORIENTED_EDGE( '', *, *, #212, .T. );
#141 = ORIENTED_EDGE( '', *, *, #213, .T. );
#142 = ORIENTED_EDGE( '', *, *, #214, .T. );
#143 = ORIENTED_EDGE( '', *, *, #215, .F. );
#144 = CARTESIAN_POINT( '', ( 0.000000000000000, 0.000000000000000, 3.95000000000000 ) );
#145 = DIRECTION( '', ( 0.000000000000000, 0.000000000000000, -1.00000000000000 ) );
#146 = DIRECTION( '', ( -2.44921270764475E-016, 1.00000000000000, 0.000000000000000 ) );
#147 = ORIENTED_EDGE( '', *, *, #216, .F. );
#148 = ORIENTED_EDGE( '', *, *, #217, .T. );
#149 = ORIENTED_EDGE( '', *, *, #212, .F. );
#150 = ORIENTED_EDGE( '', *, *, #218, .F. );
#151 = CARTESIAN_POINT( '', ( 0.000000000000000, 0.000000000000000, 3.95000000000000 ) );
#152 = DIRECTION( '', ( 0.000000000000000, 0.000000000000000, -1.00000000000000 ) );
#153 = DIRECTION( '', ( -2.44921270764475E-016, 1.00000000000000, 0.000000000000000 ) );
#154 = ORIENTED_EDGE( '', *, *, #219, .F. );
#155 = ORIENTED_EDGE( '', *, *, #220, .F. );
#156 = ORIENTED_EDGE( '', *, *, #221, .F. );
#157 = ORIENTED_EDGE( '', *, *, #210, .F. );
#158 = CARTESIAN_POINT( '', ( 29.2500000000000, 16.4602793074513, 8.90000000000000 ) );
#159 = DIRECTION( '', ( -0.422618261740700, 0.906307787036650, 0.000000000000000 ) );
#160 = DIRECTION( '', ( 0.906307787036650, 0.422618261740700, 0.000000000000000 ) );
#161 = ORIENTED_EDGE( '', *, *, #222, .F. );
#162 = ORIENTED_EDGE( '', *, *, #206, .F. );
#163 = ORIENTED_EDGE( '', *, *, #223, .F. );
#164 = ORIENTED_EDGE( '', *, *, #214, .F. );
#165 = CARTESIAN_POINT( '', ( -6.04918288834954, 0.000000000000000, 8.90000000000000 ) );
#166 = DIRECTION( '', ( -0.422618261740700, -0.906307787036650, 0.000000000000000 ) );
#167 = DIRECTION( '', ( -0.906307787036650, 0.422618261740700, 0.000000000000000 ) );
#168 = ORIENTED_EDGE( '', *, *, #221, .T. );
#169 = ORIENTED_EDGE( '', *, *, #224, .T. );
#170 = ORIENTED_EDGE( '', *, *, #218, .T. );
#171 = ORIENTED_EDGE( '', *, *, #215, .T. );
#172 = ORIENTED_EDGE( '', *, *, #223, .T. );
#173 = ORIENTED_EDGE( '', *, *, #205, .F. );
#174 = ORIENTED_EDGE( '', *, *, #225, .F. );
#175 = ORIENTED_EDGE( '', *, *, #211, .F. );
#176 = CARTESIAN_POINT( '', ( -5.90872565719297E-015, 24.1250000000000, 7.90000000000000 ) );
#177 = DIRECTION( '', ( 0.000000000000000, 0.000000000000000, 1.00000000000000 ) );
#178 = DIRECTION( '', ( -2.44921270764475E-016, 1.00000000000000, 0.000000000000000 ) );
#179 = ORIENTED_EDGE( '', *, *, #216, .T. );
#180 = ORIENTED_EDGE( '', *, *, #224, .F. );
#181 = ORIENTED_EDGE( '', *, *, #220, .T. );
#182 = ORIENTED_EDGE( '', *, *, #226, .T. );
#183 = CARTESIAN_POINT( '', ( 0.000000000000000, 0.000000000000000, 3.95000000000000 ) );
#184 = DIRECTION( '', ( 0.000000000000000, 0.000000000000000, -1.00000000000000 ) );
#185 = DIRECTION( '', ( -2.44921270764475E-016, 1.00000000000000, 0.000000000000000 ) );
#186 = ORIENTED_EDGE( '', *, *, #219, .T. );
#187 = ORIENTED_EDGE( '', *, *, #209, .T. );
#188 = ORIENTED_EDGE( '', *, *, #227, .T. );
#189 = ORIENTED_EDGE( '', *, *, #207, .T. );
#190 = ORIENTED_EDGE( '', *, *, #222, .T. );
#191 = ORIENTED_EDGE( '', *, *, #213, .F. );
#192 = ORIENTED_EDGE( '', *, *, #217, .F. );
#193 = ORIENTED_EDGE( '', *, *, #226, .F. );
#194 = CARTESIAN_POINT( '', ( -5.90872565719297E-015, 24.1250000000000, 0.000000000000000 ) );
#195 = DIRECTION( '', ( 0.000000000000000, 0.000000000000000, -1.00000000000000 ) );
#196 = DIRECTION( '', ( 2.44921270764475E-016, -1.00000000000000, 0.000000000000000 ) );
#197 = ORIENTED_EDGE( '', *, *, #208, .T. );
#198 = ORIENTED_EDGE( '', *, *, #225, .T. );
#199 = ORIENTED_EDGE( '', *, *, #204, .T. );
#200 = ORIENTED_EDGE( '', *, *, #227, .F. );
#201 = CARTESIAN_POINT( '', ( 0.000000000000000, 0.000000000000000, 3.95000000000000 ) );
#202 = DIRECTION( '', ( 0.000000000000000, 0.000000000000000, -1.00000000000000 ) );
#203 = DIRECTION( '', ( -2.44921270764475E-016, 1.00000000000000, 0.000000000000000 ) );
#204 = EDGE_CURVE( '', #228, #229, #230, .T. );
#205 = EDGE_CURVE( '', #228, #231, #232, .T. );
#206 = EDGE_CURVE( '', #231, #233, #234, .T. );
#207 = EDGE_CURVE( '', #229, #233, #235, .T. );
#208 = EDGE_CURVE( '', #236, #237, #238, .T. );
#209 = EDGE_CURVE( '', #239, #236, #240, .T. );
#210 = EDGE_CURVE( '', #239, #241, #242, .T. );
#211 = EDGE_CURVE( '', #241, #237, #243, .T. );
#212 = EDGE_CURVE( '', #244, #245, #246, .T. );
#213 = EDGE_CURVE( '', #245, #247, #248, .T. );
#214 = EDGE_CURVE( '', #247, #249, #250, .T. );
#215 = EDGE_CURVE( '', #244, #249, #251, .T. );
#216 = EDGE_CURVE( '', #252, #253, #254, .T. );
#217 = EDGE_CURVE( '', #252, #245, #255, .T. );
#218 = EDGE_CURVE( '', #253, #244, #256, .T. );
#219 = EDGE_CURVE( '', #257, #239, #258, .T. );
#220 = EDGE_CURVE( '', #259, #257, #260, .T. );
#221 = EDGE_CURVE( '', #241, #259, #261, .T. );
#222 = EDGE_CURVE( '', #233, #247, #262, .T. );
#223 = EDGE_CURVE( '', #249, #231, #263, .T. );
#224 = EDGE_CURVE( '', #259, #253, #264, .T. );
#225 = EDGE_CURVE( '', #237, #228, #265, .T. );
#226 = EDGE_CURVE( '', #257, #252, #266, .T. );
#227 = EDGE_CURVE( '', #236, #229, #267, .T. );
#228 = VERTEX_POINT( '', #268 );
#229 = VERTEX_POINT( '', #269 );
#230 = LINE( '', #270, #271 );
#231 = VERTEX_POINT( '', #272 );
#232 = CIRCLE( '', #273, 20.0000000000000 );
#233 = VERTEX_POINT( '', #274 );
#234 = LINE( '', #275, #276 );
#235 = CIRCLE( '', #277, 20.0000000000000 );
#236 = VERTEX_POINT( '', #278 );
#237 = VERTEX_POINT( '', #279 );
#238 = LINE( '', #280, #281 );
#239 = VERTEX_POINT( '', #282 );
#240 = CIRCLE( '', #283, 20.0000000000000 );
#241 = VERTEX_POINT( '', #284 );
#242 = LINE( '', #285, #286 );
#243 = CIRCLE( '', #287, 20.0000000000000 );
#244 = VERTEX_POINT( '', #288 );
#245 = VERTEX_POINT( '', #289 );
#246 = LINE( '', #290, #291 );
#247 = VERTEX_POINT( '', #292 );
#248 = CIRCLE( '', #293, 28.2500000000000 );
#249 = VERTEX_POINT( '', #294 );
#250 = LINE( '', #295, #296 );
#251 = CIRCLE( '', #297, 28.2500000000000 );
#252 = VERTEX_POINT( '', #298 );
#253 = VERTEX_POINT( '', #299 );
#254 = LINE( '', #300, #301 );
#255 = CIRCLE( '', #302, 28.2500000000000 );
#256 = CIRCLE( '', #303, 28.2500000000000 );
#257 = VERTEX_POINT( '', #304 );
#258 = LINE( '', #305, #306 );
#259 = VERTEX_POINT( '', #307 );
#260 = LINE( '', #308, #309 );
#261 = LINE( '', #310, #311 );
#262 = LINE( '', #312, #313 );
#263 = LINE( '', #314, #315 );
#264 = CIRCLE( '', #316, 28.2500000000000 );
#265 = CIRCLE( '', #317, 20.0000000000000 );
#266 = CIRCLE( '', #318, 28.2500000000000 );
#267 = CIRCLE( '', #319, 20.0000000000000 );
#268 = CARTESIAN_POINT( '', ( 2.44921270764475E-015, -20.0000000000000, 7.90000000000000 ) );
#269 = CARTESIAN_POINT( '', ( 2.44921270764475E-015, -20.0000000000000, 0.000000000000000 ) );
#270 = CARTESIAN_POINT( '', ( 2.44921270764475E-015, -20.0000000000000, 3.95000000000000 ) );
#271 = VECTOR( '', #320, 1.00000000000000 );
#272 = CARTESIAN_POINT( '', ( 16.8970411611027, -10.7000000000000, 7.90000000000000 ) );
#273 = AXIS2_PLACEMENT_3D( '', #321, #322, #323 );
#274 = CARTESIAN_POINT( '', ( 16.8970411611027, -10.7000000000000, 0.000000000000000 ) );
#275 = CARTESIAN_POINT( '', ( 16.8970411611027, -10.7000000000000, 3.95000000000000 ) );
#276 = VECTOR( '', #324, 1.00000000000000 );
#277 = AXIS2_PLACEMENT_3D( '', #325, #326, #327 );
#278 = CARTESIAN_POINT( '', ( -2.44921270764475E-015, 20.0000000000000, 0.000000000000000 ) );
#279 = CARTESIAN_POINT( '', ( -2.44921270764475E-015, 20.0000000000000, 7.90000000000000 ) );
#280 = CARTESIAN_POINT( '', ( -2.44921270764475E-015, 20.0000000000000, 3.95000000000000 ) );
#281 = VECTOR( '', #328, 1.00000000000000 );
#282 = CARTESIAN_POINT( '', ( 16.8970411611027, 10.7000000000000, 0.000000000000000 ) );
#283 = AXIS2_PLACEMENT_3D( '', #329, #330, #331 );
#284 = CARTESIAN_POINT( '', ( 16.8970411611027, 10.7000000000000, 7.90000000000000 ) );
#285 = CARTESIAN_POINT( '', ( 16.8970411611027, 10.7000000000000, 3.95000000000000 ) );
#286 = VECTOR( '', #332, 1.00000000000000 );
#287 = AXIS2_PLACEMENT_3D( '', #333, #334, #335 );
#288 = CARTESIAN_POINT( '', ( 3.45951294954822E-015, -28.2500000000000, 7.90000000000000 ) );
#289 = CARTESIAN_POINT( '', ( 3.45951294954822E-015, -28.2500000000000, 0.000000000000000 ) );
#290 = CARTESIAN_POINT( '', ( 3.45951294954822E-015, -28.2500000000000, 3.95000000000000 ) );
#291 = VECTOR( '', #336, 1.00000000000000 );
#292 = CARTESIAN_POINT( '', ( 24.4177202867598, -14.2069502708203, 0.000000000000000 ) );
#293 = AXIS2_PLACEMENT_3D( '', #337, #338, #339 );
#294 = CARTESIAN_POINT( '', ( 24.4177202867598, -14.2069502708203, 7.90000000000000 ) );
#295 = CARTESIAN_POINT( '', ( 24.4177202867598, -14.2069502708203, 3.95000000000000 ) );
#296 = VECTOR( '', #340, 1.00000000000000 );
#297 = AXIS2_PLACEMENT_3D( '', #341, #342, #343 );
#298 = CARTESIAN_POINT( '', ( -3.45951294954822E-015, 28.2500000000000, 0.000000000000000 ) );
#299 = CARTESIAN_POINT( '', ( -3.45951294954822E-015, 28.2500000000000, 7.90000000000000 ) );
#300 = CARTESIAN_POINT( '', ( -3.45951294954822E-015, 28.2500000000000, 3.95000000000000 ) );
#301 = VECTOR( '', #344, 1.00000000000000 );
#302 = AXIS2_PLACEMENT_3D( '', #345, #346, #347 );
#303 = AXIS2_PLACEMENT_3D( '', #348, #349, #350 );
#304 = CARTESIAN_POINT( '', ( 24.4177202867598, 14.2069502708203, 0.000000000000000 ) );
#305 = CARTESIAN_POINT( '', ( 18.7049947778137, 11.5430626170613, 0.000000000000000 ) );
#306 = VECTOR( '', #351, 1.00000000000000 );
#307 = CARTESIAN_POINT( '', ( 24.4177202867598, 14.2069502708203, 7.90000000000000 ) );
#308 = CARTESIAN_POINT( '', ( 24.4177202867598, 14.2069502708203, 3.95000000000000 ) );
#309 = VECTOR( '', #352, 1.00000000000000 );
#310 = CARTESIAN_POINT( '', ( 18.7049947778137, 11.5430626170613, 7.90000000000000 ) );
#311 = VECTOR( '', #353, 1.00000000000000 );
#312 = CARTESIAN_POINT( '', ( -8.18500776148377, 0.995951494820417, 0.000000000000000 ) );
#313 = VECTOR( '', #354, 1.00000000000000 );
#314 = CARTESIAN_POINT( '', ( -8.18500776148377, 0.995951494820417, 7.90000000000000 ) );
#315 = VECTOR( '', #355, 1.00000000000000 );
#316 = AXIS2_PLACEMENT_3D( '', #356, #357, #358 );
#317 = AXIS2_PLACEMENT_3D( '', #359, #360, #361 );
#318 = AXIS2_PLACEMENT_3D( '', #362, #363, #364 );
#319 = AXIS2_PLACEMENT_3D( '', #365, #366, #367 );
#320 = DIRECTION( '', ( 0.000000000000000, 0.000000000000000, -1.00000000000000 ) );
#321 = CARTESIAN_POINT( '', ( 0.000000000000000, 0.000000000000000, 7.90000000000000 ) );
#322 = DIRECTION( '', ( 0.000000000000000, 0.000000000000000, 1.00000000000000 ) );
#323 = DIRECTION( '', ( -2.44921270764475E-016, 1.00000000000000, 0.000000000000000 ) );
#324 = DIRECTION( '', ( 0.000000000000000, 0.000000000000000, -1.00000000000000 ) );
#325 = CARTESIAN_POINT( '', ( 0.000000000000000, 0.000000000000000, 0.000000000000000 ) );
#326 = DIRECTION( '', ( 0.000000000000000, 0.000000000000000, 1.00000000000000 ) );
#327 = DIRECTION( '', ( -2.44921270764475E-016, 1.00000000000000, 0.000000000000000 ) );
#328 = DIRECTION( '', ( 0.000000000000000, 0.000000000000000, 1.00000000000000 ) );
#329 = CARTESIAN_POINT( '', ( 0.000000000000000, 0.000000000000000, 0.000000000000000 ) );
#330 = DIRECTION( '', ( 0.000000000000000, 0.000000000000000, 1.00000000000000 ) );
#331 = DIRECTION( '', ( -2.44921270764475E-016, 1.00000000000000, 0.000000000000000 ) );
#332 = DIRECTION( '', ( 0.000000000000000, 0.000000000000000, 1.00000000000000 ) );
#333 = CARTESIAN_POINT( '', ( 0.000000000000000, 0.000000000000000, 7.90000000000000 ) );
#334 = DIRECTION( '', ( 0.000000000000000, 0.000000000000000, 1.00000000000000 ) );
#335 = DIRECTION( '', ( -2.44921270764475E-016, 1.00000000000000, 0.000000000000000 ) );
#336 = DIRECTION( '', ( 0.000000000000000, 0.000000000000000, -1.00000000000000 ) );
#337 = CARTESIAN_POINT( '', ( 0.000000000000000, 0.000000000000000, 0.000000000000000 ) );
#338 = DIRECTION( '', ( 0.000000000000000, 0.000000000000000, 1.00000000000000 ) );
#339 = DIRECTION( '', ( -2.44921270764475E-016, 1.00000000000000, 0.000000000000000 ) );
#340 = DIRECTION( '', ( 0.000000000000000, 0.000000000000000, 1.00000000000000 ) );
#341 = CARTESIAN_POINT( '', ( 0.000000000000000, 0.000000000000000, 7.90000000000000 ) );
#342 = DIRECTION( '', ( 0.000000000000000, 0.000000000000000, 1.00000000000000 ) );
#343 = DIRECTION( '', ( -2.44921270764475E-016, 1.00000000000000, 0.000000000000000 ) );
#344 = DIRECTION( '', ( 0.000000000000000, 0.000000000000000, 1.00000000000000 ) );
#345 = CARTESIAN_POINT( '', ( 0.000000000000000, 0.000000000000000, 0.000000000000000 ) );
#346 = DIRECTION( '', ( 0.000000000000000, 0.000000000000000, 1.00000000000000 ) );
#347 = DIRECTION( '', ( -2.44921270764475E-016, 1.00000000000000, 0.000000000000000 ) );
#348 = CARTESIAN_POINT( '', ( 0.000000000000000, 0.000000000000000, 7.90000000000000 ) );
#349 = DIRECTION( '', ( 0.000000000000000, 0.000000000000000, 1.00000000000000 ) );
#350 = DIRECTION( '', ( -2.44921270764475E-016, 1.00000000000000, 0.000000000000000 ) );
#351 = DIRECTION( '', ( -0.906307787036650, -0.422618261740700, 0.000000000000000 ) );
#352 = DIRECTION( '', ( 0.000000000000000, 0.000000000000000, -1.00000000000000 ) );
#353 = DIRECTION( '', ( 0.906307787036650, 0.422618261740700, 0.000000000000000 ) );
#354 = DIRECTION( '', ( 0.906307787036650, -0.422618261740700, 0.000000000000000 ) );
#355 = DIRECTION( '', ( -0.906307787036650, 0.422618261740700, 0.000000000000000 ) );
#356 = CARTESIAN_POINT( '', ( 0.000000000000000, 0.000000000000000, 7.90000000000000 ) );
#357 = DIRECTION( '', ( 0.000000000000000, 0.000000000000000, 1.00000000000000 ) );
#358 = DIRECTION( '', ( -2.44921270764475E-016, 1.00000000000000, 0.000000000000000 ) );
#359 = CARTESIAN_POINT( '', ( 0.000000000000000, 0.000000000000000, 7.90000000000000 ) );
#360 = DIRECTION( '', ( 0.000000000000000, 0.000000000000000, 1.00000000000000 ) );
#361 = DIRECTION( '', ( -2.44921270764475E-016, 1.00000000000000, 0.000000000000000 ) );
#362 = CARTESIAN_POINT( '', ( 0.000000000000000, 0.000000000000000, 0.000000000000000 ) );
#363 = DIRECTION( '', ( 0.000000000000000, 0.000000000000000, 1.00000000000000 ) );
#364 = DIRECTION( '', ( -2.44921270764475E-016, 1.00000000000000, 0.000000000000000 ) );
#365 = CARTESIAN_POINT( '', ( 0.000000000000000, 0.000000000000000, 0.000000000000000 ) );
#366 = DIRECTION( '', ( 0.000000000000000, 0.000000000000000, 1.00000000000000 ) );
#367 = DIRECTION( '', ( -2.44921270764475E-016, 1.00000000000000, 0.000000000000000 ) );
ENDSEC;
END-ISO-10303-21;
