ISO-10303-21;
HEADER;
FILE_DESCRIPTION( ( 'STEP AP214' ), '1' );
FILE_NAME( 'p:/temp/worker_31/1408_1104/app_64_12015052913034961304530260eae72_00_00_00_000/STEP/KBS_4_UU__2_14.stp', '  ', ( '  ' ), ( '  ' ), 'PSStep 15.0.47', 'PARTsolutions', '  ' );
FILE_SCHEMA( ( 'AUTOMOTIVE_DESIGN { 1 0 10303 214 1 1 1 1 }' ) );
ENDSEC;
DATA;
#1 = PRODUCT_DEFINITION_CONTEXT( '', #14, 'design' );
#2 = APPLICATION_PROTOCOL_DEFINITION( 'international standard', 'automotive_design', 2001, #14 );
#3 = PRODUCT_CATEGORY_RELATIONSHIP( 'NONE', 'NONE', #15, #16 );
#4 = SHAPE_DEFINITION_REPRESENTATION( #17, #18 );
#5 = PRODUCT_CATEGORY_RELATIONSHIP( 'NONE', 'NONE', #15, #19 );
#6 = CONTEXT_DEPENDENT_SHAPE_REPRESENTATION( #20, #21 );
#7 = SHAPE_DEFINITION_REPRESENTATION( #22, #23 );
#8 = SHAPE_REPRESENTATION_RELATIONSHIP( 'NONE', 'NONE', #23, #24 );
#9 = MECHANICAL_DESIGN_GEOMETRIC_PRESENTATION_REPRESENTATION( ' ', ( #25, #26, #27, #28, #29, #30, #31, #32, #33, #34, #35, #36, #37, #38 ), #10 );
#10 =  ( GEOMETRIC_REPRESENTATION_CONTEXT( 3 )GLOBAL_UNCERTAINTY_ASSIGNED_CONTEXT( ( #41 ) )GLOBAL_UNIT_ASSIGNED_CONTEXT( ( #43, #44, #45 ) )REPRESENTATION_CONTEXT( 'NONE', 'WORKSPACE' ) );
#14 = APPLICATION_CONTEXT( 'core data for automotive mechanical design processes' );
#15 = PRODUCT_CATEGORY( 'part', 'NONE' );
#16 = PRODUCT_RELATED_PRODUCT_CATEGORY( 'detail', ' ', ( #47 ) );
#17 = PRODUCT_DEFINITION_SHAPE( 'NONE', 'NONE', #48 );
#18 = SHAPE_REPRESENTATION( 'KBS 4 UU ', ( #49, #50 ), #51 );
#19 = PRODUCT_RELATED_PRODUCT_CATEGORY( 'detail', ' ', ( #52 ) );
#20 = ( REPRESENTATION_RELATIONSHIP( '', '', #23, #18 )REPRESENTATION_RELATIONSHIP_WITH_TRANSFORMATION( #55 )SHAPE_REPRESENTATION_RELATIONSHIP(  ) );
#21 = PRODUCT_DEFINITION_SHAPE( 'NAUO-PROD-DEF', 'NAUO-PROD-DEF', #57 );
#22 = PRODUCT_DEFINITION_SHAPE( 'NONE', 'NONE', #58 );
#23 = SHAPE_REPRESENTATION( '_KB 4 ', ( #49 ), #51 );
#24 = ADVANCED_BREP_SHAPE_REPRESENTATION( '_KB 4 ', ( #59 ), #10 );
#25 = STYLED_ITEM( '', ( #60 ), #61 );
#26 = STYLED_ITEM( '', ( #62 ), #63 );
#27 = STYLED_ITEM( '', ( #64 ), #65 );
#28 = STYLED_ITEM( '', ( #66 ), #67 );
#29 = STYLED_ITEM( '', ( #68 ), #69 );
#30 = STYLED_ITEM( '', ( #70 ), #71 );
#31 = STYLED_ITEM( '', ( #72 ), #73 );
#32 = STYLED_ITEM( '', ( #74 ), #75 );
#33 = STYLED_ITEM( '', ( #76 ), #77 );
#34 = STYLED_ITEM( '', ( #78 ), #79 );
#35 = STYLED_ITEM( '', ( #80 ), #81 );
#36 = STYLED_ITEM( '', ( #82 ), #83 );
#37 = STYLED_ITEM( '', ( #84 ), #85 );
#38 = STYLED_ITEM( '', ( #86 ), #87 );
#41 = UNCERTAINTY_MEASURE_WITH_UNIT( LENGTH_MEASURE( 0.00100000000000000 ), #43, '', '' );
#43 =  ( CONVERSION_BASED_UNIT( 'MILLIMETRE', #90 )LENGTH_UNIT(  )NAMED_UNIT( #93 ) );
#44 =  ( NAMED_UNIT( #95 )PLANE_ANGLE_UNIT(  )SI_UNIT( $, .RADIAN. ) );
#45 =  ( NAMED_UNIT( #95 )SI_UNIT( $, .STERADIAN. )SOLID_ANGLE_UNIT(  ) );
#47 = PRODUCT( 'KBS 4 UU ', 'KBS 4 UU ', 'PART-KBS 4 UU -DESC', ( #101 ) );
#48 = PRODUCT_DEFINITION( 'NONE', 'NONE', #102, #1 );
#49 = AXIS2_PLACEMENT_3D( '', #103, #104, #105 );
#50 = AXIS2_PLACEMENT_3D( '', #106, #107, #108 );
#51 =  ( GEOMETRIC_REPRESENTATION_CONTEXT( 3 )GLOBAL_UNCERTAINTY_ASSIGNED_CONTEXT( ( #111 ) )GLOBAL_UNIT_ASSIGNED_CONTEXT( ( #113, #114, #115 ) )REPRESENTATION_CONTEXT( 'NONE', 'WORKSPACE' ) );
#52 = PRODUCT( '_KB 4 ', '_KB 4 ', 'PART-_KB 4 -DESC', ( #101 ) );
#55 = ITEM_DEFINED_TRANSFORMATION( '', '', #49, #50 );
#57 = NEXT_ASSEMBLY_USAGE_OCCURRENCE( 'NAUO1', 'NAUO1', 'NAUO1', #48, #58, $ );
#58 = PRODUCT_DEFINITION( '_KB 4 ', '_KB 4 ', #117, #1 );
#59 = MANIFOLD_SOLID_BREP( '_KB 4 ', #118 );
#60 = PRESENTATION_STYLE_ASSIGNMENT( ( #119 ) );
#61 = ADVANCED_FACE( '', ( #120, #121 ), #122, .F. );
#62 = PRESENTATION_STYLE_ASSIGNMENT( ( #123 ) );
#63 = ADVANCED_FACE( '', ( #124, #125 ), #126, .T. );
#64 = PRESENTATION_STYLE_ASSIGNMENT( ( #127 ) );
#65 = ADVANCED_FACE( '', ( #128, #129 ), #130, .T. );
#66 = PRESENTATION_STYLE_ASSIGNMENT( ( #131 ) );
#67 = ADVANCED_FACE( '', ( #132, #133 ), #134, .T. );
#68 = PRESENTATION_STYLE_ASSIGNMENT( ( #135 ) );
#69 = ADVANCED_FACE( '', ( #136, #137 ), #138, .F. );
#70 = PRESENTATION_STYLE_ASSIGNMENT( ( #139 ) );
#71 = ADVANCED_FACE( '', ( #140, #141 ), #142, .T. );
#72 = PRESENTATION_STYLE_ASSIGNMENT( ( #143 ) );
#73 = ADVANCED_FACE( '', ( #144, #145 ), #146, .F. );
#74 = PRESENTATION_STYLE_ASSIGNMENT( ( #147 ) );
#75 = ADVANCED_FACE( '', ( #148, #149 ), #150, .T. );
#76 = PRESENTATION_STYLE_ASSIGNMENT( ( #151 ) );
#77 = ADVANCED_FACE( '', ( #152, #153 ), #154, .T. );
#78 = PRESENTATION_STYLE_ASSIGNMENT( ( #155 ) );
#79 = ADVANCED_FACE( '', ( #156, #157 ), #158, .F. );
#80 = PRESENTATION_STYLE_ASSIGNMENT( ( #159 ) );
#81 = ADVANCED_FACE( '', ( #160, #161 ), #162, .F. );
#82 = PRESENTATION_STYLE_ASSIGNMENT( ( #163 ) );
#83 = ADVANCED_FACE( '', ( #164, #165 ), #166, .T. );
#84 = PRESENTATION_STYLE_ASSIGNMENT( ( #167 ) );
#85 = ADVANCED_FACE( '', ( #168, #169 ), #170, .T. );
#86 = PRESENTATION_STYLE_ASSIGNMENT( ( #171 ) );
#87 = ADVANCED_FACE( '', ( #172, #173 ), #174, .T. );
#90 = LENGTH_MEASURE_WITH_UNIT( LENGTH_MEASURE( 1.00000000000000 ), #175 );
#93 = DIMENSIONAL_EXPONENTS( 1.00000000000000, 0.000000000000000, 0.000000000000000, 0.000000000000000, 0.000000000000000, 0.000000000000000, 0.000000000000000 );
#95 = DIMENSIONAL_EXPONENTS( 0.000000000000000, 0.000000000000000, 0.000000000000000, 0.000000000000000, 0.000000000000000, 0.000000000000000, 0.000000000000000 );
#101 = PRODUCT_CONTEXT( '', #14, 'mechanical' );
#102 = PRODUCT_DEFINITION_FORMATION_WITH_SPECIFIED_SOURCE( ' ', 'NONE', #47, .NOT_KNOWN. );
#103 = CARTESIAN_POINT( '', ( 0.000000000000000, 0.000000000000000, 0.000000000000000 ) );
#104 = DIRECTION( '', ( 0.000000000000000, 0.000000000000000, 1.00000000000000 ) );
#105 = DIRECTION( '', ( 1.00000000000000, 0.000000000000000, 0.000000000000000 ) );
#106 = CARTESIAN_POINT( '', ( 0.000000000000000, 0.000000000000000, 0.000000000000000 ) );
#107 = DIRECTION( '', ( 0.000000000000000, 0.000000000000000, 1.00000000000000 ) );
#108 = DIRECTION( '', ( 1.00000000000000, 0.000000000000000, 0.000000000000000 ) );
#111 = UNCERTAINTY_MEASURE_WITH_UNIT( LENGTH_MEASURE( 0.00100000000000000 ), #113, '', '' );
#113 =  ( CONVERSION_BASED_UNIT( 'MILLIMETRE', #178 )LENGTH_UNIT(  )NAMED_UNIT( #181 ) );
#114 =  ( NAMED_UNIT( #183 )PLANE_ANGLE_UNIT(  )SI_UNIT( $, .RADIAN. ) );
#115 =  ( NAMED_UNIT( #183 )SI_UNIT( $, .STERADIAN. )SOLID_ANGLE_UNIT(  ) );
#117 = PRODUCT_DEFINITION_FORMATION_WITH_SPECIFIED_SOURCE( ' ', 'NONE', #52, .NOT_KNOWN. );
#118 = CLOSED_SHELL( '', ( #87, #67, #63, #61, #77, #73, #71, #81, #75, #69, #65, #79, #83, #85 ) );
#119 = SURFACE_STYLE_USAGE( .BOTH., #189 );
#120 = FACE_OUTER_BOUND( '', #190, .T. );
#121 = FACE_OUTER_BOUND( '', #191, .T. );
#122 = CYLINDRICAL_SURFACE( '', #192, 2.20000000000000 );
#123 = SURFACE_STYLE_USAGE( .BOTH., #193 );
#124 = FACE_BOUND( '', #194, .T. );
#125 = FACE_OUTER_BOUND( '', #195, .T. );
#126 = PLANE( '', #196 );
#127 = SURFACE_STYLE_USAGE( .BOTH., #197 );
#128 = FACE_BOUND( '', #198, .T. );
#129 = FACE_OUTER_BOUND( '', #199, .T. );
#130 = PLANE( '', #200 );
#131 = SURFACE_STYLE_USAGE( .BOTH., #201 );
#132 = FACE_OUTER_BOUND( '', #202, .T. );
#133 = FACE_OUTER_BOUND( '', #203, .T. );
#134 = CYLINDRICAL_SURFACE( '', #204, 4.00000000000000 );
#135 = SURFACE_STYLE_USAGE( .BOTH., #205 );
#136 = FACE_OUTER_BOUND( '', #206, .T. );
#137 = FACE_OUTER_BOUND( '', #207, .T. );
#138 = CYLINDRICAL_SURFACE( '', #208, 2.40000000000000 );
#139 = SURFACE_STYLE_USAGE( .BOTH., #209 );
#140 = FACE_BOUND( '', #210, .T. );
#141 = FACE_OUTER_BOUND( '', #211, .T. );
#142 = PLANE( '', #212 );
#143 = SURFACE_STYLE_USAGE( .BOTH., #213 );
#144 = FACE_OUTER_BOUND( '', #214, .T. );
#145 = FACE_OUTER_BOUND( '', #215, .T. );
#146 = CYLINDRICAL_SURFACE( '', #216, 2.40000000000000 );
#147 = SURFACE_STYLE_USAGE( .BOTH., #217 );
#148 = FACE_OUTER_BOUND( '', #218, .T. );
#149 = FACE_BOUND( '', #219, .T. );
#150 = PLANE( '', #220 );
#151 = SURFACE_STYLE_USAGE( .BOTH., #221 );
#152 = FACE_OUTER_BOUND( '', #222, .T. );
#153 = FACE_BOUND( '', #223, .T. );
#154 = PLANE( '', #224 );
#155 = SURFACE_STYLE_USAGE( .BOTH., #225 );
#156 = FACE_OUTER_BOUND( '', #226, .T. );
#157 = FACE_OUTER_BOUND( '', #227, .T. );
#158 = CYLINDRICAL_SURFACE( '', #228, 2.20000000000000 );
#159 = SURFACE_STYLE_USAGE( .BOTH., #229 );
#160 = FACE_OUTER_BOUND( '', #230, .T. );
#161 = FACE_OUTER_BOUND( '', #231, .T. );
#162 = CYLINDRICAL_SURFACE( '', #232, 2.00000000000000 );
#163 = SURFACE_STYLE_USAGE( .BOTH., #233 );
#164 = FACE_OUTER_BOUND( '', #234, .T. );
#165 = FACE_BOUND( '', #235, .T. );
#166 = PLANE( '', #236 );
#167 = SURFACE_STYLE_USAGE( .BOTH., #237 );
#168 = FACE_OUTER_BOUND( '', #238, .T. );
#169 = FACE_BOUND( '', #239, .T. );
#170 = CONICAL_SURFACE( '', #240, 3.90000000000000, 0.785398163397453 );
#171 = SURFACE_STYLE_USAGE( .BOTH., #241 );
#172 = FACE_BOUND( '', #242, .T. );
#173 = FACE_OUTER_BOUND( '', #243, .T. );
#174 = CONICAL_SURFACE( '', #244, 4.00000000000000, 0.785398163397453 );
#175 =  ( LENGTH_UNIT(  )NAMED_UNIT( #93 )SI_UNIT( .MILLI., .METRE. ) );
#178 = LENGTH_MEASURE_WITH_UNIT( LENGTH_MEASURE( 1.00000000000000 ), #246 );
#181 = DIMENSIONAL_EXPONENTS( 1.00000000000000, 0.000000000000000, 0.000000000000000, 0.000000000000000, 0.000000000000000, 0.000000000000000, 0.000000000000000 );
#183 = DIMENSIONAL_EXPONENTS( 0.000000000000000, 0.000000000000000, 0.000000000000000, 0.000000000000000, 0.000000000000000, 0.000000000000000, 0.000000000000000 );
#189 = SURFACE_SIDE_STYLE( '', ( #247 ) );
#190 = EDGE_LOOP( '', ( #248 ) );
#191 = EDGE_LOOP( '', ( #249 ) );
#192 = AXIS2_PLACEMENT_3D( '', #250, #251, #252 );
#193 = SURFACE_SIDE_STYLE( '', ( #253 ) );
#194 = EDGE_LOOP( '', ( #254 ) );
#195 = EDGE_LOOP( '', ( #255 ) );
#196 = AXIS2_PLACEMENT_3D( '', #256, #257, #258 );
#197 = SURFACE_SIDE_STYLE( '', ( #259 ) );
#198 = EDGE_LOOP( '', ( #260 ) );
#199 = EDGE_LOOP( '', ( #261 ) );
#200 = AXIS2_PLACEMENT_3D( '', #262, #263, #264 );
#201 = SURFACE_SIDE_STYLE( '', ( #265 ) );
#202 = EDGE_LOOP( '', ( #266 ) );
#203 = EDGE_LOOP( '', ( #267 ) );
#204 = AXIS2_PLACEMENT_3D( '', #268, #269, #270 );
#205 = SURFACE_SIDE_STYLE( '', ( #271 ) );
#206 = EDGE_LOOP( '', ( #272 ) );
#207 = EDGE_LOOP( '', ( #273 ) );
#208 = AXIS2_PLACEMENT_3D( '', #274, #275, #276 );
#209 = SURFACE_SIDE_STYLE( '', ( #277 ) );
#210 = EDGE_LOOP( '', ( #278 ) );
#211 = EDGE_LOOP( '', ( #279 ) );
#212 = AXIS2_PLACEMENT_3D( '', #280, #281, #282 );
#213 = SURFACE_SIDE_STYLE( '', ( #283 ) );
#214 = EDGE_LOOP( '', ( #284 ) );
#215 = EDGE_LOOP( '', ( #285 ) );
#216 = AXIS2_PLACEMENT_3D( '', #286, #287, #288 );
#217 = SURFACE_SIDE_STYLE( '', ( #289 ) );
#218 = EDGE_LOOP( '', ( #290 ) );
#219 = EDGE_LOOP( '', ( #291 ) );
#220 = AXIS2_PLACEMENT_3D( '', #292, #293, #294 );
#221 = SURFACE_SIDE_STYLE( '', ( #295 ) );
#222 = EDGE_LOOP( '', ( #296 ) );
#223 = EDGE_LOOP( '', ( #297 ) );
#224 = AXIS2_PLACEMENT_3D( '', #298, #299, #300 );
#225 = SURFACE_SIDE_STYLE( '', ( #301 ) );
#226 = EDGE_LOOP( '', ( #302 ) );
#227 = EDGE_LOOP( '', ( #303 ) );
#228 = AXIS2_PLACEMENT_3D( '', #304, #305, #306 );
#229 = SURFACE_SIDE_STYLE( '', ( #307 ) );
#230 = EDGE_LOOP( '', ( #308 ) );
#231 = EDGE_LOOP( '', ( #309 ) );
#232 = AXIS2_PLACEMENT_3D( '', #310, #311, #312 );
#233 = SURFACE_SIDE_STYLE( '', ( #313 ) );
#234 = EDGE_LOOP( '', ( #314 ) );
#235 = EDGE_LOOP( '', ( #315 ) );
#236 = AXIS2_PLACEMENT_3D( '', #316, #317, #318 );
#237 = SURFACE_SIDE_STYLE( '', ( #319 ) );
#238 = EDGE_LOOP( '', ( #320 ) );
#239 = EDGE_LOOP( '', ( #321 ) );
#240 = AXIS2_PLACEMENT_3D( '', #322, #323, #324 );
#241 = SURFACE_SIDE_STYLE( '', ( #325 ) );
#242 = EDGE_LOOP( '', ( #326 ) );
#243 = EDGE_LOOP( '', ( #327 ) );
#244 = AXIS2_PLACEMENT_3D( '', #328, #329, #330 );
#246 =  ( LENGTH_UNIT(  )NAMED_UNIT( #181 )SI_UNIT( .MILLI., .METRE. ) );
#247 = SURFACE_STYLE_FILL_AREA( #332 );
#248 = ORIENTED_EDGE( '', *, *, #333, .T. );
#249 = ORIENTED_EDGE( '', *, *, #334, .F. );
#250 = CARTESIAN_POINT( '', ( 12.0000000000000, 0.000000000000000, 0.000000000000000 ) );
#251 = DIRECTION( '', ( -1.00000000000000, -0.000000000000000, 0.000000000000000 ) );
#252 = DIRECTION( '', ( -0.000000000000000, 0.000000000000000, -1.00000000000000 ) );
#253 = SURFACE_STYLE_FILL_AREA( #335 );
#254 = ORIENTED_EDGE( '', *, *, #334, .T. );
#255 = ORIENTED_EDGE( '', *, *, #336, .F. );
#256 = CARTESIAN_POINT( '', ( 0.000000000000000, 3.90000000000000, 0.000000000000000 ) );
#257 = DIRECTION( '', ( -1.00000000000000, 0.000000000000000, 0.000000000000000 ) );
#258 = DIRECTION( '', ( 0.000000000000000, 0.000000000000000, 1.00000000000000 ) );
#259 = SURFACE_STYLE_FILL_AREA( #337 );
#260 = ORIENTED_EDGE( '', *, *, #338, .T. );
#261 = ORIENTED_EDGE( '', *, *, #339, .F. );
#262 = CARTESIAN_POINT( '', ( 11.5714285714286, 2.40000000000000, 0.000000000000000 ) );
#263 = DIRECTION( '', ( -1.00000000000000, 0.000000000000000, 0.000000000000000 ) );
#264 = DIRECTION( '', ( 0.000000000000000, 0.000000000000000, 1.00000000000000 ) );
#265 = SURFACE_STYLE_FILL_AREA( #340 );
#266 = ORIENTED_EDGE( '', *, *, #341, .T. );
#267 = ORIENTED_EDGE( '', *, *, #342, .F. );
#268 = CARTESIAN_POINT( '', ( 12.0000000000000, 0.000000000000000, 0.000000000000000 ) );
#269 = DIRECTION( '', ( -1.00000000000000, -0.000000000000000, 0.000000000000000 ) );
#270 = DIRECTION( '', ( -0.000000000000000, 0.000000000000000, -1.00000000000000 ) );
#271 = SURFACE_STYLE_FILL_AREA( #343 );
#272 = ORIENTED_EDGE( '', *, *, #339, .T. );
#273 = ORIENTED_EDGE( '', *, *, #344, .F. );
#274 = CARTESIAN_POINT( '', ( 12.0000000000000, 0.000000000000000, 0.000000000000000 ) );
#275 = DIRECTION( '', ( -1.00000000000000, -0.000000000000000, 0.000000000000000 ) );
#276 = DIRECTION( '', ( -0.000000000000000, 0.000000000000000, -1.00000000000000 ) );
#277 = SURFACE_STYLE_FILL_AREA( #345 );
#278 = ORIENTED_EDGE( '', *, *, #346, .T. );
#279 = ORIENTED_EDGE( '', *, *, #347, .F. );
#280 = CARTESIAN_POINT( '', ( 0.600000000000000, 2.40000000000000, 0.000000000000000 ) );
#281 = DIRECTION( '', ( -1.00000000000000, 0.000000000000000, 0.000000000000000 ) );
#282 = DIRECTION( '', ( 0.000000000000000, 0.000000000000000, 1.00000000000000 ) );
#283 = SURFACE_STYLE_FILL_AREA( #348 );
#284 = ORIENTED_EDGE( '', *, *, #347, .T. );
#285 = ORIENTED_EDGE( '', *, *, #349, .F. );
#286 = CARTESIAN_POINT( '', ( 12.0000000000000, 0.000000000000000, 0.000000000000000 ) );
#287 = DIRECTION( '', ( -1.00000000000000, -0.000000000000000, 0.000000000000000 ) );
#288 = DIRECTION( '', ( -0.000000000000000, 0.000000000000000, -1.00000000000000 ) );
#289 = SURFACE_STYLE_FILL_AREA( #350 );
#290 = ORIENTED_EDGE( '', *, *, #344, .T. );
#291 = ORIENTED_EDGE( '', *, *, #351, .F. );
#292 = CARTESIAN_POINT( '', ( 11.4000000000000, 2.00000000000000, 0.000000000000000 ) );
#293 = DIRECTION( '', ( 1.00000000000000, 0.000000000000000, -0.000000000000000 ) );
#294 = DIRECTION( '', ( -0.000000000000000, 0.000000000000000, -1.00000000000000 ) );
#295 = SURFACE_STYLE_FILL_AREA( #352 );
#296 = ORIENTED_EDGE( '', *, *, #349, .T. );
#297 = ORIENTED_EDGE( '', *, *, #333, .F. );
#298 = CARTESIAN_POINT( '', ( 0.428571428571429, 2.20000000000000, 0.000000000000000 ) );
#299 = DIRECTION( '', ( 1.00000000000000, 0.000000000000000, -0.000000000000000 ) );
#300 = DIRECTION( '', ( -0.000000000000000, 0.000000000000000, -1.00000000000000 ) );
#301 = SURFACE_STYLE_FILL_AREA( #353 );
#302 = ORIENTED_EDGE( '', *, *, #354, .T. );
#303 = ORIENTED_EDGE( '', *, *, #338, .F. );
#304 = CARTESIAN_POINT( '', ( 12.0000000000000, 0.000000000000000, 0.000000000000000 ) );
#305 = DIRECTION( '', ( -1.00000000000000, -0.000000000000000, 0.000000000000000 ) );
#306 = DIRECTION( '', ( -0.000000000000000, 0.000000000000000, -1.00000000000000 ) );
#307 = SURFACE_STYLE_FILL_AREA( #355 );
#308 = ORIENTED_EDGE( '', *, *, #351, .T. );
#309 = ORIENTED_EDGE( '', *, *, #346, .F. );
#310 = CARTESIAN_POINT( '', ( 12.0000000000000, 0.000000000000000, 0.000000000000000 ) );
#311 = DIRECTION( '', ( -1.00000000000000, -0.000000000000000, 0.000000000000000 ) );
#312 = DIRECTION( '', ( -0.000000000000000, 0.000000000000000, -1.00000000000000 ) );
#313 = SURFACE_STYLE_FILL_AREA( #356 );
#314 = ORIENTED_EDGE( '', *, *, #357, .T. );
#315 = ORIENTED_EDGE( '', *, *, #354, .F. );
#316 = CARTESIAN_POINT( '', ( 12.0000000000000, 2.20000000000000, 0.000000000000000 ) );
#317 = DIRECTION( '', ( 1.00000000000000, 0.000000000000000, -0.000000000000000 ) );
#318 = DIRECTION( '', ( -0.000000000000000, 0.000000000000000, -1.00000000000000 ) );
#319 = SURFACE_STYLE_FILL_AREA( #358 );
#320 = ORIENTED_EDGE( '', *, *, #342, .T. );
#321 = ORIENTED_EDGE( '', *, *, #357, .F. );
#322 = CARTESIAN_POINT( '', ( 12.0000000000000, 0.000000000000000, 0.000000000000000 ) );
#323 = DIRECTION( '', ( -1.00000000000000, 0.000000000000000, -0.000000000000000 ) );
#324 = DIRECTION( '', ( 0.000000000000000, 0.000000000000000, 1.00000000000000 ) );
#325 = SURFACE_STYLE_FILL_AREA( #359 );
#326 = ORIENTED_EDGE( '', *, *, #336, .T. );
#327 = ORIENTED_EDGE( '', *, *, #341, .F. );
#328 = CARTESIAN_POINT( '', ( 0.0999999999999994, 0.000000000000000, 0.000000000000000 ) );
#329 = DIRECTION( '', ( 1.00000000000000, -0.000000000000000, -0.000000000000000 ) );
#330 = DIRECTION( '', ( -0.000000000000000, 0.000000000000000, -1.00000000000000 ) );
#332 = FILL_AREA_STYLE( '', ( #360 ) );
#333 = EDGE_CURVE( '', #361, #361, #362, .T. );
#334 = EDGE_CURVE( '', #363, #363, #364, .T. );
#335 = FILL_AREA_STYLE( '', ( #365 ) );
#336 = EDGE_CURVE( '', #366, #366, #367, .T. );
#337 = FILL_AREA_STYLE( '', ( #368 ) );
#338 = EDGE_CURVE( '', #369, #369, #370, .T. );
#339 = EDGE_CURVE( '', #371, #371, #372, .T. );
#340 = FILL_AREA_STYLE( '', ( #373 ) );
#341 = EDGE_CURVE( '', #374, #374, #375, .T. );
#342 = EDGE_CURVE( '', #376, #376, #377, .T. );
#343 = FILL_AREA_STYLE( '', ( #378 ) );
#344 = EDGE_CURVE( '', #379, #379, #380, .T. );
#345 = FILL_AREA_STYLE( '', ( #381 ) );
#346 = EDGE_CURVE( '', #382, #382, #383, .T. );
#347 = EDGE_CURVE( '', #384, #384, #385, .T. );
#348 = FILL_AREA_STYLE( '', ( #386 ) );
#349 = EDGE_CURVE( '', #387, #387, #388, .T. );
#350 = FILL_AREA_STYLE( '', ( #389 ) );
#351 = EDGE_CURVE( '', #390, #390, #391, .T. );
#352 = FILL_AREA_STYLE( '', ( #392 ) );
#353 = FILL_AREA_STYLE( '', ( #393 ) );
#354 = EDGE_CURVE( '', #394, #394, #395, .T. );
#355 = FILL_AREA_STYLE( '', ( #396 ) );
#356 = FILL_AREA_STYLE( '', ( #397 ) );
#357 = EDGE_CURVE( '', #398, #398, #399, .T. );
#358 = FILL_AREA_STYLE( '', ( #400 ) );
#359 = FILL_AREA_STYLE( '', ( #401 ) );
#360 = FILL_AREA_STYLE_COLOUR( '', #402 );
#361 = VERTEX_POINT( '', #403 );
#362 = CIRCLE( '', #404, 2.20000000000000 );
#363 = VERTEX_POINT( '', #405 );
#364 = CIRCLE( '', #406, 2.20000000000000 );
#365 = FILL_AREA_STYLE_COLOUR( '', #407 );
#366 = VERTEX_POINT( '', #408 );
#367 = CIRCLE( '', #409, 3.90000000000000 );
#368 = FILL_AREA_STYLE_COLOUR( '', #410 );
#369 = VERTEX_POINT( '', #411 );
#370 = CIRCLE( '', #412, 2.20000000000000 );
#371 = VERTEX_POINT( '', #413 );
#372 = CIRCLE( '', #414, 2.40000000000000 );
#373 = FILL_AREA_STYLE_COLOUR( '', #415 );
#374 = VERTEX_POINT( '', #416 );
#375 = CIRCLE( '', #417, 4.00000000000000 );
#376 = VERTEX_POINT( '', #418 );
#377 = CIRCLE( '', #419, 4.00000000000000 );
#378 = FILL_AREA_STYLE_COLOUR( '', #420 );
#379 = VERTEX_POINT( '', #421 );
#380 = CIRCLE( '', #422, 2.40000000000000 );
#381 = FILL_AREA_STYLE_COLOUR( '', #423 );
#382 = VERTEX_POINT( '', #424 );
#383 = CIRCLE( '', #425, 2.00000000000000 );
#384 = VERTEX_POINT( '', #426 );
#385 = CIRCLE( '', #427, 2.40000000000000 );
#386 = FILL_AREA_STYLE_COLOUR( '', #428 );
#387 = VERTEX_POINT( '', #429 );
#388 = CIRCLE( '', #430, 2.40000000000000 );
#389 = FILL_AREA_STYLE_COLOUR( '', #431 );
#390 = VERTEX_POINT( '', #432 );
#391 = CIRCLE( '', #433, 2.00000000000000 );
#392 = FILL_AREA_STYLE_COLOUR( '', #434 );
#393 = FILL_AREA_STYLE_COLOUR( '', #435 );
#394 = VERTEX_POINT( '', #436 );
#395 = CIRCLE( '', #437, 2.20000000000000 );
#396 = FILL_AREA_STYLE_COLOUR( '', #438 );
#397 = FILL_AREA_STYLE_COLOUR( '', #439 );
#398 = VERTEX_POINT( '', #440 );
#399 = CIRCLE( '', #441, 3.90000000000000 );
#400 = FILL_AREA_STYLE_COLOUR( '', #442 );
#401 = FILL_AREA_STYLE_COLOUR( '', #443 );
#402 = COLOUR_RGB( '', 0.752941191196442, 0.752941191196442, 0.752941191196442 );
#403 = CARTESIAN_POINT( '', ( 0.428571428571429, 0.000000000000000, -2.20000000000000 ) );
#404 = AXIS2_PLACEMENT_3D( '', #444, #445, #446 );
#405 = CARTESIAN_POINT( '', ( 0.000000000000000, 0.000000000000000, -2.20000000000000 ) );
#406 = AXIS2_PLACEMENT_3D( '', #447, #448, #449 );
#407 = COLOUR_RGB( '', 0.752941191196442, 0.752941191196442, 0.752941191196442 );
#408 = CARTESIAN_POINT( '', ( 0.000000000000000, 0.000000000000000, -3.90000000000000 ) );
#409 = AXIS2_PLACEMENT_3D( '', #450, #451, #452 );
#410 = COLOUR_RGB( '', 0.752941191196442, 0.752941191196442, 0.752941191196442 );
#411 = CARTESIAN_POINT( '', ( 11.5714285714286, 0.000000000000000, -2.20000000000000 ) );
#412 = AXIS2_PLACEMENT_3D( '', #453, #454, #455 );
#413 = CARTESIAN_POINT( '', ( 11.5714285714286, 0.000000000000000, -2.40000000000000 ) );
#414 = AXIS2_PLACEMENT_3D( '', #456, #457, #458 );
#415 = COLOUR_RGB( '', 0.752941191196442, 0.752941191196442, 0.752941191196442 );
#416 = CARTESIAN_POINT( '', ( 0.0999999999999994, 0.000000000000000, -4.00000000000000 ) );
#417 = AXIS2_PLACEMENT_3D( '', #459, #460, #461 );
#418 = CARTESIAN_POINT( '', ( 11.9000000000000, 0.000000000000000, -4.00000000000000 ) );
#419 = AXIS2_PLACEMENT_3D( '', #462, #463, #464 );
#420 = COLOUR_RGB( '', 0.752941191196442, 0.752941191196442, 0.752941191196442 );
#421 = CARTESIAN_POINT( '', ( 11.4000000000000, 0.000000000000000, -2.40000000000000 ) );
#422 = AXIS2_PLACEMENT_3D( '', #465, #466, #467 );
#423 = COLOUR_RGB( '', 0.752941191196442, 0.752941191196442, 0.752941191196442 );
#424 = CARTESIAN_POINT( '', ( 0.600000000000000, 0.000000000000000, -2.00000000000000 ) );
#425 = AXIS2_PLACEMENT_3D( '', #468, #469, #470 );
#426 = CARTESIAN_POINT( '', ( 0.600000000000000, 0.000000000000000, -2.40000000000000 ) );
#427 = AXIS2_PLACEMENT_3D( '', #471, #472, #473 );
#428 = COLOUR_RGB( '', 0.752941191196442, 0.752941191196442, 0.752941191196442 );
#429 = CARTESIAN_POINT( '', ( 0.428571428571429, 0.000000000000000, -2.40000000000000 ) );
#430 = AXIS2_PLACEMENT_3D( '', #474, #475, #476 );
#431 = COLOUR_RGB( '', 0.752941191196442, 0.752941191196442, 0.752941191196442 );
#432 = CARTESIAN_POINT( '', ( 11.4000000000000, 0.000000000000000, -2.00000000000000 ) );
#433 = AXIS2_PLACEMENT_3D( '', #477, #478, #479 );
#434 = COLOUR_RGB( '', 0.752941191196442, 0.752941191196442, 0.752941191196442 );
#435 = COLOUR_RGB( '', 0.752941191196442, 0.752941191196442, 0.752941191196442 );
#436 = CARTESIAN_POINT( '', ( 12.0000000000000, 0.000000000000000, -2.20000000000000 ) );
#437 = AXIS2_PLACEMENT_3D( '', #480, #481, #482 );
#438 = COLOUR_RGB( '', 0.752941191196442, 0.752941191196442, 0.752941191196442 );
#439 = COLOUR_RGB( '', 0.752941191196442, 0.752941191196442, 0.752941191196442 );
#440 = CARTESIAN_POINT( '', ( 12.0000000000000, 0.000000000000000, -3.90000000000000 ) );
#441 = AXIS2_PLACEMENT_3D( '', #483, #484, #485 );
#442 = COLOUR_RGB( '', 0.752941191196442, 0.752941191196442, 0.752941191196442 );
#443 = COLOUR_RGB( '', 0.752941191196442, 0.752941191196442, 0.752941191196442 );
#444 = CARTESIAN_POINT( '', ( 0.428571428571429, 0.000000000000000, 0.000000000000000 ) );
#445 = DIRECTION( '', ( 1.00000000000000, 0.000000000000000, -0.000000000000000 ) );
#446 = DIRECTION( '', ( -0.000000000000000, 0.000000000000000, -1.00000000000000 ) );
#447 = CARTESIAN_POINT( '', ( 0.000000000000000, 0.000000000000000, 0.000000000000000 ) );
#448 = DIRECTION( '', ( 1.00000000000000, 0.000000000000000, -0.000000000000000 ) );
#449 = DIRECTION( '', ( -0.000000000000000, 0.000000000000000, -1.00000000000000 ) );
#450 = CARTESIAN_POINT( '', ( 0.000000000000000, 0.000000000000000, 0.000000000000000 ) );
#451 = DIRECTION( '', ( 1.00000000000000, 0.000000000000000, -0.000000000000000 ) );
#452 = DIRECTION( '', ( -0.000000000000000, 0.000000000000000, -1.00000000000000 ) );
#453 = CARTESIAN_POINT( '', ( 11.5714285714286, 0.000000000000000, 0.000000000000000 ) );
#454 = DIRECTION( '', ( 1.00000000000000, 0.000000000000000, -0.000000000000000 ) );
#455 = DIRECTION( '', ( -0.000000000000000, 0.000000000000000, -1.00000000000000 ) );
#456 = CARTESIAN_POINT( '', ( 11.5714285714286, 0.000000000000000, 0.000000000000000 ) );
#457 = DIRECTION( '', ( 1.00000000000000, 0.000000000000000, -0.000000000000000 ) );
#458 = DIRECTION( '', ( -0.000000000000000, 0.000000000000000, -1.00000000000000 ) );
#459 = CARTESIAN_POINT( '', ( 0.0999999999999994, 0.000000000000000, 0.000000000000000 ) );
#460 = DIRECTION( '', ( 1.00000000000000, 0.000000000000000, -0.000000000000000 ) );
#461 = DIRECTION( '', ( -0.000000000000000, 0.000000000000000, -1.00000000000000 ) );
#462 = CARTESIAN_POINT( '', ( 11.9000000000000, 0.000000000000000, 0.000000000000000 ) );
#463 = DIRECTION( '', ( 1.00000000000000, 0.000000000000000, -0.000000000000000 ) );
#464 = DIRECTION( '', ( -0.000000000000000, 0.000000000000000, -1.00000000000000 ) );
#465 = CARTESIAN_POINT( '', ( 11.4000000000000, 0.000000000000000, 0.000000000000000 ) );
#466 = DIRECTION( '', ( 1.00000000000000, 0.000000000000000, -0.000000000000000 ) );
#467 = DIRECTION( '', ( -0.000000000000000, 0.000000000000000, -1.00000000000000 ) );
#468 = CARTESIAN_POINT( '', ( 0.600000000000000, 0.000000000000000, 0.000000000000000 ) );
#469 = DIRECTION( '', ( 1.00000000000000, 0.000000000000000, -0.000000000000000 ) );
#470 = DIRECTION( '', ( -0.000000000000000, 0.000000000000000, -1.00000000000000 ) );
#471 = CARTESIAN_POINT( '', ( 0.600000000000000, 0.000000000000000, 0.000000000000000 ) );
#472 = DIRECTION( '', ( 1.00000000000000, 0.000000000000000, -0.000000000000000 ) );
#473 = DIRECTION( '', ( -0.000000000000000, 0.000000000000000, -1.00000000000000 ) );
#474 = CARTESIAN_POINT( '', ( 0.428571428571429, 0.000000000000000, 0.000000000000000 ) );
#475 = DIRECTION( '', ( 1.00000000000000, 0.000000000000000, -0.000000000000000 ) );
#476 = DIRECTION( '', ( -0.000000000000000, 0.000000000000000, -1.00000000000000 ) );
#477 = CARTESIAN_POINT( '', ( 11.4000000000000, 0.000000000000000, 0.000000000000000 ) );
#478 = DIRECTION( '', ( 1.00000000000000, 0.000000000000000, -0.000000000000000 ) );
#479 = DIRECTION( '', ( -0.000000000000000, 0.000000000000000, -1.00000000000000 ) );
#480 = CARTESIAN_POINT( '', ( 12.0000000000000, 0.000000000000000, 0.000000000000000 ) );
#481 = DIRECTION( '', ( 1.00000000000000, 0.000000000000000, -0.000000000000000 ) );
#482 = DIRECTION( '', ( -0.000000000000000, 0.000000000000000, -1.00000000000000 ) );
#483 = CARTESIAN_POINT( '', ( 12.0000000000000, 0.000000000000000, 0.000000000000000 ) );
#484 = DIRECTION( '', ( 1.00000000000000, 0.000000000000000, -0.000000000000000 ) );
#485 = DIRECTION( '', ( -0.000000000000000, 0.000000000000000, -1.00000000000000 ) );
ENDSEC;
END-ISO-10303-21;
