ISO-10303-21;
HEADER;
FILE_DESCRIPTION( ( 'STEP AP214' ), '1' );
FILE_NAME( '//expscmdclustefs.cadenas.external/client_exchange/iodir/jobs/output/wkb75788072_no0/STEP/SM00_4200_2_14b.stp', '  ', ( '  ' ), ( '  ' ), 'PSStep 15.0.47', 'PARTsolutions', '  ' );
FILE_SCHEMA( ( 'AUTOMOTIVE_DESIGN { 1 0 10303 214 1 1 1 1 }' ) );
ENDSEC;
DATA;
#1 = MECHANICAL_DESIGN_GEOMETRIC_PRESENTATION_REPRESENTATION( ' ', ( #10, #11, #12, #13, #14, #15, #16, #17 ), #6 );
#2 = PRODUCT_DEFINITION_CONTEXT( '', #18, 'design' );
#3 = APPLICATION_PROTOCOL_DEFINITION( 'international standard', 'automotive_design', 2001, #18 );
#4 = PRODUCT_CATEGORY_RELATIONSHIP( 'NONE', 'NONE', #19, #20 );
#5 = SHAPE_DEFINITION_REPRESENTATION( #21, #22 );
#6 =  ( GEOMETRIC_REPRESENTATION_CONTEXT( 3 )GLOBAL_UNCERTAINTY_ASSIGNED_CONTEXT( ( #25 ) )GLOBAL_UNIT_ASSIGNED_CONTEXT( ( #27, #28, #29 ) )REPRESENTATION_CONTEXT( 'NONE', 'WORKSPACE' ) );
#10 = STYLED_ITEM( '', ( #31 ), #32 );
#11 = STYLED_ITEM( '', ( #33 ), #34 );
#12 = STYLED_ITEM( '', ( #35 ), #36 );
#13 = STYLED_ITEM( '', ( #37 ), #38 );
#14 = STYLED_ITEM( '', ( #39 ), #40 );
#15 = STYLED_ITEM( '', ( #41 ), #42 );
#16 = STYLED_ITEM( '', ( #43 ), #44 );
#17 = STYLED_ITEM( '', ( #45 ), #46 );
#18 = APPLICATION_CONTEXT( 'core data for automotive mechanical design processes' );
#19 = PRODUCT_CATEGORY( 'part', 'NONE' );
#20 = PRODUCT_RELATED_PRODUCT_CATEGORY( 'detail', ' ', ( #47 ) );
#21 = PRODUCT_DEFINITION_SHAPE( 'NONE', 'NONE', #48 );
#22 = ADVANCED_BREP_SHAPE_REPRESENTATION( 'HI_SM00 4200', ( #49, #50 ), #6 );
#25 = UNCERTAINTY_MEASURE_WITH_UNIT( LENGTH_MEASURE( 0.00100000000000000 ), #27, '', '' );
#27 =  ( CONVERSION_BASED_UNIT( 'MILLIMETRE', #53 )LENGTH_UNIT(  )NAMED_UNIT( #56 ) );
#28 =  ( NAMED_UNIT( #58 )PLANE_ANGLE_UNIT(  )SI_UNIT( $, .RADIAN. ) );
#29 =  ( NAMED_UNIT( #58 )SI_UNIT( $, .STERADIAN. )SOLID_ANGLE_UNIT(  ) );
#31 = PRESENTATION_STYLE_ASSIGNMENT( ( #64 ) );
#32 = ADVANCED_FACE( '', ( #65, #66 ), #67, .T. );
#33 = PRESENTATION_STYLE_ASSIGNMENT( ( #68 ) );
#34 = ADVANCED_FACE( '', ( #69, #70 ), #71, .F. );
#35 = PRESENTATION_STYLE_ASSIGNMENT( ( #72 ) );
#36 = ADVANCED_FACE( '', ( #73, #74 ), #75, .F. );
#37 = PRESENTATION_STYLE_ASSIGNMENT( ( #76 ) );
#38 = ADVANCED_FACE( '', ( #77, #78 ), #79, .T. );
#39 = PRESENTATION_STYLE_ASSIGNMENT( ( #80 ) );
#40 = ADVANCED_FACE( '', ( #81, #82 ), #83, .T. );
#41 = PRESENTATION_STYLE_ASSIGNMENT( ( #84 ) );
#42 = ADVANCED_FACE( '', ( #85, #86, #87 ), #88, .F. );
#43 = PRESENTATION_STYLE_ASSIGNMENT( ( #89 ) );
#44 = ADVANCED_FACE( '', ( #90, #91 ), #92, .T. );
#45 = PRESENTATION_STYLE_ASSIGNMENT( ( #93 ) );
#46 = ADVANCED_FACE( '', ( #94, #95, #96 ), #97, .T. );
#47 = PRODUCT( 'HI_SM00 4200', 'HI_SM00 4200', 'PART-HI_SM00 4200-DESC', ( #98 ) );
#48 = PRODUCT_DEFINITION( 'NONE', 'NONE', #99, #2 );
#49 = MANIFOLD_SOLID_BREP( 'HI_SM00 4200', #100 );
#50 = AXIS2_PLACEMENT_3D( '', #101, #102, #103 );
#53 = LENGTH_MEASURE_WITH_UNIT( LENGTH_MEASURE( 1.00000000000000 ), #104 );
#56 = DIMENSIONAL_EXPONENTS( 1.00000000000000, 0.000000000000000, 0.000000000000000, 0.000000000000000, 0.000000000000000, 0.000000000000000, 0.000000000000000 );
#58 = DIMENSIONAL_EXPONENTS( 0.000000000000000, 0.000000000000000, 0.000000000000000, 0.000000000000000, 0.000000000000000, 0.000000000000000, 0.000000000000000 );
#64 = SURFACE_STYLE_USAGE( .BOTH., #105 );
#65 = FACE_BOUND( '', #106, .T. );
#66 = FACE_OUTER_BOUND( '', #107, .T. );
#67 = PLANE( '', #108 );
#68 = SURFACE_STYLE_USAGE( .BOTH., #109 );
#69 = FACE_OUTER_BOUND( '', #110, .T. );
#70 = FACE_OUTER_BOUND( '', #111, .T. );
#71 = CYLINDRICAL_SURFACE( '', #112, 20.0000000000000 );
#72 = SURFACE_STYLE_USAGE( .BOTH., #113 );
#73 = FACE_OUTER_BOUND( '', #114, .T. );
#74 = FACE_OUTER_BOUND( '', #115, .T. );
#75 = CYLINDRICAL_SURFACE( '', #116, 20.0000000000000 );
#76 = SURFACE_STYLE_USAGE( .BOTH., #117 );
#77 = FACE_OUTER_BOUND( '', #118, .T. );
#78 = FACE_OUTER_BOUND( '', #119, .T. );
#79 = CYLINDRICAL_SURFACE( '', #120, 21.5000000000000 );
#80 = SURFACE_STYLE_USAGE( .BOTH., #121 );
#81 = FACE_OUTER_BOUND( '', #122, .T. );
#82 = FACE_OUTER_BOUND( '', #123, .T. );
#83 = CYLINDRICAL_SURFACE( '', #124, 21.5000000000000 );
#84 = SURFACE_STYLE_USAGE( .BOTH., #125 );
#85 = FACE_BOUND( '', #126, .T. );
#86 = FACE_OUTER_BOUND( '', #127, .T. );
#87 = FACE_OUTER_BOUND( '', #128, .T. );
#88 = TOROIDAL_SURFACE( '', #129, 20.4921875000000, 15.5078125000000 );
#89 = SURFACE_STYLE_USAGE( .BOTH., #130 );
#90 = FACE_OUTER_BOUND( '', #131, .T. );
#91 = FACE_BOUND( '', #132, .T. );
#92 = PLANE( '', #133 );
#93 = SURFACE_STYLE_USAGE( .BOTH., #134 );
#94 = FACE_BOUND( '', #135, .T. );
#95 = FACE_OUTER_BOUND( '', #136, .T. );
#96 = FACE_OUTER_BOUND( '', #137, .T. );
#97 = TOROIDAL_SURFACE( '', #138, 20.4687500000000, 17.0312500000000 );
#98 = PRODUCT_CONTEXT( '', #18, 'mechanical' );
#99 = PRODUCT_DEFINITION_FORMATION_WITH_SPECIFIED_SOURCE( ' ', 'NONE', #47, .NOT_KNOWN. );
#100 = CLOSED_SHELL( '', ( #38, #46, #32, #36, #42, #34, #44, #40 ) );
#101 = CARTESIAN_POINT( '', ( 0.000000000000000, 0.000000000000000, 0.000000000000000 ) );
#102 = DIRECTION( '', ( 0.000000000000000, 0.000000000000000, 1.00000000000000 ) );
#103 = DIRECTION( '', ( 1.00000000000000, 0.000000000000000, 0.000000000000000 ) );
#104 =  ( LENGTH_UNIT(  )NAMED_UNIT( #56 )SI_UNIT( .MILLI., .METRE. ) );
#105 = SURFACE_SIDE_STYLE( '', ( #140 ) );
#106 = EDGE_LOOP( '', ( #141 ) );
#107 = EDGE_LOOP( '', ( #142 ) );
#108 = AXIS2_PLACEMENT_3D( '', #143, #144, #145 );
#109 = SURFACE_SIDE_STYLE( '', ( #146 ) );
#110 = EDGE_LOOP( '', ( #147 ) );
#111 = EDGE_LOOP( '', ( #148 ) );
#112 = AXIS2_PLACEMENT_3D( '', #149, #150, #151 );
#113 = SURFACE_SIDE_STYLE( '', ( #152 ) );
#114 = EDGE_LOOP( '', ( #153 ) );
#115 = EDGE_LOOP( '', ( #154 ) );
#116 = AXIS2_PLACEMENT_3D( '', #155, #156, #157 );
#117 = SURFACE_SIDE_STYLE( '', ( #158 ) );
#118 = EDGE_LOOP( '', ( #159 ) );
#119 = EDGE_LOOP( '', ( #160 ) );
#120 = AXIS2_PLACEMENT_3D( '', #161, #162, #163 );
#121 = SURFACE_SIDE_STYLE( '', ( #164 ) );
#122 = EDGE_LOOP( '', ( #165 ) );
#123 = EDGE_LOOP( '', ( #166 ) );
#124 = AXIS2_PLACEMENT_3D( '', #167, #168, #169 );
#125 = SURFACE_SIDE_STYLE( '', ( #170 ) );
#126 = VERTEX_LOOP( '', #171 );
#127 = EDGE_LOOP( '', ( #172 ) );
#128 = EDGE_LOOP( '', ( #173 ) );
#129 = AXIS2_PLACEMENT_3D( '', #174, #175, #176 );
#130 = SURFACE_SIDE_STYLE( '', ( #177 ) );
#131 = EDGE_LOOP( '', ( #178 ) );
#132 = EDGE_LOOP( '', ( #179 ) );
#133 = AXIS2_PLACEMENT_3D( '', #180, #181, #182 );
#134 = SURFACE_SIDE_STYLE( '', ( #183 ) );
#135 = VERTEX_LOOP( '', #184 );
#136 = EDGE_LOOP( '', ( #185 ) );
#137 = EDGE_LOOP( '', ( #186 ) );
#138 = AXIS2_PLACEMENT_3D( '', #187, #188, #189 );
#140 = SURFACE_STYLE_FILL_AREA( #190 );
#141 = ORIENTED_EDGE( '', *, *, #191, .T. );
#142 = ORIENTED_EDGE( '', *, *, #192, .F. );
#143 = CARTESIAN_POINT( '', ( 0.000000000000000, 21.5000000000000, 0.000000000000000 ) );
#144 = DIRECTION( '', ( -1.00000000000000, 0.000000000000000, 0.000000000000000 ) );
#145 = DIRECTION( '', ( 0.000000000000000, 0.000000000000000, 1.00000000000000 ) );
#146 = SURFACE_STYLE_FILL_AREA( #193 );
#147 = ORIENTED_EDGE( '', *, *, #194, .T. );
#148 = ORIENTED_EDGE( '', *, *, #195, .F. );
#149 = CARTESIAN_POINT( '', ( 82.0000000000000, 0.000000000000000, 0.000000000000000 ) );
#150 = DIRECTION( '', ( -1.00000000000000, -0.000000000000000, 0.000000000000000 ) );
#151 = DIRECTION( '', ( -0.000000000000000, 0.000000000000000, -1.00000000000000 ) );
#152 = SURFACE_STYLE_FILL_AREA( #196 );
#153 = ORIENTED_EDGE( '', *, *, #197, .T. );
#154 = ORIENTED_EDGE( '', *, *, #191, .F. );
#155 = CARTESIAN_POINT( '', ( 82.0000000000000, 0.000000000000000, 0.000000000000000 ) );
#156 = DIRECTION( '', ( -1.00000000000000, -0.000000000000000, 0.000000000000000 ) );
#157 = DIRECTION( '', ( -0.000000000000000, 0.000000000000000, -1.00000000000000 ) );
#158 = SURFACE_STYLE_FILL_AREA( #198 );
#159 = ORIENTED_EDGE( '', *, *, #192, .T. );
#160 = ORIENTED_EDGE( '', *, *, #199, .F. );
#161 = CARTESIAN_POINT( '', ( 82.0000000000000, 0.000000000000000, 0.000000000000000 ) );
#162 = DIRECTION( '', ( -1.00000000000000, -0.000000000000000, 0.000000000000000 ) );
#163 = DIRECTION( '', ( -0.000000000000000, 0.000000000000000, -1.00000000000000 ) );
#164 = SURFACE_STYLE_FILL_AREA( #200 );
#165 = ORIENTED_EDGE( '', *, *, #201, .T. );
#166 = ORIENTED_EDGE( '', *, *, #202, .F. );
#167 = CARTESIAN_POINT( '', ( 82.0000000000000, 0.000000000000000, 0.000000000000000 ) );
#168 = DIRECTION( '', ( -1.00000000000000, -0.000000000000000, 0.000000000000000 ) );
#169 = DIRECTION( '', ( -0.000000000000000, 0.000000000000000, -1.00000000000000 ) );
#170 = SURFACE_STYLE_FILL_AREA( #203 );
#171 = VERTEX_POINT( '', #204 );
#172 = ORIENTED_EDGE( '', *, *, #197, .F. );
#173 = ORIENTED_EDGE( '', *, *, #195, .T. );
#174 = CARTESIAN_POINT( '', ( 41.0000000000000, 0.000000000000000, 0.000000000000000 ) );
#175 = DIRECTION( '', ( 1.00000000000000, 0.000000000000000, -0.000000000000000 ) );
#176 = DIRECTION( '', ( -0.000000000000000, 0.000000000000000, -1.00000000000000 ) );
#177 = SURFACE_STYLE_FILL_AREA( #205 );
#178 = ORIENTED_EDGE( '', *, *, #202, .T. );
#179 = ORIENTED_EDGE( '', *, *, #194, .F. );
#180 = CARTESIAN_POINT( '', ( 82.0000000000000, 20.0000000000000, 0.000000000000000 ) );
#181 = DIRECTION( '', ( 1.00000000000000, 0.000000000000000, -0.000000000000000 ) );
#182 = DIRECTION( '', ( -0.000000000000000, 0.000000000000000, -1.00000000000000 ) );
#183 = SURFACE_STYLE_FILL_AREA( #206 );
#184 = VERTEX_POINT( '', #207 );
#185 = ORIENTED_EDGE( '', *, *, #199, .T. );
#186 = ORIENTED_EDGE( '', *, *, #201, .F. );
#187 = CARTESIAN_POINT( '', ( 41.0000000000000, 0.000000000000000, 0.000000000000000 ) );
#188 = DIRECTION( '', ( 1.00000000000000, 0.000000000000000, -0.000000000000000 ) );
#189 = DIRECTION( '', ( -0.000000000000000, 0.000000000000000, -1.00000000000000 ) );
#190 = FILL_AREA_STYLE( '', ( #208 ) );
#191 = EDGE_CURVE( '', #209, #209, #210, .T. );
#192 = EDGE_CURVE( '', #211, #211, #212, .T. );
#193 = FILL_AREA_STYLE( '', ( #213 ) );
#194 = EDGE_CURVE( '', #214, #214, #215, .T. );
#195 = EDGE_CURVE( '', #216, #216, #217, .T. );
#196 = FILL_AREA_STYLE( '', ( #218 ) );
#197 = EDGE_CURVE( '', #219, #219, #220, .T. );
#198 = FILL_AREA_STYLE( '', ( #221 ) );
#199 = EDGE_CURVE( '', #222, #222, #223, .T. );
#200 = FILL_AREA_STYLE( '', ( #224 ) );
#201 = EDGE_CURVE( '', #225, #225, #226, .T. );
#202 = EDGE_CURVE( '', #227, #227, #228, .T. );
#203 = FILL_AREA_STYLE( '', ( #229 ) );
#204 = CARTESIAN_POINT( '', ( 41.0000000000000, 0.000000000000000, -36.0000000000000 ) );
#205 = FILL_AREA_STYLE( '', ( #230 ) );
#206 = FILL_AREA_STYLE( '', ( #231 ) );
#207 = CARTESIAN_POINT( '', ( 41.0000000000000, 0.000000000000000, -37.5000000000000 ) );
#208 = FILL_AREA_STYLE_COLOUR( '', #232 );
#209 = VERTEX_POINT( '', #233 );
#210 = CIRCLE( '', #234, 20.0000000000000 );
#211 = VERTEX_POINT( '', #235 );
#212 = CIRCLE( '', #236, 21.5000000000000 );
#213 = FILL_AREA_STYLE_COLOUR( '', #237 );
#214 = VERTEX_POINT( '', #238 );
#215 = CIRCLE( '', #239, 20.0000000000000 );
#216 = VERTEX_POINT( '', #240 );
#217 = CIRCLE( '', #241, 20.0000000000000 );
#218 = FILL_AREA_STYLE_COLOUR( '', #242 );
#219 = VERTEX_POINT( '', #243 );
#220 = CIRCLE( '', #244, 20.0000000000000 );
#221 = FILL_AREA_STYLE_COLOUR( '', #245 );
#222 = VERTEX_POINT( '', #246 );
#223 = CIRCLE( '', #247, 21.5000000000000 );
#224 = FILL_AREA_STYLE_COLOUR( '', #248 );
#225 = VERTEX_POINT( '', #249 );
#226 = CIRCLE( '', #250, 21.5000000000000 );
#227 = VERTEX_POINT( '', #251 );
#228 = CIRCLE( '', #252, 21.5000000000000 );
#229 = FILL_AREA_STYLE_COLOUR( '', #253 );
#230 = FILL_AREA_STYLE_COLOUR( '', #254 );
#231 = FILL_AREA_STYLE_COLOUR( '', #255 );
#232 = COLOUR_RGB( '', 0.500000000000000, 0.500000000000000, 0.500000000000000 );
#233 = CARTESIAN_POINT( '', ( 0.000000000000000, 0.000000000000000, -20.0000000000000 ) );
#234 = AXIS2_PLACEMENT_3D( '', #256, #257, #258 );
#235 = CARTESIAN_POINT( '', ( 0.000000000000000, 0.000000000000000, -21.5000000000000 ) );
#236 = AXIS2_PLACEMENT_3D( '', #259, #260, #261 );
#237 = COLOUR_RGB( '', 0.500000000000000, 0.500000000000000, 0.500000000000000 );
#238 = CARTESIAN_POINT( '', ( 82.0000000000000, 0.000000000000000, -20.0000000000000 ) );
#239 = AXIS2_PLACEMENT_3D( '', #262, #263, #264 );
#240 = CARTESIAN_POINT( '', ( 56.5000000000000, 0.000000000000000, -20.0000000000000 ) );
#241 = AXIS2_PLACEMENT_3D( '', #265, #266, #267 );
#242 = COLOUR_RGB( '', 0.500000000000000, 0.500000000000000, 0.500000000000000 );
#243 = CARTESIAN_POINT( '', ( 25.5000000000000, 0.000000000000000, -20.0000000000000 ) );
#244 = AXIS2_PLACEMENT_3D( '', #268, #269, #270 );
#245 = COLOUR_RGB( '', 0.500000000000000, 0.500000000000000, 0.500000000000000 );
#246 = CARTESIAN_POINT( '', ( 24.0000000000000, 0.000000000000000, -21.5000000000000 ) );
#247 = AXIS2_PLACEMENT_3D( '', #271, #272, #273 );
#248 = COLOUR_RGB( '', 0.500000000000000, 0.500000000000000, 0.500000000000000 );
#249 = CARTESIAN_POINT( '', ( 58.0000000000000, 0.000000000000000, -21.5000000000000 ) );
#250 = AXIS2_PLACEMENT_3D( '', #274, #275, #276 );
#251 = CARTESIAN_POINT( '', ( 82.0000000000000, 0.000000000000000, -21.5000000000000 ) );
#252 = AXIS2_PLACEMENT_3D( '', #277, #278, #279 );
#253 = COLOUR_RGB( '', 0.500000000000000, 0.500000000000000, 0.500000000000000 );
#254 = COLOUR_RGB( '', 0.500000000000000, 0.500000000000000, 0.500000000000000 );
#255 = COLOUR_RGB( '', 0.500000000000000, 0.500000000000000, 0.500000000000000 );
#256 = CARTESIAN_POINT( '', ( 0.000000000000000, 0.000000000000000, 0.000000000000000 ) );
#257 = DIRECTION( '', ( 1.00000000000000, 0.000000000000000, -0.000000000000000 ) );
#258 = DIRECTION( '', ( -0.000000000000000, 0.000000000000000, -1.00000000000000 ) );
#259 = CARTESIAN_POINT( '', ( 0.000000000000000, 0.000000000000000, 0.000000000000000 ) );
#260 = DIRECTION( '', ( 1.00000000000000, 0.000000000000000, -0.000000000000000 ) );
#261 = DIRECTION( '', ( -0.000000000000000, 0.000000000000000, -1.00000000000000 ) );
#262 = CARTESIAN_POINT( '', ( 82.0000000000000, 0.000000000000000, 0.000000000000000 ) );
#263 = DIRECTION( '', ( 1.00000000000000, 0.000000000000000, -0.000000000000000 ) );
#264 = DIRECTION( '', ( -0.000000000000000, 0.000000000000000, -1.00000000000000 ) );
#265 = CARTESIAN_POINT( '', ( 56.5000000000000, 0.000000000000000, 0.000000000000000 ) );
#266 = DIRECTION( '', ( 1.00000000000000, 0.000000000000000, -0.000000000000000 ) );
#267 = DIRECTION( '', ( -0.000000000000000, 0.000000000000000, -1.00000000000000 ) );
#268 = CARTESIAN_POINT( '', ( 25.5000000000000, 0.000000000000000, 0.000000000000000 ) );
#269 = DIRECTION( '', ( 1.00000000000000, 0.000000000000000, -0.000000000000000 ) );
#270 = DIRECTION( '', ( -0.000000000000000, 0.000000000000000, -1.00000000000000 ) );
#271 = CARTESIAN_POINT( '', ( 24.0000000000000, 0.000000000000000, 0.000000000000000 ) );
#272 = DIRECTION( '', ( 1.00000000000000, 0.000000000000000, -0.000000000000000 ) );
#273 = DIRECTION( '', ( -0.000000000000000, 0.000000000000000, -1.00000000000000 ) );
#274 = CARTESIAN_POINT( '', ( 58.0000000000000, 0.000000000000000, 0.000000000000000 ) );
#275 = DIRECTION( '', ( 1.00000000000000, 0.000000000000000, -0.000000000000000 ) );
#276 = DIRECTION( '', ( -0.000000000000000, 0.000000000000000, -1.00000000000000 ) );
#277 = CARTESIAN_POINT( '', ( 82.0000000000000, 0.000000000000000, 0.000000000000000 ) );
#278 = DIRECTION( '', ( 1.00000000000000, 0.000000000000000, -0.000000000000000 ) );
#279 = DIRECTION( '', ( -0.000000000000000, 0.000000000000000, -1.00000000000000 ) );
ENDSEC;
END-ISO-10303-21;
