ISO-10303-21;
HEADER;
FILE_DESCRIPTION( ( 'STEP AP214' ), '1' );
FILE_NAME( '//expscmdclustefs.cadenas.external/client_exchange/iodir/jobs/output/wkb75787760_no0/STEP/SM00_1800_2_14b.stp', '  ', ( '  ' ), ( '  ' ), 'PSStep 15.0.47', 'PARTsolutions', '  ' );
FILE_SCHEMA( ( 'AUTOMOTIVE_DESIGN { 1 0 10303 214 1 1 1 1 }' ) );
ENDSEC;
DATA;
#1 = MECHANICAL_DESIGN_GEOMETRIC_PRESENTATION_REPRESENTATION( ' ', ( #10, #11, #12, #13, #14, #15, #16, #17 ), #6 );
#2 = PRODUCT_DEFINITION_CONTEXT( '', #18, 'design' );
#3 = APPLICATION_PROTOCOL_DEFINITION( 'international standard', 'automotive_design', 2001, #18 );
#4 = PRODUCT_CATEGORY_RELATIONSHIP( 'NONE', 'NONE', #19, #20 );
#5 = SHAPE_DEFINITION_REPRESENTATION( #21, #22 );
#6 =  ( GEOMETRIC_REPRESENTATION_CONTEXT( 3 )GLOBAL_UNCERTAINTY_ASSIGNED_CONTEXT( ( #25 ) )GLOBAL_UNIT_ASSIGNED_CONTEXT( ( #27, #28, #29 ) )REPRESENTATION_CONTEXT( 'NONE', 'WORKSPACE' ) );
#10 = STYLED_ITEM( '', ( #31 ), #32 );
#11 = STYLED_ITEM( '', ( #33 ), #34 );
#12 = STYLED_ITEM( '', ( #35 ), #36 );
#13 = STYLED_ITEM( '', ( #37 ), #38 );
#14 = STYLED_ITEM( '', ( #39 ), #40 );
#15 = STYLED_ITEM( '', ( #41 ), #42 );
#16 = STYLED_ITEM( '', ( #43 ), #44 );
#17 = STYLED_ITEM( '', ( #45 ), #46 );
#18 = APPLICATION_CONTEXT( 'core data for automotive mechanical design processes' );
#19 = PRODUCT_CATEGORY( 'part', 'NONE' );
#20 = PRODUCT_RELATED_PRODUCT_CATEGORY( 'detail', ' ', ( #47 ) );
#21 = PRODUCT_DEFINITION_SHAPE( 'NONE', 'NONE', #48 );
#22 = ADVANCED_BREP_SHAPE_REPRESENTATION( 'HI_SM00 1800', ( #49, #50 ), #6 );
#25 = UNCERTAINTY_MEASURE_WITH_UNIT( LENGTH_MEASURE( 0.00100000000000000 ), #27, '', '' );
#27 =  ( CONVERSION_BASED_UNIT( 'MILLIMETRE', #53 )LENGTH_UNIT(  )NAMED_UNIT( #56 ) );
#28 =  ( NAMED_UNIT( #58 )PLANE_ANGLE_UNIT(  )SI_UNIT( $, .RADIAN. ) );
#29 =  ( NAMED_UNIT( #58 )SI_UNIT( $, .STERADIAN. )SOLID_ANGLE_UNIT(  ) );
#31 = PRESENTATION_STYLE_ASSIGNMENT( ( #64 ) );
#32 = ADVANCED_FACE( '', ( #65, #66 ), #67, .F. );
#33 = PRESENTATION_STYLE_ASSIGNMENT( ( #68 ) );
#34 = ADVANCED_FACE( '', ( #69, #70 ), #71, .T. );
#35 = PRESENTATION_STYLE_ASSIGNMENT( ( #72 ) );
#36 = ADVANCED_FACE( '', ( #73, #74 ), #75, .F. );
#37 = PRESENTATION_STYLE_ASSIGNMENT( ( #76 ) );
#38 = ADVANCED_FACE( '', ( #77, #78 ), #79, .T. );
#39 = PRESENTATION_STYLE_ASSIGNMENT( ( #80 ) );
#40 = ADVANCED_FACE( '', ( #81, #82 ), #83, .F. );
#41 = PRESENTATION_STYLE_ASSIGNMENT( ( #84 ) );
#42 = ADVANCED_FACE( '', ( #85, #86 ), #87, .T. );
#43 = PRESENTATION_STYLE_ASSIGNMENT( ( #88 ) );
#44 = ADVANCED_FACE( '', ( #89, #90 ), #91, .T. );
#45 = PRESENTATION_STYLE_ASSIGNMENT( ( #92 ) );
#46 = ADVANCED_FACE( '', ( #93, #94 ), #95, .T. );
#47 = PRODUCT( 'HI_SM00 1800', 'HI_SM00 1800', 'PART-HI_SM00 1800-DESC', ( #96 ) );
#48 = PRODUCT_DEFINITION( 'NONE', 'NONE', #97, #2 );
#49 = MANIFOLD_SOLID_BREP( 'HI_SM00 1800', #98 );
#50 = AXIS2_PLACEMENT_3D( '', #99, #100, #101 );
#53 = LENGTH_MEASURE_WITH_UNIT( LENGTH_MEASURE( 1.00000000000000 ), #102 );
#56 = DIMENSIONAL_EXPONENTS( 1.00000000000000, 0.000000000000000, 0.000000000000000, 0.000000000000000, 0.000000000000000, 0.000000000000000, 0.000000000000000 );
#58 = DIMENSIONAL_EXPONENTS( 0.000000000000000, 0.000000000000000, 0.000000000000000, 0.000000000000000, 0.000000000000000, 0.000000000000000, 0.000000000000000 );
#64 = SURFACE_STYLE_USAGE( .BOTH., #103 );
#65 = FACE_OUTER_BOUND( '', #104, .T. );
#66 = FACE_OUTER_BOUND( '', #105, .T. );
#67 = ( BOUNDED_SURFACE(  )B_SPLINE_SURFACE( 3, 3, ( ( #108, #109, #110, #111, #112, #113, #114 ), ( #115, #116, #117, #118, #119, #120, #121 ), ( #122, #123, #124, #125, #126, #127, #128 ), ( #129, #130, #131, #132, #133, #134, #135 ) ), .UNSPECIFIED., .F., .T., .F. )B_SPLINE_SURFACE_WITH_KNOTS( ( 4, 4 ), ( 4, 3, 4 ), ( 0.000000000000000, 6.28318530717959 ), ( -1.38947655239341, -2.22044604925031E-016, 1.38947655239341 ), .UNSPECIFIED. )GEOMETRIC_REPRESENTATION_ITEM(  )RATIONAL_B_SPLINE_SURFACE( ( ( 1.00000000000000, 0.333333333333333, 0.333333333333333, 1.00000000000000, 0.333333333333333, 0.333333333333333, 1.00000000000000 ), ( 0.453551912568306, 0.151183970856102, 0.151183970856102, 0.453551912568306, 0.151183970856102, 0.151183970856102, 0.453551912568306 ), ( 0.453551912568306, 0.151183970856102, 0.151183970856102, 0.453551912568306, 0.151183970856102, 0.151183970856102, 0.453551912568306 ), ( 1.00000000000000, 0.333333333333333, 0.333333333333333, 1.00000000000000, 0.333333333333333, 0.333333333333333, 1.00000000000000 ) ) )REPRESENTATION_ITEM( '' )SURFACE(  ) );
#68 = SURFACE_STYLE_USAGE( .BOTH., #141 );
#69 = FACE_OUTER_BOUND( '', #142, .T. );
#70 = FACE_OUTER_BOUND( '', #143, .T. );
#71 = CYLINDRICAL_SURFACE( '', #144, 9.75000000000000 );
#72 = SURFACE_STYLE_USAGE( .BOTH., #145 );
#73 = FACE_OUTER_BOUND( '', #146, .T. );
#74 = FACE_OUTER_BOUND( '', #147, .T. );
#75 = CYLINDRICAL_SURFACE( '', #148, 8.25000000000000 );
#76 = SURFACE_STYLE_USAGE( .BOTH., #149 );
#77 = FACE_OUTER_BOUND( '', #150, .T. );
#78 = FACE_OUTER_BOUND( '', #151, .T. );
#79 = ( BOUNDED_SURFACE(  )B_SPLINE_SURFACE( 3, 3, ( ( #154, #155, #156, #157, #158, #159, #160 ), ( #161, #162, #163, #164, #165, #166, #167 ), ( #168, #169, #170, #171, #172, #173, #174 ), ( #175, #176, #177, #178, #179, #180, #181 ) ), .UNSPECIFIED., .F., .T., .F. )B_SPLINE_SURFACE_WITH_KNOTS( ( 4, 4 ), ( 4, 3, 4 ), ( 0.000000000000000, 6.28318530717959 ), ( -1.21397532809282, 0.000000000000000, 1.21397532809282 ), .UNSPECIFIED. )GEOMETRIC_REPRESENTATION_ITEM(  )RATIONAL_B_SPLINE_SURFACE( ( ( 1.00000000000000, 0.333333333333333, 0.333333333333333, 1.00000000000000, 0.333333333333333, 0.333333333333333, 1.00000000000000 ), ( 0.566198160680201, 0.188732720226734, 0.188732720226734, 0.566198160680201, 0.188732720226734, 0.188732720226734, 0.566198160680201 ), ( 0.566198160680201, 0.188732720226734, 0.188732720226734, 0.566198160680201, 0.188732720226734, 0.188732720226734, 0.566198160680201 ), ( 1.00000000000000, 0.333333333333333, 0.333333333333333, 1.00000000000000, 0.333333333333333, 0.333333333333333, 1.00000000000000 ) ) )REPRESENTATION_ITEM( '' )SURFACE(  ) );
#80 = SURFACE_STYLE_USAGE( .BOTH., #187 );
#81 = FACE_OUTER_BOUND( '', #188, .T. );
#82 = FACE_OUTER_BOUND( '', #189, .T. );
#83 = CYLINDRICAL_SURFACE( '', #190, 8.25000000000000 );
#84 = SURFACE_STYLE_USAGE( .BOTH., #191 );
#85 = FACE_OUTER_BOUND( '', #192, .T. );
#86 = FACE_OUTER_BOUND( '', #193, .T. );
#87 = CYLINDRICAL_SURFACE( '', #194, 9.75000000000000 );
#88 = SURFACE_STYLE_USAGE( .BOTH., #195 );
#89 = FACE_BOUND( '', #196, .T. );
#90 = FACE_OUTER_BOUND( '', #197, .T. );
#91 = PLANE( '', #198 );
#92 = SURFACE_STYLE_USAGE( .BOTH., #199 );
#93 = FACE_OUTER_BOUND( '', #200, .T. );
#94 = FACE_BOUND( '', #201, .T. );
#95 = PLANE( '', #202 );
#96 = PRODUCT_CONTEXT( '', #18, 'mechanical' );
#97 = PRODUCT_DEFINITION_FORMATION_WITH_SPECIFIED_SOURCE( ' ', 'NONE', #47, .NOT_KNOWN. );
#98 = CLOSED_SHELL( '', ( #34, #38, #44, #40, #32, #36, #46, #42 ) );
#99 = CARTESIAN_POINT( '', ( 0.000000000000000, 0.000000000000000, 0.000000000000000 ) );
#100 = DIRECTION( '', ( 0.000000000000000, 0.000000000000000, 1.00000000000000 ) );
#101 = DIRECTION( '', ( 1.00000000000000, 0.000000000000000, 0.000000000000000 ) );
#102 =  ( LENGTH_UNIT(  )NAMED_UNIT( #56 )SI_UNIT( .MILLI., .METRE. ) );
#103 = SURFACE_SIDE_STYLE( '', ( #204 ) );
#104 = EDGE_LOOP( '', ( #205 ) );
#105 = EDGE_LOOP( '', ( #206 ) );
#108 = CARTESIAN_POINT( '', ( 27.5000000000000, 0.000000000000000, -8.25000000000000 ) );
#109 = CARTESIAN_POINT( '', ( 27.5000000000000, 16.5000000000000, -8.25000000000001 ) );
#110 = CARTESIAN_POINT( '', ( 27.5000000000000, 16.5000000000000, 8.25000000000001 ) );
#111 = CARTESIAN_POINT( '', ( 27.5000000000000, 0.000000000000000, 8.25000000000000 ) );
#112 = CARTESIAN_POINT( '', ( 27.5000000000000, -16.5000000000000, 8.25000000000001 ) );
#113 = CARTESIAN_POINT( '', ( 27.5000000000000, -16.5000000000000, -8.25000000000001 ) );
#114 = CARTESIAN_POINT( '', ( 27.5000000000000, 0.000000000000000, -8.25000000000000 ) );
#115 = CARTESIAN_POINT( '', ( 25.5120481927711, 0.000000000000000, -19.0933734939759 ) );
#116 = CARTESIAN_POINT( '', ( 25.5120481927711, 38.1867469879518, -19.0933734939759 ) );
#117 = CARTESIAN_POINT( '', ( 25.5120481927711, 38.1867469879518, 19.0933734939759 ) );
#118 = CARTESIAN_POINT( '', ( 25.5120481927711, 0.000000000000000, 19.0933734939759 ) );
#119 = CARTESIAN_POINT( '', ( 25.5120481927711, -38.1867469879518, 19.0933734939759 ) );
#120 = CARTESIAN_POINT( '', ( 25.5120481927711, -38.1867469879518, -19.0933734939759 ) );
#121 = CARTESIAN_POINT( '', ( 25.5120481927711, 0.000000000000000, -19.0933734939759 ) );
#122 = CARTESIAN_POINT( '', ( 14.4879518072289, 0.000000000000000, -19.0933734939759 ) );
#123 = CARTESIAN_POINT( '', ( 14.4879518072289, 38.1867469879518, -19.0933734939759 ) );
#124 = CARTESIAN_POINT( '', ( 14.4879518072289, 38.1867469879518, 19.0933734939759 ) );
#125 = CARTESIAN_POINT( '', ( 14.4879518072289, 0.000000000000000, 19.0933734939759 ) );
#126 = CARTESIAN_POINT( '', ( 14.4879518072289, -38.1867469879518, 19.0933734939759 ) );
#127 = CARTESIAN_POINT( '', ( 14.4879518072289, -38.1867469879518, -19.0933734939759 ) );
#128 = CARTESIAN_POINT( '', ( 14.4879518072289, 0.000000000000000, -19.0933734939759 ) );
#129 = CARTESIAN_POINT( '', ( 12.5000000000000, 0.000000000000000, -8.25000000000000 ) );
#130 = CARTESIAN_POINT( '', ( 12.5000000000000, 16.5000000000000, -8.25000000000000 ) );
#131 = CARTESIAN_POINT( '', ( 12.5000000000000, 16.5000000000000, 8.25000000000000 ) );
#132 = CARTESIAN_POINT( '', ( 12.5000000000000, 0.000000000000000, 8.25000000000000 ) );
#133 = CARTESIAN_POINT( '', ( 12.5000000000000, -16.5000000000000, 8.25000000000000 ) );
#134 = CARTESIAN_POINT( '', ( 12.5000000000000, -16.5000000000000, -8.25000000000000 ) );
#135 = CARTESIAN_POINT( '', ( 12.5000000000000, 0.000000000000000, -8.25000000000000 ) );
#141 = SURFACE_SIDE_STYLE( '', ( #207 ) );
#142 = EDGE_LOOP( '', ( #208 ) );
#143 = EDGE_LOOP( '', ( #209 ) );
#144 = AXIS2_PLACEMENT_3D( '', #210, #211, #212 );
#145 = SURFACE_SIDE_STYLE( '', ( #213 ) );
#146 = EDGE_LOOP( '', ( #214 ) );
#147 = EDGE_LOOP( '', ( #215 ) );
#148 = AXIS2_PLACEMENT_3D( '', #216, #217, #218 );
#149 = SURFACE_SIDE_STYLE( '', ( #219 ) );
#150 = EDGE_LOOP( '', ( #220 ) );
#151 = EDGE_LOOP( '', ( #221 ) );
#154 = CARTESIAN_POINT( '', ( 29.0000000000000, 0.000000000000000, -9.75000000000000 ) );
#155 = CARTESIAN_POINT( '', ( 29.0000000000000, 19.5000000000000, -9.75000000000000 ) );
#156 = CARTESIAN_POINT( '', ( 29.0000000000000, 19.5000000000000, 9.75000000000000 ) );
#157 = CARTESIAN_POINT( '', ( 29.0000000000000, 0.000000000000000, 9.75000000000000 ) );
#158 = CARTESIAN_POINT( '', ( 29.0000000000000, -19.5000000000000, 9.75000000000000 ) );
#159 = CARTESIAN_POINT( '', ( 29.0000000000000, -19.5000000000000, -9.75000000000000 ) );
#160 = CARTESIAN_POINT( '', ( 29.0000000000000, 0.000000000000000, -9.75000000000000 ) );
#161 = CARTESIAN_POINT( '', ( 25.2984983144346, 0.000000000000000, -19.6795127183573 ) );
#162 = CARTESIAN_POINT( '', ( 25.2984983144346, 39.3590254367147, -19.6795127183573 ) );
#163 = CARTESIAN_POINT( '', ( 25.2984983144346, 39.3590254367147, 19.6795127183573 ) );
#164 = CARTESIAN_POINT( '', ( 25.2984983144346, 0.000000000000000, 19.6795127183573 ) );
#165 = CARTESIAN_POINT( '', ( 25.2984983144346, -39.3590254367147, 19.6795127183573 ) );
#166 = CARTESIAN_POINT( '', ( 25.2984983144346, -39.3590254367147, -19.6795127183573 ) );
#167 = CARTESIAN_POINT( '', ( 25.2984983144346, 0.000000000000000, -19.6795127183573 ) );
#168 = CARTESIAN_POINT( '', ( 14.7015016855654, 0.000000000000000, -19.6795127183573 ) );
#169 = CARTESIAN_POINT( '', ( 14.7015016855654, 39.3590254367147, -19.6795127183573 ) );
#170 = CARTESIAN_POINT( '', ( 14.7015016855654, 39.3590254367147, 19.6795127183573 ) );
#171 = CARTESIAN_POINT( '', ( 14.7015016855654, 0.000000000000000, 19.6795127183573 ) );
#172 = CARTESIAN_POINT( '', ( 14.7015016855654, -39.3590254367147, 19.6795127183573 ) );
#173 = CARTESIAN_POINT( '', ( 14.7015016855654, -39.3590254367147, -19.6795127183573 ) );
#174 = CARTESIAN_POINT( '', ( 14.7015016855654, 0.000000000000000, -19.6795127183573 ) );
#175 = CARTESIAN_POINT( '', ( 11.0000000000000, 0.000000000000000, -9.74999999999999 ) );
#176 = CARTESIAN_POINT( '', ( 11.0000000000000, 19.5000000000000, -9.74999999999999 ) );
#177 = CARTESIAN_POINT( '', ( 11.0000000000000, 19.5000000000000, 9.74999999999999 ) );
#178 = CARTESIAN_POINT( '', ( 11.0000000000000, 0.000000000000000, 9.74999999999999 ) );
#179 = CARTESIAN_POINT( '', ( 11.0000000000000, -19.5000000000000, 9.74999999999999 ) );
#180 = CARTESIAN_POINT( '', ( 11.0000000000000, -19.5000000000000, -9.74999999999999 ) );
#181 = CARTESIAN_POINT( '', ( 11.0000000000000, 0.000000000000000, -9.74999999999999 ) );
#187 = SURFACE_SIDE_STYLE( '', ( #222 ) );
#188 = EDGE_LOOP( '', ( #223 ) );
#189 = EDGE_LOOP( '', ( #224 ) );
#190 = AXIS2_PLACEMENT_3D( '', #225, #226, #227 );
#191 = SURFACE_SIDE_STYLE( '', ( #228 ) );
#192 = EDGE_LOOP( '', ( #229 ) );
#193 = EDGE_LOOP( '', ( #230 ) );
#194 = AXIS2_PLACEMENT_3D( '', #231, #232, #233 );
#195 = SURFACE_SIDE_STYLE( '', ( #234 ) );
#196 = EDGE_LOOP( '', ( #235 ) );
#197 = EDGE_LOOP( '', ( #236 ) );
#198 = AXIS2_PLACEMENT_3D( '', #237, #238, #239 );
#199 = SURFACE_SIDE_STYLE( '', ( #240 ) );
#200 = EDGE_LOOP( '', ( #241 ) );
#201 = EDGE_LOOP( '', ( #242 ) );
#202 = AXIS2_PLACEMENT_3D( '', #243, #244, #245 );
#204 = SURFACE_STYLE_FILL_AREA( #246 );
#205 = ORIENTED_EDGE( '', *, *, #247, .F. );
#206 = ORIENTED_EDGE( '', *, *, #248, .T. );
#207 = SURFACE_STYLE_FILL_AREA( #249 );
#208 = ORIENTED_EDGE( '', *, *, #250, .T. );
#209 = ORIENTED_EDGE( '', *, *, #251, .F. );
#210 = CARTESIAN_POINT( '', ( 40.0000000000000, 0.000000000000000, 0.000000000000000 ) );
#211 = DIRECTION( '', ( -1.00000000000000, -0.000000000000000, 0.000000000000000 ) );
#212 = DIRECTION( '', ( -0.000000000000000, 0.000000000000000, -1.00000000000000 ) );
#213 = SURFACE_STYLE_FILL_AREA( #252 );
#214 = ORIENTED_EDGE( '', *, *, #253, .T. );
#215 = ORIENTED_EDGE( '', *, *, #248, .F. );
#216 = CARTESIAN_POINT( '', ( 40.0000000000000, 0.000000000000000, 0.000000000000000 ) );
#217 = DIRECTION( '', ( -1.00000000000000, -0.000000000000000, 0.000000000000000 ) );
#218 = DIRECTION( '', ( -0.000000000000000, 0.000000000000000, -1.00000000000000 ) );
#219 = SURFACE_STYLE_FILL_AREA( #254 );
#220 = ORIENTED_EDGE( '', *, *, #251, .T. );
#221 = ORIENTED_EDGE( '', *, *, #255, .F. );
#222 = SURFACE_STYLE_FILL_AREA( #256 );
#223 = ORIENTED_EDGE( '', *, *, #247, .T. );
#224 = ORIENTED_EDGE( '', *, *, #257, .F. );
#225 = CARTESIAN_POINT( '', ( 40.0000000000000, 0.000000000000000, 0.000000000000000 ) );
#226 = DIRECTION( '', ( -1.00000000000000, -0.000000000000000, 0.000000000000000 ) );
#227 = DIRECTION( '', ( -0.000000000000000, 0.000000000000000, -1.00000000000000 ) );
#228 = SURFACE_STYLE_FILL_AREA( #258 );
#229 = ORIENTED_EDGE( '', *, *, #255, .T. );
#230 = ORIENTED_EDGE( '', *, *, #259, .F. );
#231 = CARTESIAN_POINT( '', ( 40.0000000000000, 0.000000000000000, 0.000000000000000 ) );
#232 = DIRECTION( '', ( -1.00000000000000, -0.000000000000000, 0.000000000000000 ) );
#233 = DIRECTION( '', ( -0.000000000000000, 0.000000000000000, -1.00000000000000 ) );
#234 = SURFACE_STYLE_FILL_AREA( #260 );
#235 = ORIENTED_EDGE( '', *, *, #257, .T. );
#236 = ORIENTED_EDGE( '', *, *, #250, .F. );
#237 = CARTESIAN_POINT( '', ( 0.000000000000000, 9.75000000000000, 0.000000000000000 ) );
#238 = DIRECTION( '', ( -1.00000000000000, 0.000000000000000, 0.000000000000000 ) );
#239 = DIRECTION( '', ( 0.000000000000000, 0.000000000000000, 1.00000000000000 ) );
#240 = SURFACE_STYLE_FILL_AREA( #261 );
#241 = ORIENTED_EDGE( '', *, *, #259, .T. );
#242 = ORIENTED_EDGE( '', *, *, #253, .F. );
#243 = CARTESIAN_POINT( '', ( 40.0000000000000, 8.25000000000000, 0.000000000000000 ) );
#244 = DIRECTION( '', ( 1.00000000000000, 0.000000000000000, -0.000000000000000 ) );
#245 = DIRECTION( '', ( -0.000000000000000, 0.000000000000000, -1.00000000000000 ) );
#246 = FILL_AREA_STYLE( '', ( #262 ) );
#247 = EDGE_CURVE( '', #263, #263, #264, .T. );
#248 = EDGE_CURVE( '', #265, #265, #266, .T. );
#249 = FILL_AREA_STYLE( '', ( #267 ) );
#250 = EDGE_CURVE( '', #268, #268, #269, .T. );
#251 = EDGE_CURVE( '', #270, #270, #271, .T. );
#252 = FILL_AREA_STYLE( '', ( #272 ) );
#253 = EDGE_CURVE( '', #273, #273, #274, .T. );
#254 = FILL_AREA_STYLE( '', ( #275 ) );
#255 = EDGE_CURVE( '', #276, #276, #277, .T. );
#256 = FILL_AREA_STYLE( '', ( #278 ) );
#257 = EDGE_CURVE( '', #279, #279, #280, .T. );
#258 = FILL_AREA_STYLE( '', ( #281 ) );
#259 = EDGE_CURVE( '', #282, #282, #283, .T. );
#260 = FILL_AREA_STYLE( '', ( #284 ) );
#261 = FILL_AREA_STYLE( '', ( #285 ) );
#262 = FILL_AREA_STYLE_COLOUR( '', #286 );
#263 = VERTEX_POINT( '', #287 );
#264 = CIRCLE( '', #288, 8.25000000000000 );
#265 = VERTEX_POINT( '', #289 );
#266 = CIRCLE( '', #290, 8.25000000000000 );
#267 = FILL_AREA_STYLE_COLOUR( '', #291 );
#268 = VERTEX_POINT( '', #292 );
#269 = CIRCLE( '', #293, 9.75000000000000 );
#270 = VERTEX_POINT( '', #294 );
#271 = CIRCLE( '', #295, 9.75000000000000 );
#272 = FILL_AREA_STYLE_COLOUR( '', #296 );
#273 = VERTEX_POINT( '', #297 );
#274 = CIRCLE( '', #298, 8.25000000000000 );
#275 = FILL_AREA_STYLE_COLOUR( '', #299 );
#276 = VERTEX_POINT( '', #300 );
#277 = CIRCLE( '', #301, 9.75000000000000 );
#278 = FILL_AREA_STYLE_COLOUR( '', #302 );
#279 = VERTEX_POINT( '', #303 );
#280 = CIRCLE( '', #304, 8.25000000000000 );
#281 = FILL_AREA_STYLE_COLOUR( '', #305 );
#282 = VERTEX_POINT( '', #306 );
#283 = CIRCLE( '', #307, 9.75000000000000 );
#284 = FILL_AREA_STYLE_COLOUR( '', #308 );
#285 = FILL_AREA_STYLE_COLOUR( '', #309 );
#286 = COLOUR_RGB( '', 0.500000000000000, 0.500000000000000, 0.500000000000000 );
#287 = CARTESIAN_POINT( '', ( 12.5000000000000, 0.000000000000000, -8.25000000000000 ) );
#288 = AXIS2_PLACEMENT_3D( '', #310, #311, #312 );
#289 = CARTESIAN_POINT( '', ( 27.5000000000000, 0.000000000000000, -8.25000000000000 ) );
#290 = AXIS2_PLACEMENT_3D( '', #313, #314, #315 );
#291 = COLOUR_RGB( '', 0.500000000000000, 0.500000000000000, 0.500000000000000 );
#292 = CARTESIAN_POINT( '', ( 0.000000000000000, 0.000000000000000, -9.75000000000000 ) );
#293 = AXIS2_PLACEMENT_3D( '', #316, #317, #318 );
#294 = CARTESIAN_POINT( '', ( 11.0000000000000, 0.000000000000000, -9.75000000000000 ) );
#295 = AXIS2_PLACEMENT_3D( '', #319, #320, #321 );
#296 = COLOUR_RGB( '', 0.500000000000000, 0.500000000000000, 0.500000000000000 );
#297 = CARTESIAN_POINT( '', ( 40.0000000000000, 0.000000000000000, -8.25000000000000 ) );
#298 = AXIS2_PLACEMENT_3D( '', #322, #323, #324 );
#299 = COLOUR_RGB( '', 0.500000000000000, 0.500000000000000, 0.500000000000000 );
#300 = CARTESIAN_POINT( '', ( 29.0000000000000, 0.000000000000000, -9.75000000000000 ) );
#301 = AXIS2_PLACEMENT_3D( '', #325, #326, #327 );
#302 = COLOUR_RGB( '', 0.500000000000000, 0.500000000000000, 0.500000000000000 );
#303 = CARTESIAN_POINT( '', ( 0.000000000000000, 0.000000000000000, -8.25000000000000 ) );
#304 = AXIS2_PLACEMENT_3D( '', #328, #329, #330 );
#305 = COLOUR_RGB( '', 0.500000000000000, 0.500000000000000, 0.500000000000000 );
#306 = CARTESIAN_POINT( '', ( 40.0000000000000, 0.000000000000000, -9.75000000000000 ) );
#307 = AXIS2_PLACEMENT_3D( '', #331, #332, #333 );
#308 = COLOUR_RGB( '', 0.500000000000000, 0.500000000000000, 0.500000000000000 );
#309 = COLOUR_RGB( '', 0.500000000000000, 0.500000000000000, 0.500000000000000 );
#310 = CARTESIAN_POINT( '', ( 12.5000000000000, 0.000000000000000, 0.000000000000000 ) );
#311 = DIRECTION( '', ( 1.00000000000000, 0.000000000000000, -0.000000000000000 ) );
#312 = DIRECTION( '', ( -0.000000000000000, 0.000000000000000, -1.00000000000000 ) );
#313 = CARTESIAN_POINT( '', ( 27.5000000000000, 0.000000000000000, 0.000000000000000 ) );
#314 = DIRECTION( '', ( 1.00000000000000, 0.000000000000000, -0.000000000000000 ) );
#315 = DIRECTION( '', ( -0.000000000000000, 0.000000000000000, -1.00000000000000 ) );
#316 = CARTESIAN_POINT( '', ( 0.000000000000000, 0.000000000000000, 0.000000000000000 ) );
#317 = DIRECTION( '', ( 1.00000000000000, 0.000000000000000, -0.000000000000000 ) );
#318 = DIRECTION( '', ( -0.000000000000000, 0.000000000000000, -1.00000000000000 ) );
#319 = CARTESIAN_POINT( '', ( 11.0000000000000, 0.000000000000000, 0.000000000000000 ) );
#320 = DIRECTION( '', ( 1.00000000000000, 0.000000000000000, -0.000000000000000 ) );
#321 = DIRECTION( '', ( -0.000000000000000, 0.000000000000000, -1.00000000000000 ) );
#322 = CARTESIAN_POINT( '', ( 40.0000000000000, 0.000000000000000, 0.000000000000000 ) );
#323 = DIRECTION( '', ( 1.00000000000000, 0.000000000000000, -0.000000000000000 ) );
#324 = DIRECTION( '', ( -0.000000000000000, 0.000000000000000, -1.00000000000000 ) );
#325 = CARTESIAN_POINT( '', ( 29.0000000000000, 0.000000000000000, 0.000000000000000 ) );
#326 = DIRECTION( '', ( 1.00000000000000, 0.000000000000000, -0.000000000000000 ) );
#327 = DIRECTION( '', ( -0.000000000000000, 0.000000000000000, -1.00000000000000 ) );
#328 = CARTESIAN_POINT( '', ( 0.000000000000000, 0.000000000000000, 0.000000000000000 ) );
#329 = DIRECTION( '', ( 1.00000000000000, 0.000000000000000, -0.000000000000000 ) );
#330 = DIRECTION( '', ( -0.000000000000000, 0.000000000000000, -1.00000000000000 ) );
#331 = CARTESIAN_POINT( '', ( 40.0000000000000, 0.000000000000000, 0.000000000000000 ) );
#332 = DIRECTION( '', ( 1.00000000000000, 0.000000000000000, -0.000000000000000 ) );
#333 = DIRECTION( '', ( -0.000000000000000, 0.000000000000000, -1.00000000000000 ) );
ENDSEC;
END-ISO-10303-21;
