ISO-10303-21;
HEADER;
FILE_DESCRIPTION( ( 'STEP AP214' ), '1' );
FILE_NAME( '//expscmdclustefs.cadenas.external/client_exchange/iodir/jobs/output/wkb75787712_no0/STEP/SM00_1600_2_14b.stp', '  ', ( '  ' ), ( '  ' ), 'PSStep 15.0.47', 'PARTsolutions', '  ' );
FILE_SCHEMA( ( 'AUTOMOTIVE_DESIGN { 1 0 10303 214 1 1 1 1 }' ) );
ENDSEC;
DATA;
#1 = MECHANICAL_DESIGN_GEOMETRIC_PRESENTATION_REPRESENTATION( ' ', ( #10, #11, #12, #13, #14, #15, #16, #17 ), #6 );
#2 = PRODUCT_DEFINITION_CONTEXT( '', #18, 'design' );
#3 = APPLICATION_PROTOCOL_DEFINITION( 'international standard', 'automotive_design', 2001, #18 );
#4 = PRODUCT_CATEGORY_RELATIONSHIP( 'NONE', 'NONE', #19, #20 );
#5 = SHAPE_DEFINITION_REPRESENTATION( #21, #22 );
#6 =  ( GEOMETRIC_REPRESENTATION_CONTEXT( 3 )GLOBAL_UNCERTAINTY_ASSIGNED_CONTEXT( ( #25 ) )GLOBAL_UNIT_ASSIGNED_CONTEXT( ( #27, #28, #29 ) )REPRESENTATION_CONTEXT( 'NONE', 'WORKSPACE' ) );
#10 = STYLED_ITEM( '', ( #31 ), #32 );
#11 = STYLED_ITEM( '', ( #33 ), #34 );
#12 = STYLED_ITEM( '', ( #35 ), #36 );
#13 = STYLED_ITEM( '', ( #37 ), #38 );
#14 = STYLED_ITEM( '', ( #39 ), #40 );
#15 = STYLED_ITEM( '', ( #41 ), #42 );
#16 = STYLED_ITEM( '', ( #43 ), #44 );
#17 = STYLED_ITEM( '', ( #45 ), #46 );
#18 = APPLICATION_CONTEXT( 'core data for automotive mechanical design processes' );
#19 = PRODUCT_CATEGORY( 'part', 'NONE' );
#20 = PRODUCT_RELATED_PRODUCT_CATEGORY( 'detail', ' ', ( #47 ) );
#21 = PRODUCT_DEFINITION_SHAPE( 'NONE', 'NONE', #48 );
#22 = ADVANCED_BREP_SHAPE_REPRESENTATION( 'HI_SM00 1600', ( #49, #50 ), #6 );
#25 = UNCERTAINTY_MEASURE_WITH_UNIT( LENGTH_MEASURE( 0.00100000000000000 ), #27, '', '' );
#27 =  ( CONVERSION_BASED_UNIT( 'MILLIMETRE', #53 )LENGTH_UNIT(  )NAMED_UNIT( #56 ) );
#28 =  ( NAMED_UNIT( #58 )PLANE_ANGLE_UNIT(  )SI_UNIT( $, .RADIAN. ) );
#29 =  ( NAMED_UNIT( #58 )SI_UNIT( $, .STERADIAN. )SOLID_ANGLE_UNIT(  ) );
#31 = PRESENTATION_STYLE_ASSIGNMENT( ( #64 ) );
#32 = ADVANCED_FACE( '', ( #65, #66 ), #67, .F. );
#33 = PRESENTATION_STYLE_ASSIGNMENT( ( #68 ) );
#34 = ADVANCED_FACE( '', ( #69, #70 ), #71, .F. );
#35 = PRESENTATION_STYLE_ASSIGNMENT( ( #72 ) );
#36 = ADVANCED_FACE( '', ( #73, #74 ), #75, .T. );
#37 = PRESENTATION_STYLE_ASSIGNMENT( ( #76 ) );
#38 = ADVANCED_FACE( '', ( #77, #78 ), #79, .T. );
#39 = PRESENTATION_STYLE_ASSIGNMENT( ( #80 ) );
#40 = ADVANCED_FACE( '', ( #81, #82 ), #83, .T. );
#41 = PRESENTATION_STYLE_ASSIGNMENT( ( #84 ) );
#42 = ADVANCED_FACE( '', ( #85, #86 ), #87, .T. );
#43 = PRESENTATION_STYLE_ASSIGNMENT( ( #88 ) );
#44 = ADVANCED_FACE( '', ( #89, #90 ), #91, .T. );
#45 = PRESENTATION_STYLE_ASSIGNMENT( ( #92 ) );
#46 = ADVANCED_FACE( '', ( #93, #94 ), #95, .F. );
#47 = PRODUCT( 'HI_SM00 1600', 'HI_SM00 1600', 'PART-HI_SM00 1600-DESC', ( #96 ) );
#48 = PRODUCT_DEFINITION( 'NONE', 'NONE', #97, #2 );
#49 = MANIFOLD_SOLID_BREP( 'HI_SM00 1600', #98 );
#50 = AXIS2_PLACEMENT_3D( '', #99, #100, #101 );
#53 = LENGTH_MEASURE_WITH_UNIT( LENGTH_MEASURE( 1.00000000000000 ), #102 );
#56 = DIMENSIONAL_EXPONENTS( 1.00000000000000, 0.000000000000000, 0.000000000000000, 0.000000000000000, 0.000000000000000, 0.000000000000000, 0.000000000000000 );
#58 = DIMENSIONAL_EXPONENTS( 0.000000000000000, 0.000000000000000, 0.000000000000000, 0.000000000000000, 0.000000000000000, 0.000000000000000, 0.000000000000000 );
#64 = SURFACE_STYLE_USAGE( .BOTH., #103 );
#65 = FACE_OUTER_BOUND( '', #104, .T. );
#66 = FACE_OUTER_BOUND( '', #105, .T. );
#67 = CYLINDRICAL_SURFACE( '', #106, 7.50000000000000 );
#68 = SURFACE_STYLE_USAGE( .BOTH., #107 );
#69 = FACE_OUTER_BOUND( '', #108, .T. );
#70 = FACE_OUTER_BOUND( '', #109, .T. );
#71 = CYLINDRICAL_SURFACE( '', #110, 7.50000000000000 );
#72 = SURFACE_STYLE_USAGE( .BOTH., #111 );
#73 = FACE_OUTER_BOUND( '', #112, .T. );
#74 = FACE_BOUND( '', #113, .T. );
#75 = PLANE( '', #114 );
#76 = SURFACE_STYLE_USAGE( .BOTH., #115 );
#77 = FACE_OUTER_BOUND( '', #116, .T. );
#78 = FACE_OUTER_BOUND( '', #117, .T. );
#79 = CYLINDRICAL_SURFACE( '', #118, 9.00000000000000 );
#80 = SURFACE_STYLE_USAGE( .BOTH., #119 );
#81 = FACE_OUTER_BOUND( '', #120, .T. );
#82 = FACE_OUTER_BOUND( '', #121, .T. );
#83 = CYLINDRICAL_SURFACE( '', #122, 9.00000000000000 );
#84 = SURFACE_STYLE_USAGE( .BOTH., #123 );
#85 = FACE_OUTER_BOUND( '', #124, .T. );
#86 = FACE_OUTER_BOUND( '', #125, .T. );
#87 = ( BOUNDED_SURFACE(  )B_SPLINE_SURFACE( 3, 3, ( ( #128, #129, #130, #131, #132, #133, #134 ), ( #135, #136, #137, #138, #139, #140, #141 ), ( #142, #143, #144, #145, #146, #147, #148 ), ( #149, #150, #151, #152, #153, #154, #155 ) ), .UNSPECIFIED., .F., .T., .F. )B_SPLINE_SURFACE_WITH_KNOTS( ( 4, 4 ), ( 4, 3, 4 ), ( 0.000000000000000, 6.28318530717959 ), ( -1.11719863068712, 2.22044604925031E-016, 1.11719863068712 ), .UNSPECIFIED. )GEOMETRIC_REPRESENTATION_ITEM(  )RATIONAL_B_SPLINE_SURFACE( ( ( 1.00000000000000, 0.333333333333333, 0.333333333333333, 1.00000000000000, 0.333333333333333, 0.333333333333333, 1.00000000000000 ), ( 0.625468164794008, 0.208489388264669, 0.208489388264669, 0.625468164794008, 0.208489388264669, 0.208489388264669, 0.625468164794008 ), ( 0.625468164794008, 0.208489388264669, 0.208489388264669, 0.625468164794008, 0.208489388264669, 0.208489388264669, 0.625468164794008 ), ( 1.00000000000000, 0.333333333333333, 0.333333333333333, 1.00000000000000, 0.333333333333333, 0.333333333333333, 1.00000000000000 ) ) )REPRESENTATION_ITEM( '' )SURFACE(  ) );
#88 = SURFACE_STYLE_USAGE( .BOTH., #161 );
#89 = FACE_BOUND( '', #162, .T. );
#90 = FACE_OUTER_BOUND( '', #163, .T. );
#91 = PLANE( '', #164 );
#92 = SURFACE_STYLE_USAGE( .BOTH., #165 );
#93 = FACE_OUTER_BOUND( '', #166, .T. );
#94 = FACE_OUTER_BOUND( '', #167, .T. );
#95 = ( BOUNDED_SURFACE(  )B_SPLINE_SURFACE( 3, 3, ( ( #170, #171, #172, #173, #174, #175, #176 ), ( #177, #178, #179, #180, #181, #182, #183 ), ( #184, #185, #186, #187, #188, #189, #190 ), ( #191, #192, #193, #194, #195, #196, #197 ) ), .UNSPECIFIED., .F., .T., .F. )B_SPLINE_SURFACE_WITH_KNOTS( ( 4, 4 ), ( 4, 3, 4 ), ( 0.000000000000000, 6.28318530717959 ), ( -1.31139125248307, 0.000000000000000, 1.31139125248307 ), .UNSPECIFIED. )GEOMETRIC_REPRESENTATION_ITEM(  )RATIONAL_B_SPLINE_SURFACE( ( ( 1.00000000000000, 0.333333333333333, 0.333333333333333, 1.00000000000000, 0.333333333333333, 0.333333333333333, 1.00000000000000 ), ( 0.504337050805452, 0.168112350268484, 0.168112350268484, 0.504337050805452, 0.168112350268484, 0.168112350268484, 0.504337050805452 ), ( 0.504337050805452, 0.168112350268484, 0.168112350268484, 0.504337050805452, 0.168112350268484, 0.168112350268484, 0.504337050805452 ), ( 1.00000000000000, 0.333333333333333, 0.333333333333333, 1.00000000000000, 0.333333333333333, 0.333333333333333, 1.00000000000000 ) ) )REPRESENTATION_ITEM( '' )SURFACE(  ) );
#96 = PRODUCT_CONTEXT( '', #18, 'mechanical' );
#97 = PRODUCT_DEFINITION_FORMATION_WITH_SPECIFIED_SOURCE( ' ', 'NONE', #47, .NOT_KNOWN. );
#98 = CLOSED_SHELL( '', ( #40, #42, #44, #32, #46, #34, #36, #38 ) );
#99 = CARTESIAN_POINT( '', ( 0.000000000000000, 0.000000000000000, 0.000000000000000 ) );
#100 = DIRECTION( '', ( 0.000000000000000, 0.000000000000000, 1.00000000000000 ) );
#101 = DIRECTION( '', ( 1.00000000000000, 0.000000000000000, 0.000000000000000 ) );
#102 =  ( LENGTH_UNIT(  )NAMED_UNIT( #56 )SI_UNIT( .MILLI., .METRE. ) );
#103 = SURFACE_SIDE_STYLE( '', ( #204 ) );
#104 = EDGE_LOOP( '', ( #205 ) );
#105 = EDGE_LOOP( '', ( #206 ) );
#106 = AXIS2_PLACEMENT_3D( '', #207, #208, #209 );
#107 = SURFACE_SIDE_STYLE( '', ( #210 ) );
#108 = EDGE_LOOP( '', ( #211 ) );
#109 = EDGE_LOOP( '', ( #212 ) );
#110 = AXIS2_PLACEMENT_3D( '', #213, #214, #215 );
#111 = SURFACE_SIDE_STYLE( '', ( #216 ) );
#112 = EDGE_LOOP( '', ( #217 ) );
#113 = EDGE_LOOP( '', ( #218 ) );
#114 = AXIS2_PLACEMENT_3D( '', #219, #220, #221 );
#115 = SURFACE_SIDE_STYLE( '', ( #222 ) );
#116 = EDGE_LOOP( '', ( #223 ) );
#117 = EDGE_LOOP( '', ( #224 ) );
#118 = AXIS2_PLACEMENT_3D( '', #225, #226, #227 );
#119 = SURFACE_SIDE_STYLE( '', ( #228 ) );
#120 = EDGE_LOOP( '', ( #229 ) );
#121 = EDGE_LOOP( '', ( #230 ) );
#122 = AXIS2_PLACEMENT_3D( '', #231, #232, #233 );
#123 = SURFACE_SIDE_STYLE( '', ( #234 ) );
#124 = EDGE_LOOP( '', ( #235 ) );
#125 = EDGE_LOOP( '', ( #236 ) );
#128 = CARTESIAN_POINT( '', ( 25.0000000000000, 0.000000000000000, -9.00000000000000 ) );
#129 = CARTESIAN_POINT( '', ( 25.0000000000000, 18.0000000000000, -9.00000000000000 ) );
#130 = CARTESIAN_POINT( '', ( 25.0000000000000, 18.0000000000000, 9.00000000000000 ) );
#131 = CARTESIAN_POINT( '', ( 25.0000000000000, 0.000000000000000, 9.00000000000000 ) );
#132 = CARTESIAN_POINT( '', ( 25.0000000000000, -18.0000000000000, 9.00000000000000 ) );
#133 = CARTESIAN_POINT( '', ( 25.0000000000000, -18.0000000000000, -9.00000000000000 ) );
#134 = CARTESIAN_POINT( '', ( 25.0000000000000, 0.000000000000000, -9.00000000000000 ) );
#135 = CARTESIAN_POINT( '', ( 21.2634730538922, 0.000000000000000, -16.6646706586826 ) );
#136 = CARTESIAN_POINT( '', ( 21.2634730538922, 33.3293413173653, -16.6646706586826 ) );
#137 = CARTESIAN_POINT( '', ( 21.2634730538922, 33.3293413173653, 16.6646706586826 ) );
#138 = CARTESIAN_POINT( '', ( 21.2634730538922, 0.000000000000000, 16.6646706586826 ) );
#139 = CARTESIAN_POINT( '', ( 21.2634730538922, -33.3293413173653, 16.6646706586826 ) );
#140 = CARTESIAN_POINT( '', ( 21.2634730538922, -33.3293413173653, -16.6646706586826 ) );
#141 = CARTESIAN_POINT( '', ( 21.2634730538922, 0.000000000000000, -16.6646706586826 ) );
#142 = CARTESIAN_POINT( '', ( 12.7365269461078, 0.000000000000000, -16.6646706586826 ) );
#143 = CARTESIAN_POINT( '', ( 12.7365269461078, 33.3293413173653, -16.6646706586826 ) );
#144 = CARTESIAN_POINT( '', ( 12.7365269461078, 33.3293413173653, 16.6646706586826 ) );
#145 = CARTESIAN_POINT( '', ( 12.7365269461078, 0.000000000000000, 16.6646706586826 ) );
#146 = CARTESIAN_POINT( '', ( 12.7365269461078, -33.3293413173653, 16.6646706586826 ) );
#147 = CARTESIAN_POINT( '', ( 12.7365269461078, -33.3293413173653, -16.6646706586826 ) );
#148 = CARTESIAN_POINT( '', ( 12.7365269461078, 0.000000000000000, -16.6646706586826 ) );
#149 = CARTESIAN_POINT( '', ( 9.00000000000000, 0.000000000000000, -9.00000000000001 ) );
#150 = CARTESIAN_POINT( '', ( 9.00000000000000, 18.0000000000000, -9.00000000000001 ) );
#151 = CARTESIAN_POINT( '', ( 9.00000000000000, 18.0000000000000, 9.00000000000001 ) );
#152 = CARTESIAN_POINT( '', ( 9.00000000000000, 0.000000000000000, 9.00000000000001 ) );
#153 = CARTESIAN_POINT( '', ( 9.00000000000000, -18.0000000000000, 9.00000000000001 ) );
#154 = CARTESIAN_POINT( '', ( 9.00000000000000, -18.0000000000000, -9.00000000000001 ) );
#155 = CARTESIAN_POINT( '', ( 9.00000000000000, 0.000000000000000, -9.00000000000001 ) );
#161 = SURFACE_SIDE_STYLE( '', ( #237 ) );
#162 = EDGE_LOOP( '', ( #238 ) );
#163 = EDGE_LOOP( '', ( #239 ) );
#164 = AXIS2_PLACEMENT_3D( '', #240, #241, #242 );
#165 = SURFACE_SIDE_STYLE( '', ( #243 ) );
#166 = EDGE_LOOP( '', ( #244 ) );
#167 = EDGE_LOOP( '', ( #245 ) );
#170 = CARTESIAN_POINT( '', ( 23.5000000000000, 0.000000000000000, -7.50000000000000 ) );
#171 = CARTESIAN_POINT( '', ( 23.5000000000000, 15.0000000000000, -7.50000000000000 ) );
#172 = CARTESIAN_POINT( '', ( 23.5000000000000, 15.0000000000000, 7.50000000000000 ) );
#173 = CARTESIAN_POINT( '', ( 23.5000000000000, 0.000000000000000, 7.50000000000000 ) );
#174 = CARTESIAN_POINT( '', ( 23.5000000000000, -15.0000000000000, 7.50000000000000 ) );
#175 = CARTESIAN_POINT( '', ( 23.5000000000000, -15.0000000000000, -7.50000000000000 ) );
#176 = CARTESIAN_POINT( '', ( 23.5000000000000, 0.000000000000000, -7.50000000000000 ) );
#177 = CARTESIAN_POINT( '', ( 21.2960687960688, 0.000000000000000, -15.8046683046683 ) );
#178 = CARTESIAN_POINT( '', ( 21.2960687960688, 31.6093366093366, -15.8046683046683 ) );
#179 = CARTESIAN_POINT( '', ( 21.2960687960688, 31.6093366093366, 15.8046683046683 ) );
#180 = CARTESIAN_POINT( '', ( 21.2960687960688, 0.000000000000000, 15.8046683046683 ) );
#181 = CARTESIAN_POINT( '', ( 21.2960687960688, -31.6093366093366, 15.8046683046683 ) );
#182 = CARTESIAN_POINT( '', ( 21.2960687960688, -31.6093366093366, -15.8046683046683 ) );
#183 = CARTESIAN_POINT( '', ( 21.2960687960688, 0.000000000000000, -15.8046683046683 ) );
#184 = CARTESIAN_POINT( '', ( 12.7039312039312, 0.000000000000000, -15.8046683046683 ) );
#185 = CARTESIAN_POINT( '', ( 12.7039312039312, 31.6093366093366, -15.8046683046683 ) );
#186 = CARTESIAN_POINT( '', ( 12.7039312039312, 31.6093366093366, 15.8046683046683 ) );
#187 = CARTESIAN_POINT( '', ( 12.7039312039312, 0.000000000000000, 15.8046683046683 ) );
#188 = CARTESIAN_POINT( '', ( 12.7039312039312, -31.6093366093366, 15.8046683046683 ) );
#189 = CARTESIAN_POINT( '', ( 12.7039312039312, -31.6093366093366, -15.8046683046683 ) );
#190 = CARTESIAN_POINT( '', ( 12.7039312039312, 0.000000000000000, -15.8046683046683 ) );
#191 = CARTESIAN_POINT( '', ( 10.5000000000000, 0.000000000000000, -7.50000000000000 ) );
#192 = CARTESIAN_POINT( '', ( 10.5000000000000, 15.0000000000000, -7.50000000000000 ) );
#193 = CARTESIAN_POINT( '', ( 10.5000000000000, 15.0000000000000, 7.50000000000000 ) );
#194 = CARTESIAN_POINT( '', ( 10.5000000000000, 0.000000000000000, 7.50000000000000 ) );
#195 = CARTESIAN_POINT( '', ( 10.5000000000000, -15.0000000000000, 7.50000000000000 ) );
#196 = CARTESIAN_POINT( '', ( 10.5000000000000, -15.0000000000000, -7.50000000000000 ) );
#197 = CARTESIAN_POINT( '', ( 10.5000000000000, 0.000000000000000, -7.50000000000000 ) );
#204 = SURFACE_STYLE_FILL_AREA( #246 );
#205 = ORIENTED_EDGE( '', *, *, #247, .T. );
#206 = ORIENTED_EDGE( '', *, *, #248, .F. );
#207 = CARTESIAN_POINT( '', ( 34.0000000000000, 0.000000000000000, 0.000000000000000 ) );
#208 = DIRECTION( '', ( -1.00000000000000, -0.000000000000000, 0.000000000000000 ) );
#209 = DIRECTION( '', ( -0.000000000000000, 0.000000000000000, -1.00000000000000 ) );
#210 = SURFACE_STYLE_FILL_AREA( #249 );
#211 = ORIENTED_EDGE( '', *, *, #250, .T. );
#212 = ORIENTED_EDGE( '', *, *, #251, .F. );
#213 = CARTESIAN_POINT( '', ( 34.0000000000000, 0.000000000000000, 0.000000000000000 ) );
#214 = DIRECTION( '', ( -1.00000000000000, -0.000000000000000, 0.000000000000000 ) );
#215 = DIRECTION( '', ( -0.000000000000000, 0.000000000000000, -1.00000000000000 ) );
#216 = SURFACE_STYLE_FILL_AREA( #252 );
#217 = ORIENTED_EDGE( '', *, *, #253, .T. );
#218 = ORIENTED_EDGE( '', *, *, #250, .F. );
#219 = CARTESIAN_POINT( '', ( 34.0000000000000, 7.50000000000000, 0.000000000000000 ) );
#220 = DIRECTION( '', ( 1.00000000000000, 0.000000000000000, -0.000000000000000 ) );
#221 = DIRECTION( '', ( -0.000000000000000, 0.000000000000000, -1.00000000000000 ) );
#222 = SURFACE_STYLE_FILL_AREA( #254 );
#223 = ORIENTED_EDGE( '', *, *, #255, .T. );
#224 = ORIENTED_EDGE( '', *, *, #253, .F. );
#225 = CARTESIAN_POINT( '', ( 34.0000000000000, 0.000000000000000, 0.000000000000000 ) );
#226 = DIRECTION( '', ( -1.00000000000000, -0.000000000000000, 0.000000000000000 ) );
#227 = DIRECTION( '', ( -0.000000000000000, 0.000000000000000, -1.00000000000000 ) );
#228 = SURFACE_STYLE_FILL_AREA( #256 );
#229 = ORIENTED_EDGE( '', *, *, #257, .T. );
#230 = ORIENTED_EDGE( '', *, *, #258, .F. );
#231 = CARTESIAN_POINT( '', ( 34.0000000000000, 0.000000000000000, 0.000000000000000 ) );
#232 = DIRECTION( '', ( -1.00000000000000, -0.000000000000000, 0.000000000000000 ) );
#233 = DIRECTION( '', ( -0.000000000000000, 0.000000000000000, -1.00000000000000 ) );
#234 = SURFACE_STYLE_FILL_AREA( #259 );
#235 = ORIENTED_EDGE( '', *, *, #258, .T. );
#236 = ORIENTED_EDGE( '', *, *, #255, .F. );
#237 = SURFACE_STYLE_FILL_AREA( #260 );
#238 = ORIENTED_EDGE( '', *, *, #248, .T. );
#239 = ORIENTED_EDGE( '', *, *, #257, .F. );
#240 = CARTESIAN_POINT( '', ( 0.000000000000000, 9.00000000000000, 0.000000000000000 ) );
#241 = DIRECTION( '', ( -1.00000000000000, 0.000000000000000, 0.000000000000000 ) );
#242 = DIRECTION( '', ( 0.000000000000000, 0.000000000000000, 1.00000000000000 ) );
#243 = SURFACE_STYLE_FILL_AREA( #261 );
#244 = ORIENTED_EDGE( '', *, *, #247, .F. );
#245 = ORIENTED_EDGE( '', *, *, #251, .T. );
#246 = FILL_AREA_STYLE( '', ( #262 ) );
#247 = EDGE_CURVE( '', #263, #263, #264, .T. );
#248 = EDGE_CURVE( '', #265, #265, #266, .T. );
#249 = FILL_AREA_STYLE( '', ( #267 ) );
#250 = EDGE_CURVE( '', #268, #268, #269, .T. );
#251 = EDGE_CURVE( '', #270, #270, #271, .T. );
#252 = FILL_AREA_STYLE( '', ( #272 ) );
#253 = EDGE_CURVE( '', #273, #273, #274, .T. );
#254 = FILL_AREA_STYLE( '', ( #275 ) );
#255 = EDGE_CURVE( '', #276, #276, #277, .T. );
#256 = FILL_AREA_STYLE( '', ( #278 ) );
#257 = EDGE_CURVE( '', #279, #279, #280, .T. );
#258 = EDGE_CURVE( '', #281, #281, #282, .T. );
#259 = FILL_AREA_STYLE( '', ( #283 ) );
#260 = FILL_AREA_STYLE( '', ( #284 ) );
#261 = FILL_AREA_STYLE( '', ( #285 ) );
#262 = FILL_AREA_STYLE_COLOUR( '', #286 );
#263 = VERTEX_POINT( '', #287 );
#264 = CIRCLE( '', #288, 7.50000000000000 );
#265 = VERTEX_POINT( '', #289 );
#266 = CIRCLE( '', #290, 7.50000000000000 );
#267 = FILL_AREA_STYLE_COLOUR( '', #291 );
#268 = VERTEX_POINT( '', #292 );
#269 = CIRCLE( '', #293, 7.50000000000000 );
#270 = VERTEX_POINT( '', #294 );
#271 = CIRCLE( '', #295, 7.50000000000000 );
#272 = FILL_AREA_STYLE_COLOUR( '', #296 );
#273 = VERTEX_POINT( '', #297 );
#274 = CIRCLE( '', #298, 9.00000000000000 );
#275 = FILL_AREA_STYLE_COLOUR( '', #299 );
#276 = VERTEX_POINT( '', #300 );
#277 = CIRCLE( '', #301, 9.00000000000000 );
#278 = FILL_AREA_STYLE_COLOUR( '', #302 );
#279 = VERTEX_POINT( '', #303 );
#280 = CIRCLE( '', #304, 9.00000000000000 );
#281 = VERTEX_POINT( '', #305 );
#282 = CIRCLE( '', #306, 9.00000000000001 );
#283 = FILL_AREA_STYLE_COLOUR( '', #307 );
#284 = FILL_AREA_STYLE_COLOUR( '', #308 );
#285 = FILL_AREA_STYLE_COLOUR( '', #309 );
#286 = COLOUR_RGB( '', 0.500000000000000, 0.500000000000000, 0.500000000000000 );
#287 = CARTESIAN_POINT( '', ( 10.5000000000000, 0.000000000000000, -7.50000000000000 ) );
#288 = AXIS2_PLACEMENT_3D( '', #310, #311, #312 );
#289 = CARTESIAN_POINT( '', ( 0.000000000000000, 0.000000000000000, -7.50000000000000 ) );
#290 = AXIS2_PLACEMENT_3D( '', #313, #314, #315 );
#291 = COLOUR_RGB( '', 0.500000000000000, 0.500000000000000, 0.500000000000000 );
#292 = CARTESIAN_POINT( '', ( 34.0000000000000, 0.000000000000000, -7.50000000000000 ) );
#293 = AXIS2_PLACEMENT_3D( '', #316, #317, #318 );
#294 = CARTESIAN_POINT( '', ( 23.5000000000000, 0.000000000000000, -7.50000000000000 ) );
#295 = AXIS2_PLACEMENT_3D( '', #319, #320, #321 );
#296 = COLOUR_RGB( '', 0.500000000000000, 0.500000000000000, 0.500000000000000 );
#297 = CARTESIAN_POINT( '', ( 34.0000000000000, 0.000000000000000, -9.00000000000000 ) );
#298 = AXIS2_PLACEMENT_3D( '', #322, #323, #324 );
#299 = COLOUR_RGB( '', 0.500000000000000, 0.500000000000000, 0.500000000000000 );
#300 = CARTESIAN_POINT( '', ( 25.0000000000000, 0.000000000000000, -9.00000000000000 ) );
#301 = AXIS2_PLACEMENT_3D( '', #325, #326, #327 );
#302 = COLOUR_RGB( '', 0.500000000000000, 0.500000000000000, 0.500000000000000 );
#303 = CARTESIAN_POINT( '', ( 0.000000000000000, 0.000000000000000, -9.00000000000000 ) );
#304 = AXIS2_PLACEMENT_3D( '', #328, #329, #330 );
#305 = CARTESIAN_POINT( '', ( 9.00000000000000, 0.000000000000000, -9.00000000000001 ) );
#306 = AXIS2_PLACEMENT_3D( '', #331, #332, #333 );
#307 = COLOUR_RGB( '', 0.500000000000000, 0.500000000000000, 0.500000000000000 );
#308 = COLOUR_RGB( '', 0.500000000000000, 0.500000000000000, 0.500000000000000 );
#309 = COLOUR_RGB( '', 0.500000000000000, 0.500000000000000, 0.500000000000000 );
#310 = CARTESIAN_POINT( '', ( 10.5000000000000, 0.000000000000000, 0.000000000000000 ) );
#311 = DIRECTION( '', ( 1.00000000000000, 0.000000000000000, -0.000000000000000 ) );
#312 = DIRECTION( '', ( -0.000000000000000, 0.000000000000000, -1.00000000000000 ) );
#313 = CARTESIAN_POINT( '', ( 0.000000000000000, 0.000000000000000, 0.000000000000000 ) );
#314 = DIRECTION( '', ( 1.00000000000000, 0.000000000000000, -0.000000000000000 ) );
#315 = DIRECTION( '', ( -0.000000000000000, 0.000000000000000, -1.00000000000000 ) );
#316 = CARTESIAN_POINT( '', ( 34.0000000000000, 0.000000000000000, 0.000000000000000 ) );
#317 = DIRECTION( '', ( 1.00000000000000, 0.000000000000000, -0.000000000000000 ) );
#318 = DIRECTION( '', ( -0.000000000000000, 0.000000000000000, -1.00000000000000 ) );
#319 = CARTESIAN_POINT( '', ( 23.5000000000000, 0.000000000000000, 0.000000000000000 ) );
#320 = DIRECTION( '', ( 1.00000000000000, 0.000000000000000, -0.000000000000000 ) );
#321 = DIRECTION( '', ( -0.000000000000000, 0.000000000000000, -1.00000000000000 ) );
#322 = CARTESIAN_POINT( '', ( 34.0000000000000, 0.000000000000000, 0.000000000000000 ) );
#323 = DIRECTION( '', ( 1.00000000000000, 0.000000000000000, -0.000000000000000 ) );
#324 = DIRECTION( '', ( -0.000000000000000, 0.000000000000000, -1.00000000000000 ) );
#325 = CARTESIAN_POINT( '', ( 25.0000000000000, 0.000000000000000, 0.000000000000000 ) );
#326 = DIRECTION( '', ( 1.00000000000000, 0.000000000000000, -0.000000000000000 ) );
#327 = DIRECTION( '', ( -0.000000000000000, 0.000000000000000, -1.00000000000000 ) );
#328 = CARTESIAN_POINT( '', ( 0.000000000000000, 0.000000000000000, 0.000000000000000 ) );
#329 = DIRECTION( '', ( 1.00000000000000, 0.000000000000000, -0.000000000000000 ) );
#330 = DIRECTION( '', ( -0.000000000000000, 0.000000000000000, -1.00000000000000 ) );
#331 = CARTESIAN_POINT( '', ( 9.00000000000000, 0.000000000000000, 0.000000000000000 ) );
#332 = DIRECTION( '', ( 1.00000000000000, 0.000000000000000, -0.000000000000000 ) );
#333 = DIRECTION( '', ( -0.000000000000000, 0.000000000000000, -1.00000000000000 ) );
ENDSEC;
END-ISO-10303-21;
