ISO-10303-21;
HEADER;
FILE_DESCRIPTION (( 'STEP AP203' ),
    '1' );
FILE_NAME ('SE1204-R-1G0.STEP',
    '2002-08-15T11:46:10',
    ( '.' ),
    ( '.' ),
    'SwSTEP 2.0',
    'SolidWorks 2001340',
    '' );
FILE_SCHEMA (( 'CONFIG_CONTROL_DESIGN' ));
ENDSEC;

DATA;
#1 = VERTEX_POINT ( 'NONE', #60 ) ;
#2 = EDGE_LOOP ( 'NONE', ( #338, #30, #183, #377 ) ) ;
#3 = ORIENTED_EDGE ( 'NONE', *, *, #239, .F. ) ;
#4 = ORIENTED_EDGE ( 'NONE', *, *, #366, .F. ) ;
#5 = EDGE_CURVE ( 'NONE', #18, #1, #67, .T. ) ;
#6 = CLOSED_SHELL ( 'NONE', ( #48, #375, #365, #13, #185, #38, #31, #26, #221, #35, #59 ) ) ;
#7 = EDGE_LOOP ( 'NONE', ( #43, #372 ) ) ;
#8 = ORIENTED_EDGE ( 'NONE', *, *, #111, .T. ) ;
#9 = EDGE_CURVE ( 'NONE', #320, #113, #85, .T. ) ;
#10 = EDGE_LOOP ( 'NONE', ( #41, #371, #32, #321 ) ) ;
#11 = VERTEX_POINT ( 'NONE', #102 ) ;
#12 = EDGE_CURVE ( 'NONE', #22, #373, #105, .T. ) ;
#13 = ADVANCED_FACE ( 'NONE', ( #143 ), #144, .F. ) ;
#14 = EDGE_LOOP ( 'NONE', ( #287, #361 ) ) ;
#15 = EDGE_LOOP ( 'NONE', ( #46, #379, #131, #28 ) ) ;
#16 = VERTEX_POINT ( 'NONE', #155 ) ;
#17 = EDGE_CURVE ( 'NONE', #1, #18, #167, .T. ) ;
#18 = VERTEX_POINT ( 'NONE', #172 ) ;
#19 = MANIFOLD_SOLID_BREP ( 'NONE', #6 ) ;
#20 = ORIENTED_EDGE ( 'NONE', *, *, #9, .T. ) ;
#21 = ORIENTED_EDGE ( 'NONE', *, *, #17, .F. ) ;
#22 = VERTEX_POINT ( 'NONE', #178 ) ;
#23 = EDGE_CURVE ( 'NONE', #16, #367, #179, .T. ) ;
#24 = ORIENTED_EDGE ( 'NONE', *, *, #363, .T. ) ;
#25 = ORIENTED_EDGE ( 'NONE', *, *, #366, .T. ) ;
#26 = ADVANCED_FACE ( 'NONE', ( #191 ), #192, .T. ) ;
#27 = ORIENTED_EDGE ( 'NONE', *, *, #51, .T. ) ;
#28 = ORIENTED_EDGE ( 'NONE', *, *, #76, .F. ) ;
#29 = ORIENTED_EDGE ( 'NONE', *, *, #368, .T. ) ;
#30 = ORIENTED_EDGE ( 'NONE', *, *, #5, .F. ) ;
#31 = ADVANCED_FACE ( 'NONE', ( #225 ), #226, .T. ) ;
#32 = ORIENTED_EDGE ( 'NONE', *, *, #23, .T. ) ;
#33 = ORIENTED_EDGE ( 'NONE', *, *, #370, .F. ) ;
#34 = ORIENTED_EDGE ( 'NONE', *, *, #9, .F. ) ;
#35 = ADVANCED_FACE ( 'NONE', ( #231 ), #232, .T. ) ;
#36 = EDGE_CURVE ( 'NONE', #16, #203, #237, .T. ) ;
#37 = EDGE_LOOP ( 'NONE', ( #362, #20 ) ) ;
#38 = ADVANCED_FACE ( 'NONE', ( #246, #247 ), #248, .T. ) ;
#39 = EDGE_LOOP ( 'NONE', ( #3, #57 ) ) ;
#40 = EDGE_LOOP ( 'NONE', ( #148, #55 ) ) ;
#41 = ORIENTED_EDGE ( 'NONE', *, *, #363, .F. ) ;
#42 = ORIENTED_EDGE ( 'NONE', *, *, #12, .T. ) ;
#43 = ORIENTED_EDGE ( 'NONE', *, *, #5, .T. ) ;
#44 = EDGE_CURVE ( 'NONE', #202, #367, #72, .T. ) ;
#45 = ORIENTED_EDGE ( 'NONE', *, *, #23, .F. ) ;
#46 = ORIENTED_EDGE ( 'NONE', *, *, #51, .F. ) ;
#47 = ORIENTED_EDGE ( 'NONE', *, *, #58, .F. ) ;
#48 = ADVANCED_FACE ( 'NONE', ( #90, #91 ), #92, .T. ) ;
#49 = ORIENTED_EDGE ( 'NONE', *, *, #378, .F. ) ;
#50 = EDGE_LOOP ( 'NONE', ( #4, #47, #374, #94 ) ) ;
#51 = EDGE_CURVE ( 'NONE', #54, #75, #98, .T. ) ;
#52 = EDGE_LOOP ( 'NONE', ( #369, #49 ) ) ;
#53 = ORIENTED_EDGE ( 'NONE', *, *, #130, .F. ) ;
#54 = VERTEX_POINT ( 'NONE', #104 ) ;
#55 = ORIENTED_EDGE ( 'NONE', *, *, #44, .T. ) ;
#56 = EDGE_CURVE ( 'NONE', #113, #16, #119, .T. ) ;
#57 = ORIENTED_EDGE ( 'NONE', *, *, #12, .F. ) ;
#58 = EDGE_CURVE ( 'NONE', #113, #320, #128, .T. ) ;
#59 = ADVANCED_FACE ( 'NONE', ( #135, #136 ), #137, .T. ) ;
#60 = CARTESIAN_POINT ( 'NONE',  ( -34.00000000000000000, -6.000000000000005300, 7.347638122934268500E-016 ) ) ;
#61 = CARTESIAN_POINT ( 'NONE',  ( -24.00000000000000000, 10.00000000000000000, 0.0000000000000000000 ) ) ;
#62 = CIRCLE ( 'NONE', #63, 12.75000000000000000 ) ;
#63 = AXIS2_PLACEMENT_3D ( 'NONE', #64, #65, #66 ) ;
#64 = CARTESIAN_POINT ( 'NONE',  ( -24.00000000000000000, -3.061276722312013000E-015, 0.0000000000000000000 ) ) ;
#65 = DIRECTION ( 'NONE',  ( 1.000000000000000000, 1.275531967630005200E-016, 0.0000000000000000000 ) ) ;
#66 = DIRECTION ( 'NONE',  ( 0.0000000000000000000, 1.000000000000000000, 0.0000000000000000000 ) ) ;
#67 = CIRCLE ( 'NONE', #68, 6.000000000000000900 ) ;
#68 = AXIS2_PLACEMENT_3D ( 'NONE', #69, #70, #71 ) ;
#69 = CARTESIAN_POINT ( 'NONE',  ( -34.00000000000000000, -4.336808689942018500E-015, 0.0000000000000000000 ) ) ;
#70 = DIRECTION ( 'NONE',  ( 1.000000000000000000, 1.275531967630005200E-016, 0.0000000000000000000 ) ) ;
#71 = DIRECTION ( 'NONE',  ( 0.0000000000000000000, 1.000000000000000000, 0.0000000000000000000 ) ) ;
#72 = CIRCLE ( 'NONE', #73, 10.00000000000000400 ) ;
#73 = AXIS2_PLACEMENT_3D ( 'NONE', #74, #78, #79 ) ;
#74 = CARTESIAN_POINT ( 'NONE',  ( -24.00000000000000000, -3.061276722312013000E-015, 0.0000000000000000000 ) ) ;
#75 = VERTEX_POINT ( 'NONE', #142 ) ;
#76 = EDGE_CURVE ( 'NONE', #75, #11, #150, .T. ) ;
#77 = ORIENTED_EDGE ( 'NONE', *, *, #36, .F. ) ;
#78 = DIRECTION ( 'NONE',  ( 1.000000000000000000, 1.275531967630005200E-016, 0.0000000000000000000 ) ) ;
#79 = DIRECTION ( 'NONE',  ( 0.0000000000000000000, 1.000000000000000000, 0.0000000000000000000 ) ) ;
#80 = CIRCLE ( 'NONE', #81, 10.00000000000000400 ) ;
#81 = AXIS2_PLACEMENT_3D ( 'NONE', #82, #83, #84 ) ;
#82 = CARTESIAN_POINT ( 'NONE',  ( -24.00000000000000000, -3.061276722312013000E-015, 0.0000000000000000000 ) ) ;
#83 = DIRECTION ( 'NONE',  ( 1.000000000000000000, 1.275531967630005200E-016, 0.0000000000000000000 ) ) ;
#84 = DIRECTION ( 'NONE',  ( 0.0000000000000000000, 1.000000000000000000, 0.0000000000000000000 ) ) ;
#85 = CIRCLE ( 'NONE', #86, 9.500000000000001800 ) ;
#86 = AXIS2_PLACEMENT_3D ( 'NONE', #87, #88, #89 ) ;
#87 = CARTESIAN_POINT ( 'NONE',  ( -34.00000000000000000, -4.336808689942018500E-015, 0.0000000000000000000 ) ) ;
#88 = DIRECTION ( 'NONE',  ( -1.000000000000000000, -1.275531967630005200E-016, 0.0000000000000000000 ) ) ;
#89 = DIRECTION ( 'NONE',  ( 0.0000000000000000000, -1.000000000000000000, 0.0000000000000000000 ) ) ;
#90 = FACE_OUTER_BOUND ( 'NONE', #37, .T. ) ;
#91 = FACE_BOUND ( 'NONE', #7, .T. ) ;
#92 = PLANE ( 'NONE',  #93 ) ;
#93 = AXIS2_PLACEMENT_3D ( 'NONE', #95, #96, #97 ) ;
#94 = ORIENTED_EDGE ( 'NONE', *, *, #184, .F. ) ;
#95 = CARTESIAN_POINT ( 'NONE',  ( -34.00000000000000000, 9.999999999999994700, 0.0000000000000000000 ) ) ;
#96 = DIRECTION ( 'NONE',  ( -1.000000000000000000, -1.275531967630005200E-016, 0.0000000000000000000 ) ) ;
#97 = DIRECTION ( 'NONE',  ( 1.275531967630005200E-016, -1.000000000000000000, 0.0000000000000000000 ) ) ;
#98 = LINE ( 'NONE', #99, #100 ) ;
#99 = CARTESIAN_POINT ( 'NONE',  ( 1.626303258728256700E-015, -12.75000000000000000, 1.561373101123530800E-015 ) ) ;
#100 = VECTOR ( 'NONE', #101, 1000.000000000000000 ) ;
#101 = DIRECTION ( 'NONE',  ( 1.000000000000000000, 1.275531967630005200E-016, 0.0000000000000000000 ) ) ;
#102 = CARTESIAN_POINT ( 'NONE',  ( 0.0000000000000000000, 12.75000000000000000, 0.0000000000000000000 ) ) ;
#103 = CARTESIAN_POINT ( 'NONE',  ( 0.0000000000000000000, 5.999999999999996400, 0.0000000000000000000 ) ) ;
#104 = CARTESIAN_POINT ( 'NONE',  ( -24.00000000000000000, -12.75000000000000400, 1.561373101123531200E-015 ) ) ;
#105 = CIRCLE ( 'NONE', #106, 5.999999999999996400 ) ;
#106 = AXIS2_PLACEMENT_3D ( 'NONE', #107, #108, #109 ) ;
#107 = CARTESIAN_POINT ( 'NONE',  ( 7.653191805780027500E-016, 9.761890802676432300E-032, 0.0000000000000000000 ) ) ;
#108 = DIRECTION ( 'NONE',  ( 1.000000000000000000, 1.275531967630005200E-016, 0.0000000000000000000 ) ) ;
#109 = DIRECTION ( 'NONE',  ( -1.275531967630005200E-016, 1.000000000000000000, 0.0000000000000000000 ) ) ;
#110 = FACE_OUTER_BOUND ( 'NONE', #286, .T. ) ;
#111 = EDGE_CURVE ( 'NONE', #1, #22, #156, .T. ) ;
#112 = ORIENTED_EDGE ( 'NONE', *, *, #36, .T. ) ;
#113 = VERTEX_POINT ( 'NONE', #160 ) ;
#114 = CYLINDRICAL_SURFACE ( 'NONE', #115, 5.999999999999998200 ) ;
#115 = AXIS2_PLACEMENT_3D ( 'NONE', #116, #117, #118 ) ;
#116 = CARTESIAN_POINT ( 'NONE',  ( 0.0000000000000000000, 0.0000000000000000000, 0.0000000000000000000 ) ) ;
#117 = DIRECTION ( 'NONE',  ( 1.000000000000000000, 1.275531967630005200E-016, 0.0000000000000000000 ) ) ;
#118 = DIRECTION ( 'NONE',  ( -1.275531967630005200E-016, 1.000000000000000000, 0.0000000000000000000 ) ) ;
#119 = LINE ( 'NONE', #120, #121 ) ;
#120 = CARTESIAN_POINT ( 'NONE',  ( -33.49999999999999300, 9.999999999999998200, 0.0000000000000000000 ) ) ;
#121 = VECTOR ( 'NONE', #122, 1000.000000000000100 ) ;
#122 = DIRECTION ( 'NONE',  ( 0.7071067811865499000, 0.7071067811865452400, 0.0000000000000000000 ) ) ;
#123 = CIRCLE ( 'NONE', #124, 12.75000000000000000 ) ;
#124 = AXIS2_PLACEMENT_3D ( 'NONE', #125, #126, #127 ) ;
#125 = CARTESIAN_POINT ( 'NONE',  ( -24.00000000000000000, -3.061276722312013000E-015, 0.0000000000000000000 ) ) ;
#126 = DIRECTION ( 'NONE',  ( 1.000000000000000000, 1.275531967630005200E-016, 0.0000000000000000000 ) ) ;
#127 = DIRECTION ( 'NONE',  ( 0.0000000000000000000, 1.000000000000000000, 0.0000000000000000000 ) ) ;
#128 = CIRCLE ( 'NONE', #129, 9.500000000000001800 ) ;
#129 = AXIS2_PLACEMENT_3D ( 'NONE', #132, #133, #134 ) ;
#130 = EDGE_CURVE ( 'NONE', #220, #11, #161, .T. ) ;
#131 = ORIENTED_EDGE ( 'NONE', *, *, #130, .T. ) ;
#132 = CARTESIAN_POINT ( 'NONE',  ( -34.00000000000000000, -4.336808689942018500E-015, 0.0000000000000000000 ) ) ;
#133 = DIRECTION ( 'NONE',  ( -1.000000000000000000, -1.275531967630005200E-016, 0.0000000000000000000 ) ) ;
#134 = DIRECTION ( 'NONE',  ( 0.0000000000000000000, -1.000000000000000000, 0.0000000000000000000 ) ) ;
#135 = FACE_BOUND ( 'NONE', #40, .T. ) ;
#136 = FACE_OUTER_BOUND ( 'NONE', #52, .T. ) ;
#137 = PLANE ( 'NONE',  #138 ) ;
#138 = AXIS2_PLACEMENT_3D ( 'NONE', #139, #140, #141 ) ;
#139 = CARTESIAN_POINT ( 'NONE',  ( -24.00000000000000000, 12.74999999999999600, 0.0000000000000000000 ) ) ;
#140 = DIRECTION ( 'NONE',  ( -1.000000000000000000, -1.275531967630005200E-016, 0.0000000000000000000 ) ) ;
#141 = DIRECTION ( 'NONE',  ( 1.275531967630005200E-016, -1.000000000000000000, 0.0000000000000000000 ) ) ;
#142 = CARTESIAN_POINT ( 'NONE',  ( 3.252606517456513300E-015, -12.75000000000000000, 1.561373101123530800E-015 ) ) ;
#143 = FACE_OUTER_BOUND ( 'NONE', #2, .T. ) ;
#144 = CYLINDRICAL_SURFACE ( 'NONE', #145, 5.999999999999998200 ) ;
#145 = AXIS2_PLACEMENT_3D ( 'NONE', #146, #147, #149 ) ;
#146 = CARTESIAN_POINT ( 'NONE',  ( 0.0000000000000000000, 0.0000000000000000000, 0.0000000000000000000 ) ) ;
#147 = DIRECTION ( 'NONE',  ( 1.000000000000000000, 1.275531967630005200E-016, 0.0000000000000000000 ) ) ;
#148 = ORIENTED_EDGE ( 'NONE', *, *, #370, .T. ) ;
#149 = DIRECTION ( 'NONE',  ( -1.275531967630005200E-016, 1.000000000000000000, 0.0000000000000000000 ) ) ;
#150 = CIRCLE ( 'NONE', #151, 12.75000000000000000 ) ;
#151 = AXIS2_PLACEMENT_3D ( 'NONE', #152, #153, #154 ) ;
#152 = CARTESIAN_POINT ( 'NONE',  ( 1.626303258728256700E-015, 2.074401795568742600E-031, 0.0000000000000000000 ) ) ;
#153 = DIRECTION ( 'NONE',  ( 1.000000000000000000, 1.275531967630005200E-016, 0.0000000000000000000 ) ) ;
#154 = DIRECTION ( 'NONE',  ( -1.275531967630005200E-016, 1.000000000000000000, 0.0000000000000000000 ) ) ;
#155 = CARTESIAN_POINT ( 'NONE',  ( -33.49999999999999300, 9.999999999999998200, 0.0000000000000000000 ) ) ;
#156 = LINE ( 'NONE', #157, #158 ) ;
#157 = CARTESIAN_POINT ( 'NONE',  ( 7.653191805780029500E-016, -5.999999999999998200, 7.347638122934261600E-016 ) ) ;
#158 = VECTOR ( 'NONE', #159, 1000.000000000000000 ) ;
#159 = DIRECTION ( 'NONE',  ( 1.000000000000000000, 1.275531967630005200E-016, 0.0000000000000000000 ) ) ;
#160 = CARTESIAN_POINT ( 'NONE',  ( -34.00000000000000000, 9.499999999999996400, 0.0000000000000000000 ) ) ;
#161 = LINE ( 'NONE', #162, #163 ) ;
#162 = CARTESIAN_POINT ( 'NONE',  ( -1.626303258728256700E-015, 12.75000000000000000, 0.0000000000000000000 ) ) ;
#163 = VECTOR ( 'NONE', #164, 1000.000000000000000 ) ;
#164 = DIRECTION ( 'NONE',  ( 1.000000000000000000, 1.275531967630005200E-016, 0.0000000000000000000 ) ) ;
#165 = EDGE_CURVE ( 'NONE', #11, #75, #173, .T. ) ;
#166 = ORIENTED_EDGE ( 'NONE', *, *, #56, .F. ) ;
#167 = CIRCLE ( 'NONE', #168, 6.000000000000000900 ) ;
#168 = AXIS2_PLACEMENT_3D ( 'NONE', #169, #170, #171 ) ;
#169 = CARTESIAN_POINT ( 'NONE',  ( -34.00000000000000000, -4.336808689942018500E-015, 0.0000000000000000000 ) ) ;
#170 = DIRECTION ( 'NONE',  ( 1.000000000000000000, 1.275531967630005200E-016, 0.0000000000000000000 ) ) ;
#171 = DIRECTION ( 'NONE',  ( 0.0000000000000000000, 1.000000000000000000, 0.0000000000000000000 ) ) ;
#172 = CARTESIAN_POINT ( 'NONE',  ( -34.00000000000000000, 5.999999999999996400, 0.0000000000000000000 ) ) ;
#173 = CIRCLE ( 'NONE', #174, 12.75000000000000000 ) ;
#174 = AXIS2_PLACEMENT_3D ( 'NONE', #175, #176, #177 ) ;
#175 = CARTESIAN_POINT ( 'NONE',  ( 1.626303258728256700E-015, 2.074401795568742600E-031, 0.0000000000000000000 ) ) ;
#176 = DIRECTION ( 'NONE',  ( 1.000000000000000000, 1.275531967630005200E-016, 0.0000000000000000000 ) ) ;
#177 = DIRECTION ( 'NONE',  ( -1.275531967630005200E-016, 1.000000000000000000, 0.0000000000000000000 ) ) ;
#178 = CARTESIAN_POINT ( 'NONE',  ( 1.530638361156005500E-015, -5.999999999999996400, 7.347638122934260600E-016 ) ) ;
#179 = LINE ( 'NONE', #180, #181 ) ;
#180 = CARTESIAN_POINT ( 'NONE',  ( -1.275531967630005500E-015, 10.00000000000000200, 0.0000000000000000000 ) ) ;
#181 = VECTOR ( 'NONE', #182, 1000.000000000000000 ) ;
#182 = DIRECTION ( 'NONE',  ( 1.000000000000000000, 1.275531967630005200E-016, 0.0000000000000000000 ) ) ;
#183 = ORIENTED_EDGE ( 'NONE', *, *, #238, .T. ) ;
#184 = EDGE_CURVE ( 'NONE', #203, #16, #186, .T. ) ;
#185 = ADVANCED_FACE ( 'NONE', ( #197 ), #198, .T. ) ;
#186 = CIRCLE ( 'NONE', #187, 10.00000000000000200 ) ;
#187 = AXIS2_PLACEMENT_3D ( 'NONE', #188, #189, #190 ) ;
#188 = CARTESIAN_POINT ( 'NONE',  ( -33.49999999999999300, -4.273032091560517100E-015, 0.0000000000000000000 ) ) ;
#189 = DIRECTION ( 'NONE',  ( 1.000000000000000000, 1.275531967630012600E-016, 0.0000000000000000000 ) ) ;
#190 = DIRECTION ( 'NONE',  ( 0.0000000000000000000, -1.000000000000000000, 0.0000000000000000000 ) ) ;
#191 = FACE_OUTER_BOUND ( 'NONE', #10, .T. ) ;
#192 = CYLINDRICAL_SURFACE ( 'NONE', #193, 10.00000000000000200 ) ;
#193 = AXIS2_PLACEMENT_3D ( 'NONE', #194, #195, #196 ) ;
#194 = CARTESIAN_POINT ( 'NONE',  ( 0.0000000000000000000, 0.0000000000000000000, 0.0000000000000000000 ) ) ;
#195 = DIRECTION ( 'NONE',  ( 1.000000000000000000, 1.275531967630005200E-016, 0.0000000000000000000 ) ) ;
#196 = DIRECTION ( 'NONE',  ( -1.275531967630005200E-016, 1.000000000000000000, 0.0000000000000000000 ) ) ;
#197 = FACE_OUTER_BOUND ( 'NONE', #50, .T. ) ;
#198 = CONICAL_SURFACE ( 'NONE', #199, 10.00000000000000200, 0.7853981633974447300 ) ;
#199 = AXIS2_PLACEMENT_3D ( 'NONE', #200, #201, #204 ) ;
#200 = CARTESIAN_POINT ( 'NONE',  ( -33.49999999999999300, -4.273032091560517100E-015, 0.0000000000000000000 ) ) ;
#201 = DIRECTION ( 'NONE',  ( 1.000000000000000000, 1.275531967630012600E-016, 0.0000000000000000000 ) ) ;
#202 = VERTEX_POINT ( 'NONE', #205 ) ;
#203 = VERTEX_POINT ( 'NONE', #206 ) ;
#204 = DIRECTION ( 'NONE',  ( 0.0000000000000000000, 1.000000000000000000, 0.0000000000000000000 ) ) ;
#205 = CARTESIAN_POINT ( 'NONE',  ( -24.00000000000000000, -10.00000000000000700, 1.224606353822377700E-015 ) ) ;
#206 = CARTESIAN_POINT ( 'NONE',  ( -33.49999999999999300, -10.00000000000000500, 1.224606353822377500E-015 ) ) ;
#207 = CARTESIAN_POINT ( 'NONE',  ( -24.00000000000000000, 12.74999999999999600, 0.0000000000000000000 ) ) ;
#208 = FACE_OUTER_BOUND ( 'NONE', #364, .T. ) ;
#209 = CYLINDRICAL_SURFACE ( 'NONE', #210, 12.75000000000000000 ) ;
#210 = AXIS2_PLACEMENT_3D ( 'NONE', #211, #212, #213 ) ;
#211 = CARTESIAN_POINT ( 'NONE',  ( 0.0000000000000000000, 0.0000000000000000000, 0.0000000000000000000 ) ) ;
#212 = DIRECTION ( 'NONE',  ( 1.000000000000000000, 1.275531967630005200E-016, 0.0000000000000000000 ) ) ;
#213 = DIRECTION ( 'NONE',  ( -1.275531967630005200E-016, 1.000000000000000000, 0.0000000000000000000 ) ) ;
#214 = LINE ( 'NONE', #215, #216 ) ;
#215 = CARTESIAN_POINT ( 'NONE',  ( -7.653191805780029500E-016, 5.999999999999998200, 0.0000000000000000000 ) ) ;
#216 = VECTOR ( 'NONE', #217, 1000.000000000000000 ) ;
#217 = DIRECTION ( 'NONE',  ( 1.000000000000000000, 1.275531967630005200E-016, 0.0000000000000000000 ) ) ;
#218 = CIRCLE ( 'NONE', #219, 5.999999999999996400 ) ;
#219 = AXIS2_PLACEMENT_3D ( 'NONE', #222, #223, #224 ) ;
#220 = VERTEX_POINT ( 'NONE', #207 ) ;
#221 = ADVANCED_FACE ( 'NONE', ( #208 ), #209, .T. ) ;
#222 = CARTESIAN_POINT ( 'NONE',  ( 7.653191805780027500E-016, 9.761890802676432300E-032, 0.0000000000000000000 ) ) ;
#223 = DIRECTION ( 'NONE',  ( 1.000000000000000000, 1.275531967630005200E-016, 0.0000000000000000000 ) ) ;
#224 = DIRECTION ( 'NONE',  ( -1.275531967630005200E-016, 1.000000000000000000, 0.0000000000000000000 ) ) ;
#225 = FACE_OUTER_BOUND ( 'NONE', #376, .T. ) ;
#226 = CYLINDRICAL_SURFACE ( 'NONE', #227, 10.00000000000000200 ) ;
#227 = AXIS2_PLACEMENT_3D ( 'NONE', #228, #229, #230 ) ;
#228 = CARTESIAN_POINT ( 'NONE',  ( 0.0000000000000000000, 0.0000000000000000000, 0.0000000000000000000 ) ) ;
#229 = DIRECTION ( 'NONE',  ( 1.000000000000000000, 1.275531967630005200E-016, 0.0000000000000000000 ) ) ;
#230 = DIRECTION ( 'NONE',  ( -1.275531967630005200E-016, 1.000000000000000000, 0.0000000000000000000 ) ) ;
#231 = FACE_OUTER_BOUND ( 'NONE', #15, .T. ) ;
#232 = CYLINDRICAL_SURFACE ( 'NONE', #233, 12.75000000000000000 ) ;
#233 = AXIS2_PLACEMENT_3D ( 'NONE', #234, #235, #236 ) ;
#234 = CARTESIAN_POINT ( 'NONE',  ( 0.0000000000000000000, 0.0000000000000000000, 0.0000000000000000000 ) ) ;
#235 = DIRECTION ( 'NONE',  ( 1.000000000000000000, 1.275531967630005200E-016, 0.0000000000000000000 ) ) ;
#236 = DIRECTION ( 'NONE',  ( -1.275531967630005200E-016, 1.000000000000000000, 0.0000000000000000000 ) ) ;
#237 = CIRCLE ( 'NONE', #241, 10.00000000000000200 ) ;
#238 = EDGE_CURVE ( 'NONE', #18, #373, #214, .T. ) ;
#239 = EDGE_CURVE ( 'NONE', #373, #22, #218, .T. ) ;
#240 = EDGE_LOOP ( 'NONE', ( #34, #25, #77, #166 ) ) ;
#241 = AXIS2_PLACEMENT_3D ( 'NONE', #242, #243, #244 ) ;
#242 = CARTESIAN_POINT ( 'NONE',  ( -33.49999999999999300, -4.273032091560517100E-015, 0.0000000000000000000 ) ) ;
#243 = DIRECTION ( 'NONE',  ( 1.000000000000000000, 1.275531967630012600E-016, 0.0000000000000000000 ) ) ;
#244 = DIRECTION ( 'NONE',  ( 0.0000000000000000000, -1.000000000000000000, 0.0000000000000000000 ) ) ;
#245 = CARTESIAN_POINT ( 'NONE',  ( -34.00000000000000000, -9.500000000000007100, 1.193991194976818000E-015 ) ) ;
#246 = FACE_OUTER_BOUND ( 'NONE', #14, .T. ) ;
#247 = FACE_BOUND ( 'NONE', #39, .T. ) ;
#248 = PLANE ( 'NONE',  #249 ) ;
#249 = AXIS2_PLACEMENT_3D ( 'NONE', #250, #251, #252 ) ;
#250 = CARTESIAN_POINT ( 'NONE',  ( 0.0000000000000000000, 5.999999999999996400, 0.0000000000000000000 ) ) ;
#251 = DIRECTION ( 'NONE',  ( 1.000000000000000000, 1.275531967630005200E-016, 0.0000000000000000000 ) ) ;
#252 = DIRECTION ( 'NONE',  ( -1.275531967630005200E-016, 1.000000000000000000, 0.0000000000000000000 ) ) ;
#253 = LINE ( 'NONE', #254, #255 ) ;
#254 = CARTESIAN_POINT ( 'NONE',  ( 1.275531967630005500E-015, -10.00000000000000200, 1.224606353822377500E-015 ) ) ;
#255 = VECTOR ( 'NONE', #256, 1000.000000000000000 ) ;
#256 = DIRECTION ( 'NONE',  ( 1.000000000000000000, 1.275531967630005200E-016, 0.0000000000000000000 ) ) ;
#257 = ORIENTED_EDGE ( 'NONE', *, *, #165, .F. ) ;
#258 = FACE_OUTER_BOUND ( 'NONE', #240, .T. ) ;
#259 = CONICAL_SURFACE ( 'NONE', #260, 10.00000000000000200, 0.7853981633974447300 ) ;
#260 = AXIS2_PLACEMENT_3D ( 'NONE', #261, #262, #263 ) ;
#261 = CARTESIAN_POINT ( 'NONE',  ( -33.49999999999999300, -4.273032091560517100E-015, 0.0000000000000000000 ) ) ;
#262 = DIRECTION ( 'NONE',  ( 1.000000000000000000, 1.275531967630012600E-016, 0.0000000000000000000 ) ) ;
#263 = DIRECTION ( 'NONE',  ( 0.0000000000000000000, 1.000000000000000000, 0.0000000000000000000 ) ) ;
#264 = LINE ( 'NONE', #265, #266 ) ;
#265 = CARTESIAN_POINT ( 'NONE',  ( -33.49999999999999300, -10.00000000000000500, 1.224606353822377500E-015 ) ) ;
#266 = VECTOR ( 'NONE', #267, 1000.000000000000100 ) ;
#267 = DIRECTION ( 'NONE',  ( 0.7071067811865501300, -0.7071067811865450200, 8.659274570719325800E-017 ) ) ;
#268 =( LENGTH_UNIT ( ) NAMED_UNIT ( * ) SI_UNIT ( .MILLI., .METRE. ) );
#269 =( NAMED_UNIT ( * ) PLANE_ANGLE_UNIT ( ) SI_UNIT ( $, .RADIAN. ) );
#270 =( NAMED_UNIT ( * ) SI_UNIT ( $, .STERADIAN. ) SOLID_ANGLE_UNIT ( ) );
#271 = UNCERTAINTY_MEASURE_WITH_UNIT (LENGTH_MEASURE( 1.000000000000000100E-005 ), #268, 'distance_accuracy_value', 'NONE');
#272 =( GEOMETRIC_REPRESENTATION_CONTEXT ( 3 ) GLOBAL_UNCERTAINTY_ASSIGNED_CONTEXT ( ( #271 ) ) GLOBAL_UNIT_ASSIGNED_CONTEXT ( ( #268, #269, #270 ) ) REPRESENTATION_CONTEXT ( 'NONE', 'WORKASPACE' ) );
#273 = ADVANCED_BREP_SHAPE_REPRESENTATION ( 'SE1204-R-1G0', ( #19, #274 ), #272 ) ;
#274 = AXIS2_PLACEMENT_3D ( 'NONE', #275, #276, #277 ) ;
#275 = CARTESIAN_POINT ( 'NONE',  ( 0.0000000000000000000, 0.0000000000000000000, 0.0000000000000000000 ) ) ;
#276 = DIRECTION ( 'NONE',  ( 0.0000000000000000000, 0.0000000000000000000, 1.000000000000000000 ) ) ;
#277 = DIRECTION ( 'NONE',  ( 1.000000000000000000, 0.0000000000000000000, 0.0000000000000000000 ) ) ;
#278 = APPLICATION_CONTEXT ( 'configuration controlled 3d designs of mechanical parts and assemblies' ) ;
#279 = APPLICATION_PROTOCOL_DEFINITION ( 'international standard', 'config_control_design', 1994, #278 ) ;
#280 = MECHANICAL_CONTEXT ( 'NONE', #278, 'mechanical' ) ;
#281 = PRODUCT ( 'SE1204-R-1G0', 'SE1204-R-1G0', '', ( #280 ) ) ;
#282 = PERSON ( 'UNSPECIFIED', 'UNSPECIFIED', 'UNSPECIFIED', ('UNSPECIFIED'), ('UNSPECIFIED'), ('UNSPECIFIED') ) ;
#283 = ORGANIZATION ( 'UNSPECIFIED', 'UNSPECIFIED', '' ) ;
#284 = PERSON_AND_ORGANIZATION ( #282, #283 ) ;
#285 = PERSON_AND_ORGANIZATION_ROLE ( 'design_owner' ) ;
#286 = EDGE_LOOP ( 'NONE', ( #21, #8, #42, #360 ) ) ;
#287 = ORIENTED_EDGE ( 'NONE', *, *, #165, .T. ) ;
#288 = CC_DESIGN_PERSON_AND_ORGANIZATION_ASSIGNMENT ( #284, #285, ( #281 ) ) ;
#289 = APPLICATION_CONTEXT ( 'configuration controlled 3d designs of mechanical parts and assemblies' ) ;
#290 = APPLICATION_PROTOCOL_DEFINITION ( 'international standard', 'config_control_design', 1994, #289 ) ;
#291 = DESIGN_CONTEXT ( 'detailed design', #289, 'design' ) ;
#292 = PRODUCT_DEFINITION ( 'UNKNOWN', '', #313, #291 ) ;
#293 = PERSON_AND_ORGANIZATION ( #282, #283 ) ;
#294 = APPROVAL_STATUS ( 'not_yet_approved' ) ;
#295 = APPROVAL ( #294, 'UNSPECIFIED' ) ;
#296 = APPROVAL_ROLE ( '' ) ;
#297 = APPROVAL_PERSON_ORGANIZATION ( #293, #295, #296 ) ;
#298 = COORDINATED_UNIVERSAL_TIME_OFFSET ( 1, 0, .AHEAD. ) ;
#299 = LOCAL_TIME ( 13, 46, 10.00000000000000000, #298 ) ;
#300 = CALENDAR_DATE ( 2002, 15, 8 ) ;
#301 = DATE_AND_TIME ( #300, #299 ) ;
#302 = APPROVAL_DATE_TIME ( #301, #295 ) ;
#303 = CC_DESIGN_APPROVAL ( #295, ( #292 ) ) ;
#304 = PERSON_AND_ORGANIZATION ( #282, #283 ) ;
#305 = PERSON_AND_ORGANIZATION_ROLE ( 'creator' ) ;
#306 = CC_DESIGN_PERSON_AND_ORGANIZATION_ASSIGNMENT ( #304, #305, ( #292 ) ) ;
#307 = COORDINATED_UNIVERSAL_TIME_OFFSET ( 1, 0, .AHEAD. ) ;
#308 = LOCAL_TIME ( 13, 46, 10.00000000000000000, #307 ) ;
#309 = CALENDAR_DATE ( 2002, 15, 8 ) ;
#310 = DATE_AND_TIME ( #309, #308 ) ;
#311 = DATE_TIME_ROLE ( 'creation_date' ) ;
#312 = CC_DESIGN_DATE_AND_TIME_ASSIGNMENT ( #310, #311, ( #292 ) ) ;
#313 = PRODUCT_DEFINITION_FORMATION_WITH_SPECIFIED_SOURCE ( 'ANY', '', #281, .NOT_KNOWN. ) ;
#314 = PERSON_AND_ORGANIZATION ( #282, #283 ) ;
#315 = APPROVAL_STATUS ( 'not_yet_approved' ) ;
#316 = APPROVAL ( #315, 'UNSPECIFIED' ) ;
#317 = APPROVAL_ROLE ( '' ) ;
#318 = APPROVAL_PERSON_ORGANIZATION ( #314, #316, #317 ) ;
#319 = COORDINATED_UNIVERSAL_TIME_OFFSET ( 1, 0, .AHEAD. ) ;
#320 = VERTEX_POINT ( 'NONE', #245 ) ;
#321 = ORIENTED_EDGE ( 'NONE', *, *, #44, .F. ) ;
#322 = LOCAL_TIME ( 13, 46, 10.00000000000000000, #319 ) ;
#323 = CALENDAR_DATE ( 2002, 15, 8 ) ;
#324 = DATE_AND_TIME ( #323, #322 ) ;
#325 = APPROVAL_DATE_TIME ( #324, #316 ) ;
#326 = CC_DESIGN_APPROVAL ( #316, ( #313 ) ) ;
#327 = PERSON_AND_ORGANIZATION ( #282, #283 ) ;
#328 = PERSON_AND_ORGANIZATION_ROLE ( 'creator' ) ;
#329 = CC_DESIGN_PERSON_AND_ORGANIZATION_ASSIGNMENT ( #327, #328, ( #313 ) ) ;
#330 = PERSON_AND_ORGANIZATION ( #282, #283 ) ;
#331 = PERSON_AND_ORGANIZATION_ROLE ( 'design_supplier' ) ;
#332 = CC_DESIGN_PERSON_AND_ORGANIZATION_ASSIGNMENT ( #330, #331, ( #313 ) ) ;
#333 = SECURITY_CLASSIFICATION_LEVEL ( 'unclassified' ) ;
#334 = SECURITY_CLASSIFICATION ( '', '', #333 ) ;
#335 = PERSON_AND_ORGANIZATION ( #282, #283 ) ;
#336 = PERSON_AND_ORGANIZATION_ROLE ( 'classification_officer' ) ;
#337 = CC_DESIGN_PERSON_AND_ORGANIZATION_ASSIGNMENT ( #335, #336, ( #334 ) ) ;
#338 = ORIENTED_EDGE ( 'NONE', *, *, #111, .F. ) ;
#339 = COORDINATED_UNIVERSAL_TIME_OFFSET ( 1, 0, .AHEAD. ) ;
#340 = LOCAL_TIME ( 13, 46, 10.00000000000000000, #339 ) ;
#341 = CALENDAR_DATE ( 2002, 15, 8 ) ;
#342 = DATE_AND_TIME ( #341, #340 ) ;
#343 = DATE_TIME_ROLE ( 'classification_date' ) ;
#344 = CC_DESIGN_DATE_AND_TIME_ASSIGNMENT ( #342, #343, ( #334 ) ) ;
#345 = PERSON_AND_ORGANIZATION ( #282, #283 ) ;
#346 = APPROVAL_STATUS ( 'not_yet_approved' ) ;
#347 = APPROVAL ( #346, 'UNSPECIFIED' ) ;
#348 = APPROVAL_ROLE ( '' ) ;
#349 = APPROVAL_PERSON_ORGANIZATION ( #345, #347, #348 ) ;
#350 = COORDINATED_UNIVERSAL_TIME_OFFSET ( 1, 0, .AHEAD. ) ;
#351 = LOCAL_TIME ( 13, 46, 10.00000000000000000, #350 ) ;
#352 = CALENDAR_DATE ( 2002, 15, 8 ) ;
#353 = DATE_AND_TIME ( #352, #351 ) ;
#354 = APPROVAL_DATE_TIME ( #353, #347 ) ;
#355 = CC_DESIGN_APPROVAL ( #347, ( #334 ) ) ;
#356 = CC_DESIGN_SECURITY_CLASSIFICATION ( #334, ( #313 ) ) ;
#357 = PRODUCT_RELATED_PRODUCT_CATEGORY ( 'detail', '', ( #281 ) ) ;
#358 = PRODUCT_DEFINITION_SHAPE ( 'NONE', 'NONE',  #292 ) ;
#359 = SHAPE_DEFINITION_REPRESENTATION ( #358, #273 ) ;
#360 = ORIENTED_EDGE ( 'NONE', *, *, #238, .F. ) ;
#361 = ORIENTED_EDGE ( 'NONE', *, *, #76, .T. ) ;
#362 = ORIENTED_EDGE ( 'NONE', *, *, #58, .T. ) ;
#363 = EDGE_CURVE ( 'NONE', #203, #202, #253, .T. ) ;
#364 = EDGE_LOOP ( 'NONE', ( #29, #27, #257, #53 ) ) ;
#365 = ADVANCED_FACE ( 'NONE', ( #258 ), #259, .T. ) ;
#366 = EDGE_CURVE ( 'NONE', #320, #203, #264, .T. ) ;
#367 = VERTEX_POINT ( 'NONE', #61 ) ;
#368 = EDGE_CURVE ( 'NONE', #220, #54, #62, .T. ) ;
#369 = ORIENTED_EDGE ( 'NONE', *, *, #368, .F. ) ;
#370 = EDGE_CURVE ( 'NONE', #367, #202, #80, .T. ) ;
#371 = ORIENTED_EDGE ( 'NONE', *, *, #184, .T. ) ;
#372 = ORIENTED_EDGE ( 'NONE', *, *, #17, .T. ) ;
#373 = VERTEX_POINT ( 'NONE', #103 ) ;
#374 = ORIENTED_EDGE ( 'NONE', *, *, #56, .T. ) ;
#375 = ADVANCED_FACE ( 'NONE', ( #110 ), #114, .F. ) ;
#376 = EDGE_LOOP ( 'NONE', ( #112, #24, #33, #45 ) ) ;
#377 = ORIENTED_EDGE ( 'NONE', *, *, #239, .T. ) ;
#378 = EDGE_CURVE ( 'NONE', #54, #220, #123, .T. ) ;
#379 = ORIENTED_EDGE ( 'NONE', *, *, #378, .T. ) ;
ENDSEC;
END-ISO-10303-21;
