ISO-10303-21;
HEADER;
FILE_DESCRIPTION (( 'STEP AP203' ),
    '1' );
FILE_NAME ('SE08025-R-2E0.STEP',
    '2002-08-15T11:46:09',
    ( '.' ),
    ( '.' ),
    'SwSTEP 2.0',
    'SolidWorks 2001340',
    '' );
FILE_SCHEMA (( 'CONFIG_CONTROL_DESIGN' ));
ENDSEC;

DATA;
#1 = ORIENTED_EDGE ( 'NONE', *, *, #2, .T. ) ;
#2 = EDGE_CURVE ( 'NONE', #176, #58, #76, .T. ) ;
#3 = EDGE_LOOP ( 'NONE', ( #87, #326 ) ) ;
#4 = EDGE_CURVE ( 'NONE', #43, #62, #82, .T. ) ;
#5 = ORIENTED_EDGE ( 'NONE', *, *, #68, .T. ) ;
#6 = ORIENTED_EDGE ( 'NONE', *, *, #122, .F. ) ;
#7 = ADVANCED_FACE ( 'NONE', ( #108 ), #109, .T. ) ;
#8 = ORIENTED_EDGE ( 'NONE', *, *, #140, .T. ) ;
#9 = ORIENTED_EDGE ( 'NONE', *, *, #174, .F. ) ;
#10 = EDGE_CURVE ( 'NONE', #51, #212, #129, .T. ) ;
#11 = ORIENTED_EDGE ( 'NONE', *, *, #20, .F. ) ;
#12 = EDGE_CURVE ( 'NONE', #66, #121, #142, .T. ) ;
#13 = EDGE_CURVE ( 'NONE', #66, #51, #146, .T. ) ;
#14 = VERTEX_POINT ( 'NONE', #151 ) ;
#15 = ORIENTED_EDGE ( 'NONE', *, *, #263, .T. ) ;
#16 = ADVANCED_FACE ( 'NONE', ( #171 ), #172, .T. ) ;
#17 = ORIENTED_EDGE ( 'NONE', *, *, #26, .F. ) ;
#18 = ORIENTED_EDGE ( 'NONE', *, *, #63, .T. ) ;
#19 = ORIENTED_EDGE ( 'NONE', *, *, #280, .F. ) ;
#20 = EDGE_CURVE ( 'NONE', #53, #44, #192, .T. ) ;
#21 = EDGE_LOOP ( 'NONE', ( #18, #85 ) ) ;
#22 = EDGE_CURVE ( 'NONE', #376, #374, #198, .T. ) ;
#23 = ORIENTED_EDGE ( 'NONE', *, *, #345, .F. ) ;
#24 = EDGE_LOOP ( 'NONE', ( #193, #56, #175, #59 ) ) ;
#25 = ORIENTED_EDGE ( 'NONE', *, *, #55, .T. ) ;
#26 = EDGE_CURVE ( 'NONE', #31, #376, #216, .T. ) ;
#27 = ORIENTED_EDGE ( 'NONE', *, *, #2, .F. ) ;
#28 = EDGE_LOOP ( 'NONE', ( #245, #37, #30, #35 ) ) ;
#29 = ORIENTED_EDGE ( 'NONE', *, *, #246, .F. ) ;
#30 = ORIENTED_EDGE ( 'NONE', *, *, #371, .F. ) ;
#31 = VERTEX_POINT ( 'NONE', #232 ) ;
#32 = ORIENTED_EDGE ( 'NONE', *, *, #263, .F. ) ;
#33 = MANIFOLD_SOLID_BREP ( 'NONE', #67 ) ;
#34 = ORIENTED_EDGE ( 'NONE', *, *, #122, .T. ) ;
#35 = ORIENTED_EDGE ( 'NONE', *, *, #10, .F. ) ;
#36 = ADVANCED_FACE ( 'NONE', ( #249, #250 ), #251, .T. ) ;
#37 = ORIENTED_EDGE ( 'NONE', *, *, #12, .T. ) ;
#38 = ORIENTED_EDGE ( 'NONE', *, *, #10, .T. ) ;
#39 = ORIENTED_EDGE ( 'NONE', *, *, #13, .T. ) ;
#40 = ADVANCED_FACE ( 'NONE', ( #256 ), #257, .F. ) ;
#41 = ORIENTED_EDGE ( 'NONE', *, *, #140, .F. ) ;
#42 = ADVANCED_FACE ( 'NONE', ( #69 ), #70, .T. ) ;
#43 = VERTEX_POINT ( 'NONE', #75 ) ;
#44 = VERTEX_POINT ( 'NONE', #81 ) ;
#45 = EDGE_LOOP ( 'NONE', ( #8, #1 ) ) ;
#46 = ORIENTED_EDGE ( 'NONE', *, *, #13, .F. ) ;
#47 = ORIENTED_EDGE ( 'NONE', *, *, #22, .F. ) ;
#48 = ORIENTED_EDGE ( 'NONE', *, *, #12, .F. ) ;
#49 = EDGE_CURVE ( 'NONE', #31, #14, #96, .T. ) ;
#50 = EDGE_LOOP ( 'NONE', ( #17, #210, #25, #52 ) ) ;
#51 = VERTEX_POINT ( 'NONE', #101 ) ;
#52 = ORIENTED_EDGE ( 'NONE', *, *, #280, .T. ) ;
#53 = VERTEX_POINT ( 'NONE', #102 ) ;
#54 = EDGE_CURVE ( 'NONE', #14, #31, #103, .T. ) ;
#55 = EDGE_CURVE ( 'NONE', #14, #374, #124, .T. ) ;
#56 = ORIENTED_EDGE ( 'NONE', *, *, #26, .T. ) ;
#57 = EDGE_LOOP ( 'NONE', ( #379, #5, #364, #6 ) ) ;
#58 = VERTEX_POINT ( 'NONE', #141 ) ;
#59 = ORIENTED_EDGE ( 'NONE', *, *, #55, .F. ) ;
#60 = EDGE_LOOP ( 'NONE', ( #61, #211 ) ) ;
#61 = ORIENTED_EDGE ( 'NONE', *, *, #371, .T. ) ;
#62 = VERTEX_POINT ( 'NONE', #152 ) ;
#63 = EDGE_CURVE ( 'NONE', #44, #53, #153, .T. ) ;
#64 = EDGE_CURVE ( 'NONE', #121, #212, #159, .T. ) ;
#65 = ADVANCED_FACE ( 'NONE', ( #164, #165 ), #166, .T. ) ;
#66 = VERTEX_POINT ( 'NONE', #180 ) ;
#67 = CLOSED_SHELL ( 'NONE', ( #84, #40, #7, #157, #362, #65, #36, #373, #377, #16, #42 ) ) ;
#68 = EDGE_CURVE ( 'NONE', #43, #53, #181, .T. ) ;
#69 = FACE_OUTER_BOUND ( 'NONE', #28, .T. ) ;
#70 = CYLINDRICAL_SURFACE ( 'NONE', #71, 7.500000000000000000 ) ;
#71 = AXIS2_PLACEMENT_3D ( 'NONE', #72, #73, #74 ) ;
#72 = CARTESIAN_POINT ( 'NONE',  ( 0.0000000000000000000, 0.0000000000000000000, 0.0000000000000000000 ) ) ;
#73 = DIRECTION ( 'NONE',  ( 1.000000000000000000, 1.261617073437678000E-016, 0.0000000000000000000 ) ) ;
#74 = DIRECTION ( 'NONE',  ( -1.261617073437678000E-016, 1.000000000000000000, 0.0000000000000000000 ) ) ;
#75 = CARTESIAN_POINT ( 'NONE',  ( -19.99999999999999600, -8.750000000000003600, 1.071530559594580700E-015 ) ) ;
#76 = CIRCLE ( 'NONE', #77, 6.999999999999999100 ) ;
#77 = AXIS2_PLACEMENT_3D ( 'NONE', #78, #79, #80 ) ;
#78 = CARTESIAN_POINT ( 'NONE',  ( -27.49999999999999600, -3.469446951953614200E-015, 0.0000000000000000000 ) ) ;
#79 = DIRECTION ( 'NONE',  ( -1.000000000000000000, -1.261617073437678000E-016, 0.0000000000000000000 ) ) ;
#80 = DIRECTION ( 'NONE',  ( 0.0000000000000000000, -1.000000000000000000, 0.0000000000000000000 ) ) ;
#81 = CARTESIAN_POINT ( 'NONE',  ( 0.0000000000000000000, 8.750000000000000000, 0.0000000000000000000 ) ) ;
#82 = CIRCLE ( 'NONE', #83, 8.750000000000001800 ) ;
#83 = AXIS2_PLACEMENT_3D ( 'NONE', #88, #89, #90 ) ;
#84 = ADVANCED_FACE ( 'NONE', ( #185, #186 ), #187, .T. ) ;
#85 = ORIENTED_EDGE ( 'NONE', *, *, #20, .T. ) ;
#86 = ORIENTED_EDGE ( 'NONE', *, *, #174, .T. ) ;
#87 = ORIENTED_EDGE ( 'NONE', *, *, #54, .T. ) ;
#88 = CARTESIAN_POINT ( 'NONE',  ( -19.99999999999999600, -2.523234146875355300E-015, 0.0000000000000000000 ) ) ;
#89 = DIRECTION ( 'NONE',  ( 1.000000000000000000, 1.261617073437678000E-016, 0.0000000000000000000 ) ) ;
#90 = DIRECTION ( 'NONE',  ( 0.0000000000000000000, 1.000000000000000000, 0.0000000000000000000 ) ) ;
#91 = CIRCLE ( 'NONE', #92, 7.499999999999999100 ) ;
#92 = AXIS2_PLACEMENT_3D ( 'NONE', #93, #94, #95 ) ;
#93 = CARTESIAN_POINT ( 'NONE',  ( -19.99999999999999600, -2.523234146875355300E-015, 0.0000000000000000000 ) ) ;
#94 = DIRECTION ( 'NONE',  ( 1.000000000000000000, 1.261617073437678000E-016, 0.0000000000000000000 ) ) ;
#95 = DIRECTION ( 'NONE',  ( 0.0000000000000000000, 1.000000000000000000, 0.0000000000000000000 ) ) ;
#96 = CIRCLE ( 'NONE', #97, 3.899999999999993700 ) ;
#97 = AXIS2_PLACEMENT_3D ( 'NONE', #98, #99, #100 ) ;
#98 = CARTESIAN_POINT ( 'NONE',  ( -27.49999999999999600, -3.469446951953614200E-015, 0.0000000000000000000 ) ) ;
#99 = DIRECTION ( 'NONE',  ( 1.000000000000000000, 1.261617073437678000E-016, 0.0000000000000000000 ) ) ;
#100 = DIRECTION ( 'NONE',  ( 0.0000000000000000000, 1.000000000000000000, 0.0000000000000000000 ) ) ;
#101 = CARTESIAN_POINT ( 'NONE',  ( -26.99999999999999300, 7.499999999999996400, 0.0000000000000000000 ) ) ;
#102 = CARTESIAN_POINT ( 'NONE',  ( 2.207829878515936700E-015, -8.750000000000000000, 1.071530559594580300E-015 ) ) ;
#103 = CIRCLE ( 'NONE', #104, 3.899999999999993700 ) ;
#104 = AXIS2_PLACEMENT_3D ( 'NONE', #105, #106, #107 ) ;
#105 = CARTESIAN_POINT ( 'NONE',  ( -27.49999999999999600, -3.469446951953614200E-015, 0.0000000000000000000 ) ) ;
#106 = DIRECTION ( 'NONE',  ( 1.000000000000000000, 1.261617073437678000E-016, 0.0000000000000000000 ) ) ;
#107 = DIRECTION ( 'NONE',  ( 0.0000000000000000000, 1.000000000000000000, 0.0000000000000000000 ) ) ;
#108 = FACE_OUTER_BOUND ( 'NONE', #375, .T. ) ;
#109 = CYLINDRICAL_SURFACE ( 'NONE', #110, 8.750000000000000000 ) ;
#110 = AXIS2_PLACEMENT_3D ( 'NONE', #111, #112, #113 ) ;
#111 = CARTESIAN_POINT ( 'NONE',  ( 0.0000000000000000000, 0.0000000000000000000, 0.0000000000000000000 ) ) ;
#112 = DIRECTION ( 'NONE',  ( 1.000000000000000000, 1.261617073437678000E-016, 0.0000000000000000000 ) ) ;
#113 = DIRECTION ( 'NONE',  ( -1.261617073437678200E-016, 1.000000000000000000, 0.0000000000000000000 ) ) ;
#114 = FACE_OUTER_BOUND ( 'NONE', #281, .T. ) ;
#115 = CONICAL_SURFACE ( 'NONE', #116, 7.500000000000000000, 0.7853981633974457300 ) ;
#116 = AXIS2_PLACEMENT_3D ( 'NONE', #117, #118, #119 ) ;
#117 = CARTESIAN_POINT ( 'NONE',  ( -26.99999999999999300, -3.406366098281729700E-015, 0.0000000000000000000 ) ) ;
#118 = DIRECTION ( 'NONE',  ( 1.000000000000000000, 1.261617073437683900E-016, 0.0000000000000000000 ) ) ;
#119 = DIRECTION ( 'NONE',  ( 0.0000000000000000000, 1.000000000000000000, 0.0000000000000000000 ) ) ;
#120 = EDGE_LOOP ( 'NONE', ( #19, #47 ) ) ;
#121 = VERTEX_POINT ( 'NONE', #203 ) ;
#122 = EDGE_CURVE ( 'NONE', #62, #44, #204, .T. ) ;
#123 = CARTESIAN_POINT ( 'NONE',  ( 0.0000000000000000000, 3.899999999999990100, 0.0000000000000000000 ) ) ;
#124 = LINE ( 'NONE', #125, #126 ) ;
#125 = CARTESIAN_POINT ( 'NONE',  ( -4.920306586406933700E-016, 3.899999999999991900, 0.0000000000000000000 ) ) ;
#126 = VECTOR ( 'NONE', #127, 1000.000000000000000 ) ;
#127 = DIRECTION ( 'NONE',  ( 1.000000000000000000, 1.261617073437678000E-016, 0.0000000000000000000 ) ) ;
#128 = CARTESIAN_POINT ( 'NONE',  ( 9.840613172813865500E-016, -3.899999999999990100, 4.775964779907260700E-016 ) ) ;
#129 = LINE ( 'NONE', #130, #131 ) ;
#130 = CARTESIAN_POINT ( 'NONE',  ( -9.462128050782584900E-016, 7.500000000000000000, 0.0000000000000000000 ) ) ;
#131 = VECTOR ( 'NONE', #132, 1000.000000000000000 ) ;
#132 = DIRECTION ( 'NONE',  ( 1.000000000000000000, 1.261617073437678000E-016, 0.0000000000000000000 ) ) ;
#133 = FACE_OUTER_BOUND ( 'NONE', #327, .T. ) ;
#134 = CONICAL_SURFACE ( 'NONE', #135, 7.500000000000000000, 0.7853981633974457300 ) ;
#135 = AXIS2_PLACEMENT_3D ( 'NONE', #136, #137, #138 ) ;
#136 = CARTESIAN_POINT ( 'NONE',  ( -26.99999999999999300, -3.406366098281729700E-015, 0.0000000000000000000 ) ) ;
#137 = DIRECTION ( 'NONE',  ( 1.000000000000000000, 1.261617073437683900E-016, 0.0000000000000000000 ) ) ;
#138 = DIRECTION ( 'NONE',  ( 0.0000000000000000000, 1.000000000000000000, 0.0000000000000000000 ) ) ;
#139 = ORIENTED_EDGE ( 'NONE', *, *, #4, .T. ) ;
#140 = EDGE_CURVE ( 'NONE', #58, #176, #208, .T. ) ;
#141 = CARTESIAN_POINT ( 'NONE',  ( -27.49999999999999600, 6.999999999999996400, 0.0000000000000000000 ) ) ;
#142 = LINE ( 'NONE', #143, #144 ) ;
#143 = CARTESIAN_POINT ( 'NONE',  ( 9.462128050782584900E-016, -7.500000000000000000, 9.184547653667829400E-016 ) ) ;
#144 = VECTOR ( 'NONE', #145, 1000.000000000000000 ) ;
#145 = DIRECTION ( 'NONE',  ( 1.000000000000000000, 1.261617073437678000E-016, 0.0000000000000000000 ) ) ;
#146 = CIRCLE ( 'NONE', #147, 7.500000000000000000 ) ;
#147 = AXIS2_PLACEMENT_3D ( 'NONE', #148, #149, #150 ) ;
#148 = CARTESIAN_POINT ( 'NONE',  ( -26.99999999999999300, -3.406366098281729700E-015, 0.0000000000000000000 ) ) ;
#149 = DIRECTION ( 'NONE',  ( 1.000000000000000000, 1.261617073437683900E-016, 0.0000000000000000000 ) ) ;
#150 = DIRECTION ( 'NONE',  ( 0.0000000000000000000, -1.000000000000000000, 0.0000000000000000000 ) ) ;
#151 = CARTESIAN_POINT ( 'NONE',  ( -27.49999999999999600, 3.899999999999990100, 0.0000000000000000000 ) ) ;
#152 = CARTESIAN_POINT ( 'NONE',  ( -19.99999999999999600, 8.750000000000000000, 0.0000000000000000000 ) ) ;
#153 = CIRCLE ( 'NONE', #154, 8.750000000000000000 ) ;
#154 = AXIS2_PLACEMENT_3D ( 'NONE', #155, #156, #158 ) ;
#155 = CARTESIAN_POINT ( 'NONE',  ( 1.103914939257968400E-015, 1.392717934990770100E-031, 0.0000000000000000000 ) ) ;
#156 = DIRECTION ( 'NONE',  ( 1.000000000000000000, 1.261617073437678000E-016, 0.0000000000000000000 ) ) ;
#157 = ADVANCED_FACE ( 'NONE', ( #220 ), #221, .T. ) ;
#158 = DIRECTION ( 'NONE',  ( -1.261617073437678200E-016, 1.000000000000000000, 0.0000000000000000000 ) ) ;
#159 = CIRCLE ( 'NONE', #160, 7.499999999999999100 ) ;
#160 = AXIS2_PLACEMENT_3D ( 'NONE', #161, #162, #163 ) ;
#161 = CARTESIAN_POINT ( 'NONE',  ( -19.99999999999999600, -2.523234146875355300E-015, 0.0000000000000000000 ) ) ;
#162 = DIRECTION ( 'NONE',  ( 1.000000000000000000, 1.261617073437678000E-016, 0.0000000000000000000 ) ) ;
#163 = DIRECTION ( 'NONE',  ( 0.0000000000000000000, 1.000000000000000000, 0.0000000000000000000 ) ) ;
#164 = FACE_OUTER_BOUND ( 'NONE', #45, .T. ) ;
#165 = FACE_BOUND ( 'NONE', #3, .T. ) ;
#166 = PLANE ( 'NONE',  #167 ) ;
#167 = AXIS2_PLACEMENT_3D ( 'NONE', #168, #169, #170 ) ;
#168 = CARTESIAN_POINT ( 'NONE',  ( -27.49999999999999600, 7.499999999999996400, 0.0000000000000000000 ) ) ;
#169 = DIRECTION ( 'NONE',  ( -1.000000000000000000, -1.261617073437678000E-016, 0.0000000000000000000 ) ) ;
#170 = DIRECTION ( 'NONE',  ( 1.261617073437678000E-016, -1.000000000000000000, 0.0000000000000000000 ) ) ;
#171 = FACE_OUTER_BOUND ( 'NONE', #344, .T. ) ;
#172 = CYLINDRICAL_SURFACE ( 'NONE', #173, 7.500000000000000000 ) ;
#173 = AXIS2_PLACEMENT_3D ( 'NONE', #177, #178, #179 ) ;
#174 = EDGE_CURVE ( 'NONE', #58, #51, #226, .T. ) ;
#175 = ORIENTED_EDGE ( 'NONE', *, *, #22, .T. ) ;
#176 = VERTEX_POINT ( 'NONE', #230 ) ;
#177 = CARTESIAN_POINT ( 'NONE',  ( 0.0000000000000000000, 0.0000000000000000000, 0.0000000000000000000 ) ) ;
#178 = DIRECTION ( 'NONE',  ( 1.000000000000000000, 1.261617073437678000E-016, 0.0000000000000000000 ) ) ;
#179 = DIRECTION ( 'NONE',  ( -1.261617073437678000E-016, 1.000000000000000000, 0.0000000000000000000 ) ) ;
#180 = CARTESIAN_POINT ( 'NONE',  ( -26.99999999999999300, -7.500000000000003600, 9.184547653667829400E-016 ) ) ;
#181 = LINE ( 'NONE', #182, #183 ) ;
#182 = CARTESIAN_POINT ( 'NONE',  ( 1.103914939257968400E-015, -8.750000000000000000, 1.071530559594580300E-015 ) ) ;
#183 = VECTOR ( 'NONE', #184, 1000.000000000000000 ) ;
#184 = DIRECTION ( 'NONE',  ( 1.000000000000000000, 1.261617073437678000E-016, 0.0000000000000000000 ) ) ;
#185 = FACE_OUTER_BOUND ( 'NONE', #21, .T. ) ;
#186 = FACE_BOUND ( 'NONE', #120, .T. ) ;
#187 = PLANE ( 'NONE',  #188 ) ;
#188 = AXIS2_PLACEMENT_3D ( 'NONE', #189, #190, #191 ) ;
#189 = CARTESIAN_POINT ( 'NONE',  ( 0.0000000000000000000, 3.899999999999990100, 0.0000000000000000000 ) ) ;
#190 = DIRECTION ( 'NONE',  ( 1.000000000000000000, 1.261617073437678000E-016, 0.0000000000000000000 ) ) ;
#191 = DIRECTION ( 'NONE',  ( -1.261617073437678000E-016, 1.000000000000000000, 0.0000000000000000000 ) ) ;
#192 = CIRCLE ( 'NONE', #194, 8.750000000000000000 ) ;
#193 = ORIENTED_EDGE ( 'NONE', *, *, #49, .F. ) ;
#194 = AXIS2_PLACEMENT_3D ( 'NONE', #195, #196, #197 ) ;
#195 = CARTESIAN_POINT ( 'NONE',  ( 1.103914939257968400E-015, 1.392717934990770100E-031, 0.0000000000000000000 ) ) ;
#196 = DIRECTION ( 'NONE',  ( 1.000000000000000000, 1.261617073437678000E-016, 0.0000000000000000000 ) ) ;
#197 = DIRECTION ( 'NONE',  ( -1.261617073437678200E-016, 1.000000000000000000, 0.0000000000000000000 ) ) ;
#198 = CIRCLE ( 'NONE', #199, 3.899999999999990100 ) ;
#199 = AXIS2_PLACEMENT_3D ( 'NONE', #200, #201, #202 ) ;
#200 = CARTESIAN_POINT ( 'NONE',  ( 4.920306586406931700E-016, 6.207542795958844600E-032, 0.0000000000000000000 ) ) ;
#201 = DIRECTION ( 'NONE',  ( 1.000000000000000000, 1.261617073437678000E-016, 0.0000000000000000000 ) ) ;
#202 = DIRECTION ( 'NONE',  ( -1.261617073437678000E-016, 1.000000000000000000, 0.0000000000000000000 ) ) ;
#203 = CARTESIAN_POINT ( 'NONE',  ( -19.99999999999999600, -7.500000000000001800, 9.184547653667829400E-016 ) ) ;
#204 = LINE ( 'NONE', #205, #206 ) ;
#205 = CARTESIAN_POINT ( 'NONE',  ( -1.103914939257968400E-015, 8.750000000000000000, 0.0000000000000000000 ) ) ;
#206 = VECTOR ( 'NONE', #207, 1000.000000000000000 ) ;
#207 = DIRECTION ( 'NONE',  ( 1.000000000000000000, 1.261617073437678000E-016, 0.0000000000000000000 ) ) ;
#208 = CIRCLE ( 'NONE', #209, 6.999999999999999100 ) ;
#209 = AXIS2_PLACEMENT_3D ( 'NONE', #213, #214, #215 ) ;
#210 = ORIENTED_EDGE ( 'NONE', *, *, #54, .F. ) ;
#211 = ORIENTED_EDGE ( 'NONE', *, *, #64, .T. ) ;
#212 = VERTEX_POINT ( 'NONE', #231 ) ;
#213 = CARTESIAN_POINT ( 'NONE',  ( -27.49999999999999600, -3.469446951953614200E-015, 0.0000000000000000000 ) ) ;
#214 = DIRECTION ( 'NONE',  ( -1.000000000000000000, -1.261617073437678000E-016, 0.0000000000000000000 ) ) ;
#215 = DIRECTION ( 'NONE',  ( 0.0000000000000000000, -1.000000000000000000, 0.0000000000000000000 ) ) ;
#216 = LINE ( 'NONE', #217, #218 ) ;
#217 = CARTESIAN_POINT ( 'NONE',  ( 4.920306586406933700E-016, -3.899999999999991900, 4.775964779907261600E-016 ) ) ;
#218 = VECTOR ( 'NONE', #219, 1000.000000000000000 ) ;
#219 = DIRECTION ( 'NONE',  ( 1.000000000000000000, 1.261617073437678000E-016, 0.0000000000000000000 ) ) ;
#220 = FACE_OUTER_BOUND ( 'NONE', #57, .T. ) ;
#221 = CYLINDRICAL_SURFACE ( 'NONE', #222, 8.750000000000000000 ) ;
#222 = AXIS2_PLACEMENT_3D ( 'NONE', #223, #224, #225 ) ;
#223 = CARTESIAN_POINT ( 'NONE',  ( 0.0000000000000000000, 0.0000000000000000000, 0.0000000000000000000 ) ) ;
#224 = DIRECTION ( 'NONE',  ( 1.000000000000000000, 1.261617073437678000E-016, 0.0000000000000000000 ) ) ;
#225 = DIRECTION ( 'NONE',  ( -1.261617073437678200E-016, 1.000000000000000000, 0.0000000000000000000 ) ) ;
#226 = LINE ( 'NONE', #227, #228 ) ;
#227 = CARTESIAN_POINT ( 'NONE',  ( -26.99999999999999300, 7.499999999999996400, 0.0000000000000000000 ) ) ;
#228 = VECTOR ( 'NONE', #229, 1000.000000000000000 ) ;
#229 = DIRECTION ( 'NONE',  ( 0.7071067811865492400, 0.7071067811865458000, 0.0000000000000000000 ) ) ;
#230 = CARTESIAN_POINT ( 'NONE',  ( -27.49999999999999600, -7.000000000000003600, 8.878396065212236100E-016 ) ) ;
#231 = CARTESIAN_POINT ( 'NONE',  ( -19.99999999999999600, 7.499999999999996400, 0.0000000000000000000 ) ) ;
#232 = CARTESIAN_POINT ( 'NONE',  ( -27.49999999999999600, -3.899999999999997200, 4.775964779907265600E-016 ) ) ;
#233 = CIRCLE ( 'NONE', #234, 8.750000000000001800 ) ;
#234 = AXIS2_PLACEMENT_3D ( 'NONE', #235, #236, #237 ) ;
#235 = CARTESIAN_POINT ( 'NONE',  ( -19.99999999999999600, -2.523234146875355300E-015, 0.0000000000000000000 ) ) ;
#236 = DIRECTION ( 'NONE',  ( 1.000000000000000000, 1.261617073437678000E-016, 0.0000000000000000000 ) ) ;
#237 = DIRECTION ( 'NONE',  ( 0.0000000000000000000, 1.000000000000000000, 0.0000000000000000000 ) ) ;
#238 = LINE ( 'NONE', #239, #240 ) ;
#239 = CARTESIAN_POINT ( 'NONE',  ( -26.99999999999999300, -7.500000000000003600, 9.184547653667829400E-016 ) ) ;
#240 = VECTOR ( 'NONE', #241, 1000.000000000000100 ) ;
#241 = DIRECTION ( 'NONE',  ( 0.7071067811865493500, -0.7071067811865455700, 8.659274570719330800E-017 ) ) ;
#242 = CIRCLE ( 'NONE', #243, 3.899999999999990100 ) ;
#243 = AXIS2_PLACEMENT_3D ( 'NONE', #244, #247, #248 ) ;
#244 = CARTESIAN_POINT ( 'NONE',  ( 4.920306586406931700E-016, 6.207542795958844600E-032, 0.0000000000000000000 ) ) ;
#245 = ORIENTED_EDGE ( 'NONE', *, *, #345, .T. ) ;
#246 = EDGE_CURVE ( 'NONE', #62, #43, #233, .T. ) ;
#247 = DIRECTION ( 'NONE',  ( 1.000000000000000000, 1.261617073437678000E-016, 0.0000000000000000000 ) ) ;
#248 = DIRECTION ( 'NONE',  ( -1.261617073437678000E-016, 1.000000000000000000, 0.0000000000000000000 ) ) ;
#249 = FACE_BOUND ( 'NONE', #60, .T. ) ;
#250 = FACE_OUTER_BOUND ( 'NONE', #363, .T. ) ;
#251 = PLANE ( 'NONE',  #252 ) ;
#252 = AXIS2_PLACEMENT_3D ( 'NONE', #253, #254, #255 ) ;
#253 = CARTESIAN_POINT ( 'NONE',  ( -19.99999999999999600, 8.750000000000000000, 0.0000000000000000000 ) ) ;
#254 = DIRECTION ( 'NONE',  ( -1.000000000000000000, -1.261617073437678000E-016, 0.0000000000000000000 ) ) ;
#255 = DIRECTION ( 'NONE',  ( 1.261617073437678000E-016, -1.000000000000000000, 0.0000000000000000000 ) ) ;
#256 = FACE_OUTER_BOUND ( 'NONE', #24, .T. ) ;
#257 = CYLINDRICAL_SURFACE ( 'NONE', #258, 3.899999999999991900 ) ;
#258 = AXIS2_PLACEMENT_3D ( 'NONE', #259, #260, #261 ) ;
#259 = CARTESIAN_POINT ( 'NONE',  ( 0.0000000000000000000, 0.0000000000000000000, 0.0000000000000000000 ) ) ;
#260 = DIRECTION ( 'NONE',  ( 1.000000000000000000, 1.261617073437678000E-016, 0.0000000000000000000 ) ) ;
#261 = DIRECTION ( 'NONE',  ( -1.261617073437678000E-016, 1.000000000000000000, 0.0000000000000000000 ) ) ;
#262 = CIRCLE ( 'NONE', #264, 7.500000000000000000 ) ;
#263 = EDGE_CURVE ( 'NONE', #176, #66, #238, .T. ) ;
#264 = AXIS2_PLACEMENT_3D ( 'NONE', #265, #266, #267 ) ;
#265 = CARTESIAN_POINT ( 'NONE',  ( -26.99999999999999300, -3.406366098281729700E-015, 0.0000000000000000000 ) ) ;
#266 = DIRECTION ( 'NONE',  ( 1.000000000000000000, 1.261617073437683900E-016, 0.0000000000000000000 ) ) ;
#267 = DIRECTION ( 'NONE',  ( 0.0000000000000000000, -1.000000000000000000, 0.0000000000000000000 ) ) ;
#268 = FACE_OUTER_BOUND ( 'NONE', #50, .T. ) ;
#269 = CYLINDRICAL_SURFACE ( 'NONE', #270, 3.899999999999991900 ) ;
#270 = AXIS2_PLACEMENT_3D ( 'NONE', #271, #272, #273 ) ;
#271 = CARTESIAN_POINT ( 'NONE',  ( 0.0000000000000000000, 0.0000000000000000000, 0.0000000000000000000 ) ) ;
#272 = DIRECTION ( 'NONE',  ( 1.000000000000000000, 1.261617073437678000E-016, 0.0000000000000000000 ) ) ;
#273 = DIRECTION ( 'NONE',  ( -1.261617073437678000E-016, 1.000000000000000000, 0.0000000000000000000 ) ) ;
#274 =( LENGTH_UNIT ( ) NAMED_UNIT ( * ) SI_UNIT ( .MILLI., .METRE. ) );
#275 =( NAMED_UNIT ( * ) PLANE_ANGLE_UNIT ( ) SI_UNIT ( $, .RADIAN. ) );
#276 =( NAMED_UNIT ( * ) SI_UNIT ( $, .STERADIAN. ) SOLID_ANGLE_UNIT ( ) );
#277 = UNCERTAINTY_MEASURE_WITH_UNIT (LENGTH_MEASURE( 1.000000000000000100E-005 ), #274, 'distance_accuracy_value', 'NONE');
#278 =( GEOMETRIC_REPRESENTATION_CONTEXT ( 3 ) GLOBAL_UNCERTAINTY_ASSIGNED_CONTEXT ( ( #277 ) ) GLOBAL_UNIT_ASSIGNED_CONTEXT ( ( #274, #275, #276 ) ) REPRESENTATION_CONTEXT ( 'NONE', 'WORKASPACE' ) );
#279 = ADVANCED_BREP_SHAPE_REPRESENTATION ( 'SE08025-R-2E0', ( #33, #282 ), #278 ) ;
#280 = EDGE_CURVE ( 'NONE', #374, #376, #242, .T. ) ;
#281 = EDGE_LOOP ( 'NONE', ( #32, #41, #86, #46 ) ) ;
#282 = AXIS2_PLACEMENT_3D ( 'NONE', #283, #284, #285 ) ;
#283 = CARTESIAN_POINT ( 'NONE',  ( 0.0000000000000000000, 0.0000000000000000000, 0.0000000000000000000 ) ) ;
#284 = DIRECTION ( 'NONE',  ( 0.0000000000000000000, 0.0000000000000000000, 1.000000000000000000 ) ) ;
#285 = DIRECTION ( 'NONE',  ( 1.000000000000000000, 0.0000000000000000000, 0.0000000000000000000 ) ) ;
#286 = APPLICATION_CONTEXT ( 'configuration controlled 3d designs of mechanical parts and assemblies' ) ;
#287 = APPLICATION_PROTOCOL_DEFINITION ( 'international standard', 'config_control_design', 1994, #286 ) ;
#288 = MECHANICAL_CONTEXT ( 'NONE', #286, 'mechanical' ) ;
#289 = PRODUCT ( 'SE08025-R-2E0', 'SE08025-R-2E0', '', ( #288 ) ) ;
#290 = PERSON ( 'UNSPECIFIED', 'UNSPECIFIED', 'UNSPECIFIED', ('UNSPECIFIED'), ('UNSPECIFIED'), ('UNSPECIFIED') ) ;
#291 = ORGANIZATION ( 'UNSPECIFIED', 'UNSPECIFIED', '' ) ;
#292 = PERSON_AND_ORGANIZATION ( #290, #291 ) ;
#293 = PERSON_AND_ORGANIZATION_ROLE ( 'design_owner' ) ;
#294 = CC_DESIGN_PERSON_AND_ORGANIZATION_ASSIGNMENT ( #292, #293, ( #289 ) ) ;
#295 = APPLICATION_CONTEXT ( 'configuration controlled 3d designs of mechanical parts and assemblies' ) ;
#296 = APPLICATION_PROTOCOL_DEFINITION ( 'international standard', 'config_control_design', 1994, #295 ) ;
#297 = DESIGN_CONTEXT ( 'detailed design', #295, 'design' ) ;
#298 = PRODUCT_DEFINITION ( 'UNKNOWN', '', #319, #297 ) ;
#299 = PERSON_AND_ORGANIZATION ( #290, #291 ) ;
#300 = APPROVAL_STATUS ( 'not_yet_approved' ) ;
#301 = APPROVAL ( #300, 'UNSPECIFIED' ) ;
#302 = APPROVAL_ROLE ( '' ) ;
#303 = APPROVAL_PERSON_ORGANIZATION ( #299, #301, #302 ) ;
#304 = COORDINATED_UNIVERSAL_TIME_OFFSET ( 1, 0, .AHEAD. ) ;
#305 = LOCAL_TIME ( 13, 46, 9.000000000000000000, #304 ) ;
#306 = CALENDAR_DATE ( 2002, 15, 8 ) ;
#307 = DATE_AND_TIME ( #306, #305 ) ;
#308 = APPROVAL_DATE_TIME ( #307, #301 ) ;
#309 = CC_DESIGN_APPROVAL ( #301, ( #298 ) ) ;
#310 = PERSON_AND_ORGANIZATION ( #290, #291 ) ;
#311 = PERSON_AND_ORGANIZATION_ROLE ( 'creator' ) ;
#312 = CC_DESIGN_PERSON_AND_ORGANIZATION_ASSIGNMENT ( #310, #311, ( #298 ) ) ;
#313 = COORDINATED_UNIVERSAL_TIME_OFFSET ( 1, 0, .AHEAD. ) ;
#314 = LOCAL_TIME ( 13, 46, 9.000000000000000000, #313 ) ;
#315 = CALENDAR_DATE ( 2002, 15, 8 ) ;
#316 = DATE_AND_TIME ( #315, #314 ) ;
#317 = DATE_TIME_ROLE ( 'creation_date' ) ;
#318 = CC_DESIGN_DATE_AND_TIME_ASSIGNMENT ( #316, #317, ( #298 ) ) ;
#319 = PRODUCT_DEFINITION_FORMATION_WITH_SPECIFIED_SOURCE ( 'ANY', '', #289, .NOT_KNOWN. ) ;
#320 = PERSON_AND_ORGANIZATION ( #290, #291 ) ;
#321 = APPROVAL_STATUS ( 'not_yet_approved' ) ;
#322 = APPROVAL ( #321, 'UNSPECIFIED' ) ;
#323 = APPROVAL_ROLE ( '' ) ;
#324 = APPROVAL_PERSON_ORGANIZATION ( #320, #322, #323 ) ;
#325 = COORDINATED_UNIVERSAL_TIME_OFFSET ( 1, 0, .AHEAD. ) ;
#326 = ORIENTED_EDGE ( 'NONE', *, *, #49, .T. ) ;
#327 = EDGE_LOOP ( 'NONE', ( #27, #15, #23, #9 ) ) ;
#328 = LOCAL_TIME ( 13, 46, 9.000000000000000000, #325 ) ;
#329 = CALENDAR_DATE ( 2002, 15, 8 ) ;
#330 = DATE_AND_TIME ( #329, #328 ) ;
#331 = APPROVAL_DATE_TIME ( #330, #322 ) ;
#332 = CC_DESIGN_APPROVAL ( #322, ( #319 ) ) ;
#333 = PERSON_AND_ORGANIZATION ( #290, #291 ) ;
#334 = PERSON_AND_ORGANIZATION_ROLE ( 'creator' ) ;
#335 = CC_DESIGN_PERSON_AND_ORGANIZATION_ASSIGNMENT ( #333, #334, ( #319 ) ) ;
#336 = PERSON_AND_ORGANIZATION ( #290, #291 ) ;
#337 = PERSON_AND_ORGANIZATION_ROLE ( 'design_supplier' ) ;
#338 = CC_DESIGN_PERSON_AND_ORGANIZATION_ASSIGNMENT ( #336, #337, ( #319 ) ) ;
#339 = SECURITY_CLASSIFICATION_LEVEL ( 'unclassified' ) ;
#340 = SECURITY_CLASSIFICATION ( '', '', #339 ) ;
#341 = PERSON_AND_ORGANIZATION ( #290, #291 ) ;
#342 = PERSON_AND_ORGANIZATION_ROLE ( 'classification_officer' ) ;
#343 = CC_DESIGN_PERSON_AND_ORGANIZATION_ASSIGNMENT ( #341, #342, ( #340 ) ) ;
#344 = EDGE_LOOP ( 'NONE', ( #48, #39, #38, #370 ) ) ;
#345 = EDGE_CURVE ( 'NONE', #51, #66, #262, .T. ) ;
#346 = COORDINATED_UNIVERSAL_TIME_OFFSET ( 1, 0, .AHEAD. ) ;
#347 = LOCAL_TIME ( 13, 46, 9.000000000000000000, #346 ) ;
#348 = CALENDAR_DATE ( 2002, 15, 8 ) ;
#349 = DATE_AND_TIME ( #348, #347 ) ;
#350 = DATE_TIME_ROLE ( 'classification_date' ) ;
#351 = CC_DESIGN_DATE_AND_TIME_ASSIGNMENT ( #349, #350, ( #340 ) ) ;
#352 = PERSON_AND_ORGANIZATION ( #290, #291 ) ;
#353 = APPROVAL_STATUS ( 'not_yet_approved' ) ;
#354 = APPROVAL ( #353, 'UNSPECIFIED' ) ;
#355 = APPROVAL_ROLE ( '' ) ;
#356 = APPROVAL_PERSON_ORGANIZATION ( #352, #354, #355 ) ;
#357 = COORDINATED_UNIVERSAL_TIME_OFFSET ( 1, 0, .AHEAD. ) ;
#358 = LOCAL_TIME ( 13, 46, 9.000000000000000000, #357 ) ;
#359 = CALENDAR_DATE ( 2002, 15, 8 ) ;
#360 = DATE_AND_TIME ( #359, #358 ) ;
#361 = APPROVAL_DATE_TIME ( #360, #354 ) ;
#362 = ADVANCED_FACE ( 'NONE', ( #268 ), #269, .F. ) ;
#363 = EDGE_LOOP ( 'NONE', ( #29, #378 ) ) ;
#364 = ORIENTED_EDGE ( 'NONE', *, *, #63, .F. ) ;
#365 = CC_DESIGN_APPROVAL ( #354, ( #340 ) ) ;
#366 = CC_DESIGN_SECURITY_CLASSIFICATION ( #340, ( #319 ) ) ;
#367 = PRODUCT_RELATED_PRODUCT_CATEGORY ( 'detail', '', ( #289 ) ) ;
#368 = PRODUCT_DEFINITION_SHAPE ( 'NONE', 'NONE',  #298 ) ;
#369 = SHAPE_DEFINITION_REPRESENTATION ( #368, #279 ) ;
#370 = ORIENTED_EDGE ( 'NONE', *, *, #64, .F. ) ;
#371 = EDGE_CURVE ( 'NONE', #212, #121, #91, .T. ) ;
#372 = ORIENTED_EDGE ( 'NONE', *, *, #68, .F. ) ;
#373 = ADVANCED_FACE ( 'NONE', ( #114 ), #115, .T. ) ;
#374 = VERTEX_POINT ( 'NONE', #123 ) ;
#375 = EDGE_LOOP ( 'NONE', ( #372, #139, #34, #11 ) ) ;
#376 = VERTEX_POINT ( 'NONE', #128 ) ;
#377 = ADVANCED_FACE ( 'NONE', ( #133 ), #134, .T. ) ;
#378 = ORIENTED_EDGE ( 'NONE', *, *, #4, .F. ) ;
#379 = ORIENTED_EDGE ( 'NONE', *, *, #246, .T. ) ;
ENDSEC;
END-ISO-10303-21;
