ISO-10303-21;
HEADER;
/* Generated by software containing ST-Developer
 * from STEP Tools, Inc. (www.steptools.com) 
 */
/* OPTION: using custom schema-name function */

FILE_DESCRIPTION(
/* description */ (''),
/* implementation_level */ '2;1');

FILE_NAME(
/* name */ 'A11F2TA2',
/* time_stamp */ '2009-10-08T14:33:13+08:00',
/* author */ (''),
/* organization */ (''),
/* preprocessor_version */ 'ST-DEVELOPER v11',
/* originating_system */ 'UGS - NX 5.0',
/* authorisation */ '');

FILE_SCHEMA (('CONFIG_CONTROL_DESIGN'));
ENDSEC;

DATA;
#10=SHAPE_REPRESENTATION_RELATIONSHIP('None',
'relationship between A11F2TA2-None and A11F2TA2-None',#94,#11);
#11=ADVANCED_BREP_SHAPE_REPRESENTATION('A11F2TA2-None',(#95),#531);
#12=CC_DESIGN_APPROVAL(#24,(#82));
#13=CC_DESIGN_APPROVAL(#25,(#84));
#14=CC_DESIGN_APPROVAL(#26,(#31));
#15=APPROVAL_PERSON_ORGANIZATION(#69,#24,#18);
#16=APPROVAL_PERSON_ORGANIZATION(#70,#25,#19);
#17=APPROVAL_PERSON_ORGANIZATION(#71,#26,#20);
#18=APPROVAL_ROLE('approver');
#19=APPROVAL_ROLE('approver');
#20=APPROVAL_ROLE('approver');
#21=APPROVAL_DATE_TIME(#39,#24);
#22=APPROVAL_DATE_TIME(#40,#25);
#23=APPROVAL_DATE_TIME(#41,#26);
#24=APPROVAL(#27,' ');
#25=APPROVAL(#28,' ');
#26=APPROVAL(#29,' ');
#27=APPROVAL_STATUS('not_yet_approved');
#28=APPROVAL_STATUS('not_yet_approved');
#29=APPROVAL_STATUS('not_yet_approved');
#30=CC_DESIGN_SECURITY_CLASSIFICATION(#31,(#84));
#31=SECURITY_CLASSIFICATION(' ',' ',#32);
#32=SECURITY_CLASSIFICATION_LEVEL('confidential');
#33=CC_DESIGN_DATE_AND_TIME_ASSIGNMENT(#37,#35,(#82));
#34=CC_DESIGN_DATE_AND_TIME_ASSIGNMENT(#38,#36,(#31));
#35=DATE_TIME_ROLE('creation_date');
#36=DATE_TIME_ROLE('classification_date');
#37=DATE_AND_TIME(#52,#42);
#38=DATE_AND_TIME(#53,#43);
#39=DATE_AND_TIME(#54,#44);
#40=DATE_AND_TIME(#55,#45);
#41=DATE_AND_TIME(#56,#46);
#42=LOCAL_TIME(0,0,0.,#47);
#43=LOCAL_TIME(0,0,0.,#48);
#44=LOCAL_TIME(0,0,0.,#49);
#45=LOCAL_TIME(0,0,0.,#50);
#46=LOCAL_TIME(0,0,0.,#51);
#47=COORDINATED_UNIVERSAL_TIME_OFFSET(0,0,.BEHIND.);
#48=COORDINATED_UNIVERSAL_TIME_OFFSET(0,0,.BEHIND.);
#49=COORDINATED_UNIVERSAL_TIME_OFFSET(0,0,.BEHIND.);
#50=COORDINATED_UNIVERSAL_TIME_OFFSET(0,0,.BEHIND.);
#51=COORDINATED_UNIVERSAL_TIME_OFFSET(0,0,.BEHIND.);
#52=CALENDAR_DATE(0,1,1);
#53=CALENDAR_DATE(0,1,1);
#54=CALENDAR_DATE(0,1,1);
#55=CALENDAR_DATE(0,1,1);
#56=CALENDAR_DATE(0,1,1);
#57=CC_DESIGN_PERSON_AND_ORGANIZATION_ASSIGNMENT(#65,#61,(#82,#84));
#58=CC_DESIGN_PERSON_AND_ORGANIZATION_ASSIGNMENT(#66,#62,(#86));
#59=CC_DESIGN_PERSON_AND_ORGANIZATION_ASSIGNMENT(#67,#63,(#84));
#60=CC_DESIGN_PERSON_AND_ORGANIZATION_ASSIGNMENT(#68,#64,(#31));
#61=PERSON_AND_ORGANIZATION_ROLE('creator');
#62=PERSON_AND_ORGANIZATION_ROLE('design_owner');
#63=PERSON_AND_ORGANIZATION_ROLE('design_supplier');
#64=PERSON_AND_ORGANIZATION_ROLE('classification_officer');
#65=PERSON_AND_ORGANIZATION(#79,#72);
#66=PERSON_AND_ORGANIZATION(#79,#73);
#67=PERSON_AND_ORGANIZATION(#79,#74);
#68=PERSON_AND_ORGANIZATION(#79,#75);
#69=PERSON_AND_ORGANIZATION(#79,#76);
#70=PERSON_AND_ORGANIZATION(#79,#77);
#71=PERSON_AND_ORGANIZATION(#79,#78);
#72=ORGANIZATION(' ',' ',' ');
#73=ORGANIZATION(' ',' ',' ');
#74=ORGANIZATION(' ',' ',' ');
#75=ORGANIZATION(' ',' ',' ');
#76=ORGANIZATION(' ',' ',' ');
#77=ORGANIZATION(' ',' ',' ');
#78=ORGANIZATION(' ',' ',' ');
#79=PERSON(' ',' ',' ',(' '),$,$);
#80=SHAPE_DEFINITION_REPRESENTATION(#81,#94);
#81=PRODUCT_DEFINITION_SHAPE('','',#82);
#82=PRODUCT_DEFINITION(' ','',#84,#83);
#83=DESIGN_CONTEXT('',#93,'design');
#84=PRODUCT_DEFINITION_FORMATION_WITH_SPECIFIED_SOURCE(' ',' ',#86,.NOT_KNOWN.);
#85=PRODUCT_RELATED_PRODUCT_CATEGORY('detail','',(#86));
#86=PRODUCT('A11F2TA2','A11F2TA2',' ',(#91));
#87=PRODUCT_CATEGORY_RELATIONSHIP(' ',' ',#89,#90);
#88=PRODUCT_CATEGORY_RELATIONSHIP('','',#90,#85);
#89=PRODUCT_CATEGORY('part',' ');
#90=PRODUCT_CATEGORY(' ','');
#91=MECHANICAL_CONTEXT(' ',#93,'mechanical');
#92=APPLICATION_PROTOCOL_DEFINITION('international standard',
'config_control_design',1994,#93);
#93=APPLICATION_CONTEXT(
'configuration controlled 3D designs of mechanical parts and assemblies');
#94=SHAPE_REPRESENTATION('A11F2TA2-None',(#347),#531);
#95=MANIFOLD_SOLID_BREP('',#96);
#96=CLOSED_SHELL('',(#111,#112,#113,#114,#115,#116,#117,#118,#119,#120,#121,
#122,#123,#124,#125));
#97=CYLINDRICAL_SURFACE('',#368,24.);
#98=CYLINDRICAL_SURFACE('',#369,24.);
#99=CYLINDRICAL_SURFACE('',#372,2.75);
#100=CYLINDRICAL_SURFACE('',#373,2.75);
#101=CYLINDRICAL_SURFACE('',#374,2.75);
#102=CYLINDRICAL_SURFACE('',#375,2.75);
#103=CYLINDRICAL_SURFACE('',#376,2.75);
#104=CYLINDRICAL_SURFACE('',#377,2.75);
#105=CYLINDRICAL_SURFACE('',#381,14.);
#106=CYLINDRICAL_SURFACE('',#382,7.5);
#107=FACE_OUTER_BOUND('',#197,.T.);
#108=FACE_OUTER_BOUND('',#198,.T.);
#109=FACE_OUTER_BOUND('',#199,.T.);
#110=FACE_OUTER_BOUND('',#200,.T.);
#111=ADVANCED_FACE('',(#147,#148,#149,#150,#151,#152,#153,#154),#126,.T.);
#112=ADVANCED_FACE('',(#155,#156,#157,#158,#159,#160,#161,#162),#127,.T.);
#113=ADVANCED_FACE('',(#107),#97,.T.);
#114=ADVANCED_FACE('',(#108),#98,.T.);
#115=ADVANCED_FACE('',(#109),#128,.T.);
#116=ADVANCED_FACE('',(#110),#129,.T.);
#117=ADVANCED_FACE('',(#163,#164),#99,.F.);
#118=ADVANCED_FACE('',(#165,#166),#100,.F.);
#119=ADVANCED_FACE('',(#167,#168),#101,.F.);
#120=ADVANCED_FACE('',(#169,#170),#102,.F.);
#121=ADVANCED_FACE('',(#171,#172),#103,.F.);
#122=ADVANCED_FACE('',(#173,#174),#104,.F.);
#123=ADVANCED_FACE('',(#175,#176),#130,.T.);
#124=ADVANCED_FACE('',(#177,#178),#105,.T.);
#125=ADVANCED_FACE('',(#179,#180),#106,.F.);
#126=PLANE('',#357);
#127=PLANE('',#367);
#128=PLANE('',#370);
#129=PLANE('',#371);
#130=PLANE('',#380);
#131=LINE('',#475,#139);
#132=LINE('',#479,#140);
#133=LINE('',#504,#141);
#134=LINE('',#508,#142);
#135=LINE('',#510,#143);
#136=LINE('',#511,#144);
#137=LINE('',#513,#145);
#138=LINE('',#514,#146);
#139=VECTOR('',#395,1.);
#140=VECTOR('',#398,1.);
#141=VECTOR('',#423,1.);
#142=VECTOR('',#426,1.);
#143=VECTOR('',#429,1.);
#144=VECTOR('',#430,1.);
#145=VECTOR('',#433,1.);
#146=VECTOR('',#434,1.);
#147=FACE_BOUND('',#181,.T.);
#148=FACE_BOUND('',#182,.T.);
#149=FACE_BOUND('',#183,.T.);
#150=FACE_BOUND('',#184,.T.);
#151=FACE_BOUND('',#185,.T.);
#152=FACE_BOUND('',#186,.T.);
#153=FACE_BOUND('',#187,.T.);
#154=FACE_BOUND('',#188,.T.);
#155=FACE_BOUND('',#189,.T.);
#156=FACE_BOUND('',#190,.T.);
#157=FACE_BOUND('',#191,.T.);
#158=FACE_BOUND('',#192,.T.);
#159=FACE_BOUND('',#193,.T.);
#160=FACE_BOUND('',#194,.T.);
#161=FACE_BOUND('',#195,.T.);
#162=FACE_BOUND('',#196,.T.);
#163=FACE_BOUND('',#201,.T.);
#164=FACE_BOUND('',#202,.T.);
#165=FACE_BOUND('',#203,.T.);
#166=FACE_BOUND('',#204,.T.);
#167=FACE_BOUND('',#205,.T.);
#168=FACE_BOUND('',#206,.T.);
#169=FACE_BOUND('',#207,.T.);
#170=FACE_BOUND('',#208,.T.);
#171=FACE_BOUND('',#209,.T.);
#172=FACE_BOUND('',#210,.T.);
#173=FACE_BOUND('',#211,.T.);
#174=FACE_BOUND('',#212,.T.);
#175=FACE_BOUND('',#213,.T.);
#176=FACE_BOUND('',#214,.T.);
#177=FACE_BOUND('',#215,.T.);
#178=FACE_BOUND('',#216,.T.);
#179=FACE_BOUND('',#217,.T.);
#180=FACE_BOUND('',#218,.T.);
#181=EDGE_LOOP('',(#219));
#182=EDGE_LOOP('',(#220));
#183=EDGE_LOOP('',(#221));
#184=EDGE_LOOP('',(#222));
#185=EDGE_LOOP('',(#223,#224,#225,#226));
#186=EDGE_LOOP('',(#227));
#187=EDGE_LOOP('',(#228));
#188=EDGE_LOOP('',(#229));
#189=EDGE_LOOP('',(#230));
#190=EDGE_LOOP('',(#231));
#191=EDGE_LOOP('',(#232));
#192=EDGE_LOOP('',(#233));
#193=EDGE_LOOP('',(#234));
#194=EDGE_LOOP('',(#235));
#195=EDGE_LOOP('',(#236));
#196=EDGE_LOOP('',(#237,#238,#239,#240));
#197=EDGE_LOOP('',(#241,#242,#243,#244));
#198=EDGE_LOOP('',(#245,#246,#247,#248));
#199=EDGE_LOOP('',(#249,#250,#251,#252));
#200=EDGE_LOOP('',(#253,#254,#255,#256));
#201=EDGE_LOOP('',(#257));
#202=EDGE_LOOP('',(#258));
#203=EDGE_LOOP('',(#259));
#204=EDGE_LOOP('',(#260));
#205=EDGE_LOOP('',(#261));
#206=EDGE_LOOP('',(#262));
#207=EDGE_LOOP('',(#263));
#208=EDGE_LOOP('',(#264));
#209=EDGE_LOOP('',(#265));
#210=EDGE_LOOP('',(#266));
#211=EDGE_LOOP('',(#267));
#212=EDGE_LOOP('',(#268));
#213=EDGE_LOOP('',(#269));
#214=EDGE_LOOP('',(#270));
#215=EDGE_LOOP('',(#271));
#216=EDGE_LOOP('',(#272));
#217=EDGE_LOOP('',(#273));
#218=EDGE_LOOP('',(#274));
#219=ORIENTED_EDGE('',*,*,#299,.T.);
#220=ORIENTED_EDGE('',*,*,#300,.T.);
#221=ORIENTED_EDGE('',*,*,#301,.T.);
#222=ORIENTED_EDGE('',*,*,#302,.T.);
#223=ORIENTED_EDGE('',*,*,#303,.F.);
#224=ORIENTED_EDGE('',*,*,#304,.T.);
#225=ORIENTED_EDGE('',*,*,#305,.F.);
#226=ORIENTED_EDGE('',*,*,#306,.T.);
#227=ORIENTED_EDGE('',*,*,#307,.T.);
#228=ORIENTED_EDGE('',*,*,#308,.T.);
#229=ORIENTED_EDGE('',*,*,#309,.T.);
#230=ORIENTED_EDGE('',*,*,#310,.F.);
#231=ORIENTED_EDGE('',*,*,#311,.F.);
#232=ORIENTED_EDGE('',*,*,#312,.F.);
#233=ORIENTED_EDGE('',*,*,#313,.F.);
#234=ORIENTED_EDGE('',*,*,#314,.F.);
#235=ORIENTED_EDGE('',*,*,#315,.F.);
#236=ORIENTED_EDGE('',*,*,#316,.F.);
#237=ORIENTED_EDGE('',*,*,#317,.F.);
#238=ORIENTED_EDGE('',*,*,#318,.T.);
#239=ORIENTED_EDGE('',*,*,#319,.F.);
#240=ORIENTED_EDGE('',*,*,#320,.T.);
#241=ORIENTED_EDGE('',*,*,#319,.T.);
#242=ORIENTED_EDGE('',*,*,#321,.T.);
#243=ORIENTED_EDGE('',*,*,#303,.T.);
#244=ORIENTED_EDGE('',*,*,#322,.T.);
#245=ORIENTED_EDGE('',*,*,#305,.T.);
#246=ORIENTED_EDGE('',*,*,#323,.T.);
#247=ORIENTED_EDGE('',*,*,#317,.T.);
#248=ORIENTED_EDGE('',*,*,#324,.T.);
#249=ORIENTED_EDGE('',*,*,#324,.F.);
#250=ORIENTED_EDGE('',*,*,#320,.F.);
#251=ORIENTED_EDGE('',*,*,#322,.F.);
#252=ORIENTED_EDGE('',*,*,#306,.F.);
#253=ORIENTED_EDGE('',*,*,#321,.F.);
#254=ORIENTED_EDGE('',*,*,#318,.F.);
#255=ORIENTED_EDGE('',*,*,#323,.F.);
#256=ORIENTED_EDGE('',*,*,#304,.F.);
#257=ORIENTED_EDGE('',*,*,#316,.T.);
#258=ORIENTED_EDGE('',*,*,#307,.F.);
#259=ORIENTED_EDGE('',*,*,#315,.T.);
#260=ORIENTED_EDGE('',*,*,#302,.F.);
#261=ORIENTED_EDGE('',*,*,#314,.T.);
#262=ORIENTED_EDGE('',*,*,#308,.F.);
#263=ORIENTED_EDGE('',*,*,#313,.T.);
#264=ORIENTED_EDGE('',*,*,#301,.F.);
#265=ORIENTED_EDGE('',*,*,#312,.T.);
#266=ORIENTED_EDGE('',*,*,#309,.F.);
#267=ORIENTED_EDGE('',*,*,#311,.T.);
#268=ORIENTED_EDGE('',*,*,#300,.F.);
#269=ORIENTED_EDGE('',*,*,#325,.T.);
#270=ORIENTED_EDGE('',*,*,#326,.F.);
#271=ORIENTED_EDGE('',*,*,#310,.T.);
#272=ORIENTED_EDGE('',*,*,#326,.T.);
#273=ORIENTED_EDGE('',*,*,#325,.F.);
#274=ORIENTED_EDGE('',*,*,#299,.F.);
#275=VERTEX_POINT('',#465);
#276=VERTEX_POINT('',#467);
#277=VERTEX_POINT('',#469);
#278=VERTEX_POINT('',#471);
#279=VERTEX_POINT('',#473);
#280=VERTEX_POINT('',#474);
#281=VERTEX_POINT('',#476);
#282=VERTEX_POINT('',#478);
#283=VERTEX_POINT('',#481);
#284=VERTEX_POINT('',#483);
#285=VERTEX_POINT('',#485);
#286=VERTEX_POINT('',#488);
#287=VERTEX_POINT('',#490);
#288=VERTEX_POINT('',#492);
#289=VERTEX_POINT('',#494);
#290=VERTEX_POINT('',#496);
#291=VERTEX_POINT('',#498);
#292=VERTEX_POINT('',#500);
#293=VERTEX_POINT('',#502);
#294=VERTEX_POINT('',#503);
#295=VERTEX_POINT('',#505);
#296=VERTEX_POINT('',#507);
#297=VERTEX_POINT('',#525);
#298=VERTEX_POINT('',#527);
#299=EDGE_CURVE('',#275,#275,#327,.T.);
#300=EDGE_CURVE('',#276,#276,#328,.T.);
#301=EDGE_CURVE('',#277,#277,#329,.T.);
#302=EDGE_CURVE('',#278,#278,#330,.T.);
#303=EDGE_CURVE('',#279,#280,#331,.T.);
#304=EDGE_CURVE('',#279,#281,#131,.T.);
#305=EDGE_CURVE('',#282,#281,#332,.T.);
#306=EDGE_CURVE('',#282,#280,#132,.T.);
#307=EDGE_CURVE('',#283,#283,#333,.T.);
#308=EDGE_CURVE('',#284,#284,#334,.T.);
#309=EDGE_CURVE('',#285,#285,#335,.T.);
#310=EDGE_CURVE('',#286,#286,#336,.T.);
#311=EDGE_CURVE('',#287,#287,#337,.T.);
#312=EDGE_CURVE('',#288,#288,#338,.T.);
#313=EDGE_CURVE('',#289,#289,#339,.T.);
#314=EDGE_CURVE('',#290,#290,#340,.T.);
#315=EDGE_CURVE('',#291,#291,#341,.T.);
#316=EDGE_CURVE('',#292,#292,#342,.T.);
#317=EDGE_CURVE('',#293,#294,#343,.T.);
#318=EDGE_CURVE('',#293,#295,#133,.T.);
#319=EDGE_CURVE('',#296,#295,#344,.T.);
#320=EDGE_CURVE('',#296,#294,#134,.T.);
#321=EDGE_CURVE('',#295,#279,#135,.T.);
#322=EDGE_CURVE('',#280,#296,#136,.T.);
#323=EDGE_CURVE('',#281,#293,#137,.T.);
#324=EDGE_CURVE('',#294,#282,#138,.T.);
#325=EDGE_CURVE('',#297,#297,#345,.T.);
#326=EDGE_CURVE('',#298,#298,#346,.T.);
#327=CIRCLE('',#348,7.5);
#328=CIRCLE('',#349,2.75);
#329=CIRCLE('',#350,2.75);
#330=CIRCLE('',#351,2.75);
#331=CIRCLE('',#352,24.);
#332=CIRCLE('',#353,24.);
#333=CIRCLE('',#354,2.75);
#334=CIRCLE('',#355,2.75);
#335=CIRCLE('',#356,2.75);
#336=CIRCLE('',#358,14.);
#337=CIRCLE('',#359,2.75);
#338=CIRCLE('',#360,2.75);
#339=CIRCLE('',#361,2.75);
#340=CIRCLE('',#362,2.75);
#341=CIRCLE('',#363,2.75);
#342=CIRCLE('',#364,2.75);
#343=CIRCLE('',#365,24.);
#344=CIRCLE('',#366,24.);
#345=CIRCLE('',#378,7.5);
#346=CIRCLE('',#379,14.);
#347=AXIS2_PLACEMENT_3D('',#463,#383,#384);
#348=AXIS2_PLACEMENT_3D('',#464,#385,#386);
#349=AXIS2_PLACEMENT_3D('',#466,#387,#388);
#350=AXIS2_PLACEMENT_3D('',#468,#389,#390);
#351=AXIS2_PLACEMENT_3D('',#470,#391,#392);
#352=AXIS2_PLACEMENT_3D('',#472,#393,#394);
#353=AXIS2_PLACEMENT_3D('',#477,#396,#397);
#354=AXIS2_PLACEMENT_3D('',#480,#399,#400);
#355=AXIS2_PLACEMENT_3D('',#482,#401,#402);
#356=AXIS2_PLACEMENT_3D('',#484,#403,#404);
#357=AXIS2_PLACEMENT_3D('',#486,#405,#406);
#358=AXIS2_PLACEMENT_3D('',#487,#407,#408);
#359=AXIS2_PLACEMENT_3D('',#489,#409,#410);
#360=AXIS2_PLACEMENT_3D('',#491,#411,#412);
#361=AXIS2_PLACEMENT_3D('',#493,#413,#414);
#362=AXIS2_PLACEMENT_3D('',#495,#415,#416);
#363=AXIS2_PLACEMENT_3D('',#497,#417,#418);
#364=AXIS2_PLACEMENT_3D('',#499,#419,#420);
#365=AXIS2_PLACEMENT_3D('',#501,#421,#422);
#366=AXIS2_PLACEMENT_3D('',#506,#424,#425);
#367=AXIS2_PLACEMENT_3D('',#509,#427,#428);
#368=AXIS2_PLACEMENT_3D('',#512,#431,#432);
#369=AXIS2_PLACEMENT_3D('',#515,#435,#436);
#370=AXIS2_PLACEMENT_3D('',#516,#437,#438);
#371=AXIS2_PLACEMENT_3D('',#517,#439,#440);
#372=AXIS2_PLACEMENT_3D('',#518,#441,#442);
#373=AXIS2_PLACEMENT_3D('',#519,#443,#444);
#374=AXIS2_PLACEMENT_3D('',#520,#445,#446);
#375=AXIS2_PLACEMENT_3D('',#521,#447,#448);
#376=AXIS2_PLACEMENT_3D('',#522,#449,#450);
#377=AXIS2_PLACEMENT_3D('',#523,#451,#452);
#378=AXIS2_PLACEMENT_3D('',#524,#453,#454);
#379=AXIS2_PLACEMENT_3D('',#526,#455,#456);
#380=AXIS2_PLACEMENT_3D('',#528,#457,#458);
#381=AXIS2_PLACEMENT_3D('',#529,#459,#460);
#382=AXIS2_PLACEMENT_3D('',#530,#461,#462);
#383=DIRECTION('',(0.,0.,1.));
#384=DIRECTION('',(1.,0.,0.));
#385=DIRECTION('',(0.,0.,1.));
#386=DIRECTION('',(1.,0.,0.));
#387=DIRECTION('',(0.,0.,1.));
#388=DIRECTION('',(-0.707106781186549,-0.707106781186546,0.));
#389=DIRECTION('',(0.,0.,1.));
#390=DIRECTION('',(-0.707106781186546,0.707106781186549,0.));
#391=DIRECTION('',(0.,0.,1.));
#392=DIRECTION('',(1.,0.,0.));
#393=DIRECTION('',(0.,0.,1.));
#394=DIRECTION('',(1.,0.,0.));
#395=DIRECTION('',(0.,1.,0.));
#396=DIRECTION('',(0.,0.,1.));
#397=DIRECTION('',(1.,0.,0.));
#398=DIRECTION('',(0.,-1.,0.));
#399=DIRECTION('',(0.,0.,1.));
#400=DIRECTION('',(0.707106781186548,0.707106781186547,0.));
#401=DIRECTION('',(0.,0.,1.));
#402=DIRECTION('',(0.707106781186545,-0.70710678118655,0.));
#403=DIRECTION('',(0.,0.,1.));
#404=DIRECTION('',(-1.,2.52323414687536E-015,0.));
#405=DIRECTION('',(0.,0.,-1.));
#406=DIRECTION('',(-1.,0.,0.));
#407=DIRECTION('',(0.,0.,1.));
#408=DIRECTION('',(1.,0.,0.));
#409=DIRECTION('',(0.,0.,1.));
#410=DIRECTION('',(1.,0.,0.));
#411=DIRECTION('',(0.,0.,1.));
#412=DIRECTION('',(1.,0.,0.));
#413=DIRECTION('',(0.,0.,1.));
#414=DIRECTION('',(1.,0.,0.));
#415=DIRECTION('',(0.,0.,1.));
#416=DIRECTION('',(1.,0.,0.));
#417=DIRECTION('',(0.,0.,1.));
#418=DIRECTION('',(1.,0.,0.));
#419=DIRECTION('',(0.,0.,1.));
#420=DIRECTION('',(1.,0.,0.));
#421=DIRECTION('',(0.,0.,-1.));
#422=DIRECTION('',(-1.,0.,0.));
#423=DIRECTION('',(0.,-1.,0.));
#424=DIRECTION('',(0.,0.,-1.));
#425=DIRECTION('',(-1.,0.,0.));
#426=DIRECTION('',(0.,1.,0.));
#427=DIRECTION('',(0.,0.,1.));
#428=DIRECTION('',(1.,0.,0.));
#429=DIRECTION('',(0.,0.,-1.));
#430=DIRECTION('',(0.,0.,1.));
#431=DIRECTION('',(0.,0.,1.));
#432=DIRECTION('',(1.,0.,0.));
#433=DIRECTION('',(0.,0.,1.));
#434=DIRECTION('',(0.,0.,-1.));
#435=DIRECTION('',(0.,0.,1.));
#436=DIRECTION('',(1.,0.,0.));
#437=DIRECTION('',(1.,0.,0.));
#438=DIRECTION('',(0.,0.,-1.));
#439=DIRECTION('',(-1.,0.,0.));
#440=DIRECTION('',(0.,0.,1.));
#441=DIRECTION('',(0.,0.,1.));
#442=DIRECTION('',(0.707106781186548,0.707106781186547,0.));
#443=DIRECTION('',(0.,0.,1.));
#444=DIRECTION('',(1.,0.,0.));
#445=DIRECTION('',(0.,0.,1.));
#446=DIRECTION('',(0.707106781186545,-0.70710678118655,0.));
#447=DIRECTION('',(0.,0.,1.));
#448=DIRECTION('',(-0.707106781186546,0.707106781186549,0.));
#449=DIRECTION('',(0.,0.,1.));
#450=DIRECTION('',(-1.,2.52323414687536E-015,0.));
#451=DIRECTION('',(0.,0.,1.));
#452=DIRECTION('',(-0.707106781186549,-0.707106781186546,0.));
#453=DIRECTION('',(0.,0.,-1.));
#454=DIRECTION('',(-1.,0.,0.));
#455=DIRECTION('',(0.,0.,-1.));
#456=DIRECTION('',(-1.,0.,0.));
#457=DIRECTION('',(0.,0.,1.));
#458=DIRECTION('',(1.,0.,0.));
#459=DIRECTION('',(0.,0.,1.));
#460=DIRECTION('',(1.,0.,0.));
#461=DIRECTION('',(0.,0.,1.));
#462=DIRECTION('',(1.,0.,0.));
#463=CARTESIAN_POINT('',(0.,0.,0.));
#464=CARTESIAN_POINT('',(0.,0.,0.));
#465=CARTESIAN_POINT('',(7.5,0.,0.));
#466=CARTESIAN_POINT('',(13.4350288425444,-13.4350288425444,0.));
#467=CARTESIAN_POINT('',(11.4904851942814,-15.3795724908074,0.));
#468=CARTESIAN_POINT('',(-13.4350288425444,-13.4350288425444,0.));
#469=CARTESIAN_POINT('',(-15.3795724908074,-11.4904851942814,0.));
#470=CARTESIAN_POINT('',(-9.18861341181465E-015,19.,0.));
#471=CARTESIAN_POINT('',(2.74999999999999,19.,0.));
#472=CARTESIAN_POINT('',(0.,0.,0.));
#473=CARTESIAN_POINT('',(-20.,-13.2664991614216,0.));
#474=CARTESIAN_POINT('',(20.,-13.2664991614216,0.));
#475=CARTESIAN_POINT('',(-20.,0.,0.));
#476=CARTESIAN_POINT('',(-20.,13.2664991614216,0.));
#477=CARTESIAN_POINT('',(0.,0.,0.));
#478=CARTESIAN_POINT('',(20.,13.2664991614216,0.));
#479=CARTESIAN_POINT('',(20.,0.,0.));
#480=CARTESIAN_POINT('',(-13.4350288425444,13.4350288425444,0.));
#481=CARTESIAN_POINT('',(-11.4904851942814,15.3795724908074,0.));
#482=CARTESIAN_POINT('',(13.4350288425444,13.4350288425444,0.));
#483=CARTESIAN_POINT('',(15.3795724908074,11.4904851942813,0.));
#484=CARTESIAN_POINT('',(-2.94902990916057E-014,-19.,0.));
#485=CARTESIAN_POINT('',(-2.75000000000003,-19.,0.));
#486=CARTESIAN_POINT('',(0.,0.,0.));
#487=CARTESIAN_POINT('',(0.,0.,10.));
#488=CARTESIAN_POINT('',(14.,0.,10.));
#489=CARTESIAN_POINT('',(13.4350288425444,-13.4350288425444,10.));
#490=CARTESIAN_POINT('',(16.1850288425444,-13.4350288425444,10.));
#491=CARTESIAN_POINT('',(-2.94902990916057E-014,-19.,10.));
#492=CARTESIAN_POINT('',(2.74999999999997,-19.,10.));
#493=CARTESIAN_POINT('',(-13.4350288425444,-13.4350288425444,10.));
#494=CARTESIAN_POINT('',(-10.6850288425444,-13.4350288425444,10.));
#495=CARTESIAN_POINT('',(13.4350288425444,13.4350288425444,10.));
#496=CARTESIAN_POINT('',(16.1850288425444,13.4350288425444,10.));
#497=CARTESIAN_POINT('',(-9.18861341181465E-015,19.,10.));
#498=CARTESIAN_POINT('',(2.74999999999999,19.,10.));
#499=CARTESIAN_POINT('',(-13.4350288425444,13.4350288425444,10.));
#500=CARTESIAN_POINT('',(-10.6850288425444,13.4350288425444,10.));
#501=CARTESIAN_POINT('',(0.,0.,10.));
#502=CARTESIAN_POINT('',(-20.,13.2664991614216,10.));
#503=CARTESIAN_POINT('',(20.,13.2664991614216,10.));
#504=CARTESIAN_POINT('',(-20.,0.,10.));
#505=CARTESIAN_POINT('',(-20.,-13.2664991614216,10.));
#506=CARTESIAN_POINT('',(0.,0.,10.));
#507=CARTESIAN_POINT('',(20.,-13.2664991614216,10.));
#508=CARTESIAN_POINT('',(20.,0.,10.));
#509=CARTESIAN_POINT('',(0.,0.,10.));
#510=CARTESIAN_POINT('',(-20.,-13.2664991614216,0.));
#511=CARTESIAN_POINT('',(20.,-13.2664991614216,0.));
#512=CARTESIAN_POINT('',(0.,0.,0.));
#513=CARTESIAN_POINT('',(-20.,13.2664991614216,0.));
#514=CARTESIAN_POINT('',(20.,13.2664991614216,0.));
#515=CARTESIAN_POINT('',(0.,0.,0.));
#516=CARTESIAN_POINT('',(20.,0.,0.));
#517=CARTESIAN_POINT('',(-20.,0.,0.));
#518=CARTESIAN_POINT('',(-13.4350288425444,13.4350288425444,0.));
#519=CARTESIAN_POINT('',(-9.18861341181465E-015,19.,0.));
#520=CARTESIAN_POINT('',(13.4350288425444,13.4350288425444,0.));
#521=CARTESIAN_POINT('',(-13.4350288425444,-13.4350288425444,0.));
#522=CARTESIAN_POINT('',(-2.94902990916057E-014,-19.,0.));
#523=CARTESIAN_POINT('',(13.4350288425444,-13.4350288425444,0.));
#524=CARTESIAN_POINT('',(0.,0.,45.));
#525=CARTESIAN_POINT('',(-7.5,0.,45.));
#526=CARTESIAN_POINT('',(0.,0.,45.));
#527=CARTESIAN_POINT('',(-14.,0.,45.));
#528=CARTESIAN_POINT('',(0.,0.,45.));
#529=CARTESIAN_POINT('',(0.,0.,0.));
#530=CARTESIAN_POINT('',(0.,0.,0.));
#531=(
GEOMETRIC_REPRESENTATION_CONTEXT(3)
GLOBAL_UNCERTAINTY_ASSIGNED_CONTEXT((#532))
GLOBAL_UNIT_ASSIGNED_CONTEXT((#538,#534,#533))
REPRESENTATION_CONTEXT('A11F2TA2','TOP_LEVEL_ASSEMBLY_PART')
);
#532=UNCERTAINTY_MEASURE_WITH_UNIT(LENGTH_MEASURE(2.E-005),#538,
'DISTANCE_ACCURACY_VALUE','Maximum Tolerance applied to model');
#533=(
NAMED_UNIT(*)
SI_UNIT($,.STERADIAN.)
SOLID_ANGLE_UNIT()
);
#534=(
CONVERSION_BASED_UNIT('DEGREE',#536)
NAMED_UNIT(#535)
PLANE_ANGLE_UNIT()
);
#535=DIMENSIONAL_EXPONENTS(0.,0.,0.,0.,0.,0.,0.);
#536=PLANE_ANGLE_MEASURE_WITH_UNIT(PLANE_ANGLE_MEASURE(0.0174532925),#537);
#537=(
NAMED_UNIT(*)
PLANE_ANGLE_UNIT()
SI_UNIT($,.RADIAN.)
);
#538=(
LENGTH_UNIT()
NAMED_UNIT(*)
SI_UNIT(.MILLI.,.METRE.)
);
ENDSEC;
END-ISO-10303-21;
