  0
SECTION
  2
HEADER
  9
$ACADVER
  1
AC1015
  9
$ACADMAINTVER
 70
    20
  9
$DWGCODEPAGE
  3
ANSI_950
  9
$INSBASE
 10
0.0
 20
0.0
 30
0.0
  9
$EXTMIN
 10
2044.683616294232
 20
-248.9692298923205
 30
-3.0
  9
$EXTMAX
 10
2602.97268749171
 20
93.84395582043794
 30
3.191352311764715
  9
$LIMMIN
 10
-10.0
 20
-15.0
  9
$LIMMAX
 10
120.0
 20
90.0
  9
$ORTHOMODE
 70
     1
  9
$REGENMODE
 70
     0
  9
$FILLMODE
 70
     1
  9
$QTEXTMODE
 70
     0
  9
$MIRRTEXT
 70
     0
  9
$LTSCALE
 40
3.0
  9
$ATTMODE
 70
     1
  9
$TEXTSIZE
 40
3.0
  9
$TRACEWID
 40
1.0
  9
$TEXTSTYLE
  7
STANDARD
  9
$CLAYER
  8
0
  9
$CELTYPE
  6
ByLayer
  9
$CECOLOR
 62
   256
  9
$CELTSCALE
 40
1.0
  9
$DISPSILH
 70
     0
  9
$DIMSCALE
 40
1.0
  9
$DIMASZ
 40
3.0
  9
$DIMEXO
 40
1.0
  9
$DIMDLI
 40
6.0
  9
$DIMRND
 40
0.0
  9
$DIMDLE
 40
0.0
  9
$DIMEXE
 40
1.0
  9
$DIMTP
 40
0.0
  9
$DIMTM
 40
0.0
  9
$DIMTXT
 40
3.0
  9
$DIMCEN
 40
1.5
  9
$DIMTSZ
 40
0.0
  9
$DIMTOL
 70
     0
  9
$DIMLIM
 70
     0
  9
$DIMTIH
 70
     1
  9
$DIMTOH
 70
     1
  9
$DIMSE1
 70
     0
  9
$DIMSE2
 70
     0
  9
$DIMTAD
 70
     0
  9
$DIMZIN
 70
     0
  9
$DIMBLK
  1

  9
$DIMASO
 70
     1
  9
$DIMSHO
 70
     0
  9
$DIMPOST
  1

  9
$DIMAPOST
  1

  9
$DIMALT
 70
     0
  9
$DIMALTD
 70
     2
  9
$DIMALTF
 40
25.4
  9
$DIMLFAC
 40
1.0
  9
$DIMTOFL
 70
     1
  9
$DIMTVP
 40
0.0
  9
$DIMTIX
 70
     0
  9
$DIMSOXD
 70
     0
  9
$DIMSAH
 70
     0
  9
$DIMBLK1
  1

  9
$DIMBLK2
  1

  9
$DIMSTYLE
  2
Standard
  9
$DIMCLRD
 70
     0
  9
$DIMCLRE
 70
     0
  9
$DIMCLRT
 70
     0
  9
$DIMTFAC
 40
1.0
  9
$DIMGAP
 40
0.09
  9
$DIMJUST
 70
     0
  9
$DIMSD1
 70
     0
  9
$DIMSD2
 70
     0
  9
$DIMTOLJ
 70
     1
  9
$DIMTZIN
 70
     0
  9
$DIMALTZ
 70
     0
  9
$DIMALTTZ
 70
     0
  9
$DIMUPT
 70
     0
  9
$DIMDEC
 70
     4
  9
$DIMTDEC
 70
     8
  9
$DIMALTU
 70
     2
  9
$DIMALTTD
 70
     2
  9
$DIMTXSTY
  7
STANDARD
  9
$DIMAUNIT
 70
     0
  9
$DIMADEC
 70
     0
  9
$DIMALTRND
 40
0.0
  9
$DIMAZIN
 70
     0
  9
$DIMDSEP
 70
    46
  9
$DIMATFIT
 70
     3
  9
$DIMFRAC
 70
     0
  9
$DIMLDRBLK
  1

  9
$DIMLUNIT
 70
     2
  9
$DIMLWD
 70
    -2
  9
$DIMLWE
 70
    -2
  9
$DIMTMOVE
 70
     2
  9
$LUNITS
 70
     2
  9
$LUPREC
 70
     4
  9
$SKETCHINC
 40
0.5
  9
$FILLETRAD
 40
0.0
  9
$AUNITS
 70
     0
  9
$AUPREC
 70
     0
  9
$MENU
  1
ACAD
  9
$ELEVATION
 40
0.0
  9
$PELEVATION
 40
0.0
  9
$THICKNESS
 40
0.0
  9
$LIMCHECK
 70
     0
  9
$CHAMFERA
 40
0.0
  9
$CHAMFERB
 40
0.0
  9
$CHAMFERC
 40
0.0
  9
$CHAMFERD
 40
0.0
  9
$SKPOLY
 70
     0
  9
$TDCREATE
 40
2444975.333333334
  9
$TDUCREATE
 40
2444975.000000000
  9
$TDUPDATE
 40
2454042.479201829
  9
$TDUUPDATE
 40
2454042.145868496
  9
$TDINDWG
 40
0.3144613657
  9
$TDUSRTIMER
 40
0.0000000000
  9
$USRTIMER
 70
     0
  9
$ANGBASE
 50
0.0
  9
$ANGDIR
 70
     0
  9
$PDMODE
 70
     0
  9
$PDSIZE
 40
0.001
  9
$PLINEWID
 40
0.0
  9
$SPLFRAME
 70
     0
  9
$SPLINETYPE
 70
     6
  9
$SPLINESEGS
 70
  8000
  9
$HANDSEED
  5
EAD4
  9
$SURFTAB1
 70
     6
  9
$SURFTAB2
 70
     6
  9
$SURFTYPE
 70
     6
  9
$SURFU
 70
     6
  9
$SURFV
 70
     6
  9
$UCSBASE
  2

  9
$UCSNAME
  2

  9
$UCSORG
 10
0.0
 20
0.0
 30
0.0
  9
$UCSXDIR
 10
1.0
 20
0.0
 30
0.0
  9
$UCSYDIR
 10
0.0
 20
1.0
 30
0.0
  9
$UCSORTHOREF
  2

  9
$UCSORTHOVIEW
 70
     0
  9
$UCSORGTOP
 10
0.0
 20
0.0
 30
0.0
  9
$UCSORGBOTTOM
 10
0.0
 20
0.0
 30
0.0
  9
$UCSORGLEFT
 10
0.0
 20
0.0
 30
0.0
  9
$UCSORGRIGHT
 10
0.0
 20
0.0
 30
0.0
  9
$UCSORGFRONT
 10
0.0
 20
0.0
 30
0.0
  9
$UCSORGBACK
 10
0.0
 20
0.0
 30
0.0
  9
$PUCSBASE
  2

  9
$PUCSNAME
  2

  9
$PUCSORG
 10
0.0
 20
0.0
 30
0.0
  9
$PUCSXDIR
 10
1.0
 20
0.0
 30
0.0
  9
$PUCSYDIR
 10
0.0
 20
1.0
 30
0.0
  9
$PUCSORTHOREF
  2

  9
$PUCSORTHOVIEW
 70
     0
  9
$PUCSORGTOP
 10
0.0
 20
0.0
 30
0.0
  9
$PUCSORGBOTTOM
 10
0.0
 20
0.0
 30
0.0
  9
$PUCSORGLEFT
 10
0.0
 20
0.0
 30
0.0
  9
$PUCSORGRIGHT
 10
0.0
 20
0.0
 30
0.0
  9
$PUCSORGFRONT
 10
0.0
 20
0.0
 30
0.0
  9
$PUCSORGBACK
 10
0.0
 20
0.0
 30
0.0
  9
$USERI1
 70
     0
  9
$USERI2
 70
     0
  9
$USERI3
 70
     0
  9
$USERI4
 70
     0
  9
$USERI5
 70
     0
  9
$USERR1
 40
0.0
  9
$USERR2
 40
0.0
  9
$USERR3
 40
0.0
  9
$USERR4
 40
0.0
  9
$USERR5
 40
0.0
  9
$WORLDVIEW
 70
     1
  9
$SHADEDGE
 70
     3
  9
$SHADEDIF
 70
    70
  9
$TILEMODE
 70
     1
  9
$MAXACTVP
 70
    48
  9
$PINSBASE
 10
0.0
 20
0.0
 30
0.0
  9
$PLIMCHECK
 70
     0
  9
$PEXTMIN
 10
1.000000000000000E+20
 20
1.000000000000000E+20
 30
1.000000000000000E+20
  9
$PEXTMAX
 10
-1.000000000000000E+20
 20
-1.000000000000000E+20
 30
-1.000000000000000E+20
  9
$PLIMMIN
 10
0.0
 20
0.0
  9
$PLIMMAX
 10
12.0
 20
9.0
  9
$UNITMODE
 70
     0
  9
$VISRETAIN
 70
     1
  9
$PLINEGEN
 70
     0
  9
$PSLTSCALE
 70
     0
  9
$TREEDEPTH
 70
  3020
  9
$CMLSTYLE
  2
Standard
  9
$CMLJUST
 70
     0
  9
$CMLSCALE
 40
1.0
  9
$PROXYGRAPHICS
 70
     1
  9
$MEASUREMENT
 70
     0
  9
$CELWEIGHT
370
    -1
  9
$ENDCAPS
280
     0
  9
$JOINSTYLE
280
     0
  9
$LWDISPLAY
290
     0
  9
$INSUNITS
 70
     0
  9
$HYPERLINKBASE
  1

  9
$STYLESHEET
  1

  9
$XEDIT
290
     1
  9
$CEPSNTYPE
380
     0
  9
$PSTYLEMODE
290
     1
  9
$FINGERPRINTGUID
  2
{77095E5F-9CE7-11D7-970D-0040F4541FA8}
  9
$VERSIONGUID
  2
{41743FA8-1482-4429-AF3F-47794A2174AA}
  9
$EXTNAMES
290
     1
  9
$PSVPSCALE
 40
0.0
  9
$OLESTARTUP
290
     0
  0
ENDSEC
  0
SECTION
  2
CLASSES
  0
CLASS
  1
ACDBDICTIONARYWDFLT
  2
AcDbDictionaryWithDefault
  3
ObjectDBX Classes
 90
        0
280
     0
281
     0
  0
CLASS
  1
ACDBPLACEHOLDER
  2
AcDbPlaceHolder
  3
ObjectDBX Classes
 90
        0
280
     0
281
     0
  0
CLASS
  1
LAYOUT
  2
AcDbLayout
  3
ObjectDBX Classes
 90
        0
280
     0
281
     0
  0
CLASS
  1
LONG_TRANSACTION
  2
AcDbLongTransaction
  3
ObjectDBX Classes
 90
    32768
280
     0
281
     0
  0
CLASS
  1
LWPOLYLINE
  2
AcDbPolyline
  3
ObjectDBX Classes
 90
        0
280
     0
281
     1
  0
CLASS
  1
HATCH
  2
AcDbHatch
  3
ObjectDBX Classes
 90
    32768
280
     0
281
     1
  0
CLASS
  1
XRECORD
  2
AcDbXrecord
  3
ObjectDBX Classes
 90
        0
280
     0
281
     0
  0
CLASS
  1
LONG_TRANSACTION
  2
AcDbLongTransaction
  3
ObjectDBX Classes
 90
    32768
280
     0
281
     0
  0
CLASS
  1
LWPOLYLINE
  2
AcDbPolyline
  3
ObjectDBX Classes
 90
        0
280
     0
281
     1
  0
CLASS
  1
HATCH
  2
AcDbHatch
  3
ObjectDBX Classes
 90
    32768
280
     0
281
     1
  0
CLASS
  1
XRECORD
  2
AcDbXrecord
  3
ObjectDBX Classes
 90
        0
280
     0
281
     0
  0
CLASS
  1
DICTIONARYVAR
  2
AcDbDictionaryVar
  3
ObjectDBX Classes
 90
        0
280
     0
281
     0
  0
CLASS
  1
PLOTSETTINGS
  2
AcDbPlotSettings
  3
ObjectDBX Classes
 90
        0
280
     0
281
     0
  0
CLASS
  1
SORTENTSTABLE
  2
AcDbSortentsTable
  3
ObjectDBX Classes
 90
        0
280
     0
281
     0
  0
CLASS
  1
TABLESTYLE
  2
AcDbTableStyle
  3
ObjectDBX Classes
 90
     2047
280
     0
281
     0
  0
ENDSEC
  0
SECTION
  2
TABLES
  0
TABLE
  2
VPORT
  5
8
330
0
100
AcDbSymbolTable
 70
     4
  0
VPORT
  5
EACA
330
8
100
AcDbSymbolTableRecord
100
AcDbViewportTableRecord
  2
*Active
 70
     0
 10
0.0
 20
0.0
 11
1.0
 21
1.0
 12
2329.890166435333
 22
-73.02420039458232
 13
457.9999999999997
 23
1082.0
 14
10.0
 24
10.0
 15
10.0
 25
10.0
 16
0.0
 26
0.0
 36
1.0
 17
0.0
 27
0.0
 37
0.0
 40
379.0228278489037
 41
1.530456852791878
 42
1.0
 43
0.0
 44
0.0
 50
0.0
 51
0.0
 71
     0
 72
  2000
 73
     1
 74
     1
 75
     0
 76
     0
 77
     0
 78
     0
281
     0
 65
     1
110
0.0
120
0.0
130
0.0
111
1.0
121
0.0
131
0.0
112
0.0
122
1.0
132
0.0
 79
     0
146
0.0
  0
ENDTAB
  0
TABLE
  2
LTYPE
  5
5
330
0
100
AcDbSymbolTable
 70
     6
  0
LTYPE
  5
13
330
5
100
AcDbSymbolTableRecord
100
AcDbLinetypeTableRecord
  2
ByBlock
 70
     0
  3

 72
    65
 73
     0
 40
0.0
  0
LTYPE
  5
14
330
5
100
AcDbSymbolTableRecord
100
AcDbLinetypeTableRecord
  2
ByLayer
 70
     0
  3

 72
    65
 73
     0
 40
0.0
  0
LTYPE
  5
15
330
5
100
AcDbSymbolTableRecord
100
AcDbLinetypeTableRecord
  2
CONTINUOUS
 70
     0
  3
連續線 ________________________
 72
    65
 73
     0
 40
0.0
  0
LTYPE
  5
225
330
5
100
AcDbSymbolTableRecord
100
AcDbLinetypeTableRecord
  2
BYBLOCK
 70
     0
  3
Solid line
 72
    65
 73
     0
 40
0.0
  0
LTYPE
  5
226
330
5
100
AcDbSymbolTableRecord
100
AcDbLinetypeTableRecord
  2
BYLAYER
 70
     0
  3
Solid line
 72
    65
 73
     0
 40
0.0
  0
LTYPE
  5
413C
330
5
100
AcDbSymbolTableRecord
100
AcDbLinetypeTableRecord
  2
CENTER2
 70
     0
  3
Center (.5x) ___ _ ___ _ ___ _ ___ _ ___ _ ___
 72
    65
 73
     4
 40
28.575
 49
19.05
 74
     0
 49
-3.174999999999999
 74
     0
 49
3.174999999999999
 74
     0
 49
-3.174999999999999
 74
     0
  0
LTYPE
  5
413D
330
5
100
AcDbSymbolTableRecord
100
AcDbLinetypeTableRecord
  2
DASHED2
 70
     0
  3
Dashed (.5x) _ _ _ _ _ _ _ _ _ _ _ _ _ _ _ _ _
 72
    65
 73
     2
 40
9.524999999999998
 49
6.349999999999999
 74
     0
 49
-3.174999999999999
 74
     0
  0
LTYPE
  5
69DC
330
5
100
AcDbSymbolTableRecord
100
AcDbLinetypeTableRecord
  2
DASHED
 70
     0
  3
__ __ __ __ __ __ __ __ __ __ __ __ __ __ __
 72
    65
 73
     2
 40
4.0
 49
3.0
 74
     0
 49
-1.0
 74
     0
  0
ENDTAB
  0
TABLE
  2
LAYER
  5
2
102
{ACAD_XDICTIONARY
360
43C2
102
}
330
0
100
AcDbSymbolTable
 70
     7
  0
LAYER
  5
10
330
2
100
AcDbSymbolTableRecord
100
AcDbLayerTableRecord
  2
0
 70
     0
 62
     7
  6
CONTINUOUS
370
    -3
390
F
  0
LAYER
  5
413E
330
2
100
AcDbSymbolTableRecord
100
AcDbLayerTableRecord
  2
指線
 70
     0
 62
     3
  6
CONTINUOUS
370
    15
390
F
  0
LAYER
  5
413F
330
2
100
AcDbSymbolTableRecord
100
AcDbLayerTableRecord
  2
中心線
 70
     0
 62
     4
  6
CENTER2
370
    20
390
F
  0
LAYER
  5
4140
330
2
100
AcDbSymbolTableRecord
100
AcDbLayerTableRecord
  2
虛線
 70
     0
 62
     6
  6
DASHED2
290
     0
370
    -3
390
F
  0
LAYER
  5
43B4
330
2
100
AcDbSymbolTableRecord
100
AcDbLayerTableRecord
  2
建構線
 70
     0
 62
     1
  6
CONTINUOUS
370
    -3
390
F
  0
LAYER
  5
69DF
330
2
100
AcDbSymbolTableRecord
100
AcDbLayerTableRecord
  2
標註線
 70
     0
 62
     3
  6
CONTINUOUS
370
    13
390
F
  0
LAYER
  5
C701
330
2
100
AcDbSymbolTableRecord
100
AcDbLayerTableRecord
  2
Defpoints
 70
     0
 62
     7
  6
CONTINUOUS
290
     0
370
    -3
390
F
  0
ENDTAB
  0
TABLE
  2
STYLE
  5
3
330
0
100
AcDbSymbolTable
 70
     1
  0
STYLE
  5
11
330
3
100
AcDbSymbolTableRecord
100
AcDbTextStyleTableRecord
  2
STANDARD
 70
     0
 40
0.0
 41
1.0
 50
0.0
 71
     0
 42
3.0
  3

  4

  0
ENDTAB
  0
TABLE
  2
VIEW
  5
6
330
0
100
AcDbSymbolTable
 70
     0
  0
ENDTAB
  0
TABLE
  2
UCS
  5
7
330
0
100
AcDbSymbolTable
 70
     0
  0
ENDTAB
  0
TABLE
  2
APPID
  5
9
330
0
100
AcDbSymbolTable
 70
     4
  0
APPID
  5
12
330
9
100
AcDbSymbolTableRecord
100
AcDbRegAppTableRecord
  2
ACAD
 70
     0
  0
APPID
  5
230
330
9
100
AcDbSymbolTableRecord
100
AcDbRegAppTableRecord
  2
TCAD
 70
     0
  0
APPID
  5
4142
330
9
100
AcDbSymbolTableRecord
100
AcDbRegAppTableRecord
  2
CONTENTBLOCKICON
 70
     0
  0
APPID
  5
5D91
330
9
100
AcDbSymbolTableRecord
100
AcDbRegAppTableRecord
  2
pntflag
 70
     0
  0
ENDTAB
  0
TABLE
  2
DIMSTYLE
  5
A
330
0
100
AcDbSymbolTable
 70
     1
100
AcDbDimStyleTable
 71
     1
340
3C9D
  0
DIMSTYLE
105
3C9D
330
A
100
AcDbSymbolTableRecord
100
AcDbDimStyleTableRecord
  2
Standard
 70
     0
340
11
  0
ENDTAB
  0
TABLE
  2
BLOCK_RECORD
  5
1
330
0
100
AcDbSymbolTable
 70
     2
  0
BLOCK_RECORD
  5
1E
102
{ACAD_XDICTIONARY
360
3D1E
102
}
330
1
100
AcDbSymbolTableRecord
100
AcDbBlockTableRecord
  2
*Model_Space
340
21
  0
BLOCK_RECORD
  5
1A
102
{ACAD_XDICTIONARY
360
3D20
102
}
330
1
100
AcDbSymbolTableRecord
100
AcDbBlockTableRecord
  2
*Paper_Space
340
1D
  0
BLOCK_RECORD
  5
69B7
102
{ACAD_XDICTIONARY
360
69B8
102
}
330
1
100
AcDbSymbolTableRecord
100
AcDbBlockTableRecord
  2
A$C51E2538E
340
0
  0
BLOCK_RECORD
  5
69CB
102
{ACAD_XDICTIONARY
360
69CC
102
}
330
1
100
AcDbSymbolTableRecord
100
AcDbBlockTableRecord
  2
A$C3310154B
340
0
  0
ENDTAB
  0
ENDSEC
  0
SECTION
  2
BLOCKS
  0
BLOCK
  5
254
330
1E
100
AcDbEntity
  8
0
100
AcDbBlockBegin
  2
*Model_Space
 70
     0
 10
0.0
 20
0.0
 30
0.0
  3
*Model_Space
  1

  0
ENDBLK
  5
255
330
1E
100
AcDbEntity
  8
0
100
AcDbBlockEnd
  0
BLOCK
  5
252
330
1A
100
AcDbEntity
 67
     1
  8
0
100
AcDbBlockBegin
  2
*Paper_Space
 70
     0
 10
0.0
 20
0.0
 30
0.0
  3
*Paper_Space
  1

  0
ENDBLK
  5
253
330
1A
100
AcDbEntity
 67
     1
  8
0
100
AcDbBlockEnd
  0
BLOCK
  5
69BA
330
69B7
100
AcDbEntity
  8
0
 62
     1
 48
0.27
100
AcDbBlockBegin
  2
A$C51E2538E
 70
     0
 10
0.0
 20
0.0
 30
0.0
  3
A$C51E2538E
  1

  0
LINE
  5
69BB
330
69B7
100
AcDbEntity
  8
虛線
 48
0.25
100
AcDbLine
 10
9.230939415452212
 20
1.99838789798423
 30
0.0
 11
2.230939415459943
 21
1.998387897983548
 31
0.0
  0
LINE
  5
69BC
330
69B7
100
AcDbEntity
  8
虛線
 48
0.25
100
AcDbLine
 10
9.230939415453576
 20
15.79841841556197
 30
0.0
 11
9.230939415452212
 21
1.99838789798423
 31
0.0
  0
LINE
  5
69BD
330
69B7
100
AcDbEntity
  8
虛線
 48
0.25
100
AcDbLine
 10
0.2309394154581241
 20
24.698418415562
 30
0.0
 11
0.2309394154590336
 21
16.09842604495623
 31
0.0
  0
LINE
  5
69BE
330
69B7
100
AcDbEntity
  8
虛線
 48
0.25
100
AcDbLine
 10
2.230939415453576
 20
15.79841841556191
 30
0.0
 11
2.230939415459943
 21
1.998387897983576
 31
0.0
  0
LINE
  5
69BF
330
69B7
100
AcDbEntity
  8
虛線
 48
0.25
100
AcDbLine
 10
0.2309394154590336
 20
16.09835738040544
 30
0.0
 11
11.23093941545221
 21
16.09835738040573
 31
0.0
  0
LINE
  5
69C0
330
69B7
100
AcDbEntity
  8
中心線
 48
0.25
100
AcDbLine
 10
5.730939415455679
 20
27.09841841556201
 30
0.0
 11
5.730939415449938
 21
0.0
 31
0.0
  0
LINE
  5
69C1
330
69B7
100
AcDbEntity
  8
虛線
 48
0.25
100
AcDbLine
 10
2.230939415459943
 20
1.998387897983548
 30
0.0
 11
1.730939415460852
 21
1.498387897984002
 31
0.0
  0
LINE
  5
69C2
330
69B7
100
AcDbEntity
  8
虛線
 48
0.25
100
AcDbLine
 10
9.230939415452212
 20
1.99838789798423
 30
0.0
 11
9.730939415451302
 21
1.498387897984287
 31
0.0
  0
LINE
  5
69C3
330
69B7
100
AcDbEntity
  8
虛線
 48
0.25
100
AcDbLine
 10
11.23093941545358
 20
24.698418415562
 30
0.0
 11
11.23093941545221
 21
16.09835738040573
 31
0.0
  0
LINE
  5
69C4
330
69B7
100
AcDbEntity
  8
虛線
 48
0.25
100
AcDbLine
 10
0.2309394154535767
 20
24.698418415562
 30
0.0
 11
11.23093941545358
 21
24.698418415562
 31
0.0
  0
LINE
  5
69C5
330
69B7
100
AcDbEntity
  8
虛線
 48
0.25
100
AcDbLine
 10
2.230939415453576
 20
15.79841841556197
 30
0.0
 11
9.230939415453576
 21
15.79841841556197
 31
0.0
  0
LINE
  5
69C6
330
69B7
100
AcDbEntity
  8
虛線
 48
0.25
100
AcDbLine
 10
1.930939415453394
 20
16.09841841556192
 30
0.0
 11
2.230939415453576
 21
15.79841841556191
 31
0.0
  0
LINE
  5
69C7
330
69B7
100
AcDbEntity
  8
虛線
 48
0.25
100
AcDbLine
 10
0.2309394154535767
 20
24.698418415562
 30
0.0
 11
-0.0000006922223292
 21
25.09841841556204
 31
0.0
  0
LINE
  5
69C8
330
69B7
100
AcDbEntity
  8
虛線
 48
0.25
100
AcDbLine
 10
9.230939415453576
 20
15.79841841556197
 30
0.0
 11
9.530939415453758
 21
16.09841841556198
 31
0.0
  0
LINE
  5
69C9
330
69B7
100
AcDbEntity
  8
虛線
 48
0.25
100
AcDbLine
 10
11.23093941545358
 20
24.698418415562
 30
0.0
 11
11.46187952312948
 21
25.09841841556204
 31
0.0
  0
ENDBLK
  5
69CA
330
69B7
100
AcDbEntity
  8
0
 62
     1
 48
0.27
100
AcDbBlockEnd
  0
BLOCK
  5
69CE
330
69CB
100
AcDbEntity
  8
0
 62
     1
 48
0.27
100
AcDbBlockBegin
  2
A$C3310154B
 70
     0
 10
0.0
 20
0.0
 30
0.0
  3
A$C3310154B
  1

  0
LINE
  5
69CF
330
69CB
100
AcDbEntity
  8
虛線
 48
0.2
100
AcDbLine
 10
0.4999707651827521
 20
12.80115016654724
 30
0.0
 11
0.4999707651836616
 21
5.30113016654775
 31
0.0
  0
LINE
  5
69D0
330
69CB
100
AcDbEntity
  8
虛線
 48
0.2
100
AcDbLine
 10
6.499970765181842
 20
12.80111016654831
 30
0.0
 11
6.499970765183661
 21
5.301130166548432
 31
0.0
  0
LINE
  5
69D1
330
69CB
100
AcDbEntity
  8
虛線
 48
0.2
100
AcDbLine
 10
6.499970765183661
 20
5.301130166548432
 30
0.0
 11
0.4999707651836616
 21
5.30113016654775
 31
0.0
  0
LINE
  5
69D2
330
69CB
100
AcDbEntity
  8
中心線
 48
0.25
100
AcDbLine
 10
3.49999076518344
 20
15.30112016654811
 30
0.0
 11
3.499990765177699
 21
0.000000166540076
 31
0.0
  0
LINE
  5
69D3
330
69CB
100
AcDbEntity
  8
虛線
 48
0.2
100
AcDbLine
 10
5.999980765182044
 20
12.30112016654846
 30
0.0
 11
5.999980765187501
 21
2.30113016655747
 31
0.0
  0
LINE
  5
69D4
330
69CB
100
AcDbEntity
  8
虛線
 48
0.2
100
AcDbLine
 10
1.000000765181994
 20
12.30112016654812
 30
0.0
 11
1.000000765187905
 21
2.301130166554685
 31
0.0
  0
LINE
  5
69D5
330
69CB
100
AcDbEntity
  8
虛線
 48
0.2
100
AcDbLine
 10
5.999980765187501
 20
2.30113016655747
 30
0.0
 11
1.000000765187905
 21
2.301130166554685
 31
0.0
  0
LINE
  5
69D6
330
69CB
100
AcDbEntity
  8
虛線
 48
0.2
100
AcDbLine
 10
5.999980765182499
 20
12.3011201665484
 30
0.0
 11
1.000000765181994
 21
12.30112016654817
 31
0.0
  0
LINE
  5
69D7
330
69CB
100
AcDbEntity
  8
虛線
 48
0.2
100
AcDbLine
 10
5.999980765182044
 20
12.3011201665484
 30
0.0
 11
6.999980765182499
 21
13.30112016654863
 31
0.0
  0
LINE
  5
69D8
330
69CB
100
AcDbEntity
  8
虛線
 48
0.2
100
AcDbLine
 10
5.999980765187956
 20
2.301130166557413
 30
0.0
 11
3.499990765183611
 21
0.801130166544965
 31
0.0
  0
LINE
  5
69D9
330
69CB
100
AcDbEntity
  8
虛線
 48
0.2
100
AcDbLine
 10
1.000000765187905
 20
2.30113016657259
 30
0.0
 11
3.499990765178154
 21
0.801130166544965
 31
0.0
  0
LINE
  5
69DA
330
69CB
100
AcDbEntity
  8
虛線
 48
0.2
100
AcDbLine
 10
1.00000076518495
 20
12.30112016654834
 30
0.0
 11
0.0000007651844385
 21
13.30112016654854
 31
0.0
  0
ENDBLK
  5
69DB
330
69CB
100
AcDbEntity
  8
0
 62
     1
 48
0.27
100
AcDbBlockEnd
  0
ENDSEC
  0
SECTION
  2
ENTITIES
  0
LINE
  5
A2A9
330
1E
100
AcDbEntity
  8
0
  6
Continuous
 62
     7
100
AcDbLine
 10
2535.372687721932
 20
31.34395582043794
 30
0.0
 11
2509.872687721932
 21
31.34395582043794
 31
0.0
  0
LINE
  5
A2AA
330
1E
100
AcDbEntity
  8
0
  6
Continuous
 62
     7
100
AcDbLine
 10
2535.372687721932
 20
30.54396182103801
 30
0.0
 11
2509.872687721932
 21
30.54396182103801
 31
0.0
  0
LINE
  5
A2AB
330
1E
100
AcDbEntity
  8
0
  6
Continuous
 62
     7
100
AcDbLine
 10
2535.372687721932
 20
6.34395582043794
 30
0.0
 11
2509.872687721932
 21
6.34395582043794
 31
0.0
  0
LINE
  5
A2AC
330
1E
100
AcDbEntity
  8
0
  6
Continuous
 62
     7
100
AcDbLine
 10
2535.372687721932
 20
7.143949819837871
 30
0.0
 11
2509.872687721932
 21
7.143949819837871
 31
0.0
  0
LINE
  5
A2AD
330
1E
100
AcDbEntity
  8
0
  6
Continuous
 62
     7
100
AcDbLine
 10
2310.57268749171
 20
6.34395582043794
 30
0.0
 11
2336.072687491709
 21
6.34395582043794
 31
0.0
  0
LINE
  5
A2AE
330
1E
100
AcDbEntity
  8
0
  6
Continuous
 62
     7
100
AcDbLine
 10
2310.57268749171
 20
7.143949819837871
 30
0.0
 11
2336.072687491709
 21
7.143949819837871
 31
0.0
  0
LINE
  5
A2AF
330
1E
100
AcDbEntity
  8
0
  6
Continuous
 62
     7
100
AcDbLine
 10
2310.57268749171
 20
31.34395582043794
 30
0.0
 11
2336.072687491709
 21
31.34395582043794
 31
0.0
  0
LINE
  5
A2B0
330
1E
100
AcDbEntity
  8
0
  6
Continuous
 62
     7
100
AcDbLine
 10
2310.57268749171
 20
30.54396182103801
 30
0.0
 11
2336.072687491709
 21
30.54396182103801
 31
0.0
  0
SPLINE
  5
A2BD
330
1E
100
AcDbEntity
  8
0
  6
Continuous
 62
     7
100
AcDbSpline
210
0.0
220
0.0
230
1.0
 70
     8
 71
     3
 72
    12
 73
     8
 74
     6
 42
0.0000000001
 43
0.0000000001
 44
0.0000000001
 12
-0.7999999999948161
 22
0.6000000000069118
 32
0.0
 13
0.0
 23
1.0
 33
0.0
 40
0.0
 40
0.0
 40
0.0
 40
0.0
 40
1.745865131712247
 40
3.498709764560721
 40
5.301847718932004
 40
7.19259090075614
 40
9.259571258556928
 40
9.259571258556928
 40
9.259571258556928
 40
9.259571258556928
 10
2369.47268749171
 20
-178.726565106562
 30
0.0
 10
2369.00712345659
 20
-178.3773920802155
 30
0.0
 10
2368.133049730669
 20
-177.594673268494
 30
0.0
 10
2367.038360063288
 20
-176.196274858658
 30
0.0
 10
2366.184031074079
 20
-174.5828301552123
 30
0.0
 10
2365.609998447269
 20
-172.7390437228838
 30
0.0
 10
2365.47268749171
 20
-171.4155585591623
 30
0.0
 10
2365.47268749171
 20
-170.726565106562
 30
0.0
 11
2369.47268749171
 21
-178.726565106562
 31
0.0
 11
2368.17256320491
 21
-177.5613518655621
 31
0.0
 11
2367.09161850211
 21
-176.181488518562
 31
0.0
 11
2366.248126128509
 21
-174.587805018562
 31
0.0
 11
2365.68622620271
 21
-172.782485586162
 31
0.0
 11
2365.47268749171
 21
-170.726565106562
 31
0.0
  0
SPLINE
  5
A2BE
330
1E
100
AcDbEntity
  8
0
  6
Continuous
 62
     7
100
AcDbSpline
210
0.0
220
0.0
230
1.0
 70
     8
 71
     3
 72
    12
 73
     8
 74
     6
 42
0.0000000001
 43
0.0000000001
 44
0.0000000001
 12
-0.7999999999948161
 22
0.6000000000069118
 32
0.0
 13
0.0
 23
1.0
 33
0.0
 40
0.0
 40
0.0
 40
0.0
 40
0.0
 40
1.745865131712247
 40
3.498709764560721
 40
5.301847718932004
 40
7.19259090075614
 40
9.259571258556928
 40
9.259571258556928
 40
9.259571258556928
 40
9.259571258556928
 10
2464.47268749171
 20
-178.726565106562
 30
0.0
 10
2464.007123456589
 20
-178.3773920802155
 30
0.0
 10
2463.133049730669
 20
-177.594673268494
 30
0.0
 10
2462.038360063287
 20
-176.196274858658
 30
0.0
 10
2461.18403107408
 20
-174.5828301552123
 30
0.0
 10
2460.60999844727
 20
-172.7390437228838
 30
0.0
 10
2460.47268749171
 20
-171.4155585591623
 30
0.0
 10
2460.47268749171
 20
-170.726565106562
 30
0.0
 11
2464.47268749171
 21
-178.726565106562
 31
0.0
 11
2463.17256320491
 21
-177.5613518655621
 31
0.0
 11
2462.09161850211
 21
-176.181488518562
 31
0.0
 11
2461.24812612851
 21
-174.587805018562
 31
0.0
 11
2460.68622620271
 21
-172.782485586162
 31
0.0
 11
2460.47268749171
 21
-170.726565106562
 31
0.0
  0
SPLINE
  5
A2BF
330
1E
100
AcDbEntity
  8
0
  6
Continuous
 62
     7
100
AcDbSpline
210
0.0
220
0.0
230
1.0
 70
     8
 71
     3
 72
    12
 73
     8
 74
     6
 42
0.0000000001
 43
0.0000000001
 44
0.0000000001
 12
0.0
 22
-1.0
 32
0.0
 13
-0.800000000002592
 23
-0.5999999999965442
 33
0.0
 40
0.0
 40
0.0
 40
0.0
 40
0.0
 40
2.066787368664448
 40
3.957432583913705
 40
5.760554762481502
 40
7.513486316672069
 40
9.259571620799841
 40
9.259571620799841
 40
9.259571620799841
 40
9.259571620799841
 10
2385.47268749171
 20
-170.726565106562
 30
0.0
 10
2385.47268749171
 20
-171.4154942294501
 30
0.0
 10
2385.335399652413
 20
-172.7388812180851
 30
0.0
 10
2384.761442982179
 20
-174.5825825104634
 30
0.0
 10
2383.907166597809
 20
-176.1960446970606
 30
0.0
 10
2382.812453396291
 20
-177.5945495617669
 30
0.0
 10
2381.938310239479
 20
-178.3773480457385
 30
0.0
 10
2381.47268749171
 20
-178.726565106562
 30
0.0
 11
2385.47268749171
 21
-170.726565106562
 31
0.0
 11
2385.25918866531
 21
-172.782295701362
 31
0.0
 11
2384.69736181311
 21
-174.5875352749621
 31
0.0
 11
2383.85392460451
 21
-176.181230122162
 31
0.0
 11
2382.772962812909
 21
-177.5611904979621
 31
0.0
 11
2381.47268749171
 21
-178.726565106562
 31
0.0
  0
SPLINE
  5
A2C0
330
1E
100
AcDbEntity
  8
0
  6
Continuous
 62
     7
100
AcDbSpline
210
0.0
220
0.0
230
1.0
 70
     8
 71
     3
 72
    12
 73
     8
 74
     6
 42
0.0000000001
 43
0.0000000001
 44
0.0000000001
 12
0.0
 22
-1.0
 32
0.0
 13
-0.800000000002592
 23
-0.5999999999965442
 33
0.0
 40
0.0
 40
0.0
 40
0.0
 40
0.0
 40
2.066787368685117
 40
3.957432583874915
 40
5.760554762442712
 40
7.513486316756385
 40
9.259571620735492
 40
9.259571620735492
 40
9.259571620735492
 40
9.259571620735492
 10
2480.47268749171
 20
-170.726565106562
 30
0.0
 10
2480.47268749171
 20
-171.415494229457
 30
0.0
 10
2480.335399652061
 20
-172.7388812180301
 30
0.0
 10
2479.76144298224
 20
-174.5825825104896
 30
0.0
 10
2478.907166597826
 20
-176.1960446971396
 30
0.0
 10
2477.812453396069
 20
-177.5945495616176
 30
0.0
 10
2476.938310239439
 20
-178.3773480457682
 30
0.0
 10
2476.47268749171
 20
-178.726565106562
 30
0.0
 11
2480.47268749171
 21
-170.726565106562
 31
0.0
 11
2480.25918866511
 21
-172.782295701362
 31
0.0
 11
2479.69736181311
 21
-174.5875352749621
 31
0.0
 11
2478.853924604509
 21
-176.181230122162
 31
0.0
 11
2477.77296281271
 21
-177.5611904979621
 31
0.0
 11
2476.47268749171
 21
-178.726565106562
 31
0.0
  0
CIRCLE
  5
A2C5
330
1E
100
AcDbEntity
  8
0
  6
Continuous
 62
     7
100
AcDbCircle
 10
2522.37268749171
 20
18.84395582043794
 30
0.0
 40
5.15
  0
CIRCLE
  5
A2C6
330
1E
100
AcDbEntity
  8
0
  6
Continuous
 62
     7
100
AcDbCircle
 10
2522.37268749171
 20
18.84395582043794
 30
0.0
 40
0.75
  0
CIRCLE
  5
A2C7
330
1E
100
AcDbEntity
  8
0
  6
Continuous
 62
     7
100
AcDbCircle
 10
2323.57268749171
 20
18.84395582043794
 30
0.0
 40
5.15
  0
CIRCLE
  5
A2C8
330
1E
100
AcDbEntity
  8
0
  6
Continuous
 62
     7
100
AcDbCircle
 10
2323.57268749171
 20
18.84395582043794
 30
0.0
 40
0.75
  0
CIRCLE
  5
A2C9
330
1E
100
AcDbEntity
  8
0
  6
Continuous
 62
     7
100
AcDbCircle
 10
2522.37268749171
 20
-136.226565106562
 30
0.0
 40
4.767386812599999
  0
CIRCLE
  5
A2CA
330
1E
100
AcDbEntity
  8
0
  6
Continuous
 62
     7
100
AcDbCircle
 10
2522.37268749171
 20
-136.226565106562
 30
0.0
 40
4.2499867444
  0
CIRCLE
  5
A2CB
330
1E
100
AcDbEntity
  8
0
  6
Continuous
 62
     7
100
AcDbCircle
 10
2522.37268749171
 20
-136.226565106562
 30
0.0
 40
3.918292304999999
  0
CIRCLE
  5
A2CC
330
1E
100
AcDbEntity
  8
0
  6
Continuous
 62
     7
100
AcDbCircle
 10
2522.37268749171
 20
-136.226565106562
 30
0.0
 40
0.75
  0
CIRCLE
  5
A2CD
330
1E
100
AcDbEntity
  8
0
  6
Continuous
 62
     7
100
AcDbCircle
 10
2323.57268749171
 20
-136.226565106562
 30
0.0
 40
4.2499867446
  0
CIRCLE
  5
A2CE
330
1E
100
AcDbEntity
  8
0
  6
Continuous
 62
     7
100
AcDbCircle
 10
2323.57268749171
 20
-136.226565106562
 30
0.0
 40
3.918292304999999
  0
CIRCLE
  5
A2CF
330
1E
100
AcDbEntity
  8
0
  6
Continuous
 62
     7
100
AcDbCircle
 10
2323.57268749171
 20
-136.226565106562
 30
0.0
 40
4.767386812599999
  0
CIRCLE
  5
A2D0
330
1E
100
AcDbEntity
  8
0
  6
Continuous
 62
     7
100
AcDbCircle
 10
2323.57268749171
 20
-136.226565106562
 30
0.0
 40
0.75
  0
LINE
  5
A303
330
1E
100
AcDbEntity
  8
0
  6
Continuous
 62
     7
100
AcDbLine
 10
2538.97268749171
 20
-30.05606325316194
 30
0.0
 11
2538.97268749171
 21
67.74397489383796
 31
0.0
  0
LINE
  5
A304
330
1E
100
AcDbEntity
  8
0
  6
Continuous
 62
     7
100
AcDbLine
 10
2535.37268749171
 20
-30.05606325316194
 30
0.0
 11
2535.37268749171
 21
67.74397489383796
 31
0.0
  0
LINE
  5
A305
330
1E
100
AcDbEntity
  8
0
  6
Continuous
 62
     7
100
AcDbLine
 10
2509.87268749171
 20
88.84395582043794
 30
0.0
 11
2336.072687491709
 21
88.84395582043794
 31
0.0
  0
LINE
  5
A306
330
1E
100
AcDbEntity
  8
0
  6
Continuous
 62
     7
100
AcDbLine
 10
2509.87268749171
 20
86.84395582043794
 30
0.0
 11
2336.072687491709
 21
86.84395582043794
 31
0.0
  0
LINE
  5
A307
330
1E
100
AcDbEntity
  8
0
  6
Continuous
 62
     7
100
AcDbLine
 10
2509.87268749171
 20
-51.15604417956205
 30
0.0
 11
2509.87268749171
 21
88.84395582043794
 31
0.0
  0
LINE
  5
A308
330
1E
100
AcDbEntity
  8
0
  6
Continuous
 62
     7
100
AcDbLine
 10
2306.97268749171
 20
67.74397489383796
 30
0.0
 11
2336.072687491709
 21
67.74397489383796
 31
0.0
  0
LINE
  5
A309
330
1E
100
AcDbEntity
  8
0
  6
Continuous
 62
     7
100
AcDbLine
 10
2538.97268749171
 20
67.74397489383796
 30
0.0
 11
2509.87268749171
 21
67.74397489383796
 31
0.0
  0
LINE
  5
A30A
330
1E
100
AcDbEntity
  8
0
  6
Continuous
 62
     7
100
AcDbLine
 10
2306.97268749171
 20
65.74397489383795
 30
0.0
 11
2336.072687491709
 21
65.74397489383795
 31
0.0
  0
LINE
  5
A30B
330
1E
100
AcDbEntity
  8
0
  6
Continuous
 62
     7
100
AcDbLine
 10
2538.97268749171
 20
65.74397489383795
 30
0.0
 11
2509.87268749171
 21
65.74397489383795
 31
0.0
  0
LINE
  5
A30C
330
1E
100
AcDbEntity
  8
0
  6
Continuous
 62
     7
100
AcDbLine
 10
2509.87268749171
 20
60.64413482023792
 30
0.0
 11
2336.072687491709
 21
60.64413482023792
 31
0.0
  0
LINE
  5
A30D
330
1E
100
AcDbEntity
  8
0
  6
Continuous
 62
     7
100
AcDbLine
 10
2509.87268749171
 20
59.84414982023793
 30
0.0
 11
2336.072687491709
 21
59.84414982023793
 31
0.0
  0
LINE
  5
A30E
330
1E
100
AcDbEntity
  8
0
  6
Continuous
 62
     7
100
AcDbLine
 10
2538.97268749171
 20
45.34395582043794
 30
0.0
 11
2602.97268749171
 21
45.34395582043794
 31
0.0
  0
LINE
  5
A30F
330
1E
100
AcDbEntity
  8
0
  6
Continuous
 62
     7
100
AcDbLine
 10
2242.97268749171
 20
45.34395582043794
 30
0.0
 11
2306.97268749171
 21
45.34395582043794
 31
0.0
  0
LINE
  5
A314
330
1E
100
AcDbEntity
  8
0
  6
Continuous
 62
     7
100
AcDbLine
 10
2509.87268749171
 20
36.84395582043794
 30
0.0
 11
2336.072687491709
 21
36.84395582043794
 31
0.0
  0
LINE
  5
A315
330
1E
100
AcDbEntity
  8
0
  6
Continuous
 62
     7
100
AcDbLine
 10
2509.87268749171
 20
36.04405382043797
 30
0.0
 11
2336.072687491709
 21
36.04405382043797
 31
0.0
  0
LINE
  5
A316
330
1E
100
AcDbEntity
  8
0
  6
Continuous
 62
     7
100
AcDbLine
 10
2509.87268749171
 20
1.643857820437915
 30
0.0
 11
2336.072687491709
 21
1.643857820437915
 31
0.0
  0
LINE
  5
A317
330
1E
100
AcDbEntity
  8
0
  6
Continuous
 62
     7
100
AcDbLine
 10
2509.87268749171
 20
0.8437878204379103
 30
0.0
 11
2336.072687491709
 21
0.8437878204379103
 31
0.0
  0
LINE
  5
A31C
330
1E
100
AcDbEntity
  8
0
  6
Continuous
 62
     7
100
AcDbLine
 10
2306.97268749171
 20
-7.656044179562059
 30
0.0
 11
2242.97268749171
 21
-7.656044179562059
 31
0.0
  0
LINE
  5
A31D
330
1E
100
AcDbEntity
  8
0
  6
Continuous
 62
     7
100
AcDbLine
 10
2602.97268749171
 20
-7.656044179562059
 30
0.0
 11
2538.97268749171
 21
-7.656044179562059
 31
0.0
  0
LINE
  5
A31E
330
1E
100
AcDbEntity
  8
0
  6
Continuous
 62
     7
100
AcDbLine
 10
2509.87268749171
 20
-22.15623817936216
 30
0.0
 11
2336.072687491709
 21
-22.15623817936194
 31
0.0
  0
LINE
  5
A31F
330
1E
100
AcDbEntity
  8
0
  6
Continuous
 62
     7
100
AcDbLine
 10
2509.87268749171
 20
-22.95622317936204
 30
0.0
 11
2336.072687491709
 21
-22.95622317936204
 31
0.0
  0
LINE
  5
A320
330
1E
100
AcDbEntity
  8
0
  6
Continuous
 62
     7
100
AcDbLine
 10
2306.97268749171
 20
-28.05606325316194
 30
0.0
 11
2336.072687491709
 21
-28.05606325316194
 31
0.0
  0
LINE
  5
A321
330
1E
100
AcDbEntity
  8
0
  6
Continuous
 62
     7
100
AcDbLine
 10
2538.97268749171
 20
-28.05606325316194
 30
0.0
 11
2509.87268749171
 21
-28.05606325316194
 31
0.0
  0
LINE
  5
A322
330
1E
100
AcDbEntity
  8
0
  6
Continuous
 62
     7
100
AcDbLine
 10
2306.97268749171
 20
-30.05606325316194
 30
0.0
 11
2336.072687491709
 21
-30.05606325316194
 31
0.0
  0
LINE
  5
A323
330
1E
100
AcDbEntity
  8
0
  6
Continuous
 62
     7
100
AcDbLine
 10
2538.97268749171
 20
-30.05606325316194
 30
0.0
 11
2509.87268749171
 21
-30.05606325316194
 31
0.0
  0
LINE
  5
A324
330
1E
100
AcDbEntity
  8
0
  6
Continuous
 62
     7
100
AcDbLine
 10
2509.87268749171
 20
-49.15604417956206
 30
0.0
 11
2336.072687491709
 21
-49.15604417956206
 31
0.0
  0
LINE
  5
A325
330
1E
100
AcDbEntity
  8
0
  6
Continuous
 62
     7
100
AcDbLine
 10
2509.87268749171
 20
-51.15604417956205
 30
0.0
 11
2336.072687491709
 21
-51.15604417956205
 31
0.0
  0
LINE
  5
A326
330
1E
100
AcDbEntity
  8
0
  6
Continuous
 62
     7
100
AcDbLine
 10
2336.072687491709
 20
88.84395582043794
 30
0.0
 11
2336.072687491709
 21
-51.15604417956205
 31
0.0
  0
LINE
  5
A327
330
1E
100
AcDbEntity
  8
0
  6
Continuous
 62
     7
100
AcDbLine
 10
2310.57268749171
 20
-30.05606325316194
 30
0.0
 11
2310.57268749171
 21
67.74397489383796
 31
0.0
  0
LINE
  5
A328
330
1E
100
AcDbEntity
  8
0
  6
Continuous
 62
     7
100
AcDbLine
 10
2306.97268749171
 20
67.74397489383796
 30
0.0
 11
2306.97268749171
 21
-30.05606325316194
 31
0.0
  0
LINE
  5
A329
330
1E
100
AcDbEntity
  8
0
  6
Continuous
 62
     7
100
AcDbLine
 10
2538.97268749171
 20
-178.726565106562
 30
0.0
 11
2538.97268749171
 21
-119.9265531065621
 31
0.0
  0
LINE
  5
A32A
330
1E
100
AcDbEntity
  8
0
  6
Continuous
 62
     7
100
AcDbLine
 10
2535.37268749171
 20
-178.726565106562
 30
0.0
 11
2535.37268749171
 21
-119.1265651065621
 31
0.0
  0
LINE
  5
A32B
330
1E
100
AcDbEntity
  8
0
  6
Continuous
 62
     7
100
AcDbLine
 10
2529.37268749171
 20
-159.152196436162
 30
0.0
 11
2529.37268749171
 21
-167.152196436162
 31
0.0
  0
LINE
  5
A32C
330
1E
100
AcDbEntity
  8
0
  6
Continuous
 62
     7
100
AcDbLine
 10
2509.87268749171
 20
-178.726565106562
 30
0.0
 11
2509.87268749171
 21
-118.726565106562
 31
0.0
  0
LINE
  5
A32D
330
1E
100
AcDbEntity
  8
0
  6
Continuous
 62
     7
100
AcDbLine
 10
2480.47268749171
 20
-135.726565106562
 30
0.0
 11
2480.47268749171
 21
-170.726565106562
 31
0.0
  0
LINE
  5
A32E
330
1E
100
AcDbEntity
  8
0
  6
Continuous
 62
     7
100
AcDbLine
 10
2460.47268749171
 20
-170.726565106562
 30
0.0
 11
2460.47268749171
 21
-135.726565106562
 31
0.0
  0
LINE
  5
A32F
330
1E
100
AcDbEntity
  8
0
  6
Continuous
 62
     7
100
AcDbLine
 10
2509.87268749171
 20
-118.726565106562
 30
0.0
 11
2336.07268749171
 21
-118.726565106562
 31
0.0
  0
LINE
  5
A330
330
1E
100
AcDbEntity
  8
0
  6
Continuous
 62
     7
100
AcDbLine
 10
2310.57268749171
 20
-119.1265651065621
 30
0.0
 11
2336.072687491709
 21
-119.1265651065621
 31
0.0
  0
LINE
  5
A331
330
1E
100
AcDbEntity
  8
0
  6
Continuous
 62
     7
100
AcDbLine
 10
2535.37268749171
 20
-119.1265651065621
 30
0.0
 11
2509.87268749171
 21
-119.1265651065621
 31
0.0
  0
LINE
  5
A332
330
1E
100
AcDbEntity
  8
0
  6
Continuous
 62
     7
100
AcDbLine
 10
2306.97268749171
 20
-119.9265531065621
 30
0.0
 11
2336.072687491709
 21
-119.9265531065621
 31
0.0
  0
LINE
  5
A333
330
1E
100
AcDbEntity
  8
0
  6
Continuous
 62
     7
100
AcDbLine
 10
2538.97268749171
 20
-119.9265531065621
 30
0.0
 11
2509.87268749171
 21
-119.9265531065621
 31
0.0
  0
LINE
  5
A334
330
1E
100
AcDbEntity
  8
0
  6
Continuous
 62
     7
100
AcDbLine
 10
2509.87268749171
 20
-120.7266261065619
 30
0.0
 11
2336.07268749171
 21
-120.7266261065619
 31
0.0
  0
LINE
  5
A335
330
1E
100
AcDbEntity
  8
0
  6
Continuous
 62
     7
100
AcDbLine
 10
2306.97268749171
 20
-121.9265531065621
 30
0.0
 11
2336.072687491709
 21
-121.9265531065621
 31
0.0
  0
LINE
  5
A336
330
1E
100
AcDbEntity
  8
0
  6
Continuous
 62
     7
100
AcDbLine
 10
2538.97268749171
 20
-121.9265531065621
 30
0.0
 11
2509.87268749171
 21
-121.9265531065621
 31
0.0
  0
LINE
  5
A337
330
1E
100
AcDbEntity
  8
0
  6
Continuous
 62
     7
100
AcDbLine
 10
2385.47268749171
 20
-135.726565106562
 30
0.0
 11
2365.47268749171
 21
-135.726565106562
 31
0.0
  0
LINE
  5
A338
330
1E
100
AcDbEntity
  8
0
  6
Continuous
 62
     7
100
AcDbLine
 10
2480.47268749171
 20
-135.726565106562
 30
0.0
 11
2460.47268749171
 21
-135.726565106562
 31
0.0
  0
LINE
  5
A339
330
1E
100
AcDbEntity
  8
0
  6
Continuous
 62
     7
100
AcDbLine
 10
2538.97268749171
 20
-144.7265341065622
 30
0.0
 11
2602.97268749171
 21
-144.7265341065622
 31
0.0
  0
LINE
  5
A33A
330
1E
100
AcDbEntity
  8
0
  6
Continuous
 62
     7
100
AcDbLine
 10
2242.97268749171
 20
-144.7265341065622
 30
0.0
 11
2306.97268749171
 21
-144.7265341065622
 31
0.0
  0
LINE
  5
A351
330
1E
100
AcDbEntity
  8
0
  6
Continuous
 62
     7
100
AcDbLine
 10
2316.572687491709
 20
-159.152196436162
 30
0.0
 11
2310.57268749171
 21
-159.152196436162
 31
0.0
  0
LINE
  5
A352
330
1E
100
AcDbEntity
  8
0
  6
Continuous
 62
     7
100
AcDbLine
 10
2535.37268749171
 20
-159.152196436162
 30
0.0
 11
2529.37268749171
 21
-159.152196436162
 31
0.0
  0
LINE
  5
A353
330
1E
100
AcDbEntity
  8
0
  6
Continuous
 62
     7
100
AcDbLine
 10
2529.37268749171
 20
-167.152196436162
 30
0.0
 11
2535.37268749171
 21
-167.152196436162
 31
0.0
  0
LINE
  5
A354
330
1E
100
AcDbEntity
  8
0
  6
Continuous
 62
     7
100
AcDbLine
 10
2310.57268749171
 20
-167.152196436162
 30
0.0
 11
2316.572687491709
 21
-167.152196436162
 31
0.0
  0
LINE
  5
A363
330
1E
100
AcDbEntity
  8
0
  6
Continuous
 62
     7
100
AcDbLine
 10
2306.97268749171
 20
-176.726565106562
 30
0.0
 11
2336.072687491709
 21
-176.726565106562
 31
0.0
  0
LINE
  5
A364
330
1E
100
AcDbEntity
  8
0
  6
Continuous
 62
     7
100
AcDbLine
 10
2538.97268749171
 20
-176.726565106562
 30
0.0
 11
2509.87268749171
 21
-176.726565106562
 31
0.0
  0
LINE
  5
A36B
330
1E
100
AcDbEntity
  8
0
  6
Continuous
 62
     7
100
AcDbLine
 10
2306.97268749171
 20
-178.726565106562
 30
0.0
 11
2538.97268749171
 21
-178.726565106562
 31
0.0
  0
LINE
  5
A36D
330
1E
100
AcDbEntity
  8
0
  6
Continuous
 62
     7
100
AcDbLine
 10
2242.97268749171
 20
-188.726565106562
 30
0.0
 11
2602.97268749171
 21
-188.726565106562
 31
0.0
  0
LINE
  5
A36E
330
1E
100
AcDbEntity
  8
0
  6
Continuous
 62
     7
100
AcDbLine
 10
2385.47268749171
 20
-135.726565106562
 30
0.0
 11
2385.47268749171
 21
-170.726565106562
 31
0.0
  0
LINE
  5
A36F
330
1E
100
AcDbEntity
  8
0
  6
Continuous
 62
     7
100
AcDbLine
 10
2365.47268749171
 20
-170.726565106562
 30
0.0
 11
2365.47268749171
 21
-135.726565106562
 31
0.0
  0
LINE
  5
A370
330
1E
100
AcDbEntity
  8
0
  6
Continuous
 62
     7
100
AcDbLine
 10
2336.072687491709
 20
-118.726565106562
 30
0.0
 11
2336.072687491709
 21
-178.726565106562
 31
0.0
  0
LINE
  5
A371
330
1E
100
AcDbEntity
  8
0
  6
Continuous
 62
     7
100
AcDbLine
 10
2316.572687491709
 20
-167.152196436162
 30
0.0
 11
2316.572687491709
 21
-159.152196436162
 31
0.0
  0
LINE
  5
A372
330
1E
100
AcDbEntity
  8
0
  6
Continuous
 62
     7
100
AcDbLine
 10
2310.57268749171
 20
-119.1265651065621
 30
0.0
 11
2310.57268749171
 21
-178.726565106562
 31
0.0
  0
LINE
  5
A373
330
1E
100
AcDbEntity
  8
0
  6
Continuous
 62
     7
100
AcDbLine
 10
2306.97268749171
 20
-119.9265531065621
 30
0.0
 11
2306.97268749171
 21
-178.726565106562
 31
0.0
  0
LINE
  5
A374
330
1E
100
AcDbEntity
  8
0
  6
Continuous
 62
     7
100
AcDbLine
 10
2182.683616294233
 20
-118.726565106562
 30
0.0
 11
2184.683616294233
 21
-120.7266261065619
 31
0.0
  0
LINE
  5
A375
330
1E
100
AcDbEntity
  8
0
  6
Continuous
 62
     7
100
AcDbLine
 10
2044.683616294232
 20
-120.7266261065619
 30
0.0
 11
2044.683616294233
 21
-134.726565106562
 31
0.0
  0
LINE
  5
A376
330
1E
100
AcDbEntity
  8
0
  6
Continuous
 62
     7
100
AcDbLine
 10
2045.683616294232
 20
-135.7265501065612
 30
0.0
 11
2045.683616294232
 21
-159.7265651065618
 31
0.0
  0
LINE
  5
A377
330
1E
100
AcDbEntity
  8
0
  6
Continuous
 62
     7
100
AcDbLine
 10
2184.683616294232
 20
-158.7265651065622
 30
0.0
 11
2164.683616294233
 21
-178.726565106562
 31
0.0
  0
LINE
  5
A378
330
1E
100
AcDbEntity
  8
0
  6
Continuous
 62
     7
100
AcDbLine
 10
2161.583635367632
 20
-119.9265531065621
 30
0.0
 11
2163.583635367632
 21
-121.9265531065621
 31
0.0
  0
LINE
  5
A379
330
1E
100
AcDbEntity
  8
0
  6
Continuous
 62
     7
100
AcDbLine
 10
2163.583635367632
 20
-176.726565106562
 30
0.0
 11
2161.583635367632
 21
-178.726565106562
 31
0.0
  0
LINE
  5
A37B
330
1E
100
AcDbEntity
  8
0
  6
Continuous
 62
     7
100
AcDbLine
 10
2163.583635367632
 20
-121.9265531065621
 30
0.0
 11
2163.583635367632
 21
-176.726565106562
 31
0.0
  0
LINE
  5
A37C
330
1E
100
AcDbEntity
  8
0
  6
Continuous
 62
     7
100
AcDbLine
 10
2044.683616294233
 20
-134.726565106562
 30
0.0
 11
2045.683616294232
 21
-135.726565106562
 31
0.0
  0
LINE
  5
A37E
330
1E
100
AcDbEntity
  8
0
  6
Continuous
 62
     7
100
AcDbLine
 10
2131.883714294232
 20
-118.7265501065621
 30
0.0
 11
2132.683753794033
 21
-119.5265836065621
 31
0.0
  0
LINE
  5
A37F
330
1E
100
AcDbEntity
  8
0
  6
Continuous
 62
     7
100
AcDbLine
 10
2127.183616294233
 20
-119.1265651065621
 30
0.0
 11
2127.983610293632
 21
-119.9265531065621
 31
0.0
  0
LINE
  5
A384
330
1E
100
AcDbEntity
  8
0
  6
Continuous
 62
     7
100
AcDbLine
 10
2097.483518294232
 20
-118.7265501065621
 30
0.0
 11
2131.883714294232
 21
-118.7265501065621
 31
0.0
  0
LINE
  5
A385
330
1E
100
AcDbEntity
  8
0
  6
Continuous
 62
     7
100
AcDbLine
 10
2156.483795293832
 20
-118.726565106562
 30
0.0
 11
2182.683616294233
 21
-118.726565106562
 31
0.0
  0
LINE
  5
A386
330
1E
100
AcDbEntity
  8
0
  6
Continuous
 62
     7
100
AcDbLine
 10
2046.683616294233
 20
-118.726565106562
 30
0.0
 11
2072.883437294432
 21
-118.726565106562
 31
0.0
  0
LINE
  5
A387
330
1E
100
AcDbEntity
  8
0
  6
Continuous
 62
     7
100
AcDbLine
 10
2127.183616294233
 20
-119.1265651065621
 30
0.0
 11
2102.183616294233
 21
-119.1265651065621
 31
0.0
  0
LINE
  5
A388
330
1E
100
AcDbEntity
  8
0
  6
Continuous
 62
     7
100
AcDbLine
 10
2073.683422294433
 20
-119.526553106562
 30
0.0
 11
2096.683616294233
 21
-119.526553106562
 31
0.0
  0
LINE
  5
A389
330
1E
100
AcDbEntity
  8
0
  6
Continuous
 62
     7
100
AcDbLine
 10
2132.683753794033
 20
-119.5265836065621
 30
0.0
 11
2155.683779794033
 21
-119.5265836065621
 31
0.0
  0
LINE
  5
A38A
330
1E
100
AcDbEntity
  8
0
  6
Continuous
 62
     7
100
AcDbLine
 10
2067.783597220632
 20
-119.9265531065621
 30
0.0
 11
2161.583635367632
 21
-119.9265531065621
 31
0.0
  0
LINE
  5
A3AC
330
1E
100
AcDbEntity
  8
0
  6
Continuous
 62
     7
100
AcDbLine
 10
2155.683779794033
 20
-119.5265836065621
 30
0.0
 11
2156.483795293832
 21
-118.726565106562
 31
0.0
  0
LINE
  5
A3C6
330
1E
100
AcDbEntity
  8
0
  6
Continuous
 62
     7
100
AcDbLine
 10
2072.883437294432
 20
-118.726565106562
 30
0.0
 11
2073.683422294433
 21
-119.526553106562
 31
0.0
  0
LINE
  5
A3E4
330
1E
100
AcDbEntity
  8
0
  6
Continuous
 62
     7
100
AcDbLine
 10
2141.183616294233
 20
-178.726565106562
 30
0.0
 11
2164.683616294233
 21
-178.726565106562
 31
0.0
  0
LINE
  5
A3E5
330
1E
100
AcDbEntity
  8
0
  6
Continuous
 62
     7
100
AcDbLine
 10
2064.683616294233
 20
-178.726565106562
 30
0.0
 11
2088.183616294233
 21
-178.726565106562
 31
0.0
  0
LINE
  5
A3F2
330
1E
100
AcDbEntity
  8
0
  6
Continuous
 62
     7
100
AcDbLine
 10
2101.383622294832
 20
-119.9265531065621
 30
0.0
 11
2102.183616294233
 21
-119.1265651065621
 31
0.0
  0
LINE
  5
A3F3
330
1E
100
AcDbEntity
  8
0
  6
Continuous
 62
     7
100
AcDbLine
 10
2096.683616294233
 20
-119.526553106562
 30
0.0
 11
2097.483518294232
 21
-118.7265501065621
 31
0.0
  0
LINE
  5
A3FB
330
1E
100
AcDbEntity
  8
0
  6
Continuous
 62
     7
100
AcDbLine
 10
2065.783597220632
 20
-176.726565106562
 30
0.0
 11
2065.783597220632
 21
-121.9265531065621
 31
0.0
  0
LINE
  5
A3FC
330
1E
100
AcDbEntity
  8
0
  6
Continuous
 62
     7
100
AcDbLine
 10
2067.783597220632
 20
-178.726565106562
 30
0.0
 11
2065.783597220632
 21
-176.726565106562
 31
0.0
  0
LINE
  5
A3FD
330
1E
100
AcDbEntity
  8
0
  6
Continuous
 62
     7
100
AcDbLine
 10
2064.683616294233
 20
-178.726565106562
 30
0.0
 11
2045.683616294232
 21
-159.7265651065618
 31
0.0
  0
LINE
  5
A3FE
330
1E
100
AcDbEntity
  8
0
  6
Continuous
 62
     7
100
AcDbLine
 10
2065.783597220632
 20
-121.9265531065621
 30
0.0
 11
2067.783597220632
 21
-119.9265531065621
 31
0.0
  0
LINE
  5
A3FF
330
1E
100
AcDbEntity
  8
0
  6
Continuous
 62
     7
100
AcDbLine
 10
2044.683616294233
 20
-120.7266261065619
 30
0.0
 11
2046.683616294233
 21
-118.726565106562
 31
0.0
  0
LINE
  5
A400
330
1E
100
AcDbEntity
  8
0
  6
Continuous
 62
     7
100
AcDbLine
 10
2184.683616294232
 20
-158.7265651065622
 30
0.0
 11
2184.683616294233
 21
-120.7266261065622
 31
0.0
  0
LINE
  5
A401
330
1E
100
AcDbEntity
  8
0
100
AcDbLine
 10
2602.97268749171
 20
-144.7265341065622
 30
0.0
 11
2602.97268749171
 21
-188.726565106562
 31
0.0
  0
LINE
  5
A402
330
1E
100
AcDbEntity
  8
0
100
AcDbLine
 10
2242.97268749171
 20
-144.7265341065622
 30
0.0
 11
2242.97268749171
 21
-188.726565106562
 31
0.0
  0
LINE
  5
A403
330
1E
100
AcDbEntity
  8
0
100
AcDbLine
 10
2242.97268749171
 20
-7.656044179562059
 30
0.0
 11
2242.97268749171
 21
45.34395582043794
 31
0.0
  0
LINE
  5
A404
330
1E
100
AcDbEntity
  8
0
100
AcDbLine
 10
2602.97268749171
 20
-7.656044179562059
 30
0.0
 11
2602.97268749171
 21
45.34395582043794
 31
0.0
  0
LINE
  5
A407
330
1E
100
AcDbEntity
  8
中心線
100
AcDbLine
 10
2542.274266411747
 20
-144.7265341065624
 30
0.0
 11
2531.629040883818
 21
-144.7265341065624
 31
0.0
  0
LINE
  5
A408
330
1E
100
AcDbEntity
  8
0
100
AcDbLine
 10
2540.609416225709
 20
-143.3757174477118
 30
0.0
 11
2540.609416225709
 21
-146.0773507654137
 31
0.0
  0
ARC
  5
A409
330
1E
100
AcDbEntity
  8
0
100
AcDbCircle
 10
2538.351694417143
 20
-146.0407941047456
 30
0.0
 40
2.258017748891656
100
AcDbArc
 50
285.9630221688284
 51
359.0723572120041
  0
ARC
  5
A40A
330
1E
100
AcDbEntity
  8
0
100
AcDbCircle
 10
2538.351694417143
 20
-143.412274108379
 30
0.0
 40
2.258017748891656
100
AcDbArc
 50
0.9276427879959022
 51
74.03697783117156
  0
ARC
  5
A40B
330
1E
100
AcDbEntity
  8
0
100
AcDbCircle
 10
2528.751694417144
 20
-161.8379364377788
 30
0.0
 40
2.258017748891656
100
AcDbArc
 50
0.9276427879959022
 51
74.03697783117156
  0
LINE
  5
A40C
330
1E
100
AcDbEntity
  8
0
100
AcDbLine
 10
2531.009416225709
 20
-161.8013797771093
 30
0.0
 11
2531.009416225709
 21
-164.5030130948135
 31
0.0
  0
ARC
  5
A40E
330
1E
100
AcDbEntity
  8
0
100
AcDbCircle
 10
2528.751694417144
 20
-164.4664564341453
 30
0.0
 40
2.258017748891656
100
AcDbArc
 50
285.9630221688284
 51
359.0723572120041
  0
ARC
  5
A40F
330
1E
100
AcDbEntity
  8
0
100
AcDbCircle
 10
2317.193680566275
 20
-164.4664564341451
 30
0.0
 40
2.258017748891656
100
AcDbArc
 50
180.9276427879959
 51
254.0369778311716
  0
LINE
  5
A410
330
1E
100
AcDbEntity
  8
0
100
AcDbLine
 10
2314.93595875771
 20
-161.8013797771091
 30
0.0
 11
2314.93595875771
 21
-164.5030130948135
 31
0.0
  0
ARC
  5
A411
330
1E
100
AcDbEntity
  8
0
100
AcDbCircle
 10
2317.193680566275
 20
-161.8379364377788
 30
0.0
 40
2.258017748891656
100
AcDbArc
 50
105.9630221688284
 51
179.0723572120041
  0
LINE
  5
A415
330
1E
100
AcDbEntity
  8
0
100
AcDbLine
 10
2305.572687491709
 20
-135.7265152584309
 30
0.0
 11
2305.572687491709
 21
-125.7265152584309
 31
0.0
  0
LINE
  5
A417
330
1E
100
AcDbEntity
  8
中心線
 48
0.27
100
AcDbLine
 10
2291.900804991709
 20
-130.7265152584309
 30
0.0
 11
2307.970883602507
 21
-130.7265394223059
 31
0.0
  0
LINE
  5
A418
330
1E
100
AcDbEntity
  8
0
 48
0.27
100
AcDbLine
 10
2300.88726249171
 20
-135.7265152584309
 30
0.0
 11
2306.97268749171
 21
-135.7265152584309
 31
0.0
  0
LINE
  5
A419
330
1E
100
AcDbEntity
  8
0
 48
0.27
100
AcDbLine
 10
2306.97268749171
 20
-125.7265152584309
 30
0.0
 11
2300.88726249171
 21
-125.7265152584309
 31
0.0
  0
ARC
  5
A41A
330
1E
100
AcDbEntity
  8
0
 48
0.27
100
AcDbCircle
 10
2300.88726249171
 20
-130.7265152584309
 30
0.0
 40
4.99999999999996
100
AcDbArc
 50
90.0
 51
131.4096219996015
  0
LWPOLYLINE
  5
A41B
330
1E
100
AcDbEntity
  8
0
 48
0.27
100
AcDbPolyline
 90
       31
 70
     0
 43
0.0
 10
2296.411791241709
 20
-130.726515258431
 10
2296.370768741709
 20
-130.463696508431
 10
2296.31558499171
 20
-130.331837758431
 10
2296.23679374171
 20
-130.209614008431
 10
2296.13744874171
 20
-130.104472758431
 10
2296.02308499171
 20
-130.022131508431
 10
2295.90068499171
 20
-129.965530258431
 10
2295.73488999171
 20
-129.929354008431
 10
2295.58112874171
 20
-129.932677758431
 10
2295.44747374171
 20
-129.964560258431
 10
2295.302217491709
 20
-130.0342702584311
 10
2295.164004991709
 20
-130.146131508431
 10
2295.05371749171
 20
-130.289319008431
 10
2294.982924991709
 20
-130.4391177584309
 10
2294.94811124171
 20
-130.568687758431
 10
2294.93358499171
 20
-130.726515258431
 10
2294.97460749171
 20
-130.989334008431
 10
2295.02979249171
 20
-131.1211940084309
 10
2295.10858249171
 20
-131.243416508431
 10
2295.20792749171
 20
-131.3485577584311
 10
2295.32229124171
 20
-131.4308990084311
 10
2295.44469124171
 20
-131.487500258431
 10
2295.610486241709
 20
-131.523677758431
 10
2295.764247491709
 20
-131.520352758431
 10
2295.89790249171
 20
-131.4884715084309
 10
2296.04315874171
 20
-131.4187615084309
 10
2296.18137124171
 20
-131.306899008431
 10
2296.29165874171
 20
-131.1637127584311
 10
2296.36245124171
 20
-131.013914008431
 10
2296.39726624171
 20
-130.8843427584309
 10
2296.411791241709
 20
-130.726515258431
  0
ARC
  5
A41C
330
1E
100
AcDbEntity
  8
0
 48
0.27
100
AcDbCircle
 10
2300.88726249171
 20
-130.7265152584309
 30
0.0
 40
4.99999999999996
100
AcDbArc
 50
228.5903779972994
 51
270.0
  0
LINE
  5
A41D
330
1E
100
AcDbEntity
  8
0
 48
0.27
100
AcDbLine
 10
2296.47796624171
 20
-126.9765152584309
 30
0.0
 11
2301.35268624171
 21
-126.9765152584309
 31
0.0
  0
LINE
  5
A41E
330
1E
100
AcDbEntity
  8
0
 48
0.27
100
AcDbLine
 10
2296.16997499171
 20
-133.899106508431
 30
0.0
 11
2296.47796624171
 21
-134.4765152584309
 31
0.0
  0
LINE
  5
A41F
330
1E
100
AcDbEntity
  8
0
 48
0.27
100
AcDbLine
 10
2296.47796624171
 20
-126.9765152584309
 30
0.0
 11
2296.16997499171
 21
-127.5539240084308
 31
0.0
  0
LINE
  5
A420
330
1E
100
AcDbEntity
  8
0
 48
0.27
100
AcDbLine
 10
2302.47873874171
 20
-130.7265152584309
 30
0.0
 11
2303.352943741709
 21
-130.7265152584309
 31
0.0
  0
LINE
  5
A421
330
1E
100
AcDbEntity
  8
0
 48
0.27
100
AcDbLine
 10
2301.35268624171
 20
-126.9765152584309
 30
0.0
 11
2303.352943741709
 21
-130.7265152584309
 31
0.0
  0
LINE
  5
A422
330
1E
100
AcDbEntity
  8
0
 48
0.27
100
AcDbLine
 10
2301.35268624171
 20
-134.4765152584309
 30
0.0
 11
2296.47796624171
 21
-134.4765152584309
 31
0.0
  0
LINE
  5
A423
330
1E
100
AcDbEntity
  8
0
 48
0.27
100
AcDbLine
 10
2303.352943741709
 20
-130.7265152584309
 30
0.0
 11
2301.35268624171
 21
-134.4765152584309
 31
0.0
  0
LINE
  5
A424
330
1E
100
AcDbEntity
  8
0
 48
0.27
100
AcDbLine
 10
2296.629314991709
 20
-127.5645977584308
 30
0.0
 11
2297.15239874171
 21
-127.2619677584312
 31
0.0
  0
LINE
  5
A425
330
1E
100
AcDbEntity
  8
0
 48
0.27
100
AcDbLine
 10
2296.629314991709
 20
-133.888434008431
 30
0.0
 11
2297.15239874171
 21
-134.1910640084311
 31
0.0
  0
LINE
  5
A426
330
1E
100
AcDbEntity
  8
0
 48
0.27
100
AcDbLine
 10
2297.15239874171
 20
-127.2619677584312
 30
0.0
 11
2297.802323741709
 21
-127.048570258431
 31
0.0
  0
LINE
  5
A427
330
1E
100
AcDbEntity
  8
0
 48
0.27
100
AcDbLine
 10
2297.15239874171
 20
-134.1910640084311
 30
0.0
 11
2297.802323741709
 21
-134.4044602584308
 31
0.0
  0
LINE
  5
A428
330
1E
100
AcDbEntity
  8
0
 48
0.27
100
AcDbLine
 10
2297.802323741709
 20
-127.048570258431
 30
0.0
 11
2298.478223741709
 21
-126.9765152584309
 31
0.0
  0
LINE
  5
A429
330
1E
100
AcDbEntity
  8
0
 48
0.27
100
AcDbLine
 10
2297.802323741709
 20
-134.4044602584308
 30
0.0
 11
2298.478223741709
 21
-134.4765152584309
 31
0.0
  0
LINE
  5
A42A
330
1E
100
AcDbEntity
  8
0
 48
0.27
100
AcDbLine
 10
2298.478223741709
 20
-126.9765152584309
 30
0.0
 11
2299.154123741709
 21
-127.048570258431
 31
0.0
  0
LINE
  5
A42B
330
1E
100
AcDbEntity
  8
0
 48
0.27
100
AcDbLine
 10
2298.478223741709
 20
-134.4765152584309
 30
0.0
 11
2299.154123741709
 21
-134.4044602584308
 31
0.0
  0
LINE
  5
A42C
330
1E
100
AcDbEntity
  8
0
 48
0.27
100
AcDbLine
 10
2299.154123741709
 20
-127.048570258431
 30
0.0
 11
2299.804048741709
 21
-127.2619677584312
 31
0.0
  0
LINE
  5
A42D
330
1E
100
AcDbEntity
  8
0
 48
0.27
100
AcDbLine
 10
2299.154123741709
 20
-134.4044602584308
 30
0.0
 11
2299.804048741709
 21
-134.1910640084311
 31
0.0
  0
LINE
  5
A42E
330
1E
100
AcDbEntity
  8
0
 48
0.27
100
AcDbLine
 10
2299.804048741709
 20
-127.2619677584312
 30
0.0
 11
2300.40302374171
 21
-127.6085040084308
 31
0.0
  0
LINE
  5
A42F
330
1E
100
AcDbEntity
  8
0
 48
0.27
100
AcDbLine
 10
2299.804048741709
 20
-134.1910640084311
 30
0.0
 11
2300.40302374171
 21
-133.844526508431
 31
0.0
  0
LINE
  5
A430
330
1E
100
AcDbEntity
  8
0
 48
0.27
100
AcDbLine
 10
2300.40302374171
 20
-127.6085040084308
 30
0.0
 11
2300.92802874171
 21
-128.0748652584311
 31
0.0
  0
LINE
  5
A431
330
1E
100
AcDbEntity
  8
0
 48
0.27
100
AcDbLine
 10
2300.40302374171
 20
-133.844526508431
 30
0.0
 11
2300.92802874171
 21
-133.3781665084311
 31
0.0
  0
LINE
  5
A432
330
1E
100
AcDbEntity
  8
0
 48
0.27
100
AcDbLine
 10
2300.478481241709
 20
-126.9765152584309
 30
0.0
 11
2302.47873874171
 21
-130.7265152584309
 31
0.0
  0
LINE
  5
A433
330
1E
100
AcDbEntity
  8
0
 48
0.27
100
AcDbLine
 10
2302.47873874171
 20
-130.7265152584309
 30
0.0
 11
2300.478481241709
 21
-134.4765152584309
 31
0.0
  0
LINE
  5
A434
330
1E
100
AcDbEntity
  8
0
 48
0.27
100
AcDbLine
 10
2300.92802874171
 20
-128.0748652584311
 30
0.0
 11
2301.35888999171
 21
-128.6431277584311
 31
0.0
  0
LINE
  5
A435
330
1E
100
AcDbEntity
  8
0
 48
0.27
100
AcDbLine
 10
2301.35888999171
 20
-132.809904008431
 30
0.0
 11
2300.92802874171
 21
-133.3781665084311
 31
0.0
  0
LINE
  5
A436
330
1E
100
AcDbEntity
  8
0
 48
0.27
100
AcDbLine
 10
2301.35888999171
 20
-128.6431277584311
 30
0.0
 11
2301.679048741709
 21
-129.291452758431
 31
0.0
  0
LINE
  5
A437
330
1E
100
AcDbEntity
  8
0
 48
0.27
100
AcDbLine
 10
2301.679048741709
 20
-132.1615790084311
 30
0.0
 11
2301.35888999171
 21
-132.809904008431
 31
0.0
  0
LINE
  5
A438
330
1E
100
AcDbEntity
  8
0
 48
0.27
100
AcDbLine
 10
2301.679048741709
 20
-129.291452758431
 30
0.0
 11
2301.876201241709
 21
-129.994926508431
 31
0.0
  0
LINE
  5
A439
330
1E
100
AcDbEntity
  8
0
 48
0.27
100
AcDbLine
 10
2301.876201241709
 20
-131.458104008431
 30
0.0
 11
2301.679048741709
 21
-132.1615790084311
 31
0.0
  0
LINE
  5
A43A
330
1E
100
AcDbEntity
  8
0
 48
0.27
100
AcDbLine
 10
2301.876201241709
 20
-129.994926508431
 30
0.0
 11
2301.942771241709
 21
-130.7265152584309
 31
0.0
  0
LINE
  5
A43B
330
1E
100
AcDbEntity
  8
0
 48
0.27
100
AcDbLine
 10
2301.942771241709
 20
-130.7265152584309
 30
0.0
 11
2301.876201241709
 21
-131.458104008431
 31
0.0
  0
LINE
  5
A43C
330
1E
100
AcDbEntity
  8
0
 48
0.27
100
AcDbLine
 10
2294.848352491709
 20
-128.6762315084311
 30
0.0
 11
2294.85206624171
 21
-128.678250258431
 31
0.0
  0
LINE
  5
A43D
330
1E
100
AcDbEntity
  8
0
 48
0.27
100
AcDbLine
 10
2294.848352491709
 20
-132.7768002584309
 30
0.0
 11
2294.85206624171
 21
-132.7747802584308
 31
0.0
  0
LINE
  5
A43E
330
1E
100
AcDbEntity
  8
0
 48
0.27
100
AcDbLine
 10
2293.45746499171
 20
-130.1038377584309
 30
0.0
 11
2293.400804991709
 21
-130.7265152584309
 31
0.0
  0
LINE
  5
A43F
330
1E
100
AcDbEntity
  8
0
 48
0.27
100
AcDbLine
 10
2293.62526749171
 20
-129.505090258431
 30
0.0
 11
2293.45746499171
 21
-130.1038377584309
 31
0.0
  0
LINE
  5
A440
330
1E
100
AcDbEntity
  8
0
 48
0.27
100
AcDbLine
 10
2293.400804991709
 20
-130.7265152584309
 30
0.0
 11
2293.45746499171
 21
-131.3491927584309
 31
0.0
  0
LINE
  5
A441
330
1E
100
AcDbEntity
  8
0
 48
0.27
100
AcDbLine
 10
2293.897763741709
 20
-128.9532802584308
 30
0.0
 11
2293.62526749171
 21
-129.505090258431
 31
0.0
  0
LINE
  5
A442
330
1E
100
AcDbEntity
  8
0
 48
0.27
100
AcDbLine
 10
2293.45746499171
 20
-131.3491927584309
 30
0.0
 11
2293.62526749171
 21
-131.9479415084311
 31
0.0
  0
LINE
  5
A443
330
1E
100
AcDbEntity
  8
0
 48
0.27
100
AcDbLine
 10
2294.264483741709
 20
-128.4696152584311
 30
0.0
 11
2293.897763741709
 21
-128.9532802584308
 31
0.0
  0
LINE
  5
A444
330
1E
100
AcDbEntity
  8
0
 48
0.27
100
AcDbLine
 10
2293.62526749171
 20
-131.9479415084311
 30
0.0
 11
2293.897763741709
 21
-132.499750258431
 31
0.0
  0
LINE
  5
A445
330
1E
100
AcDbEntity
  8
0
 48
0.27
100
AcDbLine
 10
2294.264483741709
 20
-128.4696152584311
 30
0.0
 11
2294.71133124171
 21
-128.0726815084308
 31
0.0
  0
LINE
  5
A446
330
1E
100
AcDbEntity
  8
0
 48
0.27
100
AcDbLine
 10
2293.897763741709
 20
-132.499750258431
 30
0.0
 11
2294.264483741709
 21
-132.983415258431
 31
0.0
  0
LINE
  5
A447
330
1E
100
AcDbEntity
  8
0
 48
0.27
100
AcDbLine
 10
2293.64334374171
 20
-130.2895952584308
 30
0.0
 11
2293.603586241709
 21
-130.7265152584309
 31
0.0
  0
LINE
  5
A448
330
1E
100
AcDbEntity
  8
0
 48
0.27
100
AcDbLine
 10
2293.761087491709
 20
-129.8694652584308
 30
0.0
 11
2293.64334374171
 21
-130.2895952584308
 31
0.0
  0
LINE
  5
A449
330
1E
100
AcDbEntity
  8
0
 48
0.27
100
AcDbLine
 10
2293.603586241709
 20
-130.7265152584309
 30
0.0
 11
2293.64334374171
 21
-131.163435258431
 31
0.0
  0
LINE
  5
A44A
330
1E
100
AcDbEntity
  8
0
 48
0.27
100
AcDbLine
 10
2293.952292491709
 20
-129.482271508431
 30
0.0
 11
2293.761087491709
 21
-129.8694652584308
 31
0.0
  0
LINE
  5
A44B
330
1E
100
AcDbEntity
  8
0
 48
0.27
100
AcDbLine
 10
2293.64334374171
 20
-131.163435258431
 30
0.0
 11
2293.761087491709
 21
-131.583565258431
 31
0.0
  0
LINE
  5
A44C
330
1E
100
AcDbEntity
  8
0
 48
0.27
100
AcDbLine
 10
2294.71133124171
 20
-128.0726815084308
 30
0.0
 11
2295.22113749171
 21
-127.777732758431
 31
0.0
  0
LINE
  5
A44D
330
1E
100
AcDbEntity
  8
0
 48
0.27
100
AcDbLine
 10
2294.264483741709
 20
-132.983415258431
 30
0.0
 11
2294.71133124171
 21
-133.380349008431
 31
0.0
  0
LINE
  5
A44E
330
1E
100
AcDbEntity
  8
0
 48
0.27
100
AcDbLine
 10
2294.20961249171
 20
-129.1428940084311
 30
0.0
 11
2293.952292491709
 21
-129.482271508431
 31
0.0
  0
LINE
  5
A44F
330
1E
100
AcDbEntity
  8
0
 48
0.27
100
AcDbLine
 10
2293.761087491709
 20
-131.583565258431
 30
0.0
 11
2293.952292491709
 21
-131.9707590084308
 31
0.0
  0
LINE
  5
A450
330
1E
100
AcDbEntity
  8
0
 48
0.27
100
AcDbLine
 10
2295.22113749171
 20
-127.777732758431
 30
0.0
 11
2295.774308741709
 21
-127.5961052584312
 31
0.0
  0
LINE
  5
A451
330
1E
100
AcDbEntity
  8
0
 48
0.27
100
AcDbLine
 10
2294.71133124171
 20
-133.380349008431
 30
0.0
 11
2295.22113749171
 21
-133.675297758431
 31
0.0
  0
LINE
  5
A452
330
1E
100
AcDbEntity
  8
0
 48
0.27
100
AcDbLine
 10
2294.20961249171
 20
-129.1428940084311
 30
0.0
 11
2294.523156241709
 21
-128.864372758431
 31
0.0
  0
LINE
  5
A453
330
1E
100
AcDbEntity
  8
0
 48
0.27
100
AcDbLine
 10
2293.952292491709
 20
-131.9707590084308
 30
0.0
 11
2294.20961249171
 21
-132.3101377584307
 31
0.0
  0
LINE
  5
A454
330
1E
100
AcDbEntity
  8
0
 48
0.27
100
AcDbLine
 10
2295.774308741709
 20
-127.5961052584312
 30
0.0
 11
2296.34958749171
 21
-127.5347765084311
 31
0.0
  0
LINE
  5
A455
330
1E
100
AcDbEntity
  8
0
 48
0.27
100
AcDbLine
 10
2295.22113749171
 20
-133.675297758431
 30
0.0
 11
2295.774308741709
 21
-133.8569265084311
 31
0.0
  0
LINE
  5
A456
330
1E
100
AcDbEntity
  8
0
 48
0.27
100
AcDbLine
 10
2294.523156241709
 20
-128.864372758431
 30
0.0
 11
2294.88087749171
 21
-128.657414008431
 31
0.0
  0
LINE
  5
A457
330
1E
100
AcDbEntity
  8
0
 48
0.27
100
AcDbLine
 10
2294.20961249171
 20
-132.3101377584307
 30
0.0
 11
2294.523156241709
 21
-132.588657758431
 31
0.0
  0
LINE
  5
A458
330
1E
100
AcDbEntity
  8
0
 48
0.27
100
AcDbLine
 10
2297.10541124171
 20
-127.6302890084309
 30
0.0
 11
2297.65254124171
 21
-127.8099340084309
 31
0.0
  0
LINE
  5
A459
330
1E
100
AcDbEntity
  8
0
 48
0.27
100
AcDbLine
 10
2294.88087749171
 20
-128.657414008431
 30
0.0
 11
2295.26902624171
 21
-128.5299690084309
 31
0.0
  0
LINE
  5
A45A
330
1E
100
AcDbEntity
  8
0
 48
0.27
100
AcDbLine
 10
2294.523156241709
 20
-132.588657758431
 30
0.0
 11
2294.88087749171
 21
-132.795617758431
 31
0.0
  0
LINE
  5
A45B
330
1E
100
AcDbEntity
  8
0
 48
0.27
100
AcDbLine
 10
2296.92486624171
 20
-127.5961052584312
 30
0.0
 11
2297.10541124171
 21
-127.6302890084309
 31
0.0
  0
LINE
  5
A45C
330
1E
100
AcDbEntity
  8
0
 48
0.27
100
AcDbLine
 10
2296.34958749171
 20
-127.5347765084311
 30
0.0
 11
2296.92486624171
 21
-127.5961052584312
 31
0.0
  0
LINE
  5
A45D
330
1E
100
AcDbEntity
  8
0
 48
0.27
100
AcDbLine
 10
2295.774308741709
 20
-133.8569265084311
 30
0.0
 11
2296.34958749171
 21
-133.9182540084309
 31
0.0
  0
LINE
  5
A45E
330
1E
100
AcDbEntity
  8
0
 48
0.27
100
AcDbLine
 10
2297.65254124171
 20
-127.8099340084309
 30
0.0
 11
2298.156779991709
 21
-128.1016615084308
 31
0.0
  0
LINE
  5
A45F
330
1E
100
AcDbEntity
  8
0
 48
0.27
100
AcDbLine
 10
2297.10541124171
 20
-133.8227415084309
 30
0.0
 11
2297.65254124171
 21
-133.643096508431
 31
0.0
  0
LINE
  5
A460
330
1E
100
AcDbEntity
  8
0
 48
0.27
100
AcDbLine
 10
2298.156779991709
 20
-128.1016615084308
 30
0.0
 11
2298.59874874171
 21
-128.494260258431
 31
0.0
  0
LINE
  5
A461
330
1E
100
AcDbEntity
  8
0
 48
0.27
100
AcDbLine
 10
2297.65254124171
 20
-133.643096508431
 30
0.0
 11
2298.156779991709
 21
-133.351369008431
 31
0.0
  0
LINE
  5
A462
330
1E
100
AcDbEntity
  8
0
 48
0.27
100
AcDbLine
 10
2295.26902624171
 20
-128.5299690084309
 30
0.0
 11
2295.67268874171
 21
-128.4869365084309
 31
0.0
  0
LINE
  5
A463
330
1E
100
AcDbEntity
  8
0
 48
0.27
100
AcDbLine
 10
2294.88087749171
 20
-132.795617758431
 30
0.0
 11
2295.26902624171
 21
-132.9230627584311
 31
0.0
  0
LINE
  5
A464
330
1E
100
AcDbEntity
  8
0
 48
0.27
100
AcDbLine
 10
2296.92486624171
 20
-127.5961052584312
 30
0.0
 11
2297.47803749171
 21
-127.777732758431
 31
0.0
  0
LINE
  5
A465
330
1E
100
AcDbEntity
  8
0
 48
0.27
100
AcDbLine
 10
2296.92486624171
 20
-133.8569265084311
 30
0.0
 11
2297.10541124171
 21
-133.8227415084309
 31
0.0
  0
LINE
  5
A466
330
1E
100
AcDbEntity
  8
0
 48
0.27
100
AcDbLine
 10
2296.34958749171
 20
-133.9182540084309
 30
0.0
 11
2296.92486624171
 21
-133.8569265084311
 31
0.0
  0
LINE
  5
A467
330
1E
100
AcDbEntity
  8
0
 48
0.27
100
AcDbLine
 10
2298.59874874171
 20
-128.494260258431
 30
0.0
 11
2298.96146249171
 21
-128.9726440084309
 31
0.0
  0
LINE
  5
A468
330
1E
100
AcDbEntity
  8
0
 48
0.27
100
AcDbLine
 10
2298.156779991709
 20
-133.351369008431
 30
0.0
 11
2298.59874874171
 21
-132.9587702584308
 31
0.0
  0
LINE
  5
A469
330
1E
100
AcDbEntity
  8
0
 48
0.27
100
AcDbLine
 10
2295.67268874171
 20
-128.4869365084309
 30
0.0
 11
2296.076349991709
 21
-128.5299690084309
 31
0.0
  0
LINE
  5
A46A
330
1E
100
AcDbEntity
  8
0
 48
0.27
100
AcDbLine
 10
2295.26902624171
 20
-132.9230627584311
 30
0.0
 11
2295.67268874171
 21
-132.9660952584308
 31
0.0
  0
LINE
  5
A46B
330
1E
100
AcDbEntity
  8
0
 48
0.27
100
AcDbLine
 10
2297.47803749171
 20
-127.777732758431
 30
0.0
 11
2297.98784249171
 21
-128.0726815084308
 31
0.0
  0
LINE
  5
A46C
330
1E
100
AcDbEntity
  8
0
 48
0.27
100
AcDbLine
 10
2296.92486624171
 20
-133.8569265084311
 30
0.0
 11
2297.47803749171
 21
-133.675297758431
 31
0.0
  0
LINE
  5
A46D
330
1E
100
AcDbEntity
  8
0
 48
0.27
100
AcDbLine
 10
2298.96146249171
 20
-128.9726440084309
 30
0.0
 11
2299.230983741709
 21
-129.518427758431
 31
0.0
  0
LINE
  5
A46E
330
1E
100
AcDbEntity
  8
0
 48
0.27
100
AcDbLine
 10
2298.96146249171
 20
-132.4803865084309
 30
0.0
 11
2298.59874874171
 21
-132.9587702584308
 31
0.0
  0
LINE
  5
A46F
330
1E
100
AcDbEntity
  8
0
 48
0.27
100
AcDbLine
 10
2299.230983741709
 20
-129.518427758431
 30
0.0
 11
2299.39695374171
 21
-130.110637758431
 31
0.0
  0
LINE
  5
A470
330
1E
100
AcDbEntity
  8
0
 48
0.27
100
AcDbLine
 10
2299.230983741709
 20
-131.9346027584311
 30
0.0
 11
2298.96146249171
 21
-132.4803865084309
 31
0.0
  0
LINE
  5
A471
330
1E
100
AcDbEntity
  8
0
 48
0.27
100
AcDbLine
 10
2297.98784249171
 20
-128.0726815084308
 30
0.0
 11
2298.434691241709
 21
-128.4696152584311
 31
0.0
  0
LINE
  5
A472
330
1E
100
AcDbEntity
  8
0
 48
0.27
100
AcDbLine
 10
2297.47803749171
 20
-133.675297758431
 30
0.0
 11
2297.98784249171
 21
-133.380349008431
 31
0.0
  0
LINE
  5
A473
330
1E
100
AcDbEntity
  8
0
 48
0.27
100
AcDbLine
 10
2299.39695374171
 20
-130.110637758431
 30
0.0
 11
2299.45299499171
 21
-130.7265152584309
 31
0.0
  0
LINE
  5
A474
330
1E
100
AcDbEntity
  8
0
 48
0.27
100
AcDbLine
 10
2299.39695374171
 20
-131.3423927584308
 30
0.0
 11
2299.230983741709
 21
-131.9346027584311
 31
0.0
  0
LINE
  5
A475
330
1E
100
AcDbEntity
  8
0
 48
0.27
100
AcDbLine
 10
2296.076349991709
 20
-128.5299690084309
 30
0.0
 11
2296.464498741709
 21
-128.657414008431
 31
0.0
  0
LINE
  5
A476
330
1E
100
AcDbEntity
  8
0
 48
0.27
100
AcDbLine
 10
2295.67268874171
 20
-132.9660952584308
 30
0.0
 11
2296.076349991709
 21
-132.9230627584311
 31
0.0
  0
LINE
  5
A477
330
1E
100
AcDbEntity
  8
0
 48
0.27
100
AcDbLine
 10
2299.45299499171
 20
-130.7265152584309
 30
0.0
 11
2299.39695374171
 21
-131.3423927584308
 31
0.0
  0
LINE
  5
A478
330
1E
100
AcDbEntity
  8
0
 48
0.27
100
AcDbLine
 10
2298.434691241709
 20
-128.4696152584311
 30
0.0
 11
2298.80140999171
 21
-128.9532802584308
 31
0.0
  0
LINE
  5
A479
330
1E
100
AcDbEntity
  8
0
 48
0.27
100
AcDbLine
 10
2297.98784249171
 20
-133.380349008431
 30
0.0
 11
2298.434691241709
 21
-132.983415258431
 31
0.0
  0
LINE
  5
A47A
330
1E
100
AcDbEntity
  8
0
 48
0.27
100
AcDbLine
 10
2296.464498741709
 20
-128.657414008431
 30
0.0
 11
2296.82221999171
 21
-128.864372758431
 31
0.0
  0
LINE
  5
A47B
330
1E
100
AcDbEntity
  8
0
 48
0.27
100
AcDbLine
 10
2296.076349991709
 20
-132.9230627584311
 30
0.0
 11
2296.464498741709
 21
-132.795617758431
 31
0.0
  0
LINE
  5
A47C
330
1E
100
AcDbEntity
  8
0
 48
0.27
100
AcDbLine
 10
2298.80140999171
 20
-128.9532802584308
 30
0.0
 11
2299.07390624171
 21
-129.505090258431
 31
0.0
  0
LINE
  5
A47D
330
1E
100
AcDbEntity
  8
0
 48
0.27
100
AcDbLine
 10
2298.80140999171
 20
-132.499750258431
 30
0.0
 11
2298.434691241709
 21
-132.983415258431
 31
0.0
  0
LINE
  5
A47E
330
1E
100
AcDbEntity
  8
0
 48
0.27
100
AcDbLine
 10
2299.07390624171
 20
-129.505090258431
 30
0.0
 11
2299.24170999171
 21
-130.1038377584309
 31
0.0
  0
LINE
  5
A47F
330
1E
100
AcDbEntity
  8
0
 48
0.27
100
AcDbLine
 10
2299.07390624171
 20
-131.9479415084311
 30
0.0
 11
2298.80140999171
 21
-132.499750258431
 31
0.0
  0
LINE
  5
A480
330
1E
100
AcDbEntity
  8
0
 48
0.27
100
AcDbLine
 10
2296.82221999171
 20
-128.864372758431
 30
0.0
 11
2297.13576374171
 21
-129.1428940084311
 31
0.0
  0
LINE
  5
A481
330
1E
100
AcDbEntity
  8
0
 48
0.27
100
AcDbLine
 10
2296.464498741709
 20
-132.795617758431
 30
0.0
 11
2296.82221999171
 21
-132.588657758431
 31
0.0
  0
LINE
  5
A482
330
1E
100
AcDbEntity
  8
0
 48
0.27
100
AcDbLine
 10
2299.24170999171
 20
-130.1038377584309
 30
0.0
 11
2299.29836999171
 21
-130.7265152584309
 31
0.0
  0
LINE
  5
A483
330
1E
100
AcDbEntity
  8
0
 48
0.27
100
AcDbLine
 10
2299.24170999171
 20
-131.3491927584309
 30
0.0
 11
2299.07390624171
 21
-131.9479415084311
 31
0.0
  0
LINE
  5
A484
330
1E
100
AcDbEntity
  8
0
 48
0.27
100
AcDbLine
 10
2299.29836999171
 20
-130.7265152584309
 30
0.0
 11
2299.24170999171
 21
-131.3491927584309
 31
0.0
  0
LINE
  5
A485
330
1E
100
AcDbEntity
  8
0
 48
0.27
100
AcDbLine
 10
2297.13576374171
 20
-129.1428940084311
 30
0.0
 11
2297.39308374171
 21
-129.482271508431
 31
0.0
  0
LINE
  5
A486
330
1E
100
AcDbEntity
  8
0
 48
0.27
100
AcDbLine
 10
2296.82221999171
 20
-132.588657758431
 30
0.0
 11
2297.13576374171
 21
-132.3101377584307
 31
0.0
  0
LINE
  5
A487
330
1E
100
AcDbEntity
  8
0
 48
0.27
100
AcDbLine
 10
2297.39308374171
 20
-129.482271508431
 30
0.0
 11
2297.58428874171
 21
-129.8694652584308
 31
0.0
  0
LINE
  5
A488
330
1E
100
AcDbEntity
  8
0
 48
0.27
100
AcDbLine
 10
2297.39308374171
 20
-131.9707590084308
 30
0.0
 11
2297.13576374171
 21
-132.3101377584307
 31
0.0
  0
LINE
  5
A489
330
1E
100
AcDbEntity
  8
0
 48
0.27
100
AcDbLine
 10
2297.58428874171
 20
-129.8694652584308
 30
0.0
 11
2297.702032491709
 21
-130.2895952584308
 31
0.0
  0
LINE
  5
A48A
330
1E
100
AcDbEntity
  8
0
 48
0.27
100
AcDbLine
 10
2297.58428874171
 20
-131.583565258431
 30
0.0
 11
2297.39308374171
 21
-131.9707590084308
 31
0.0
  0
LINE
  5
A48B
330
1E
100
AcDbEntity
  8
0
 48
0.27
100
AcDbLine
 10
2297.702032491709
 20
-130.2895952584308
 30
0.0
 11
2297.74178999171
 21
-130.7265152584309
 31
0.0
  0
LINE
  5
A48C
330
1E
100
AcDbEntity
  8
0
 48
0.27
100
AcDbLine
 10
2297.702032491709
 20
-131.163435258431
 30
0.0
 11
2297.58428874171
 21
-131.583565258431
 31
0.0
  0
LINE
  5
A48D
330
1E
100
AcDbEntity
  8
0
 48
0.27
100
AcDbLine
 10
2297.74178999171
 20
-130.7265152584309
 30
0.0
 11
2297.702032491709
 21
-131.163435258431
 31
0.0
  0
POINT
  5
A48E
330
1E
100
AcDbEntity
  8
0
100
AcDbPoint
 10
2293.400804991709
 20
-130.7265152584309
 30
0.0
1001
pntflag
1000
endpoint
  0
ARC
  5
A48F
330
1E
100
AcDbEntity
  8
0
100
AcDbCircle
 10
2307.593680566276
 20
-143.412274108379
 30
0.0
 40
2.258017748891656
100
AcDbArc
 50
105.9630221688284
 51
179.0723572120041
  0
ARC
  5
A490
330
1E
100
AcDbEntity
  8
0
100
AcDbCircle
 10
2307.593680566276
 20
-146.0407941047454
 30
0.0
 40
2.258017748891656
100
AcDbArc
 50
180.9276427879959
 51
254.0369778311716
  0
LINE
  5
A491
330
1E
100
AcDbEntity
  8
0
100
AcDbLine
 10
2305.33595875771
 20
-143.3757174477116
 30
0.0
 11
2305.33595875771
 21
-146.0773507654137
 31
0.0
  0
LINE
  5
A492
330
1E
100
AcDbEntity
  8
中心線
100
AcDbLine
 10
2303.671108571673
 20
-144.7265341065622
 30
0.0
 11
2314.316334099602
 21
-144.7265341065622
 31
0.0
  0
LINE
  5
A493
330
1E
100
AcDbEntity
  8
中心線
100
AcDbLine
 10
2461.572397197214
 20
76.84395582043794
 30
0.0
 11
2479.372977786205
 21
76.84395582043794
 31
0.0
  0
CIRCLE
  5
A494
330
1E
100
AcDbEntity
  8
0
100
AcDbCircle
 10
2470.47268749171
 20
76.84395582043783
 30
0.0
 40
6.0
  0
ARC
  5
A495
330
1E
100
AcDbEntity
  8
標註線
 62
     1
100
AcDbCircle
 10
2470.47268749171
 20
76.84395582043783
 30
0.0
 40
7.0
100
AcDbArc
 50
180.0
 51
90.0
  0
LINE
  5
A496
330
1E
100
AcDbEntity
  8
中心線
100
AcDbLine
 10
2470.47268749171
 20
85.78544131699459
 30
0.0
 11
2470.47268749171
 21
67.90247032388129
 31
0.0
  0
CIRCLE
  5
A497
330
1E
100
AcDbEntity
  8
0
100
AcDbCircle
 10
2457.97268749171
 20
18.84395582043783
 30
0.0
 40
6.0
  0
ARC
  5
A498
330
1E
100
AcDbEntity
  8
標註線
 62
     1
100
AcDbCircle
 10
2457.97268749171
 20
18.84395582043783
 30
0.0
 40
7.0
100
AcDbArc
 50
180.0
 51
90.0
  0
LINE
  5
A499
330
1E
100
AcDbEntity
  8
中心線
100
AcDbLine
 10
2457.97268749171
 20
27.78544131699459
 30
0.0
 11
2457.97268749171
 21
9.902470323881289
 31
0.0
  0
LINE
  5
A49A
330
1E
100
AcDbEntity
  8
中心線
100
AcDbLine
 10
2461.572397197214
 20
-39.15604417956206
 30
0.0
 11
2479.372977786205
 21
-39.15604417956206
 31
0.0
  0
CIRCLE
  5
A49B
330
1E
100
AcDbEntity
  8
0
100
AcDbCircle
 10
2470.47268749171
 20
-39.15604417956229
 30
0.0
 40
6.0
  0
ARC
  5
A49C
330
1E
100
AcDbEntity
  8
標註線
 62
     1
100
AcDbCircle
 10
2470.47268749171
 20
-39.15604417956229
 30
0.0
 40
7.0
100
AcDbArc
 50
180.0
 51
90.0
  0
LINE
  5
A49D
330
1E
100
AcDbEntity
  8
中心線
100
AcDbLine
 10
2470.47268749171
 20
-30.21455868300541
 30
0.0
 11
2470.47268749171
 21
-48.09752967611871
 31
0.0
  0
LINE
  5
A49E
330
1E
100
AcDbEntity
  8
中心線
100
AcDbLine
 10
2366.572397197214
 20
-39.15604417956206
 30
0.0
 11
2384.372977786206
 21
-39.15604417956206
 31
0.0
  0
CIRCLE
  5
A49F
330
1E
100
AcDbEntity
  8
0
100
AcDbCircle
 10
2375.47268749171
 20
-39.15604417956229
 30
0.0
 40
6.0
  0
ARC
  5
A4A0
330
1E
100
AcDbEntity
  8
標註線
 62
     1
100
AcDbCircle
 10
2375.47268749171
 20
-39.15604417956229
 30
0.0
 40
7.0
100
AcDbArc
 50
180.0
 51
90.0
  0
LINE
  5
A4A1
330
1E
100
AcDbEntity
  8
中心線
100
AcDbLine
 10
2375.47268749171
 20
-30.21455868300541
 30
0.0
 11
2375.47268749171
 21
-48.09752967611871
 31
0.0
  0
CIRCLE
  5
A4A2
330
1E
100
AcDbEntity
  8
0
100
AcDbCircle
 10
2387.97268749171
 20
18.84395582043783
 30
0.0
 40
6.0
  0
ARC
  5
A4A3
330
1E
100
AcDbEntity
  8
標註線
 62
     1
100
AcDbCircle
 10
2387.97268749171
 20
18.84395582043783
 30
0.0
 40
7.0
100
AcDbArc
 50
180.0
 51
90.0
  0
LINE
  5
A4A4
330
1E
100
AcDbEntity
  8
中心線
100
AcDbLine
 10
2387.97268749171
 20
27.78544131699459
 30
0.0
 11
2387.97268749171
 21
9.902470323881289
 31
0.0
  0
LINE
  5
A4A5
330
1E
100
AcDbEntity
  8
中心線
100
AcDbLine
 10
2366.572397197214
 20
76.84395582043794
 30
0.0
 11
2384.372977786206
 21
76.84395582043794
 31
0.0
  0
CIRCLE
  5
A4A6
330
1E
100
AcDbEntity
  8
0
100
AcDbCircle
 10
2375.47268749171
 20
76.84395582043783
 30
0.0
 40
6.0
  0
ARC
  5
A4A7
330
1E
100
AcDbEntity
  8
標註線
 62
     1
100
AcDbCircle
 10
2375.47268749171
 20
76.84395582043783
 30
0.0
 40
7.0
100
AcDbArc
 50
180.0
 51
90.0
  0
LINE
  5
A4A8
330
1E
100
AcDbEntity
  8
中心線
100
AcDbLine
 10
2375.47268749171
 20
85.78544131699459
 30
0.0
 11
2375.47268749171
 21
67.90247032388129
 31
0.0
  0
LINE
  5
A4A9
330
1E
100
AcDbEntity
  8
中心線
 48
0.27
100
AcDbLine
 10
2557.254617488196
 20
18.84395656103788
 30
0.0
 11
2588.690757495223
 21
18.84395656103788
 31
0.0
  0
CIRCLE
  5
A4AA
330
1E
100
AcDbEntity
  8
0
100
AcDbCircle
 10
2572.97268749171
 20
18.84395656103788
 30
0.0
 40
8.000000000000227
  0
CIRCLE
  5
A4AB
330
1E
100
AcDbEntity
  8
0
100
AcDbCircle
 10
2572.97268749171
 20
18.84395656103788
 30
0.0
 40
11.50000000000022
  0
LINE
  5
A4AC
330
1E
100
AcDbEntity
  8
中心線
 48
0.27
100
AcDbLine
 10
2572.97268749171
 20
2.775886557524472
 30
0.0
 11
2572.97268749171
 21
34.9120265645513
 31
0.0
  0
LINE
  5
A4AD
330
1E
100
AcDbEntity
  8
中心線
 48
0.27
100
AcDbLine
 10
2257.254617488197
 20
18.84395656103788
 30
0.0
 11
2288.690757495223
 21
18.84395656103788
 31
0.0
  0
CIRCLE
  5
A4AE
330
1E
100
AcDbEntity
  8
0
100
AcDbCircle
 10
2272.97268749171
 20
18.84395656103788
 30
0.0
 40
8.000000000000227
  0
CIRCLE
  5
A4AF
330
1E
100
AcDbEntity
  8
0
100
AcDbCircle
 10
2272.97268749171
 20
18.84395656103788
 30
0.0
 40
11.50000000000022
  0
LINE
  5
A4B0
330
1E
100
AcDbEntity
  8
中心線
 48
0.27
100
AcDbLine
 10
2272.97268749171
 20
2.775886557524472
 30
0.0
 11
2272.97268749171
 21
34.9120265645513
 31
0.0
  0
LINE
  5
A4B1
330
1E
100
AcDbEntity
  8
0
  6
Continuous
100
AcDbLine
 10
2305.33595875771
 20
14.24395642834747
 30
0.0
 11
2305.33595875771
 21
23.44395669392861
 31
0.0
  0
ARC
  5
A4B2
330
1E
100
AcDbEntity
  8
0
  6
Continuous
100
AcDbCircle
 10
2315.959204063889
 20
18.84395656113793
 30
0.0
 40
10.62324530617823
100
AcDbArc
 50
163.2213499979114
 51
196.7786500020885
  0
ARC
  5
A4B3
330
1E
100
AcDbEntity
  8
0
  6
Continuous
100
AcDbCircle
 10
2294.236047576442
 20
14.14781863604924
 30
0.0
 40
2.472178306553661
100
AcDbArc
 50
34.63277999893853
 51
100.3672200010633
  0
ARC
  5
A4B4
330
1E
100
AcDbEntity
  8
0
  6
Continuous
100
AcDbCircle
 10
2300.53788032773
 20
18.84395656113793
 30
0.0
 40
5.333333333333332
100
AcDbArc
 50
90.0
 51
210.8352048940846
  0
LINE
  5
A4B5
330
1E
100
AcDbEntity
  8
0
  6
Continuous
100
AcDbLine
 10
2302.049351395252
 20
13.51062322780467
 30
0.0
 11
2305.432788208397
 21
13.51062322780467
 31
0.0
  0
ARC
  5
A4B6
330
1E
100
AcDbEntity
  8
0
  6
Continuous
100
AcDbCircle
 10
2301.673278027853
 20
11.06721691658094
 30
0.0
 40
2.472178306553661
100
AcDbArc
 50
34.63277999893853
 51
100.3672200010633
  0
ARC
  5
A4B7
330
1E
100
AcDbEntity
  8
0
  6
Continuous
100
AcDbCircle
 10
2302.561785565038
 20
7.846410654351643
 30
0.0
 40
2.746231479756805
100
AcDbArc
 50
89.1520988349392
 51
159.1520988349398
  0
ARC
  5
A4B8
330
1E
100
AcDbEntity
  8
0
  6
Continuous
100
AcDbCircle
 10
2302.499703599115
 20
13.06238473901624
 30
0.0
 40
2.472178306553661
100
AcDbArc
 50
214.6327799989385
 51
280.3672200010634
  0
LINE
  5
A4B9
330
1E
100
AcDbEntity
  8
0
  6
Continuous
100
AcDbLine
 10
2295.182109256213
 20
16.43181357419269
 30
0.0
 11
2302.619339707623
 21
13.35121185472428
 31
0.0
  0
LINE
  5
A4BA
330
1E
100
AcDbEntity
  8
0
  6
Continuous
100
AcDbLine
 10
2294.116411467935
 20
13.85899152034108
 30
0.0
 11
2301.553641919345
 21
10.7783898008729
 31
0.0
  0
LINE
  5
A4BB
330
1E
100
AcDbEntity
  8
0
  6
Continuous
100
AcDbLine
 10
2294.082525057832
 20
11.27293650318802
 30
0.0
 11
2299.748986190568
 21
8.925811451348863
 31
0.0
  0
ARC
  5
A4BC
330
1E
100
AcDbEntity
  8
0
  6
Continuous
100
AcDbCircle
 10
2295.661001726031
 20
8.026104579957518
 30
0.0
 40
3.813798694049016
100
AcDbArc
 50
118.5864858262631
 51
163.586485826263
  0
LINE
  5
A4BD
330
1E
100
AcDbEntity
  8
0
  6
Continuous
100
AcDbLine
 10
2292.002625424378
 20
9.103760978921172
 30
0.0
 11
2299.685858602778
 21
5.921261593552571
 31
0.0
  0
LINE
  5
A4BE
330
1E
100
AcDbEntity
  8
0
  6
Continuous
100
AcDbLine
 10
2292.002625424378
 20
5.061099695739926
 30
0.0
 11
2292.002625424378
 21
9.103760978921172
 31
0.0
  0
ARC
  5
A4BF
330
1E
100
AcDbEntity
  8
0
  6
Continuous
100
AcDbCircle
 10
2296.33697776425
 20
7.746106137087849
 30
0.0
 40
3.813798694049014
100
AcDbArc
 50
331.4135141737369
 51
16.41351417374012
  0
ARC
  5
A4C0
330
1E
100
AcDbEntity
  8
0
  6
Continuous
100
AcDbCircle
 10
2291.330323922853
 20
12.4986343918182
 30
0.0
 40
2.746231479756805
100
AcDbArc
 50
335.8479011650612
 51
45.84790116506007
  0
ARC
  5
A4C1
330
1E
100
AcDbEntity
  8
0
  6
Continuous
100
AcDbCircle
 10
2295.062473147706
 20
16.14298645848453
 30
0.0
 40
2.472178306553661
100
AcDbArc
 50
214.6327799989385
 51
280.3672200010634
  0
LINE
  5
A4C2
330
1E
100
AcDbEntity
  8
0
  6
Continuous
100
AcDbLine
 10
2293.028337250957
 20
14.73809164097486
 30
0.0
 11
2293.791106942312
 21
16.57958057480925
 31
0.0
  0
ARC
  5
A4C3
330
1E
100
AcDbEntity
  8
0
  6
Continuous
100
AcDbCircle
 10
2295.343552002371
 20
6.303738670636903
 30
0.0
 40
9.295339642905961
100
AcDbArc
 50
50.7213499979104
 51
84.27865000208958
  0
LINE
  5
A4C4
330
1E
100
AcDbEntity
  8
0
  6
Continuous
100
AcDbLine
 10
2295.507414211225
 20
13.71122434186577
 30
0.0
 11
2296.270183902579
 21
15.5527132757004
 31
0.0
  0
ARC
  5
A4C5
330
1E
100
AcDbEntity
  8
0
  6
Continuous
100
AcDbCircle
 10
2301.392199173187
 20
20.90646470442857
 30
0.0
 40
9.295339642905961
100
AcDbArc
 50
230.7213499979124
 51
264.2786500020895
  0
LINE
  5
A4C6
330
1E
100
AcDbEntity
  8
0
  6
Continuous
100
AcDbLine
 10
2300.46556727298
 20
11.65749009936519
 30
0.0
 11
2301.228336964334
 21
13.49897903319959
 31
0.0
  0
LINE
  5
A4C7
330
1E
100
AcDbEntity
  8
0
  6
Continuous
100
AcDbLine
 10
2302.944587897184
 20
10.63056576122881
 30
0.0
 11
2303.707414421671
 21
12.47219190238513
 31
0.0
  0
ARC
  5
A4C8
330
1E
100
AcDbEntity
  8
0
  6
Continuous
100
AcDbCircle
 10
2308.161305393772
 20
14.24395642834747
 30
0.0
 40
2.825346636061326
100
AcDbArc
 50
147.1327799989362
 51
212.8672200010638
  0
LINE
  5
A4C9
330
1E
100
AcDbEntity
  8
0
  6
Continuous
100
AcDbLine
 10
2305.788295480523
 20
12.7106232278046
 30
0.0
 11
2306.97268749171
 21
12.71062322780472
 31
0.0
  0
LINE
  5
A4CA
330
1E
100
AcDbEntity
  8
0
  6
Continuous
100
AcDbLine
 10
2305.788295480523
 20
15.77729016005242
 30
0.0
 11
2306.97268749171
 21
15.77729016005242
 31
0.0
  0
LINE
  5
A4CB
330
1E
100
AcDbEntity
  8
0
  6
Continuous
100
AcDbLine
 10
2300.53788032773
 20
24.1772898944713
 30
0.0
 11
2305.432788208397
 21
24.1772898944713
 31
0.0
  0
ARC
  5
A4CC
330
1E
100
AcDbEntity
  8
0
  6
Continuous
100
AcDbCircle
 10
2308.161305393772
 20
23.44395669392861
 30
0.0
 40
2.825346636061326
100
AcDbArc
 50
147.1327799989362
 51
212.8672200010638
  0
LINE
  5
A4CD
330
1E
100
AcDbEntity
  8
0
  6
Continuous
100
AcDbLine
 10
2305.788295480523
 20
21.91062296222344
 30
0.0
 11
2306.97268749171
 21
21.91062296222344
 31
0.0
  0
LINE
  5
A4CE
330
1E
100
AcDbEntity
  8
0
  6
Continuous
100
AcDbLine
 10
2305.788295480523
 20
24.97728989447137
 30
0.0
 11
2306.97268749171
 21
24.97728989447137
 31
0.0
  0
LINE
  5
A4CF
330
1E
100
AcDbEntity
  8
0
  6
Continuous
100
AcDbLine
 10
2292.002625424378
 20
5.061099695739926
 30
0.0
 11
2296.827265395401
 21
3.062668386174664
 31
0.0
  0
LINE
  5
A4D0
330
1E
100
AcDbEntity
  8
0
  6
Continuous
100
AcDbLine
 10
2296.827265395401
 20
3.062668386174664
 30
0.0
 11
2299.685858602778
 21
5.921261593552571
 31
0.0
  0
LINE
  5
A4D1
330
1E
100
AcDbEntity
  8
中心線
100
AcDbLine
 10
2303.671108571673
 20
57.3439756346379
 30
0.0
 11
2314.316334099602
 21
57.3439756346379
 31
0.0
  0
LINE
  5
A4D2
330
1E
100
AcDbEntity
  8
0
100
AcDbLine
 10
2305.33595875771
 20
58.69479229348837
 30
0.0
 11
2305.33595875771
 21
55.99315897578652
 31
0.0
  0
ARC
  5
A4D3
330
1E
100
AcDbEntity
  8
0
100
AcDbCircle
 10
2307.593680566276
 20
56.02971563645462
 30
0.0
 40
2.258017748891656
100
AcDbArc
 50
180.9276427879959
 51
254.0369778311716
  0
ARC
  5
A4D4
330
1E
100
AcDbEntity
  8
0
100
AcDbCircle
 10
2307.593680566276
 20
58.65823563282117
 30
0.0
 40
2.258017748891656
100
AcDbArc
 50
105.9630221688284
 51
179.0723572120041
  0
ARC
  5
A4DD
330
1E
100
AcDbEntity
  8
0
100
AcDbCircle
 10
2307.593680566276
 20
-18.34180399557908
 30
0.0
 40
2.258017748891656
100
AcDbArc
 50
105.9630221688284
 51
179.0723572120041
  0
LINE
  5
A4DE
330
1E
100
AcDbEntity
  8
0
100
AcDbLine
 10
2305.33595875771
 20
-21.00688065261284
 30
0.0
 11
2305.33595875771
 21
-18.3052473349112
 31
0.0
  0
LINE
  5
A4DF
330
1E
100
AcDbEntity
  8
中心線
100
AcDbLine
 10
2303.671108571673
 20
-19.65606399376247
 30
0.0
 11
2314.316334099602
 21
-19.65606399376247
 31
0.0
  0
ARC
  5
A4E0
330
1E
100
AcDbEntity
  8
0
100
AcDbCircle
 10
2307.593680566276
 20
-20.97032399194586
 30
0.0
 40
2.258017748891656
100
AcDbArc
 50
180.9276427879959
 51
254.0369778311716
  0
LINE
  5
A4E1
330
1E
100
AcDbEntity
  8
0
  6
Continuous
100
AcDbLine
 10
2305.33595875771
 20
14.24395642834747
 30
0.0
 11
2305.33595875771
 21
23.44395669392861
 31
0.0
  0
ARC
  5
A4E2
330
1E
100
AcDbEntity
  8
0
  6
Continuous
100
AcDbCircle
 10
2315.959204063889
 20
18.84395656113793
 30
0.0
 40
10.62324530617823
100
AcDbArc
 50
163.2213499979114
 51
196.7786500020885
  0
ARC
  5
A4E3
330
1E
100
AcDbEntity
  8
0
  6
Continuous
100
AcDbCircle
 10
2294.236047576442
 20
14.14781863604924
 30
0.0
 40
2.472178306553661
100
AcDbArc
 50
34.63277999893853
 51
100.3672200010633
  0
ARC
  5
A4E4
330
1E
100
AcDbEntity
  8
0
  6
Continuous
100
AcDbCircle
 10
2300.53788032773
 20
18.84395656113793
 30
0.0
 40
5.333333333333332
100
AcDbArc
 50
90.0
 51
210.8352048940846
  0
LINE
  5
A4E5
330
1E
100
AcDbEntity
  8
0
  6
Continuous
100
AcDbLine
 10
2302.049351395252
 20
13.51062322780467
 30
0.0
 11
2305.432788208397
 21
13.51062322780467
 31
0.0
  0
ARC
  5
A4E6
330
1E
100
AcDbEntity
  8
0
  6
Continuous
100
AcDbCircle
 10
2301.673278027853
 20
11.06721691658094
 30
0.0
 40
2.472178306553661
100
AcDbArc
 50
34.63277999893853
 51
100.3672200010633
  0
ARC
  5
A4E7
330
1E
100
AcDbEntity
  8
0
  6
Continuous
100
AcDbCircle
 10
2302.561785565038
 20
7.846410654351643
 30
0.0
 40
2.746231479756805
100
AcDbArc
 50
89.1520988349392
 51
159.1520988349398
  0
ARC
  5
A4E8
330
1E
100
AcDbEntity
  8
0
  6
Continuous
100
AcDbCircle
 10
2302.499703599115
 20
13.06238473901624
 30
0.0
 40
2.472178306553661
100
AcDbArc
 50
214.6327799989385
 51
280.3672200010634
  0
LINE
  5
A4E9
330
1E
100
AcDbEntity
  8
0
  6
Continuous
100
AcDbLine
 10
2295.182109256213
 20
16.43181357419269
 30
0.0
 11
2302.619339707623
 21
13.35121185472428
 31
0.0
  0
LINE
  5
A4EA
330
1E
100
AcDbEntity
  8
0
  6
Continuous
100
AcDbLine
 10
2294.116411467935
 20
13.85899152034108
 30
0.0
 11
2301.553641919345
 21
10.7783898008729
 31
0.0
  0
LINE
  5
A4EB
330
1E
100
AcDbEntity
  8
0
  6
Continuous
100
AcDbLine
 10
2294.082525057832
 20
11.27293650318802
 30
0.0
 11
2299.748986190568
 21
8.925811451348863
 31
0.0
  0
ARC
  5
A4EC
330
1E
100
AcDbEntity
  8
0
  6
Continuous
100
AcDbCircle
 10
2295.661001726031
 20
8.026104579957518
 30
0.0
 40
3.813798694049016
100
AcDbArc
 50
118.5864858262631
 51
163.586485826263
  0
LINE
  5
A4ED
330
1E
100
AcDbEntity
  8
0
  6
Continuous
100
AcDbLine
 10
2292.002625424378
 20
9.103760978921172
 30
0.0
 11
2299.685858602778
 21
5.921261593552571
 31
0.0
  0
LINE
  5
A4EE
330
1E
100
AcDbEntity
  8
0
  6
Continuous
100
AcDbLine
 10
2292.002625424378
 20
5.061099695739926
 30
0.0
 11
2292.002625424378
 21
9.103760978921172
 31
0.0
  0
ARC
  5
A4EF
330
1E
100
AcDbEntity
  8
0
  6
Continuous
100
AcDbCircle
 10
2296.33697776425
 20
7.746106137087849
 30
0.0
 40
3.813798694049014
100
AcDbArc
 50
331.4135141737369
 51
16.41351417374012
  0
ARC
  5
A4F0
330
1E
100
AcDbEntity
  8
0
  6
Continuous
100
AcDbCircle
 10
2291.330323922853
 20
12.4986343918182
 30
0.0
 40
2.746231479756805
100
AcDbArc
 50
335.8479011650612
 51
45.84790116506007
  0
ARC
  5
A4F1
330
1E
100
AcDbEntity
  8
0
  6
Continuous
100
AcDbCircle
 10
2295.062473147706
 20
16.14298645848453
 30
0.0
 40
2.472178306553661
100
AcDbArc
 50
214.6327799989385
 51
280.3672200010634
  0
LINE
  5
A4F2
330
1E
100
AcDbEntity
  8
0
  6
Continuous
100
AcDbLine
 10
2293.028337250957
 20
14.73809164097486
 30
0.0
 11
2293.791106942312
 21
16.57958057480925
 31
0.0
  0
ARC
  5
A4F3
330
1E
100
AcDbEntity
  8
0
  6
Continuous
100
AcDbCircle
 10
2295.343552002371
 20
6.303738670636903
 30
0.0
 40
9.295339642905961
100
AcDbArc
 50
50.7213499979104
 51
84.27865000208958
  0
LINE
  5
A4F4
330
1E
100
AcDbEntity
  8
0
  6
Continuous
100
AcDbLine
 10
2295.507414211225
 20
13.71122434186577
 30
0.0
 11
2296.270183902579
 21
15.5527132757004
 31
0.0
  0
ARC
  5
A4F5
330
1E
100
AcDbEntity
  8
0
  6
Continuous
100
AcDbCircle
 10
2301.392199173187
 20
20.90646470442857
 30
0.0
 40
9.295339642905961
100
AcDbArc
 50
230.7213499979124
 51
264.2786500020895
  0
LINE
  5
A4F6
330
1E
100
AcDbEntity
  8
0
  6
Continuous
100
AcDbLine
 10
2300.46556727298
 20
11.65749009936519
 30
0.0
 11
2301.228336964334
 21
13.49897903319959
 31
0.0
  0
LINE
  5
A4F7
330
1E
100
AcDbEntity
  8
0
  6
Continuous
100
AcDbLine
 10
2302.944587897184
 20
10.63056576122881
 30
0.0
 11
2303.707414421671
 21
12.47219190238513
 31
0.0
  0
ARC
  5
A4F8
330
1E
100
AcDbEntity
  8
0
  6
Continuous
100
AcDbCircle
 10
2308.161305393772
 20
14.24395642834747
 30
0.0
 40
2.825346636061326
100
AcDbArc
 50
147.1327799989362
 51
212.8672200010638
  0
LINE
  5
A4F9
330
1E
100
AcDbEntity
  8
0
  6
Continuous
100
AcDbLine
 10
2305.788295480523
 20
12.7106232278046
 30
0.0
 11
2306.97268749171
 21
12.71062322780472
 31
0.0
  0
LINE
  5
A4FA
330
1E
100
AcDbEntity
  8
0
  6
Continuous
100
AcDbLine
 10
2305.788295480523
 20
15.77729016005242
 30
0.0
 11
2306.97268749171
 21
15.77729016005242
 31
0.0
  0
LINE
  5
A4FB
330
1E
100
AcDbEntity
  8
0
  6
Continuous
100
AcDbLine
 10
2300.53788032773
 20
24.1772898944713
 30
0.0
 11
2305.432788208397
 21
24.1772898944713
 31
0.0
  0
ARC
  5
A4FC
330
1E
100
AcDbEntity
  8
0
  6
Continuous
100
AcDbCircle
 10
2308.161305393772
 20
23.44395669392861
 30
0.0
 40
2.825346636061326
100
AcDbArc
 50
147.1327799989362
 51
212.8672200010638
  0
LINE
  5
A4FD
330
1E
100
AcDbEntity
  8
0
  6
Continuous
100
AcDbLine
 10
2305.788295480523
 20
21.91062296222344
 30
0.0
 11
2306.97268749171
 21
21.91062296222344
 31
0.0
  0
LINE
  5
A4FE
330
1E
100
AcDbEntity
  8
0
  6
Continuous
100
AcDbLine
 10
2305.788295480523
 20
24.97728989447137
 30
0.0
 11
2306.97268749171
 21
24.97728989447137
 31
0.0
  0
LINE
  5
A4FF
330
1E
100
AcDbEntity
  8
0
  6
Continuous
100
AcDbLine
 10
2292.002625424378
 20
5.061099695739926
 30
0.0
 11
2296.827265395401
 21
3.062668386174664
 31
0.0
  0
LINE
  5
A500
330
1E
100
AcDbEntity
  8
0
  6
Continuous
100
AcDbLine
 10
2296.827265395401
 20
3.062668386174664
 30
0.0
 11
2299.685858602778
 21
5.921261593552571
 31
0.0
  0
LINE
  5
A505
330
1E
100
AcDbEntity
  8
中心線
100
AcDbLine
 10
2542.274266411747
 20
-19.65606399376247
 30
0.0
 11
2531.629040883818
 21
-19.65606399376247
 31
0.0
  0
LINE
  5
A506
330
1E
100
AcDbEntity
  8
0
100
AcDbLine
 10
2540.609416225709
 20
-21.00688065261284
 30
0.0
 11
2540.609416225709
 21
-18.30524733491097
 31
0.0
  0
ARC
  5
A507
330
1E
100
AcDbEntity
  8
0
100
AcDbCircle
 10
2538.351694417143
 20
-18.34180399557908
 30
0.0
 40
2.258017748891656
100
AcDbArc
 50
0.9276427879959022
 51
74.03697783117156
  0
ARC
  5
A508
330
1E
100
AcDbEntity
  8
0
100
AcDbCircle
 10
2538.351694417143
 20
-20.97032399194564
 30
0.0
 40
2.258017748891656
100
AcDbArc
 50
285.9630221688284
 51
359.0723572120041
  0
ARC
  5
A50D
330
1E
100
AcDbEntity
  8
0
100
AcDbCircle
 10
2538.351694417143
 20
58.65823563282129
 30
0.0
 40
2.258017748891656
100
AcDbArc
 50
0.9276427879959022
 51
74.03697783117156
  0
ARC
  5
A50E
330
1E
100
AcDbEntity
  8
0
100
AcDbCircle
 10
2538.351694417143
 20
56.02971563645474
 30
0.0
 40
2.258017748891656
100
AcDbArc
 50
285.9630221688284
 51
359.0723572120041
  0
LINE
  5
A50F
330
1E
100
AcDbEntity
  8
0
100
AcDbLine
 10
2540.609416225709
 20
58.69479229348849
 30
0.0
 11
2540.609416225709
 21
55.99315897578662
 31
0.0
  0
LINE
  5
A510
330
1E
100
AcDbEntity
  8
中心線
100
AcDbLine
 10
2542.274266411747
 20
57.34397563463801
 30
0.0
 11
2531.629040883818
 21
57.34397563463801
 31
0.0
  0
LINE
  5
A51A
330
1E
100
AcDbEntity
  8
中心線
 48
0.27
100
AcDbLine
 10
2470.47268749171
 20
-178.7265651065722
 30
3.191352311764715
 11
2470.47268749171
 21
-116.7265651065618
 31
-3.0
  0
LINE
  5
A522
330
1E
100
AcDbEntity
  8
中心線
 48
0.27
100
AcDbLine
 10
2375.47268749171
 20
-178.7265651065714
 30
3.191352311764635
 11
2375.47268749171
 21
-116.7265651065618
 31
-3.0
  0
LINE
  5
A523
330
1E
100
AcDbEntity
  8
虛線
 48
0.27
100
AcDbLine
 10
2509.87268749171
 20
-142.726565106562
 30
0.0
 11
2336.07268749171
 21
-142.726565106562
 31
0.0
  0
LINE
  5
A52B
330
1E
100
AcDbEntity
  8
中心線
 48
0.27
100
AcDbLine
 10
2387.97268749171
 20
-146.7684672038785
 30
0.0
 11
2387.97268749171
 21
-116.7265651065618
 31
-3.0
  0
LINE
  5
A52C
330
1E
100
AcDbEntity
  8
虛線
 48
0.6
100
AcDbLine
 10
2377.972687491709
 20
-130.726534106562
 30
0.0
 11
2377.972687491711
 21
-142.726565106562
 31
0.0
  0
LINE
  5
A52D
330
1E
100
AcDbEntity
  8
虛線
 48
0.6
100
AcDbLine
 10
2377.972687491709
 20
-130.726534106562
 30
0.0
 11
2397.97268749171
 21
-130.726534106562
 31
0.0
  0
LINE
  5
A52E
330
1E
100
AcDbEntity
  8
虛線
 48
0.6
100
AcDbLine
 10
2397.97268749171
 20
-130.726534106562
 30
0.0
 11
2397.972687491709
 21
-142.726565106562
 31
0.0
  0
LINE
  5
A52F
330
1E
100
AcDbEntity
  8
虛線
 48
0.6
100
AcDbLine
 10
2467.97268749171
 20
-130.726534106562
 30
0.0
 11
2467.972687491709
 21
-142.726565106562
 31
0.0
  0
LINE
  5
A530
330
1E
100
AcDbEntity
  8
虛線
 48
0.6
100
AcDbLine
 10
2447.97268749171
 20
-130.726534106562
 30
0.0
 11
2447.972687491712
 21
-142.726565106562
 31
0.0
  0
LINE
  5
A531
330
1E
100
AcDbEntity
  8
虛線
 48
0.6
100
AcDbLine
 10
2467.97268749171
 20
-130.726534106562
 30
0.0
 11
2447.97268749171
 21
-130.726534106562
 31
0.0
  0
LINE
  5
A539
330
1E
100
AcDbEntity
  8
中心線
 48
0.27
100
AcDbLine
 10
2457.97268749171
 20
-146.7684672038785
 30
0.0
 11
2457.97268749171
 21
-116.7265651065618
 31
-3.0
  0
LINE
  5
A549
330
1E
100
AcDbEntity
  8
中心線
 48
0.27
100
AcDbLine
 10
2332.97268749171
 20
-190.5778946803962
 30
0.0
 11
2332.97268749171
 21
-178.726565106562
 31
0.0
  0
LINE
  5
A54A
330
1E
100
AcDbEntity
  8
中心線
 48
0.27
100
AcDbLine
 10
2392.97268749171
 20
-190.5778946803962
 30
0.0
 11
2392.97268749171
 21
-178.726565106562
 31
0.0
  0
LINE
  5
A54B
330
1E
100
AcDbEntity
  8
中心線
 48
0.27
100
AcDbLine
 10
2452.97268749171
 20
-190.5778946803962
 30
0.0
 11
2452.97268749171
 21
-178.726565106562
 31
0.0
  0
LINE
  5
A54C
330
1E
100
AcDbEntity
  8
中心線
 48
0.27
100
AcDbLine
 10
2512.97268749171
 20
-190.5778946803962
 30
0.0
 11
2512.97268749171
 21
-178.726565106562
 31
0.0
  0
LINE
  5
A54D
330
1E
100
AcDbEntity
  8
虛線
 48
0.27
100
AcDbLine
 10
2580.97268749171
 20
-188.2265651065618
 30
0.0
 11
2580.97268749171
 21
-165.226565106562
 31
0.0
  0
LINE
  5
A54E
330
1E
100
AcDbEntity
  8
虛線
 48
0.27
100
AcDbLine
 10
2564.97268749171
 20
-188.2265651065618
 30
0.0
 11
2564.97268749171
 21
-165.226565106562
 31
0.0
  0
LINE
  5
A54F
330
1E
100
AcDbEntity
  8
虛線
 48
0.27
100
AcDbLine
 10
2561.47268749171
 20
-164.726565106562
 30
0.0
 11
2561.47268749171
 21
-145.1265651065619
 31
0.0
  0
LINE
  5
A550
330
1E
100
AcDbEntity
  8
虛線
 48
0.27
100
AcDbLine
 10
2584.47268749171
 20
-164.726565106562
 30
0.0
 11
2584.47268749171
 21
-145.1265651065619
 31
0.0
  0
LINE
  5
A551
330
1E
100
AcDbEntity
  8
虛線
 48
0.27
100
AcDbLine
 10
2584.47268749171
 20
-164.726565106562
 30
0.0
 11
2561.47268749171
 21
-164.726565106562
 31
0.0
  0
LINE
  5
A552
330
1E
100
AcDbEntity
  8
虛線
 48
0.27
100
AcDbLine
 10
2580.97268749171
 20
-165.226565106562
 30
0.0
 11
2564.97268749171
 21
-165.226565106562
 31
0.0
  0
LINE
  5
A553
330
1E
100
AcDbEntity
  8
虛線
 48
0.27
100
AcDbLine
 10
2564.47268749171
 20
-164.726565106562
 30
0.0
 11
2564.97268749171
 21
-165.226565106562
 31
0.0
  0
LINE
  5
A554
330
1E
100
AcDbEntity
  8
虛線
 48
0.27
100
AcDbLine
 10
2580.97268749171
 20
-165.226565106562
 30
0.0
 11
2581.472687491709
 21
-164.726565106562
 31
0.0
  0
LINE
  5
A555
330
1E
100
AcDbEntity
  8
虛線
 48
0.27
100
AcDbLine
 10
2584.47268749171
 20
-145.1265651065619
 30
0.0
 11
2561.47268749171
 21
-145.1265651065619
 31
0.0
  0
LINE
  5
A556
330
1E
100
AcDbEntity
  8
虛線
 48
0.27
100
AcDbLine
 10
2584.47268749171
 20
-145.1265651065619
 30
0.0
 11
2584.703627599385
 21
-144.7265651065622
 31
0.0
  0
LINE
  5
A557
330
1E
100
AcDbEntity
  8
虛線
 48
0.27
100
AcDbLine
 10
2561.241747384034
 20
-144.7265651065622
 30
0.0
 11
2561.47268749171
 21
-145.1265651065619
 31
0.0
  0
LINE
  5
A558
330
1E
100
AcDbEntity
  8
虛線
 48
0.27
100
AcDbLine
 10
2564.97268749171
 20
-188.2265651065618
 30
0.0
 11
2580.97268749171
 21
-188.2265651065618
 31
0.0
  0
LINE
  5
A559
330
1E
100
AcDbEntity
  8
虛線
 48
0.27
100
AcDbLine
 10
2581.472687491709
 20
-188.726565106562
 30
0.0
 11
2580.97268749171
 21
-188.2265651065618
 31
0.0
  0
LINE
  5
A55A
330
1E
100
AcDbEntity
  8
虛線
 48
0.27
100
AcDbLine
 10
2564.47268749171
 20
-188.726565106562
 30
0.0
 11
2564.97268749171
 21
-188.2265651065618
 31
0.0
  0
LINE
  5
A55B
330
1E
100
AcDbEntity
  8
中心線
 48
0.27
100
AcDbLine
 10
2572.97268749171
 20
-190.5778946803962
 30
0.0
 11
2572.97268749171
 21
-142.2660230433073
 31
0.0
  0
LWPOLYLINE
  5
A56A
330
1E
100
AcDbEntity
  8
0
 48
0.27
100
AcDbPolyline
 90
       17
 70
     0
 43
0.0
 10
2125.874881290908
 20
-130.726072953779
 10
2125.916816674661
 20
-130.9973695522105
 10
2125.957930418027
 20
-131.0759998578418
 10
2126.003643342912
 20
-131.1129269098836
 10
2126.046114796753
 20
-131.1125428098195
 10
2126.091730861622
 20
-131.0747874375143
 10
2126.130910744415
 20
-131.0000749531624
 10
2126.167644076424
 20
-130.8374837001346
 10
2126.173853138461
 20
-130.726072953779
 10
2126.131919424708
 20
-130.4547780253477
 10
2126.090804011342
 20
-130.3761477197165
 10
2126.045091086458
 20
-130.3392206676747
 10
2126.002621302616
 20
-130.3396047678639
 10
2125.957003567747
 20
-130.377360140169
 10
2125.917825354955
 20
-130.4520726245209
 10
2125.881090352945
 20
-130.6146638774237
 10
2125.874881290908
 20
-130.726072953779
  0
ARC
  5
A56B
330
1E
100
AcDbEntity
  8
0
 48
0.27
100
AcDbCircle
 10
2114.685269763118
 20
-130.726072953779
 30
0.0
 40
5.0
100
AcDbArc
 50
48.59037799890117
 51
311.4096220031988
  0
LINE
  5
A56C
330
1E
100
AcDbEntity
  8
0
 48
0.27
100
AcDbLine
 10
2118.293710079477
 20
-126.9760733712792
 30
0.0
 11
2117.572021014205
 21
-125.726072953779
 31
0.0
  0
LINE
  5
A56D
330
1E
100
AcDbEntity
  8
0
 48
0.27
100
AcDbLine
 10
2111.79851851203
 20
-125.726072953779
 30
0.0
 11
2117.572021014205
 21
-125.726072953779
 31
0.0
  0
LINE
  5
A56E
330
1E
100
AcDbEntity
  8
0
 48
0.27
100
AcDbLine
 10
2111.79851851203
 20
-125.726072953779
 30
0.0
 11
2108.911767260943
 21
-130.726072953779
 31
0.0
  0
LINE
  5
A56F
330
1E
100
AcDbEntity
  8
0
 48
0.27
100
AcDbLine
 10
2108.911767260943
 20
-130.726072953779
 30
0.0
 11
2111.79851851203
 21
-135.7260746237793
 31
0.0
  0
LINE
  5
A570
330
1E
100
AcDbEntity
  8
0
 48
0.27
100
AcDbLine
 10
2117.572022684206
 20
-135.7260746237793
 30
0.0
 11
2111.79851851203
 21
-135.7260746237793
 31
0.0
  0
LINE
  5
A571
330
1E
100
AcDbEntity
  8
0
 48
0.27
100
AcDbLine
 10
2118.293710079477
 20
-134.4760742062792
 30
0.0
 11
2117.572022684206
 21
-135.7260746237793
 31
0.0
  0
LINE
  5
A572
330
1E
100
AcDbEntity
  8
0
 48
0.27
100
AcDbLine
 10
2116.312152563557
 20
-134.4760742062792
 30
0.0
 11
2120.079738921744
 21
-134.4760742062792
 31
0.0
  0
LINE
  5
A573
330
1E
100
AcDbEntity
  8
0
 48
0.27
100
AcDbLine
 10
2120.158362547374
 20
-127.3319321173326
 30
0.0
 11
2120.079738921744
 21
-126.9760733712792
 31
0.0
  0
LINE
  5
A574
330
1E
100
AcDbEntity
  8
0
 48
0.27
100
AcDbLine
 10
2120.079738921744
 20
-134.4760742062792
 30
0.0
 11
2120.158362547374
 21
-134.1202154602258
 31
0.0
  0
LINE
  5
A575
330
1E
100
AcDbEntity
  8
0
 48
0.27
100
AcDbLine
 10
2116.312152563557
 20
-126.9760733712792
 30
0.0
 11
2120.079738921744
 21
-126.9760733712792
 31
0.0
  0
LINE
  5
A576
330
1E
100
AcDbEntity
  8
0
 48
0.27
100
AcDbLine
 10
2119.531172132884
 20
-134.4040186927459
 30
0.0
 11
2122.033430808636
 21
-133.2717499736572
 31
0.0
  0
LINE
  5
A577
330
1E
100
AcDbEntity
  8
0
 48
0.27
100
AcDbLine
 10
2126.864949463749
 20
-131.1629935262449
 30
0.0
 11
2126.881417339124
 21
-130.726072953779
 31
0.0
  0
LINE
  5
A578
330
1E
100
AcDbEntity
  8
0
 48
0.27
100
AcDbLine
 10
2126.816178767855
 20
-131.5831239131566
 30
0.0
 11
2126.864949463749
 21
-131.1629935262449
 31
0.0
  0
LINE
  5
A579
330
1E
100
AcDbEntity
  8
0
 48
0.27
100
AcDbLine
 10
2126.881417339124
 20
-130.726072953779
 30
0.0
 11
2126.864949463749
 21
-130.2891523813132
 31
0.0
  0
LINE
  5
A57A
330
1E
100
AcDbEntity
  8
0
 48
0.27
100
AcDbLine
 10
2119.251204891629
 20
-134.4760742062792
 30
0.0
 11
2119.531172132884
 21
-134.4040186927459
 31
0.0
  0
LINE
  5
A57B
330
1E
100
AcDbEntity
  8
0
 48
0.27
100
AcDbLine
 10
2119.251204891629
 20
-126.9760733712792
 30
0.0
 11
2119.531172132884
 21
-127.0481288848123
 31
0.0
  0
LINE
  5
A57C
330
1E
100
AcDbEntity
  8
0
 48
0.27
100
AcDbLine
 10
2119.531172132884
 20
-127.0481288848123
 30
0.0
 11
2122.033430808636
 21
-128.1803976039014
 31
0.0
  0
LINE
  5
A57D
330
1E
100
AcDbEntity
  8
0
 48
0.27
100
AcDbLine
 10
2126.736978992003
 20
-131.9703168794426
 30
0.0
 11
2126.816178767855
 21
-131.5831239131566
 31
0.0
  0
LINE
  5
A57E
330
1E
100
AcDbEntity
  8
0
 48
0.27
100
AcDbLine
 10
2126.864949463749
 20
-130.2891523813132
 30
0.0
 11
2126.816178767855
 21
-129.869023664402
 31
0.0
  0
LINE
  5
A57F
330
1E
100
AcDbEntity
  8
0
 48
0.27
100
AcDbLine
 10
2126.630392877203
 20
-132.3096960599941
 30
0.0
 11
2126.736978992003
 21
-131.9703168794426
 31
0.0
  0
LINE
  5
A580
330
1E
100
AcDbEntity
  8
0
 48
0.27
100
AcDbLine
 10
2125.681199637813
 20
-132.7739595514012
 30
0.0
 11
2125.683572708584
 21
-132.7727989010823
 31
0.0
  0
LINE
  5
A581
330
1E
100
AcDbEntity
  8
0
 48
0.27
100
AcDbLine
 10
2126.816178767855
 20
-129.869023664402
 30
0.0
 11
2126.736978992003
 21
-129.4818290281152
 31
0.0
  0
LINE
  5
A582
330
1E
100
AcDbEntity
  8
0
 48
0.27
100
AcDbLine
 10
2118.971237650374
 20
-134.4040186927459
 30
0.0
 11
2119.251204891629
 21
-134.4760742062792
 31
0.0
  0
LINE
  5
A583
330
1E
100
AcDbEntity
  8
0
 48
0.27
100
AcDbLine
 10
2118.971237650374
 20
-127.0481288848123
 30
0.0
 11
2119.251204891629
 21
-126.9760733712792
 31
0.0
  0
LINE
  5
A584
330
1E
100
AcDbEntity
  8
0
 48
0.27
100
AcDbLine
 10
2126.500518604889
 20
-132.5882170808822
 30
0.0
 11
2126.630392877203
 21
-132.3096960599941
 31
0.0
  0
LINE
  5
A585
330
1E
100
AcDbEntity
  8
0
 48
0.27
100
AcDbLine
 10
2126.736978992003
 20
-129.4818290281152
 30
0.0
 11
2126.630392877203
 21
-129.1424515175642
 31
0.0
  0
LINE
  5
A586
330
1E
100
AcDbEntity
  8
0
 48
0.27
100
AcDbLine
 10
2122.033430808636
 20
-133.2717499736572
 30
0.0
 11
2122.334834176845
 21
-133.1487460836156
 31
0.0
  0
LINE
  5
A587
330
1E
100
AcDbEntity
  8
0
 48
0.27
100
AcDbLine
 10
2122.033430808636
 20
-128.1803976039014
 30
0.0
 11
2122.334834176845
 21
-128.3033998239425
 31
0.0
  0
LINE
  5
A588
330
1E
100
AcDbEntity
  8
0
 48
0.27
100
AcDbLine
 10
2126.352346136644
 20
-132.7951752383192
 30
0.0
 11
2126.500518604889
 21
-132.5882170808822
 31
0.0
  0
LINE
  5
A589
330
1E
100
AcDbEntity
  8
0
 48
0.27
100
AcDbLine
 10
2126.630392877203
 20
-129.1424515175642
 30
0.0
 11
2126.500518604889
 21
-128.8639304966764
 31
0.0
  0
LINE
  5
A58A
330
1E
100
AcDbEntity
  8
0
 48
0.27
100
AcDbLine
 10
2118.702030222542
 20
-134.1906226832338
 30
0.0
 11
2118.971237650374
 21
-134.4040186927459
 31
0.0
  0
LINE
  5
A58B
330
1E
100
AcDbEntity
  8
0
 48
0.27
100
AcDbLine
 10
2118.702030222542
 20
-127.2615248943245
 30
0.0
 11
2118.971237650374
 21
-127.0481288848123
 31
0.0
  0
LINE
  5
A58C
330
1E
100
AcDbEntity
  8
0
 48
0.27
100
AcDbLine
 10
2122.334834176845
 20
-133.1487460836156
 30
0.0
 11
2122.60348883446
 21
-133.1601555272709
 31
0.0
  0
LINE
  5
A58D
330
1E
100
AcDbEntity
  8
0
 48
0.27
100
AcDbLine
 10
2122.334834176845
 20
-128.3033998239425
 30
0.0
 11
2122.60348883446
 21
-128.2919920502877
 31
0.0
  0
LINE
  5
A58E
330
1E
100
AcDbEntity
  8
0
 48
0.27
100
AcDbLine
 10
2124.628476384633
 20
-133.8564839643077
 30
0.0
 11
2126.19157017417
 21
-132.9226213298525
 31
0.0
  0
LINE
  5
A58F
330
1E
100
AcDbEntity
  8
0
 48
0.27
100
AcDbLine
 10
2126.19157017417
 20
-132.9226213298525
 30
0.0
 11
2126.352346136644
 21
-132.7951752383192
 31
0.0
  0
LINE
  5
A590
330
1E
100
AcDbEntity
  8
0
 48
0.27
100
AcDbLine
 10
2126.500518604889
 20
-128.8639304966764
 30
0.0
 11
2126.352346136644
 21
-128.6569723392392
 31
0.0
  0
LINE
  5
A591
330
1E
100
AcDbEntity
  8
0
 48
0.27
100
AcDbLine
 10
2115.483618533442
 20
-130.726072953779
 30
0.0
 11
2116.312152563557
 21
-126.9760733712792
 31
0.0
  0
LINE
  5
A592
330
1E
100
AcDbEntity
  8
0
 48
0.27
100
AcDbLine
 10
2115.483618533442
 20
-130.726072953779
 30
0.0
 11
2117.594136831399
 21
-130.726072953779
 31
0.0
  0
LINE
  5
A593
330
1E
100
AcDbEntity
  8
0
 48
0.27
100
AcDbLine
 10
2116.312152563557
 20
-134.4760742062792
 30
0.0
 11
2115.483618533442
 21
-130.726072953779
 31
0.0
  0
LINE
  5
A594
330
1E
100
AcDbEntity
  8
0
 48
0.27
100
AcDbLine
 10
2118.702030222542
 20
-134.1906226832338
 30
0.0
 11
2118.453926591733
 21
-133.8440858802373
 31
0.0
  0
LINE
  5
A595
330
1E
100
AcDbEntity
  8
0
 48
0.27
100
AcDbLine
 10
2118.453926591733
 20
-127.6080616973213
 30
0.0
 11
2118.702030222542
 21
-127.2615248943245
 31
0.0
  0
LINE
  5
A596
330
1E
100
AcDbEntity
  8
0
 48
0.27
100
AcDbLine
 10
2124.390189016964
 20
-133.9178130642997
 30
0.0
 11
2124.628476384633
 21
-133.8564839643077
 31
0.0
  0
LINE
  5
A597
330
1E
100
AcDbEntity
  8
0
 48
0.27
100
AcDbLine
 10
2123.939148589891
 20
-133.8829584829789
 30
0.0
 11
2124.390189016964
 21
-133.9178130642997
 31
0.0
  0
LINE
  5
A598
330
1E
100
AcDbEntity
  8
0
 48
0.27
100
AcDbLine
 10
2122.60348883446
 20
-133.1601555272709
 30
0.0
 11
2123.295922830222
 21
-133.6166768961348
 31
0.0
  0
LINE
  5
A599
330
1E
100
AcDbEntity
  8
0
 48
0.27
100
AcDbLine
 10
2126.024368049622
 20
-132.9656539039142
 30
0.0
 11
2126.19157017417
 21
-132.9226213298525
 31
0.0
  0
LINE
  5
A59A
330
1E
100
AcDbEntity
  8
0
 48
0.27
100
AcDbLine
 10
2124.628476384633
 20
-127.5956619432504
 30
0.0
 11
2126.19157017417
 21
-128.5295262477057
 31
0.0
  0
LINE
  5
A59B
330
1E
100
AcDbEntity
  8
0
 48
0.27
100
AcDbLine
 10
2126.19157017417
 20
-128.5295262477057
 30
0.0
 11
2126.352346136644
 21
-128.6569723392392
 31
0.0
  0
LINE
  5
A59C
330
1E
100
AcDbEntity
  8
0
 48
0.27
100
AcDbLine
 10
2124.390189016964
 20
-127.5343345132587
 30
0.0
 11
2124.628476384633
 21
-127.5956619432504
 31
0.0
  0
LINE
  5
A59D
330
1E
100
AcDbEntity
  8
0
 48
0.27
100
AcDbLine
 10
2123.939148589891
 20
-127.569187424704
 30
0.0
 11
2124.390189016964
 21
-127.5343345132587
 31
0.0
  0
LINE
  5
A59E
330
1E
100
AcDbEntity
  8
0
 48
0.27
100
AcDbLine
 10
2122.364944286748
 20
-132.9795265983557
 30
0.0
 11
2122.540045513741
 21
-133.1183270236604
 31
0.0
  0
LINE
  5
A59F
330
1E
100
AcDbEntity
  8
0
 48
0.27
100
AcDbLine
 10
2123.295922830222
 20
-133.6166768961348
 30
0.0
 11
2123.703463083031
 21
-133.822300723099
 31
0.0
  0
LINE
  5
A5A0
330
1E
100
AcDbEntity
  8
0
 48
0.27
100
AcDbLine
 10
2123.703463083031
 20
-133.822300723099
 30
0.0
 11
2123.939148589891
 21
-133.8829584829789
 31
0.0
  0
LINE
  5
A5A1
330
1E
100
AcDbEntity
  8
0
 48
0.27
100
AcDbLine
 10
2122.60348883446
 20
-128.2919920502877
 30
0.0
 11
2123.295922830222
 21
-127.8354706814234
 31
0.0
  0
LINE
  5
A5A2
330
1E
100
AcDbEntity
  8
0
 48
0.27
100
AcDbLine
 10
2122.364944286748
 20
-128.4726209792024
 30
0.0
 11
2122.540045513741
 21
-128.333820553898
 31
0.0
  0
LINE
  5
A5A3
330
1E
100
AcDbEntity
  8
0
 48
0.27
100
AcDbLine
 10
2118.453926591733
 20
-133.8440858802373
 30
0.0
 11
2118.236462460792
 21
-133.3777248682299
 31
0.0
  0
LINE
  5
A5A4
330
1E
100
AcDbEntity
  8
0
 48
0.27
100
AcDbLine
 10
2118.236462460792
 20
-128.0744227093284
 30
0.0
 11
2118.453926591733
 21
-127.6080616973213
 31
0.0
  0
LINE
  5
A5A5
330
1E
100
AcDbEntity
  8
0
 48
0.27
100
AcDbLine
 10
2124.151899979295
 20
-133.8564839643077
 30
0.0
 11
2124.390189016964
 21
-133.9178130642997
 31
0.0
  0
LINE
  5
A5A6
330
1E
100
AcDbEntity
  8
0
 48
0.27
100
AcDbLine
 10
2123.703463083031
 20
-127.6298468544591
 30
0.0
 11
2123.939148589891
 21
-127.569187424704
 31
0.0
  0
LINE
  5
A5A7
330
1E
100
AcDbEntity
  8
0
 48
0.27
100
AcDbLine
 10
2123.295922830222
 20
-127.8354706814234
 30
0.0
 11
2123.703463083031
 21
-127.6298468544591
 31
0.0
  0
LINE
  5
A5A8
330
1E
100
AcDbEntity
  8
0
 48
0.27
100
AcDbLine
 10
2118.422670861514
 20
-134.4760742062792
 30
0.0
 11
2117.594136831399
 21
-130.726072953779
 31
0.0
  0
LINE
  5
A5A9
330
1E
100
AcDbEntity
  8
0
 48
0.27
100
AcDbLine
 10
2117.594136831399
 20
-130.726072953779
 30
0.0
 11
2118.422670861514
 21
-126.9760733712792
 31
0.0
  0
LINE
  5
A5AA
330
1E
100
AcDbEntity
  8
0
 48
0.27
100
AcDbLine
 10
2122.364944286748
 20
-132.9795265983557
 30
0.0
 11
2122.203568794049
 21
-132.7541282949642
 31
0.0
  0
LINE
  5
A5AB
330
1E
100
AcDbEntity
  8
0
 48
0.27
100
AcDbLine
 10
2125.8571659252
 20
-132.9226213298525
 30
0.0
 11
2126.024368049622
 21
-132.9656539039142
 31
0.0
  0
LINE
  5
A5AC
330
1E
100
AcDbEntity
  8
0
 48
0.27
100
AcDbLine
 10
2126.024368049622
 20
-128.4864936736444
 30
0.0
 11
2126.19157017417
 21
-128.5295262477057
 31
0.0
  0
LINE
  5
A5AD
330
1E
100
AcDbEntity
  8
0
 48
0.27
100
AcDbLine
 10
2124.151899979295
 20
-127.5956619432504
 30
0.0
 11
2124.390189016964
 21
-127.5343345132587
 31
0.0
  0
LINE
  5
A5AE
330
1E
100
AcDbEntity
  8
0
 48
0.27
100
AcDbLine
 10
2123.084343781263
 20
-128.0031854961817
 30
0.0
 11
2123.295922830222
 21
-127.8354706814234
 31
0.0
  0
LINE
  5
A5AF
330
1E
100
AcDbEntity
  8
0
 48
0.27
100
AcDbLine
 10
2122.203568794049
 20
-128.698019282594
 30
0.0
 11
2122.364944286748
 21
-128.4726209792024
 31
0.0
  0
LINE
  5
A5B0
330
1E
100
AcDbEntity
  8
0
 48
0.27
100
AcDbLine
 10
2118.236462460792
 20
-133.3777248682299
 30
0.0
 11
2118.057992842612
 21
-132.809462092955
 31
0.0
  0
LINE
  5
A5B1
330
1E
100
AcDbEntity
  8
0
 48
0.27
100
AcDbLine
 10
2118.057992842612
 20
-128.6426854846033
 30
0.0
 11
2118.236462460792
 21
-128.0744227093284
 31
0.0
  0
LINE
  5
A5B2
330
1E
100
AcDbEntity
  8
0
 48
0.27
100
AcDbLine
 10
2122.203568794049
 20
-132.7541282949642
 30
0.0
 11
2122.062123088053
 21
-132.4507927360573
 31
0.0
  0
LINE
  5
A5B3
330
1E
100
AcDbEntity
  8
0
 48
0.27
100
AcDbLine
 10
2123.922769224531
 20
-133.6748563751009
 30
0.0
 11
2124.151899979295
 21
-133.8564839643077
 31
0.0
  0
LINE
  5
A5B4
330
1E
100
AcDbEntity
  8
0
 48
0.27
100
AcDbLine
 10
2122.062123088053
 20
-129.0013548415011
 30
0.0
 11
2122.203568794049
 21
-128.698019282594
 31
0.0
  0
LINE
  5
A5B5
330
1E
100
AcDbEntity
  8
0
 48
0.27
100
AcDbLine
 10
2125.696388292725
 20
-132.7951752383192
 30
0.0
 11
2125.8571659252
 21
-132.9226213298525
 31
0.0
  0
LINE
  5
A5B6
330
1E
100
AcDbEntity
  8
0
 48
0.27
100
AcDbLine
 10
2123.922769224531
 20
-127.7772912024575
 30
0.0
 11
2124.151899979295
 21
-127.5956619432504
 31
0.0
  0
LINE
  5
A5B7
330
1E
100
AcDbEntity
  8
0
 48
0.27
100
AcDbLine
 10
2125.8571659252
 20
-128.5295262477057
 30
0.0
 11
2126.024368049622
 21
-128.4864936736444
 31
0.0
  0
LINE
  5
A5B8
330
1E
100
AcDbEntity
  8
0
 48
0.27
100
AcDbLine
 10
2122.062123088053
 20
-132.4507927360573
 30
0.0
 11
2121.946041350167
 21
-132.0811765255812
 31
0.0
  0
LINE
  5
A5B9
330
1E
100
AcDbEntity
  8
0
 48
0.27
100
AcDbLine
 10
2118.057992842612
 20
-132.809462092955
 30
0.0
 11
2117.925379769466
 21
-132.1611361515597
 31
0.0
  0
LINE
  5
A5BA
330
1E
100
AcDbEntity
  8
0
 48
0.27
100
AcDbLine
 10
2117.925379769466
 20
-129.2910097559984
 30
0.0
 11
2118.057992842612
 21
-128.6426854846033
 31
0.0
  0
LINE
  5
A5BB
330
1E
100
AcDbEntity
  8
0
 48
0.27
100
AcDbLine
 10
2121.946041350167
 20
-129.370971051977
 30
0.0
 11
2122.062123088053
 21
-129.0013548415011
 31
0.0
  0
LINE
  5
A5BC
330
1E
100
AcDbEntity
  8
0
 48
0.27
100
AcDbLine
 10
2123.922769224531
 20
-133.6748563751009
 30
0.0
 11
2123.711600995765
 21
-133.3799075589695
 31
0.0
  0
LINE
  5
A5BD
330
1E
100
AcDbEntity
  8
0
 48
0.27
100
AcDbLine
 10
2121.946041350167
 20
-132.0811765255812
 30
0.0
 11
2121.859785822012
 21
-131.6594846880339
 31
0.0
  0
LINE
  5
A5BE
330
1E
100
AcDbEntity
  8
0
 48
0.27
100
AcDbLine
 10
2117.925379769466
 20
-132.1611361515597
 30
0.0
 11
2117.843716742828
 21
-131.4576617823295
 31
0.0
  0
LINE
  5
A5BF
330
1E
100
AcDbEntity
  8
0
 48
0.27
100
AcDbLine
 10
2117.843716742828
 20
-129.9944841253536
 30
0.0
 11
2117.925379769466
 21
-129.2910097559984
 31
0.0
  0
LINE
  5
A5C0
330
1E
100
AcDbEntity
  8
0
 48
0.27
100
AcDbLine
 10
2125.696388292725
 20
-128.6569723392392
 30
0.0
 11
2125.8571659252
 21
-128.5295262477057
 31
0.0
  0
LINE
  5
A5C1
330
1E
100
AcDbEntity
  8
0
 48
0.27
100
AcDbLine
 10
2125.696388292725
 20
-132.7951752383192
 30
0.0
 11
2125.54821582448
 21
-132.5882170808822
 31
0.0
  0
LINE
  5
A5C2
330
1E
100
AcDbEntity
  8
0
 48
0.27
100
AcDbLine
 10
2123.711600995765
 20
-128.0722400185891
 30
0.0
 11
2123.922769224531
 21
-127.7772912024575
 31
0.0
  0
LINE
  5
A5C3
330
1E
100
AcDbEntity
  8
0
 48
0.27
100
AcDbLine
 10
2121.859785822012
 20
-129.7926628895245
 30
0.0
 11
2121.946041350167
 21
-129.370971051977
 31
0.0
  0
LINE
  5
A5C4
330
1E
100
AcDbEntity
  8
0
 48
0.27
100
AcDbLine
 10
2121.859785822012
 20
-131.6594846880339
 30
0.0
 11
2121.806668114766
 21
-131.201922908871
 31
0.0
  0
LINE
  5
A5C5
330
1E
100
AcDbEntity
  8
0
 48
0.27
100
AcDbLine
 10
2117.843716742828
 20
-131.4576617823295
 30
0.0
 11
2117.816141693849
 21
-130.726072953779
 31
0.0
  0
LINE
  5
A5C6
330
1E
100
AcDbEntity
  8
0
 48
0.27
100
AcDbLine
 10
2117.816141693849
 20
-130.726072953779
 30
0.0
 11
2117.843716742828
 21
-129.9944841253536
 31
0.0
  0
LINE
  5
A5C7
330
1E
100
AcDbEntity
  8
0
 48
0.27
100
AcDbLine
 10
2121.806668114766
 20
-130.2502246686874
 30
0.0
 11
2121.859785822012
 21
-129.7926628895245
 31
0.0
  0
LINE
  5
A5C8
330
1E
100
AcDbEntity
  8
0
 48
0.27
100
AcDbLine
 10
2121.806668114766
 20
-131.201922908871
 30
0.0
 11
2121.788733978896
 21
-130.726072953779
 31
0.0
  0
LINE
  5
A5C9
330
1E
100
AcDbEntity
  8
0
 48
0.27
100
AcDbLine
 10
2121.788733978896
 20
-130.726072953779
 30
0.0
 11
2121.806668114766
 21
-130.2502246686874
 31
0.0
  0
LINE
  5
A5CA
330
1E
100
AcDbEntity
  8
0
 48
0.27
100
AcDbLine
 10
2123.711600995765
 20
-133.3799075589695
 30
0.0
 11
2123.526509825355
 21
-132.9829734795564
 31
0.0
  0
LINE
  5
A5CB
330
1E
100
AcDbEntity
  8
0
 48
0.27
100
AcDbLine
 10
2125.54821582448
 20
-128.8639304966764
 30
0.0
 11
2125.696388292725
 21
-128.6569723392392
 31
0.0
  0
LINE
  5
A5CC
330
1E
100
AcDbEntity
  8
0
 48
0.27
100
AcDbLine
 10
2125.54821582448
 20
-132.5882170808822
 30
0.0
 11
2125.418341552165
 21
-132.3096960599941
 31
0.0
  0
LINE
  5
A5CD
330
1E
100
AcDbEntity
  8
0
 48
0.27
100
AcDbLine
 10
2123.526509825355
 20
-128.4691724280017
 30
0.0
 11
2123.711600995765
 21
-128.0722400185891
 31
0.0
  0
LINE
  5
A5CE
330
1E
100
AcDbEntity
  8
0
 48
0.27
100
AcDbLine
 10
2125.418341552165
 20
-129.1424515175642
 30
0.0
 11
2125.54821582448
 21
-128.8639304966764
 31
0.0
  0
LINE
  5
A5CF
330
1E
100
AcDbEntity
  8
0
 48
0.27
100
AcDbLine
 10
2123.526509825355
 20
-132.9829734795564
 30
0.0
 11
2123.374609915863
 21
-132.4993095919094
 31
0.0
  0
LINE
  5
A5D0
330
1E
100
AcDbEntity
  8
0
 48
0.27
100
AcDbLine
 10
2125.418341552165
 20
-132.3096960599941
 30
0.0
 11
2125.311757107366
 21
-131.9703168794426
 31
0.0
  0
LINE
  5
A5D1
330
1E
100
AcDbEntity
  8
0
 48
0.27
100
AcDbLine
 10
2123.374609915863
 20
-128.9528379857738
 30
0.0
 11
2123.526509825355
 21
-128.4691724280017
 31
0.0
  0
LINE
  5
A5D2
330
1E
100
AcDbEntity
  8
0
 48
0.27
100
AcDbLine
 10
2125.311757107366
 20
-129.4818290281152
 30
0.0
 11
2125.418341552165
 21
-129.1424515175642
 31
0.0
  0
LINE
  5
A5D3
330
1E
100
AcDbEntity
  8
0
 48
0.27
100
AcDbLine
 10
2123.374609915863
 20
-132.4993095919094
 30
0.0
 11
2123.261737919013
 21
-131.9474996620074
 31
0.0
  0
LINE
  5
A5D4
330
1E
100
AcDbEntity
  8
0
 48
0.27
100
AcDbLine
 10
2125.311757107366
 20
-131.9703168794426
 30
0.0
 11
2125.232557331515
 21
-131.5831239131566
 31
0.0
  0
LINE
  5
A5D5
330
1E
100
AcDbEntity
  8
0
 48
0.27
100
AcDbLine
 10
2123.261737919013
 20
-129.5046479155512
 30
0.0
 11
2123.374609915863
 21
-128.9528379857738
 31
0.0
  0
LINE
  5
A5D6
330
1E
100
AcDbEntity
  8
0
 48
0.27
100
AcDbLine
 10
2125.232557331515
 20
-129.869023664402
 30
0.0
 11
2125.311757107366
 21
-129.4818290281152
 31
0.0
  0
LINE
  5
A5D7
330
1E
100
AcDbEntity
  8
0
 48
0.27
100
AcDbLine
 10
2123.261737919013
 20
-131.9474996620074
 30
0.0
 11
2123.192232496405
 21
-131.3487510267664
 31
0.0
  0
LINE
  5
A5D8
330
1E
100
AcDbEntity
  8
0
 48
0.27
100
AcDbLine
 10
2125.232557331515
 20
-131.5831239131566
 30
0.0
 11
2125.183784965619
 21
-131.1629935262449
 31
0.0
  0
LINE
  5
A5D9
330
1E
100
AcDbEntity
  8
0
 48
0.27
100
AcDbLine
 10
2123.192232496405
 20
-130.1033965507922
 30
0.0
 11
2123.261737919013
 21
-129.5046479155512
 31
0.0
  0
LINE
  5
A5DA
330
1E
100
AcDbEntity
  8
0
 48
0.27
100
AcDbLine
 10
2125.183784965619
 20
-130.2891523813132
 30
0.0
 11
2125.232557331515
 21
-129.869023664402
 31
0.0
  0
LINE
  5
A5DB
330
1E
100
AcDbEntity
  8
0
 48
0.27
100
AcDbLine
 10
2123.192232496405
 20
-131.3487510267664
 30
0.0
 11
2123.168762308736
 21
-130.726072953779
 31
0.0
  0
LINE
  5
A5DC
330
1E
100
AcDbEntity
  8
0
 48
0.27
100
AcDbLine
 10
2125.183784965619
 20
-131.1629935262449
 30
0.0
 11
2125.167317090244
 21
-130.726072953779
 31
0.0
  0
LINE
  5
A5DD
330
1E
100
AcDbEntity
  8
0
 48
0.27
100
AcDbLine
 10
2125.167317090244
 20
-130.726072953779
 30
0.0
 11
2125.183784965619
 21
-130.2891523813132
 31
0.0
  0
LINE
  5
A5DE
330
1E
100
AcDbEntity
  8
0
 48
0.27
100
AcDbLine
 10
2123.168762308736
 20
-130.726072953779
 30
0.0
 11
2123.192232496405
 21
-130.1033965507922
 31
0.0
  0
LINE
  5
A5DF
330
1E
100
AcDbEntity
  8
0
 48
0.27
100
AcDbLine
 10
2122.540045513741
 20
-133.1183270236604
 30
0.0
 11
2122.60348883446
 21
-133.1601555272709
 31
0.0
  0
LINE
  5
A5E0
330
1E
100
AcDbEntity
  8
0
 48
0.27
100
AcDbLine
 10
2122.274391847251
 20
-133.1461792926868
 30
0.0
 11
2122.334834176845
 21
-133.1487460836156
 31
0.0
  0
LINE
  5
A5E1
330
1E
100
AcDbEntity
  8
0
 48
0.27
100
AcDbLine
 10
2122.540045513741
 20
-128.333820553898
 30
0.0
 11
2122.60348883446
 21
-128.2919920502877
 31
0.0
  0
LINE
  5
A5E2
330
1E
100
AcDbEntity
  8
中心線
 48
0.27
100
AcDbLine
 10
2128.381417339124
 20
-130.726072953779
 30
0.0
 11
2106.62276866718
 21
-130.726072953779
 31
0.0
  0
POINT
  5
A5E3
330
1E
100
AcDbEntity
  8
0
100
AcDbPoint
 10
2126.881417339124
 20
-130.726072953779
 30
0.0
1001
pntflag
1000
endpoint
  0
LINE
  5
A600
330
1E
100
AcDbEntity
  8
中心線
 48
0.27
100
AcDbLine
 10
2128.381417339124
 20
-130.726072953779
 30
0.0
 11
2106.62276866718
 21
-130.726072953779
 31
0.0
  0
LINE
  5
A601
330
1E
100
AcDbEntity
  8
虛線
 48
0.27
100
AcDbLine
 10
2049.683616294235
 20
-119.2265651065624
 30
0.0
 11
2049.683616294235
 21
-135.7265501065612
 31
0.0
  0
LINE
  5
A602
330
1E
100
AcDbEntity
  8
虛線
 48
0.27
100
AcDbLine
 10
2063.683616294234
 20
-119.2265651065618
 30
0.0
 11
2063.683616294236
 21
-135.7265501065615
 31
0.0
  0
LINE
  5
A603
330
1E
100
AcDbEntity
  8
虛線
 48
0.27
100
AcDbLine
 10
2045.683616294232
 20
-135.7265501065612
 30
0.0
 11
2066.683616294235
 21
-135.7265501065612
 31
0.0
  0
LINE
  5
A604
330
1E
100
AcDbEntity
  8
虛線
 48
0.27
100
AcDbLine
 10
2066.683616294235
 20
-135.7265501065612
 30
0.0
 11
2066.683616294236
 21
-178.7265501065617
 31
0.0
  0
LINE
  5
A605
330
1E
100
AcDbEntity
  8
虛線
 48
0.27
100
AcDbLine
 10
2104.683616294234
 20
-130.7265191065621
 30
0.0
 11
2104.683616294236
 21
-142.7265651065618
 31
0.0
  0
LINE
  5
A606
330
1E
100
AcDbEntity
  8
虛線
 48
0.27
100
AcDbLine
 10
2107.683616294234
 20
-119.2265651065644
 30
0.0
 11
2107.683616294233
 21
-130.7265191065621
 31
0.0
  0
LINE
  5
A607
330
1E
100
AcDbEntity
  8
虛線
 48
0.27
100
AcDbLine
 10
2104.683616294234
 20
-130.7265191065621
 30
0.0
 11
2124.683616294234
 21
-130.7265191065621
 31
0.0
  0
LINE
  5
A608
330
1E
100
AcDbEntity
  8
虛線
 48
0.27
100
AcDbLine
 10
2124.683616294234
 20
-130.7265191065621
 30
0.0
 11
2124.683616294234
 21
-142.7265651065618
 31
0.0
  0
LINE
  5
A609
330
1E
100
AcDbEntity
  8
虛線
 48
0.27
100
AcDbLine
 10
2121.683616294234
 20
-119.226565106561
 30
0.0
 11
2121.683616294236
 21
-130.7265191065621
 31
0.0
  0
LINE
  5
A60A
330
1E
100
AcDbEntity
  8
虛線
 48
0.27
100
AcDbLine
 10
2179.683616294235
 20
-119.2265651065619
 30
0.0
 11
2179.683616294234
 21
-135.7265501065617
 31
0.0
  0
LINE
  5
A60B
330
1E
100
AcDbEntity
  8
虛線
 48
0.27
100
AcDbLine
 10
2165.683616294233
 20
-119.2265651065616
 30
0.0
 11
2165.683616294234
 21
-135.7265501065622
 31
0.0
  0
LINE
  5
A60C
330
1E
100
AcDbEntity
  8
虛線
 48
0.27
100
AcDbLine
 10
2184.683616294236
 20
-135.7265501065617
 30
0.0
 11
2162.683616294235
 21
-135.7265501065622
 31
0.0
  0
LINE
  5
A60D
330
1E
100
AcDbEntity
  8
中心線
 48
0.27
100
AcDbLine
 10
2172.683616294234
 20
-117.2265501065621
 30
0.0
 11
2172.683616294234
 21
-172.5111571065622
 31
0.0
  0
LINE
  5
A60E
330
1E
100
AcDbEntity
  8
虛線
 48
0.27
100
AcDbLine
 10
2162.683616294235
 20
-135.7265501065622
 30
0.0
 11
2162.683616294233
 21
-178.7265501065617
 31
0.0
  0
LINE
  5
A60F
330
1E
100
AcDbEntity
  8
中心線
 48
0.27
100
AcDbLine
 10
2056.683616294234
 20
-117.2265501065621
 30
0.0
 11
2056.683616294234
 21
-172.5111571065622
 31
0.0
  0
LINE
  5
A610
330
1E
100
AcDbEntity
  8
中心線
 48
0.27
100
AcDbLine
 10
2114.683616294233
 20
-116.7265651065618
 30
0.0
 11
2114.683616294233
 21
-190.5778946803962
 31
0.0
  0
LINE
  5
A611
330
1E
100
AcDbEntity
  8
虛線
 48
0.27
100
AcDbLine
 10
2178.683616294235
 20
-120.2265651065618
 30
0.0
 11
2178.683616294234
 21
-135.7265501065615
 31
0.0
  0
LINE
  5
A612
330
1E
100
AcDbEntity
  8
虛線
 48
0.27
100
AcDbLine
 10
2166.683616294234
 20
-120.2265651065618
 30
0.0
 11
2166.683616294234
 21
-135.7265501065628
 31
0.0
  0
LINE
  5
A616
330
1E
100
AcDbEntity
  8
虛線
 48
0.27
100
AcDbLine
 10
2108.683616294232
 20
-120.226550106561
 30
0.0
 11
2108.683616294232
 21
-130.7265191065621
 31
0.0
  0
LINE
  5
A61A
330
1E
100
AcDbEntity
  8
虛線
 48
0.27
100
AcDbLine
 10
2120.683616294233
 20
-120.2265651065618
 30
0.0
 11
2120.683616294233
 21
-130.7265341065617
 31
0.0
  0
LINE
  5
A61B
330
1E
100
AcDbEntity
  8
虛線
 48
0.27
100
AcDbLine
 10
2062.683616294235
 20
-120.2265651065633
 30
0.0
 11
2062.683616294235
 21
-135.726550106563
 31
0.0
  0
LINE
  5
A61F
330
1E
100
AcDbEntity
  8
虛線
 48
0.27
100
AcDbLine
 10
2050.683616294234
 20
-120.2265651065611
 30
0.0
 11
2050.683616294234
 21
-135.7265501065622
 31
0.0
  0
LINE
  5
A620
330
1E
100
AcDbEntity
  8
0
100
AcDbLine
 10
2336.072687491709
 20
-158.7265651065622
 30
0.0
 11
2365.47268749171
 21
-158.7265651065622
 31
0.0
  0
LINE
  5
A621
330
1E
100
AcDbEntity
  8
0
100
AcDbLine
 10
2385.47268749171
 20
-158.7265651065622
 30
0.0
 11
2460.47268749171
 21
-158.7265651065622
 31
0.0
  0
LINE
  5
A622
330
1E
100
AcDbEntity
  8
0
100
AcDbLine
 10
2480.47268749171
 20
-158.7265651065622
 30
0.0
 11
2509.87268749171
 21
-158.7265651065622
 31
0.0
  0
LINE
  5
CFB1
330
1E
100
AcDbEntity
  8
0
  6
Continuous
 62
     7
100
AcDbLine
 10
2087.337844649569
 20
-176.338905819336
 30
0.0
 11
2087.337844649569
 21
-178.1265651065621
 31
0.0
  0
LINE
  5
CFB6
330
1E
100
AcDbEntity
  8
0
  6
Continuous
 62
     7
100
AcDbLine
 10
2141.183616294233
 20
-186.726565106562
 30
0.0
 11
2139.183616294233
 21
-188.726565106562
 31
0.0
  0
LINE
  5
CFB7
330
1E
100
AcDbEntity
  8
0
  6
Continuous
 62
     7
100
AcDbLine
 10
2126.183630294233
 20
-187.726565106562
 30
0.0
 11
2125.183616294233
 21
-188.726579106562
 31
0.0
  0
LINE
  5
CFB8
330
1E
100
AcDbEntity
  8
0
  6
Continuous
 62
     7
100
AcDbLine
 10
2144.433616294233
 20
-150.9553712466498
 30
0.0
 11
2144.433616294233
 21
-144.3803400289622
 31
0.0
  0
LINE
  5
CFB9
330
1E
100
AcDbEntity
  8
0
  6
Continuous
 62
     7
100
AcDbLine
 10
2144.433616294233
 20
-175.349021625365
 30
0.0
 11
2144.433616294233
 21
-178.1265651065621
 31
0.0
  0
LINE
  5
CFBA
330
1E
100
AcDbEntity
  8
0
  6
Continuous
 62
     7
100
AcDbLine
 10
2144.433616294233
 20
-144.3803400289622
 30
0.0
 11
2141.479810371833
 21
-141.426534106562
 31
0.0
  0
LINE
  5
CFBB
330
1E
100
AcDbEntity
  8
0
  6
Continuous
 62
     7
100
AcDbLine
 10
2136.933616294233
 20
-158.4553712503621
 30
0.0
 11
2144.433616294233
 21
-150.9553712466498
 31
0.0
  0
LINE
  5
CFBC
330
1E
100
AcDbEntity
  8
0
  6
Continuous
 62
     7
100
AcDbLine
 10
2142.033616294233
 20
-149.9612586971793
 30
0.0
 11
2142.033616294233
 21
-145.3744525788378
 31
0.0
  0
LINE
  5
CFBD
330
1E
100
AcDbEntity
  8
0
  6
Continuous
 62
     7
100
AcDbLine
 10
2142.033616294233
 20
-176.3431341749442
 30
0.0
 11
2142.033616294233
 21
-178.1265651065621
 31
0.0
  0
LINE
  5
CFBE
330
1E
100
AcDbEntity
  8
0
  6
Continuous
 62
     7
100
AcDbLine
 10
2141.183616294233
 20
-176.6952157024871
 30
0.0
 11
2141.183616294233
 21
-186.726565106562
 31
0.0
  0
LINE
  5
CFBF
330
1E
100
AcDbEntity
  8
0
  6
Continuous
 62
     7
100
AcDbLine
 10
2141.183616294233
 20
-145.7265341068047
 30
0.0
 11
2141.183616294233
 21
-149.6091771693162
 31
0.0
  0
LINE
  5
CFC0
330
1E
100
AcDbEntity
  8
0
  6
Continuous
 62
     7
100
AcDbLine
 10
2136.933616294233
 20
-167.849021621962
 30
0.0
 11
2136.933616294233
 21
-158.4553712503621
 31
0.0
  0
LINE
  5
CFC1
330
1E
100
AcDbEntity
  8
0
  6
Continuous
 62
     7
100
AcDbLine
 10
2140.485697822232
 20
-143.8265341065621
 30
0.0
 11
2142.033616294233
 21
-145.3744525788378
 31
0.0
  0
LINE
  5
CFC2
330
1E
100
AcDbEntity
  8
0
  6
Continuous
 62
     7
100
AcDbLine
 10
2140.183616294233
 20
-144.7265341065619
 30
0.0
 11
2141.183616294233
 21
-145.7265341068047
 31
0.0
  0
LINE
  5
CFC3
330
1E
100
AcDbEntity
  8
0
  6
Continuous
 62
     7
100
AcDbLine
 10
2142.033616294233
 20
-149.9612586971793
 30
0.0
 11
2134.533616294233
 21
-157.4612587009621
 31
0.0
  0
LINE
  5
CFC4
330
1E
100
AcDbEntity
  8
0
  6
Continuous
 62
     7
100
AcDbLine
 10
2141.183616294233
 20
-149.6091771693162
 30
0.0
 11
2133.683616294232
 21
-157.109177173049
 31
0.0
  0
LINE
  5
CFC5
330
1E
100
AcDbEntity
  8
0
  6
Continuous
 62
     7
100
AcDbLine
 10
2134.533616294233
 20
-168.8431341711621
 30
0.0
 11
2134.533616294233
 21
-157.4612587009621
 31
0.0
  0
LINE
  5
CFC6
330
1E
100
AcDbEntity
  8
0
  6
Continuous
 62
     7
100
AcDbLine
 10
2133.683616294232
 20
-157.109177173049
 30
0.0
 11
2133.683616294232
 21
-169.1952156992879
 31
0.0
  0
LINE
  5
CFC7
330
1E
100
AcDbEntity
  8
0
  6
Continuous
 62
     7
100
AcDbLine
 10
2098.183677294233
 20
-187.726565106562
 30
0.0
 11
2097.183677294232
 21
-188.726565106562
 31
0.0
  0
LINE
  5
CFC8
330
1E
100
AcDbEntity
  8
0
  6
Continuous
 62
     7
100
AcDbLine
 10
2141.479810371833
 20
-141.426534106562
 30
0.0
 11
2087.887422216433
 21
-141.426534106562
 31
0.0
  0
LINE
  5
CFC9
330
1E
100
AcDbEntity
  8
0
  6
Continuous
 62
     7
100
AcDbLine
 10
2144.433616294233
 20
-175.349021625365
 30
0.0
 11
2136.933616294233
 21
-167.849021621962
 31
0.0
  0
LINE
  5
CFCA
330
1E
100
AcDbEntity
  8
0
  6
Continuous
 62
     7
100
AcDbLine
 10
2140.485697822232
 20
-143.8265341065621
 30
0.0
 11
2088.881534766233
 21
-143.8265341065621
 31
0.0
  0
LINE
  5
CFCB
330
1E
100
AcDbEntity
  8
0
  6
Continuous
 62
     7
100
AcDbLine
 10
2089.183616294233
 20
-144.7265341065619
 30
0.0
 11
2140.183616294233
 21
-144.7265341065619
 31
0.0
  0
LINE
  5
CFCC
330
1E
100
AcDbEntity
  8
0
  6
Continuous
 62
     7
100
AcDbLine
 10
2088.183616294233
 20
-176.6952157025472
 30
0.0
 11
2095.683616294233
 21
-169.1952156990807
 31
0.0
  0
LINE
  5
CFCD
330
1E
100
AcDbEntity
  8
0
  6
Continuous
 62
     7
100
AcDbLine
 10
2134.533616294233
 20
-168.8431341711621
 30
0.0
 11
2142.033616294233
 21
-176.3431341749442
 31
0.0
  0
LINE
  5
CFCE
330
1E
100
AcDbEntity
  8
0
  6
Continuous
 62
     7
100
AcDbLine
 10
2133.683616294232
 20
-169.1952156992879
 30
0.0
 11
2141.183616294233
 21
-176.6952157024871
 31
0.0
  0
LINE
  5
CFCF
330
1E
100
AcDbEntity
  8
0
  6
Continuous
 62
     7
100
AcDbLine
 10
2087.337844649569
 20
-176.338905819336
 30
0.0
 11
2094.833616294232
 21
-168.8431341711621
 31
0.0
  0
LINE
  5
CFD0
330
1E
100
AcDbEntity
  8
0
  6
Continuous
 62
     7
100
AcDbLine
 10
2092.433616294233
 20
-167.849021621962
 30
0.0
 11
2084.933616294233
 21
-175.349021625365
 31
0.0
  0
LINE
  5
CFD1
330
1E
100
AcDbEntity
  8
0
  6
Continuous
 62
     7
100
AcDbLine
 10
2132.183555294233
 20
-188.726565106562
 30
0.0
 11
2131.183555294233
 21
-187.726565106562
 31
0.0
  0
LINE
  5
CFD2
330
1E
100
AcDbEntity
  8
0
  6
Continuous
 62
     7
100
AcDbLine
 10
2095.683616294233
 20
-157.109177173043
 30
0.0
 11
2088.183616294233
 21
-149.6091771695768
 31
0.0
  0
LINE
  5
CFD3
330
1E
100
AcDbEntity
  8
0
  6
Continuous
 62
     7
100
AcDbLine
 10
2094.833616294232
 20
-157.4612587009621
 30
0.0
 11
2087.333616294232
 21
-149.9612586974498
 31
0.0
  0
LINE
  5
CFD4
330
1E
100
AcDbEntity
  8
0
  6
Continuous
 62
     7
100
AcDbLine
 10
2095.683616294233
 20
-169.1952156990807
 30
0.0
 11
2095.683616294233
 21
-157.109177173043
 31
0.0
  0
LINE
  5
CFD5
330
1E
100
AcDbEntity
  8
0
  6
Continuous
 62
     7
100
AcDbLine
 10
2094.833616294232
 20
-157.4612587009621
 30
0.0
 11
2094.833616294232
 21
-168.8431341711621
 31
0.0
  0
LINE
  5
CFD6
330
1E
100
AcDbEntity
  8
0
  6
Continuous
 62
     7
100
AcDbLine
 10
2084.933616294233
 20
-150.9553712466501
 30
0.0
 11
2092.433616294233
 21
-158.4553712503621
 31
0.0
  0
LINE
  5
CFD7
330
1E
100
AcDbEntity
  8
0
  6
Continuous
 62
     7
100
AcDbLine
 10
2088.183616294233
 20
-145.7265341065615
 30
0.0
 11
2089.183616294233
 21
-144.7265341065619
 31
0.0
  0
LINE
  5
CFD8
330
1E
100
AcDbEntity
  8
0
  6
Continuous
 62
     7
100
AcDbLine
 10
2087.333616294232
 20
-145.3744525785621
 30
0.0
 11
2088.881534766233
 21
-143.8265341065621
 31
0.0
  0
LINE
  5
CFD9
330
1E
100
AcDbEntity
  8
0
  6
Continuous
 62
     7
100
AcDbLine
 10
2087.887422216433
 20
-141.426534106562
 30
0.0
 11
2084.933616294233
 21
-144.3803400290855
 31
0.0
  0
LINE
  5
CFDA
330
1E
100
AcDbEntity
  8
0
  6
Continuous
 62
     7
100
AcDbLine
 10
2092.433616294233
 20
-158.4553712503621
 30
0.0
 11
2092.433616294233
 21
-167.849021621962
 31
0.0
  0
LINE
  5
CFDB
330
1E
100
AcDbEntity
  8
0
  6
Continuous
 62
     7
100
AcDbLine
 10
2142.033616294233
 20
-178.1265651065621
 30
0.0
 11
2144.433616294233
 21
-178.1265651065621
 31
0.0
  0
LINE
  5
CFDC
330
1E
100
AcDbEntity
  8
0
  6
Continuous
 62
     7
100
AcDbLine
 10
2084.933616294233
 20
-178.1265651065621
 30
0.0
 11
2087.337844649569
 21
-178.1265651065621
 31
0.0
  0
LINE
  5
CFDD
330
1E
100
AcDbEntity
  8
0
  6
Continuous
 62
     7
100
AcDbLine
 10
2088.183616294233
 20
-149.6091771695768
 30
0.0
 11
2088.183616294233
 21
-145.7265341065615
 31
0.0
  0
LINE
  5
CFDE
330
1E
100
AcDbEntity
  8
0
  6
Continuous
 62
     7
100
AcDbLine
 10
2088.183616294233
 20
-186.726565106562
 30
0.0
 11
2088.183616294233
 21
-176.6952157025472
 31
0.0
  0
LINE
  5
CFDF
330
1E
100
AcDbEntity
  8
0
  6
Continuous
 62
     7
100
AcDbLine
 10
2087.333616294232
 20
-145.3744525785621
 30
0.0
 11
2087.333616294232
 21
-149.9612586974498
 31
0.0
  0
LINE
  5
CFE0
330
1E
100
AcDbEntity
  8
0
  6
Continuous
 62
     7
100
AcDbLine
 10
2084.933616294233
 20
-175.349021625365
 30
0.0
 11
2084.933616294233
 21
-178.1265651065621
 31
0.0
  0
LINE
  5
CFE1
330
1E
100
AcDbEntity
  8
0
  6
Continuous
 62
     7
100
AcDbLine
 10
2084.933616294233
 20
-144.3803400290855
 30
0.0
 11
2084.933616294233
 21
-150.9553712466501
 31
0.0
  0
LINE
  5
CFE2
330
1E
100
AcDbEntity
  8
0
  6
Continuous
 62
     7
100
AcDbLine
 10
2104.183616294233
 20
-188.726579106562
 30
0.0
 11
2103.183602294233
 21
-187.726565106562
 31
0.0
  0
LINE
  5
CFE3
330
1E
100
AcDbEntity
  8
0
  6
Continuous
 62
     7
100
AcDbLine
 10
2103.183602294233
 20
-187.726565106562
 30
0.0
 11
2098.183677294233
 21
-187.726565106562
 31
0.0
  0
LINE
  5
CFE4
330
1E
100
AcDbEntity
  8
0
  6
Continuous
 62
     7
100
AcDbLine
 10
2131.183555294233
 20
-187.726565106562
 30
0.0
 11
2126.183630294233
 21
-187.726565106562
 31
0.0
  0
LINE
  5
CFE5
330
1E
100
AcDbEntity
  8
0
  6
Continuous
 62
     7
100
AcDbLine
 10
2097.183677294232
 20
-188.726565106562
 30
0.0
 11
2090.183616294233
 21
-188.726565106562
 31
0.0
  0
LINE
  5
CFE6
330
1E
100
AcDbEntity
  8
0
  6
Continuous
 62
     7
100
AcDbLine
 10
2139.183616294233
 20
-188.726565106562
 30
0.0
 11
2132.183555294233
 21
-188.726565106562
 31
0.0
  0
LINE
  5
CFE7
330
1E
100
AcDbEntity
  8
0
  6
Continuous
 62
     7
100
AcDbLine
 10
2125.183616294233
 20
-188.726579106562
 30
0.0
 11
2104.183616294233
 21
-188.726579106562
 31
0.0
  0
LINE
  5
CFE8
330
1E
100
AcDbEntity
  8
0
  6
Continuous
 62
     7
100
AcDbLine
 10
2090.183616294233
 20
-188.726565106562
 30
0.0
 11
2088.183616294233
 21
-186.726565106562
 31
0.0
  0
LINE
  5
CFE9
330
1E
100
AcDbEntity
  8
虛線
 48
0.27
100
AcDbLine
 10
2103.185730471901
 20
-145.1265791065621
 30
0.0
 11
2102.974626258435
 21
-144.7609358831473
 31
0.0
  0
LINE
  5
CFEA
330
1E
100
AcDbEntity
  8
虛線
 48
0.27
100
AcDbLine
 10
2123.185730471901
 20
-188.7265791065622
 30
0.0
 11
2122.6857304719
 21
-188.2265791065622
 31
0.0
  0
LINE
  5
CFEB
330
1E
100
AcDbEntity
  8
虛線
 48
0.27
100
AcDbLine
 10
2106.185730471901
 20
-188.7265791065622
 30
0.0
 11
2106.6857304719
 21
-188.226579106562
 31
0.0
  0
LINE
  5
CFEC
330
1E
100
AcDbEntity
  8
虛線
 48
0.27
100
AcDbLine
 10
2122.6857304719
 20
-188.2265791065622
 30
0.0
 11
2106.6857304719
 21
-188.226579106562
 31
0.0
  0
LINE
  5
CFED
330
1E
100
AcDbEntity
  8
虛線
 48
0.27
100
AcDbLine
 10
2106.6857304719
 20
-188.226579106562
 30
0.0
 11
2106.6857304719
 21
-165.2265791065622
 31
0.0
  0
LINE
  5
CFEE
330
1E
100
AcDbEntity
  8
虛線
 48
0.27
100
AcDbLine
 10
2122.6857304719
 20
-188.2265791065622
 30
0.0
 11
2122.6857304719
 21
-165.2265791065622
 31
0.0
  0
LINE
  5
CFEF
330
1E
100
AcDbEntity
  8
虛線
 48
0.27
100
AcDbLine
 10
2103.185730471901
 20
-164.7265791065622
 30
0.0
 11
2103.185730471901
 21
-145.1265791065621
 31
0.0
  0
LINE
  5
CFF0
330
1E
100
AcDbEntity
  8
虛線
 48
0.27
100
AcDbLine
 10
2106.6857304719
 20
-165.2265791065622
 30
0.0
 11
2122.6857304719
 21
-165.2265791065622
 31
0.0
  0
LINE
  5
CFF1
330
1E
100
AcDbEntity
  8
虛線
 48
0.27
100
AcDbLine
 10
2106.6857304719
 20
-165.2265791065622
 30
0.0
 11
2106.185730471901
 21
-164.7265791065622
 31
0.0
  0
LINE
  5
CFF2
330
1E
100
AcDbEntity
  8
虛線
 48
0.27
100
AcDbLine
 10
2123.185730471901
 20
-164.7265791065622
 30
0.0
 11
2122.6857304719
 21
-165.2265791065622
 31
0.0
  0
LINE
  5
CFF3
330
1E
100
AcDbEntity
  8
0
  6
Continuous
 62
     7
100
AcDbLine
 10
2125.185730471901
 20
-188.7265791065622
 30
0.0
 11
2104.1857304719
 21
-188.7265791065622
 31
0.0
  0
LINE
  5
CFF4
330
1E
100
AcDbEntity
  8
虛線
 48
0.27
100
AcDbLine
 10
2103.185730471901
 20
-164.7265791065622
 30
0.0
 11
2126.185730471901
 21
-164.7265791065622
 31
0.0
  0
LINE
  5
CFF5
330
1E
100
AcDbEntity
  8
虛線
 48
0.27
100
AcDbLine
 10
2103.185730471901
 20
-145.1265791065621
 30
0.0
 11
2126.185730471901
 21
-145.1265791065623
 31
0.0
  0
LINE
  5
CFF6
330
1E
100
AcDbEntity
  8
虛線
 48
0.27
100
AcDbLine
 10
2126.396834685366
 20
-144.7609358831473
 30
0.0
 11
2126.185730471901
 21
-145.1265791065623
 31
0.0
  0
LINE
  5
CFF7
330
1E
100
AcDbEntity
  8
虛線
 48
0.27
100
AcDbLine
 10
2126.185730471901
 20
-164.7265791065622
 30
0.0
 11
2126.185730471901
 21
-145.1265791065623
 31
0.0
  0
LINE
  5
CFF8
330
1E
100
AcDbEntity
  8
指線
 48
0.27
100
AcDbLine
 10
2075.384706345421
 20
-145.5257239283746
 30
0.0
 11
2072.266088623615
 21
-145.5261303738266
 31
0.0
  0
LINE
  5
CFF9
330
1E
100
AcDbEntity
  8
指線
 48
0.27
100
AcDbLine
 10
2076.982773436481
 20
-145.5254765826689
 30
0.0
 11
2080.094986519741
 21
-145.5249186317724
 31
0.0
  0
LINE
  5
CFFA
330
1E
100
AcDbEntity
  8
指線
 48
0.27
100
AcDbLine
 10
2076.982526243044
 20
-143.9274062847489
 30
0.0
 11
2080.094739326304
 21
-143.9268483338526
 31
0.0
  0
ARC
  5
CFFB
330
1E
100
AcDbEntity
  8
指線
 48
0.27
100
AcDbCircle
 10
2076.183616294233
 20
-144.726565106562
 30
0.0
 40
2.397105012956624
100
AcDbArc
 50
19.48100010832958
 51
70.53767875678296
  0
LINE
  5
CFFC
330
1E
100
AcDbEntity
  8
指線
 48
0.27
100
AcDbLine
 10
2076.982300255492
 20
-142.4664287449304
 30
0.0
 11
2076.982526243044
 21
-143.9274062847489
 31
0.0
  0
ARC
  5
CFFD
330
1E
100
AcDbEntity
  8
指線
 48
0.27
100
AcDbCircle
 10
2076.183616294233
 20
-144.726565106562
 30
0.0
 40
2.397105012956624
100
AcDbArc
 50
289.4623212432176
 51
340.5208129039504
  0
ARC
  5
CFFE
330
1E
100
AcDbEntity
  8
指線
 48
0.27
100
AcDbCircle
 10
2076.183616294233
 20
-144.726565106562
 30
0.0
 40
2.397105012956624
100
AcDbArc
 50
199.4791870960496
 51
250.5376787567824
  0
LINE
  5
CFFF
330
1E
100
AcDbEntity
  8
指線
 48
0.27
100
AcDbLine
 10
2075.384706345421
 20
-145.5257239283746
 30
0.0
 11
2075.384932332973
 21
-146.9867014681936
 31
0.0
  0
LINE
  5
D000
330
1E
100
AcDbEntity
  8
指線
 48
0.27
100
AcDbLine
 10
2076.982773436481
 20
-145.5254765826689
 30
0.0
 11
2076.982999424352
 21
-146.9864541224949
 31
0.0
  0
LINE
  5
D001
330
1E
100
AcDbEntity
  8
指線
 48
0.27
100
AcDbLine
 10
2075.384459151985
 20
-143.9276536304551
 30
0.0
 11
2072.265841430179
 21
-143.9280600759066
 31
0.0
  0
ARC
  5
D002
330
1E
100
AcDbEntity
  8
指線
 48
0.27
100
AcDbCircle
 10
2076.183616294233
 20
-144.726565106562
 30
0.0
 40
2.397105012956624
100
AcDbArc
 50
109.4623212431924
 51
160.5189998916704
  0
LINE
  5
D003
330
1E
100
AcDbEntity
  8
指線
 48
0.27
100
AcDbLine
 10
2075.384233164113
 20
-142.4666760906286
 30
0.0
 11
2075.384459151985
 21
-143.9276536304551
 31
0.0
  0
CIRCLE
  5
D004
330
1E
100
AcDbEntity
  8
指線
 48
0.27
100
AcDbCircle
 10
2076.183616294233
 20
-144.726565106562
 30
0.0
 40
4.0
  0
LINE
  5
D005
330
1E
100
AcDbEntity
  8
指線
 48
0.27
100
AcDbLine
 10
2152.384706345421
 20
-145.5257239283746
 30
0.0
 11
2149.266088623615
 21
-145.5261303738266
 31
0.0
  0
LINE
  5
D006
330
1E
100
AcDbEntity
  8
指線
 48
0.27
100
AcDbLine
 10
2153.982773436481
 20
-145.5254765826689
 30
0.0
 11
2157.094986519741
 21
-145.5249186317724
 31
0.0
  0
LINE
  5
D007
330
1E
100
AcDbEntity
  8
指線
 48
0.27
100
AcDbLine
 10
2153.982526243044
 20
-143.9274062847489
 30
0.0
 11
2157.094739326304
 21
-143.9268483338526
 31
0.0
  0
ARC
  5
D008
330
1E
100
AcDbEntity
  8
指線
 48
0.27
100
AcDbCircle
 10
2153.183616294233
 20
-144.726565106562
 30
0.0
 40
2.397105012956624
100
AcDbArc
 50
19.48100010832958
 51
70.53767875678296
  0
LINE
  5
D009
330
1E
100
AcDbEntity
  8
指線
 48
0.27
100
AcDbLine
 10
2153.982300255492
 20
-142.4664287449304
 30
0.0
 11
2153.982526243044
 21
-143.9274062847489
 31
0.0
  0
ARC
  5
D00A
330
1E
100
AcDbEntity
  8
指線
 48
0.27
100
AcDbCircle
 10
2153.183616294232
 20
-144.726565106562
 30
0.0
 40
2.397105012956624
100
AcDbArc
 50
289.4623212432176
 51
340.5208129039504
  0
ARC
  5
D00B
330
1E
100
AcDbEntity
  8
指線
 48
0.27
100
AcDbCircle
 10
2153.183616294233
 20
-144.726565106562
 30
0.0
 40
2.397105012956624
100
AcDbArc
 50
199.4791870960496
 51
250.5376787567824
  0
LINE
  5
D00C
330
1E
100
AcDbEntity
  8
指線
 48
0.27
100
AcDbLine
 10
2152.384706345421
 20
-145.5257239283746
 30
0.0
 11
2152.384932332973
 21
-146.9867014681936
 31
0.0
  0
LINE
  5
D00D
330
1E
100
AcDbEntity
  8
指線
 48
0.27
100
AcDbLine
 10
2153.982773436481
 20
-145.5254765826689
 30
0.0
 11
2153.982999424352
 21
-146.9864541224949
 31
0.0
  0
LINE
  5
D00E
330
1E
100
AcDbEntity
  8
指線
 48
0.27
100
AcDbLine
 10
2152.384459151985
 20
-143.9276536304551
 30
0.0
 11
2149.265841430179
 21
-143.9280600759066
 31
0.0
  0
ARC
  5
D00F
330
1E
100
AcDbEntity
  8
指線
 48
0.27
100
AcDbCircle
 10
2153.183616294232
 20
-144.726565106562
 30
0.0
 40
2.397105012956624
100
AcDbArc
 50
109.4623212431924
 51
160.5189998916704
  0
LINE
  5
D010
330
1E
100
AcDbEntity
  8
指線
 48
0.27
100
AcDbLine
 10
2152.384233164113
 20
-142.4666760906286
 30
0.0
 11
2152.384459151985
 21
-143.9276536304551
 31
0.0
  0
CIRCLE
  5
D011
330
1E
100
AcDbEntity
  8
指線
 48
0.27
100
AcDbCircle
 10
2153.183616294233
 20
-144.726565106562
 30
0.0
 40
4.0
  0
LINE
  5
D120
330
1E
100
AcDbEntity
  8
中心線
 48
0.27
100
AcDbLine
 10
2272.97268749171
 20
-190.5778946803964
 30
0.0
 11
2272.97268749171
 21
-142.2660230433075
 31
0.0
  0
LINE
  5
D121
330
1E
100
AcDbEntity
  8
0
100
AcDbLine
 10
2284.47268749171
 20
-164.7265651065622
 30
0.0
 11
2284.47268749171
 21
-145.1265651065623
 31
0.0
  0
LINE
  5
D122
330
1E
100
AcDbEntity
  8
0
100
AcDbLine
 10
2261.47268749171
 20
-164.7265651065622
 30
0.0
 11
2261.47268749171
 21
-145.1265651065623
 31
0.0
  0
LINE
  5
D123
330
1E
100
AcDbEntity
  8
0
100
AcDbLine
 10
2280.97268749171
 20
-165.2265651065622
 30
0.0
 11
2264.972687491709
 21
-165.2265651065622
 31
0.0
  0
LINE
  5
D124
330
1E
100
AcDbEntity
  8
0
100
AcDbLine
 10
2284.47268749171
 20
-164.7265651065622
 30
0.0
 11
2261.47268749171
 21
-164.7265651065622
 31
0.0
  0
LINE
  5
D125
330
1E
100
AcDbEntity
  8
0
100
AcDbLine
 10
2264.972687491709
 20
-188.2265651065622
 30
0.0
 11
2264.972687491709
 21
-165.2265651065622
 31
0.0
  0
LINE
  5
D126
330
1E
100
AcDbEntity
  8
0
100
AcDbLine
 10
2264.47268749171
 20
-164.7265651065622
 30
0.0
 11
2264.972687491709
 21
-165.2265651065622
 31
0.0
  0
LINE
  5
D127
330
1E
100
AcDbEntity
  8
0
100
AcDbLine
 10
2280.97268749171
 20
-188.2265651065622
 30
0.0
 11
2280.97268749171
 21
-165.2265651065622
 31
0.0
  0
LINE
  5
D128
330
1E
100
AcDbEntity
  8
0
100
AcDbLine
 10
2280.97268749171
 20
-165.2265651065622
 30
0.0
 11
2281.47268749171
 21
-164.7265651065622
 31
0.0
  0
LINE
  5
D129
330
1E
100
AcDbEntity
  8
0
100
AcDbLine
 10
2284.47268749171
 20
-145.1265651065623
 30
0.0
 11
2261.47268749171
 21
-145.1265651065623
 31
0.0
  0
LINE
  5
D12A
330
1E
100
AcDbEntity
  8
0
100
AcDbLine
 10
2284.47268749171
 20
-145.1265651065623
 30
0.0
 11
2284.703627599386
 21
-144.7265651065622
 31
0.0
  0
LINE
  5
D12B
330
1E
100
AcDbEntity
  8
0
100
AcDbLine
 10
2261.241747384034
 20
-144.7265651065625
 30
0.0
 11
2261.47268749171
 21
-145.1265651065623
 31
0.0
  0
LINE
  5
D12C
330
1E
100
AcDbEntity
  8
0
100
AcDbLine
 10
2264.972687491709
 20
-188.2265651065622
 30
0.0
 11
2280.97268749171
 21
-188.2265651065622
 31
0.0
  0
LINE
  5
D12D
330
1E
100
AcDbEntity
  8
0
100
AcDbLine
 10
2281.47268749171
 20
-188.7265651065622
 30
0.0
 11
2280.97268749171
 21
-188.2265651065622
 31
0.0
  0
LINE
  5
D12E
330
1E
100
AcDbEntity
  8
0
100
AcDbLine
 10
2264.47268749171
 20
-188.7265651065622
 30
0.0
 11
2264.972687491709
 21
-188.2265651065622
 31
0.0
  0
LINE
  5
D288
330
1E
100
AcDbEntity
  8
虛線
 48
0.27
100
AcDbLine
 10
2340.97268749171
 20
-188.2265651065621
 30
0.0
 11
2340.97268749171
 21
-178.7265651065621
 31
0.0
  0
LINE
  5
D289
330
1E
100
AcDbEntity
  8
虛線
 48
0.27
100
AcDbLine
 10
2324.97268749171
 20
-188.2265651065621
 30
0.0
 11
2324.97268749171
 21
-178.7265651065621
 31
0.0
  0
LINE
  5
D28A
330
1E
100
AcDbEntity
  8
虛線
 48
0.27
100
AcDbLine
 10
2324.97268749171
 20
-188.2265651065621
 30
0.0
 11
2340.97268749171
 21
-188.2265651065621
 31
0.0
  0
LINE
  5
D28B
330
1E
100
AcDbEntity
  8
虛線
 48
0.27
100
AcDbLine
 10
2341.47268749171
 20
-188.726565106562
 30
0.0
 11
2340.97268749171
 21
-188.2265651065621
 31
0.0
  0
LINE
  5
D28C
330
1E
100
AcDbEntity
  8
虛線
 48
0.27
100
AcDbLine
 10
2324.472687491709
 20
-188.726565106562
 30
0.0
 11
2324.97268749171
 21
-188.2265651065621
 31
0.0
  0
LINE
  5
D297
330
1E
100
AcDbEntity
  8
虛線
 48
0.27
100
AcDbLine
 10
2400.97268749171
 20
-188.2265651065621
 30
0.0
 11
2400.97268749171
 21
-178.7265651065621
 31
0.0
  0
LINE
  5
D298
330
1E
100
AcDbEntity
  8
虛線
 48
0.27
100
AcDbLine
 10
2384.97268749171
 20
-188.2265651065621
 30
0.0
 11
2384.97268749171
 21
-178.7265651065621
 31
0.0
  0
LINE
  5
D299
330
1E
100
AcDbEntity
  8
虛線
 48
0.27
100
AcDbLine
 10
2384.97268749171
 20
-188.2265651065621
 30
0.0
 11
2400.97268749171
 21
-188.2265651065621
 31
0.0
  0
LINE
  5
D29A
330
1E
100
AcDbEntity
  8
虛線
 48
0.27
100
AcDbLine
 10
2401.47268749171
 20
-188.726565106562
 30
0.0
 11
2400.97268749171
 21
-188.2265651065621
 31
0.0
  0
LINE
  5
D29B
330
1E
100
AcDbEntity
  8
虛線
 48
0.27
100
AcDbLine
 10
2384.47268749171
 20
-188.726565106562
 30
0.0
 11
2384.97268749171
 21
-188.2265651065621
 31
0.0
  0
LINE
  5
D2A6
330
1E
100
AcDbEntity
  8
虛線
 48
0.27
100
AcDbLine
 10
2460.97268749171
 20
-188.2265651065621
 30
0.0
 11
2460.97268749171
 21
-178.7265651065621
 31
0.0
  0
LINE
  5
D2A7
330
1E
100
AcDbEntity
  8
虛線
 48
0.27
100
AcDbLine
 10
2444.97268749171
 20
-188.2265651065621
 30
0.0
 11
2444.97268749171
 21
-178.7265651065621
 31
0.0
  0
LINE
  5
D2A8
330
1E
100
AcDbEntity
  8
虛線
 48
0.27
100
AcDbLine
 10
2444.97268749171
 20
-188.2265651065621
 30
0.0
 11
2460.97268749171
 21
-188.2265651065621
 31
0.0
  0
LINE
  5
D2A9
330
1E
100
AcDbEntity
  8
虛線
 48
0.27
100
AcDbLine
 10
2461.47268749171
 20
-188.726565106562
 30
0.0
 11
2460.97268749171
 21
-188.2265651065621
 31
0.0
  0
LINE
  5
D2AA
330
1E
100
AcDbEntity
  8
虛線
 48
0.27
100
AcDbLine
 10
2444.47268749171
 20
-188.726565106562
 30
0.0
 11
2444.97268749171
 21
-188.2265651065621
 31
0.0
  0
LINE
  5
D2B5
330
1E
100
AcDbEntity
  8
虛線
 48
0.27
100
AcDbLine
 10
2520.97268749171
 20
-188.2265651065621
 30
0.0
 11
2520.97268749171
 21
-178.7265651065621
 31
0.0
  0
LINE
  5
D2B6
330
1E
100
AcDbEntity
  8
虛線
 48
0.27
100
AcDbLine
 10
2504.97268749171
 20
-188.2265651065621
 30
0.0
 11
2504.97268749171
 21
-178.7265651065621
 31
0.0
  0
LINE
  5
D2B7
330
1E
100
AcDbEntity
  8
虛線
 48
0.27
100
AcDbLine
 10
2504.97268749171
 20
-188.2265651065621
 30
0.0
 11
2520.97268749171
 21
-188.2265651065621
 31
0.0
  0
LINE
  5
D2B8
330
1E
100
AcDbEntity
  8
虛線
 48
0.27
100
AcDbLine
 10
2521.47268749171
 20
-188.726565106562
 30
0.0
 11
2520.97268749171
 21
-188.2265651065621
 31
0.0
  0
LINE
  5
D2B9
330
1E
100
AcDbEntity
  8
虛線
 48
0.27
100
AcDbLine
 10
2504.47268749171
 20
-188.726565106562
 30
0.0
 11
2504.97268749171
 21
-188.2265651065621
 31
0.0
  0
LINE
  5
D394
330
1E
100
AcDbEntity
  8
虛線
 48
0.27
100
AcDbLine
 10
2050.683616294234
 20
-120.2265651065618
 30
0.0
 11
2062.683616294235
 21
-120.2265651065618
 31
0.0
  0
LINE
  5
D395
330
1E
100
AcDbEntity
  8
虛線
 48
0.27
100
AcDbLine
 10
2062.683616294235
 20
-120.2265651065618
 30
0.0
 11
2064.183616294235
 21
-118.7265651065618
 31
0.0
  0
LINE
  5
D396
330
1E
100
AcDbEntity
  8
虛線
 48
0.27
100
AcDbLine
 10
2050.683616294234
 20
-120.2265651065618
 30
0.0
 11
2049.183616294234
 21
-118.7265651065618
 31
0.0
  0
LINE
  5
D39F
330
1E
100
AcDbEntity
  8
虛線
 48
0.27
100
AcDbLine
 10
2108.683616294232
 20
-120.2265651065618
 30
0.0
 11
2120.683616294233
 21
-120.2265651065618
 31
0.0
  0
LINE
  5
D3A0
330
1E
100
AcDbEntity
  8
虛線
 48
0.27
100
AcDbLine
 10
2120.683616294233
 20
-120.2265651065618
 30
0.0
 11
2122.183616294233
 21
-118.7265651065618
 31
0.0
  0
LINE
  5
D3A1
330
1E
100
AcDbEntity
  8
虛線
 48
0.27
100
AcDbLine
 10
2108.683616294232
 20
-120.2265651065618
 30
0.0
 11
2107.183616294232
 21
-118.7265651065618
 31
0.0
  0
LINE
  5
D3AA
330
1E
100
AcDbEntity
  8
虛線
 48
0.27
100
AcDbLine
 10
2166.683616294234
 20
-120.2265651065618
 30
0.0
 11
2178.683616294235
 21
-120.2265651065618
 31
0.0
  0
LINE
  5
D3AB
330
1E
100
AcDbEntity
  8
虛線
 48
0.27
100
AcDbLine
 10
2178.683616294235
 20
-120.2265651065618
 30
0.0
 11
2180.183616294235
 21
-118.7265651065618
 31
0.0
  0
LINE
  5
D3AC
330
1E
100
AcDbEntity
  8
虛線
 48
0.27
100
AcDbLine
 10
2166.683616294234
 20
-120.2265651065618
 30
0.0
 11
2165.183616294234
 21
-118.7265651065618
 31
0.0
  0
LINE
  5
D3D6
330
1E
100
AcDbEntity
  8
虛線
 48
0.27
100
AcDbLine
 10
2464.47268749171
 20
-120.2265651065618
 30
0.0
 11
2462.97268749171
 21
-118.7265651065618
 31
0.0
  0
LINE
  5
D3D7
330
1E
100
AcDbEntity
  8
虛線
 48
0.27
100
AcDbLine
 10
2463.97268749171
 20
-120.2265651065618
 30
0.0
 11
2465.47268749171
 21
-118.7265651065618
 31
0.0
  0
LINE
  5
D3D8
330
1E
100
AcDbEntity
  8
虛線
 48
0.27
100
AcDbLine
 10
2464.97268749171
 20
-120.2265651065618
 30
0.0
 11
2464.47268749171
 21
-120.2265651065618
 31
0.0
  0
LINE
  5
D3D9
330
1E
100
AcDbEntity
  8
虛線
 48
0.27
100
AcDbLine
 10
2381.47268749171
 20
-120.2265651065618
 30
0.0
 11
2369.47268749171
 21
-120.2265651065618
 31
0.0
  0
LINE
  5
D3DA
330
1E
100
AcDbEntity
  8
虛線
 48
0.27
100
AcDbLine
 10
2476.47268749171
 20
-120.2265651065618
 30
0.0
 11
2477.972687491711
 21
-118.7265651065618
 31
0.0
  0
LINE
  5
D3DB
330
1E
100
AcDbEntity
  8
虛線
 48
0.27
100
AcDbLine
 10
2476.47268749171
 20
-120.2265651065618
 30
0.0
 11
2464.97268749171
 21
-120.2265651065618
 31
0.0
  0
LINE
  5
D3DC
330
1E
100
AcDbEntity
  8
虛線
 48
0.27
100
AcDbLine
 10
2369.47268749171
 20
-120.2265651065618
 30
0.0
 11
2367.97268749171
 21
-118.7265651065618
 31
0.0
  0
LINE
  5
D3DD
330
1E
100
AcDbEntity
  8
虛線
 48
0.27
100
AcDbLine
 10
2382.47268749171
 20
-120.2265651065618
 30
0.0
 11
2381.97268749171
 21
-120.2265651065618
 31
0.0
  0
LINE
  5
D3DE
330
1E
100
AcDbEntity
  8
虛線
 48
0.27
100
AcDbLine
 10
2381.47268749171
 20
-120.2265651065618
 30
0.0
 11
2382.97268749171
 21
-118.7265651065618
 31
0.0
  0
LINE
  5
D3DF
330
1E
100
AcDbEntity
  8
虛線
 48
0.27
100
AcDbLine
 10
2393.972687491709
 20
-120.2265651065618
 30
0.0
 11
2395.47268749171
 21
-118.7265651065618
 31
0.0
  0
LINE
  5
D3E0
330
1E
100
AcDbEntity
  8
虛線
 48
0.27
100
AcDbLine
 10
2393.972687491709
 20
-120.2265651065618
 30
0.0
 11
2381.97268749171
 21
-120.2265651065618
 31
0.0
  0
LINE
  5
D3E1
330
1E
100
AcDbEntity
  8
虛線
 48
0.27
100
AcDbLine
 10
2381.97268749171
 20
-120.2265651065618
 30
0.0
 11
2380.47268749171
 21
-118.7265651065618
 31
0.0
  0
LINE
  5
D3E2
330
1E
100
AcDbEntity
  8
虛線
 48
0.27
100
AcDbLine
 10
2451.97268749171
 20
-120.2265651065618
 30
0.0
 11
2463.97268749171
 21
-120.2265651065618
 31
0.0
  0
LINE
  5
D3E3
330
1E
100
AcDbEntity
  8
虛線
 48
0.27
100
AcDbLine
 10
2451.97268749171
 20
-120.2265651065618
 30
0.0
 11
2450.47268749171
 21
-118.7265651065618
 31
0.0
  0
LINE
  5
D3E4
330
1E
100
AcDbEntity
  8
虛線
 48
0.27
100
AcDbLine
 10
2369.47268749171
 20
-135.7265651065618
 30
0.0
 11
2369.47268749171
 21
-120.2265651065618
 31
0.0
  0
LINE
  5
D3E5
330
1E
100
AcDbEntity
  8
虛線
 48
0.27
100
AcDbLine
 10
2368.47268749171
 20
-135.7265651065618
 30
0.0
 11
2368.47268749171
 21
-119.2265651065617
 31
0.0
  0
LINE
  5
D3E6
330
1E
100
AcDbEntity
  8
虛線
 48
0.27
100
AcDbLine
 10
2380.97268749171
 20
-130.7265341065617
 30
0.0
 11
2380.97268749171
 21
-119.2265651065617
 31
0.0
  0
LINE
  5
D3E7
330
1E
100
AcDbEntity
  8
虛線
 48
0.27
100
AcDbLine
 10
2381.47268749171
 20
-135.7265651065618
 30
0.0
 11
2381.47268749171
 21
-120.2265651065618
 31
0.0
  0
LINE
  5
D3E8
330
1E
100
AcDbEntity
  8
虛線
 48
0.27
100
AcDbLine
 10
2381.97268749171
 20
-130.7265341065617
 30
0.0
 11
2381.97268749171
 21
-120.2265651065618
 31
0.0
  0
LINE
  5
D3E9
330
1E
100
AcDbEntity
  8
虛線
 48
0.27
100
AcDbLine
 10
2382.47268749171
 20
-135.7265651065618
 30
0.0
 11
2382.47268749171
 21
-119.2265651065619
 31
0.0
  0
LINE
  5
D3EA
330
1E
100
AcDbEntity
  8
虛線
 48
0.27
100
AcDbLine
 10
2393.972687491709
 20
-130.7265341065617
 30
0.0
 11
2393.972687491709
 21
-120.2265651065618
 31
0.0
  0
LINE
  5
D3EB
330
1E
100
AcDbEntity
  8
虛線
 48
0.27
100
AcDbLine
 10
2394.97268749171
 20
-130.7265341065617
 30
0.0
 11
2394.97268749171
 21
-119.2265651065621
 31
0.0
  0
LINE
  5
D3EC
330
1E
100
AcDbEntity
  8
虛線
 48
0.27
100
AcDbLine
 10
2451.97268749171
 20
-130.7265341065617
 30
0.0
 11
2451.97268749171
 21
-120.2265651065618
 31
0.0
  0
LINE
  5
D3ED
330
1E
100
AcDbEntity
  8
虛線
 48
0.27
100
AcDbLine
 10
2450.97268749171
 20
-130.7265341065617
 30
0.0
 11
2450.97268749171
 21
-119.2265651065618
 31
0.0
  0
LINE
  5
D3EE
330
1E
100
AcDbEntity
  8
虛線
 48
0.27
100
AcDbLine
 10
2464.47268749171
 20
-135.7265651065618
 30
0.0
 11
2464.47268749171
 21
-120.2265651065618
 31
0.0
  0
LINE
  5
D3EF
330
1E
100
AcDbEntity
  8
虛線
 48
0.27
100
AcDbLine
 10
2463.472687491709
 20
-135.7265651065618
 30
0.0
 11
2463.47268749171
 21
-119.2265651065617
 31
0.0
  0
LINE
  5
D3F0
330
1E
100
AcDbEntity
  8
虛線
 48
0.27
100
AcDbLine
 10
2463.97268749171
 20
-130.7265341065617
 30
0.0
 11
2463.97268749171
 21
-120.2265651065618
 31
0.0
  0
LINE
  5
D3F1
330
1E
100
AcDbEntity
  8
虛線
 48
0.27
100
AcDbLine
 10
2464.97268749171
 20
-130.7265341065617
 30
0.0
 11
2464.97268749171
 21
-119.2265651065619
 31
0.0
  0
LINE
  5
D3F2
330
1E
100
AcDbEntity
  8
虛線
 48
0.27
100
AcDbLine
 10
2476.47268749171
 20
-135.7265651065618
 30
0.0
 11
2476.47268749171
 21
-120.2265651065618
 31
0.0
  0
LINE
  5
D3F3
330
1E
100
AcDbEntity
  8
虛線
 48
0.27
100
AcDbLine
 10
2477.47268749171
 20
-135.7265651065618
 30
0.0
 11
2477.47268749171
 21
-119.2265651065621
 31
0.0
  0
LINE
  5
D3F4
330
1E
100
AcDbEntity
  8
0
100
AcDbLine
 10
2297.023013558212
 20
-144.7265341065622
 30
0.0
 11
2293.618710909568
 21
-152.6330500096813
 31
0.0
  0
LINE
  5
D3F5
330
1E
100
AcDbEntity
  8
0
100
AcDbLine
 10
2293.618710909568
 20
-152.6330500096813
 30
0.0
 11
2298.579182023745
 21
-162.5496300649883
 31
0.0
  0
LINE
  5
D3F6
330
1E
100
AcDbEntity
  8
0
100
AcDbLine
 10
2298.579182023745
 20
-162.5496300649883
 30
0.0
 11
2293.69510306103
 21
-172.6389568615209
 31
0.0
  0
LINE
  5
D3F7
330
1E
100
AcDbEntity
  8
0
100
AcDbLine
 10
2293.69510306103
 20
-172.6389568615209
 30
0.0
 11
2298.588530832708
 21
-184.4281836872138
 31
0.0
  0
LINE
  5
D3F8
330
1E
100
AcDbEntity
  8
0
100
AcDbLine
 10
2298.588530832708
 20
-184.4281836872138
 30
0.0
 11
2297.03785393212
 21
-188.726565106562
 31
0.0
  0
LINE
  5
D3FD
330
1E
100
AcDbEntity
  8
中心線
100
AcDbLine
 10
2422.97268749171
 20
93.84395582043794
 30
0.0
 11
2422.97268749171
 21
-56.15604417956205
 31
0.0
  0
LINE
  5
D3FE
330
1E
100
AcDbEntity
  8
中心線
100
AcDbLine
 10
2331.07268749171
 20
18.84395582043794
 30
0.0
 11
2514.87268749171
 21
18.84395582043794
 31
0.0
  0
LINE
  5
D475
330
1E
100
AcDbEntity
  8
中心線
 48
0.27
100
AcDbLine
 10
2317.735096177892
 20
-136.226565106562
 30
0.0
 11
2329.410278805528
 21
-136.226565106562
 31
0.0
  0
LINE
  5
D476
330
1E
100
AcDbEntity
  8
中心線
 48
0.27
100
AcDbLine
 10
2323.57268749171
 20
-142.0641564203799
 30
0.0
 11
2323.57268749171
 21
-130.3889737927444
 31
0.0
  0
LINE
  5
D47E
330
1E
100
AcDbEntity
  8
中心線
 48
0.27
100
AcDbLine
 10
2516.535096177892
 20
-136.226565106562
 30
0.0
 11
2528.210278805528
 21
-136.226565106562
 31
0.0
  0
LINE
  5
D47F
330
1E
100
AcDbEntity
  8
中心線
 48
0.27
100
AcDbLine
 10
2522.37268749171
 20
-142.0641564203799
 30
0.0
 11
2522.37268749171
 21
-130.3889737927444
 31
0.0
  0
MTEXT
  5
D49D
330
1E
100
AcDbEntity
  8
0
100
AcDbMText
 10
2089.144875735118
 20
-209.9920603417913
 30
0.0
 40
7.800000159341863
 41
100.6095
 71
     1
 72
     5
  1
\A1;{\fTimes New Roman|b0|i0|c0|p18;RGW55HC\PC : 17100 kgf\PC\fProxy 1|b0|i0|c0|p0;\H0.75x;\S^ 0;\fTimes New Roman|b0|i0|c0|p18;\H1.333x;: 35470 kgf}
 73
     1
 44
1.0
1001
ACAD
1000
MTEXTBEGIN
1070
    73
1070
     1
1070
    44
1040
1.0
1070
    74
1070
     0
1000
MTEXTEND
  0
LINE
  5
DEBE
330
1E
100
AcDbEntity
  8
虛線
 48
0.27
100
AcDbLine
 10
2125.683616294233
 20
-142.7265651065618
 30
0.0
 11
2103.683616294235
 21
-142.7265651065618
 31
0.0
  0
LINE
  5
EAA2
330
1E
100
AcDbEntity
  8
0
  6
Continuous
 62
     7
100
AcDbLine
 10
2602.97268749171
 20
-145.7265341071034
 30
0.0
 11
2540.609416225709
 21
-145.7265341070631
 31
0.0
  0
LINE
  5
EAA3
330
1E
100
AcDbEntity
  8
0
  6
Continuous
 62
     7
100
AcDbLine
 10
2602.97268749171
 20
-149.6091771696149
 30
0.0
 11
2538.97268749171
 21
-149.6091771695735
 31
0.0
  0
LINE
  5
EAA4
330
1E
100
AcDbEntity
  8
0
  6
Continuous
 62
     7
100
AcDbLine
 10
2602.97268749171
 20
-157.1091771733525
 30
0.0
 11
2538.97268749171
 21
-157.1091771733111
 31
0.0
  0
LINE
  5
EAA5
330
1E
100
AcDbEntity
  8
0
  6
Continuous
 62
     7
100
AcDbLine
 10
2602.97268749171
 20
-169.1952156995915
 30
0.0
 11
2538.97268749171
 21
-169.19521569955
 31
0.0
  0
LINE
  5
EAA6
330
1E
100
AcDbEntity
  8
0
  6
Continuous
 62
     7
100
AcDbLine
 10
2602.97268749171
 20
-176.6952157027858
 30
0.0
 11
2538.97268749171
 21
-176.6952157027444
 31
0.0
  0
LINE
  5
EAA7
330
1E
100
AcDbEntity
  8
0
  6
Continuous
 62
     7
100
AcDbLine
 10
2602.97268749171
 20
-186.7265651068607
 30
0.0
 11
2297.759370591172
 21
-186.7265651066633
 31
0.0
  0
LINE
  5
EAA8
330
1E
100
AcDbEntity
  8
0
  6
Continuous
 62
     7
100
AcDbLine
 10
2305.33595875771
 20
-145.7265341069109
 30
0.0
 11
2296.59244430476
 21
-145.7265341069052
 31
0.0
  0
LINE
  5
EAAA
330
1E
100
AcDbEntity
  8
0
  6
Continuous
 62
     7
100
AcDbLine
 10
2306.97268749171
 20
-149.6091771694234
 30
0.0
 11
2294.920697580488
 21
-149.6091771694156
 31
0.0
  0
LINE
  5
EAAB
330
1E
100
AcDbEntity
  8
0
  6
Continuous
 62
     7
100
AcDbLine
 10
2306.97268749171
 20
-157.1091771731611
 30
0.0
 11
2295.857758986017
 21
-157.1091771731539
 31
0.0
  0
LINE
  5
EAAC
330
1E
100
AcDbEntity
  8
0
  6
Continuous
 62
     7
100
AcDbLine
 10
2306.97268749171
 20
-169.1952156994
 30
0.0
 11
2295.362162132679
 21
-169.1952156993925
 31
0.0
  0
LINE
  5
EAAD
330
1E
100
AcDbEntity
  8
0
  6
Continuous
 62
     7
100
AcDbLine
 10
2306.97268749171
 20
-176.6952157025943
 30
0.0
 11
2295.378759670192
 21
-176.6952157025868
 31
0.0
  0
ENDSEC
  0
SECTION
  2
OBJECTS
  0
DICTIONARY
  5
C
330
0
100
AcDbDictionary
281
     1
  3
ACAD_COLOR
350
3D97
  3
ACAD_GROUP
350
D
  3
ACAD_LAYOUT
350
19
  3
ACAD_MATERIAL
350
3D96
  3
ACAD_MLINESTYLE
350
16
  3
ACAD_PLOTSETTINGS
350
18
  3
ACAD_PLOTSTYLENAME
350
E
  3
ACAD_TABLESTYLE
350
E7A3
  3
ACDBHEADERROUNDTRIPXREC
350
EACB
  3
AcDbVariableDictionary
350
3E63
  0
DICTIONARY
  5
43C2
330
2
100
AcDbDictionary
280
     1
281
     1
  3
ACAD_LAYERSTATES
360
43C3
  0
DICTIONARY
  5
3D1E
330
1E
100
AcDbDictionary
280
     1
281
     1
  3
ACAD_LAYOUTSELFREF
360
3D92
  3
ACAD_SORTENTS
360
EAA9
  0
DICTIONARY
  5
3D20
330
1A
100
AcDbDictionary
280
     1
281
     1
  3
ACAD_LAYOUTSELFREF
360
3D91
  0
DICTIONARY
  5
69B8
330
69B7
100
AcDbDictionary
280
     1
281
     1
  3
ACAD_SORTENTS
360
69B9
  0
DICTIONARY
  5
69CC
330
69CB
100
AcDbDictionary
280
     1
281
     1
  3
ACAD_SORTENTS
360
69CD
  0
DICTIONARY
  5
3D97
102
{ACAD_REACTORS
330
C
102
}
330
C
100
AcDbDictionary
281
     1
  0
DICTIONARY
  5
D
102
{ACAD_REACTORS
330
C
102
}
330
C
100
AcDbDictionary
281
     1
  3
*A1
350
4143
  3
*A10
350
4378
  3
*A11
350
43BF
  3
*A12
350
423A
  3
*A13
350
414C
  3
*A14
350
579E
  3
*A15
350
4235
  3
*A16
350
437C
  3
*A17
350
414F
  3
*A18
350
437E
  3
*A19
350
4149
  3
*A2
350
4241
  3
*A20
350
4239
  3
*A21
350
4237
  3
*A22
350
423C
  3
*A23
350
43B6
  3
*A24
350
423B
  3
*A25
350
43B8
  3
*A26
350
576A
  3
*A27
350
4240
  3
*A28
350
423E
  3
*A29
350
4374
  3
*A3
350
43BB
  3
*A30
350
4373
  3
*A31
350
43BD
  3
*A32
350
4236
  3
*A33
350
4377
  3
*A34
350
4145
  3
*A35
350
437A
  3
*A36
350
4379
  3
*A37
350
43C1
  3
*A38
350
423D
  3
*A39
350
437D
  3
*A4
350
414D
  3
*A40
350
4146
  3
*A41
350
437F
  3
*A42
350
414B
  3
*A43
350
4375
  3
*A44
350
43B7
  3
*A45
350
414E
  3
*A46
350
43B9
  3
*A47
350
57D9
  3
*A48
350
437B
  3
*A49
350
43BC
  3
*A5
350
4144
  3
*A50
350
43BE
  3
*A51
350
4238
  3
*A52
350
43B5
  3
*A53
350
43C0
  3
*A54
350
4148
  3
*A55
350
423F
  3
*A56
350
43BA
  3
*A6
350
414A
  3
*A7
350
5691
  3
*A8
350
4376
  3
*A9
350
4147
  0
DICTIONARY
  5
19
102
{ACAD_REACTORS
330
C
102
}
330
C
100
AcDbDictionary
281
     1
  3
Model
350
21
  3
配置1
350
1D
  0
DICTIONARY
  5
3D96
102
{ACAD_REACTORS
330
C
102
}
330
C
100
AcDbDictionary
281
     1
  0
DICTIONARY
  5
16
102
{ACAD_REACTORS
330
C
102
}
330
C
100
AcDbDictionary
281
     1
  3
Standard
350
17
  0
DICTIONARY
  5
18
102
{ACAD_REACTORS
330
C
102
}
330
C
100
AcDbDictionary
281
     1
  3
LANSRO
350
4150
  0
ACDBDICTIONARYWDFLT
  5
E
102
{ACAD_REACTORS
330
C
102
}
330
C
100
AcDbDictionary
281
     1
  3
Normal
350
F
100
AcDbDictionaryWithDefault
340
F
  0
DICTIONARY
  5
E7A3
102
{ACAD_REACTORS
330
C
102
}
330
C
100
AcDbDictionary
281
     1
  3
Standard
350
E7A4
  0
DICTIONARY
  5
EACB
102
{ACAD_REACTORS
330
C
102
}
330
C
100
AcDbDictionary
281
     1
  3
COLORDICT
350
EACD
  3
MATERIALDICT
350
EACC
  0
DICTIONARY
  5
3E63
102
{ACAD_REACTORS
330
C
102
}
330
C
100
AcDbDictionary
281
     1
  3
CTABLESTYLE
350
E8F8
  3
DIMASSOC
350
3E64
  3
PROJECTNAME
350
3E65
  0
DICTIONARY
  5
43C3
102
{ACAD_REACTORS
330
43C2
102
}
330
43C2
100
AcDbDictionary
281
     1
  0
XRECORD
  5
3D92
102
{ACAD_REACTORS
330
3D1E
102
}
330
3D1E
100
AcDbXrecord
280
     1
340
1E
  0
SORTENTSTABLE
  5
EAA9
102
{ACAD_REACTORS
330
3D1E
102
}
330
3D1E
100
AcDbSortentsTable
330
1E
331
D3D8
  5
D3D8
331
A4CB
  5
A4CB
331
A48C
  5
A48C
331
A549
  5
A549
331
A588
  5
A588
331
CFDD
  5
CFDD
331
A451
  5
A451
331
A305
  5
A305
331
A551
  5
A551
331
D2B9
  5
D2B9
331
A590
  5
A590
331
D3E0
  5
D3E0
331
A4D3
  5
A4D3
331
D122
  5
D122
331
A5CF
  5
A5CF
331
A494
  5
A494
331
A41A
  5
A41A
331
A354
  5
A354
331
CFE5
  5
CFE5
331
A459
  5
A459
331
A30D
  5
A30D
331
A559
  5
A559
331
A598
  5
A598
331
D3E8
  5
D3E8
331
D12A
  5
D12A
331
A5D7
  5
A5D7
331
A49C
  5
A49C
331
A422
  5
A422
331
A461
  5
A461
331
CFED
  5
CFED
331
A5DF
  5
A5DF
331
A2AE
  5
A2AE
331
D28A
  5
D28A
331
A5A0
  5
A5A0
331
D3F0
  5
D3F0
331
A315
  5
A315
331
A364
  5
A364
331
A4A4
  5
A4A4
331
A51A
  5
A51A
331
CFB6
  5
CFB6
331
A42A
  5
A42A
331
A522
  5
A522
331
A5A8
  5
A5A8
331
A46D
  5
A46D
331
A4AC
  5
A4AC
331
A4E3
  5
A4E3
331
CFF3
  5
CFF3
331
D3F8
  5
D3F8
331
A432
  5
A432
331
A31D
  5
A31D
331
A374
  5
A374
331
A3F3
  5
A3F3
331
CFBE
  5
CFBE
331
A5B0
  5
A5B0
331
A4EB
  5
A4EB
331
CFFB
  5
CFFB
331
D29A
  5
D29A
331
A475
  5
A475
331
A4B4
  5
A4B4
331
A571
  5
A571
331
D3A1
  5
D3A1
331
A2BE
  5
A2BE
331
A43A
  5
A43A
331
CFC6
  5
CFC6
331
EAA7
  5
EAB2
331
A2C6
  5
A2C6
331
A325
  5
A325
331
A37C
  5
A37C
331
A5B8
  5
A5B8
331
A607
  5
A607
331
A3FB
  5
A3FB
331
A4F3
  5
A4F3
331
D003
  5
D003
331
A47D
  5
A47D
331
A4BC
  5
A4BC
331
A579
  5
A579
331
A403
  5
A403
331
A442
  5
A442
331
CFCE
  5
CFCE
331
A2CE
  5
A2CE
331
A32D
  5
A32D
331
A384
  5
A384
331
A581
  5
A581
331
A5C0
  5
A5C0
331
A60F
  5
A60F
331
A4C4
  5
A4C4
331
A4FB
  5
A4FB
331
D00B
  5
D00B
331
A485
  5
A485
331
D2AA
  5
D2AA
331
A40B
  5
A40B
331
A44A
  5
A44A
331
CFD6
  5
CFD6
331
A335
  5
A335
331
A5C8
  5
A5C8
331
A54A
  5
A54A
331
A589
  5
A589
331
D3D9
  5
D3D9
331
A48D
  5
A48D
331
A4CC
  5
A4CC
331
A3AC
  5
A3AC
331
CFDE
  5
CFDE
331
A452
  5
A452
331
A5D0
  5
A5D0
331
A61F
  5
A61F
331
D123
  5
D123
331
A552
  5
A552
331
A591
  5
A591
331
D3E1
  5
D3E1
331
A306
  5
A306
331
A495
  5
A495
331
A4D4
  5
A4D4
331
A45A
  5
A45A
331
CFE6
  5
CFE6
331
A30E
  5
A30E
331
D3E9
  5
D3E9
331
A5D8
  5
A5D8
331
A41B
  5
A41B
331
D12B
  5
D12B
331
A49D
  5
A49D
331
A55A
  5
A55A
331
A599
  5
A599
331
A423
  5
A423
331
A462
  5
A462
331
CFEE
  5
CFEE
331
A316
  5
A316
331
A5A1
  5
A5A1
331
D3F1
  5
D3F1
331
D28B
  5
D28B
331
A4A5
  5
A4A5
331
A2AF
  5
A2AF
331
A3E4
  5
A3E4
331
A42B
  5
A42B
331
CFB7
  5
CFB7
331
A36D
  5
A36D
331
A56A
  5
A56A
331
A5A9
  5
A5A9
331
A4E4
  5
A4E4
331
CFF4
  5
CFF4
331
A523
  5
A523
331
A5E0
  5
A5E0
331
A46E
  5
A46E
331
A4AD
  5
A4AD
331
A433
  5
A433
331
CFBF
  5
CFBF
331
A2BF
  5
A2BF
331
A31E
  5
A31E
331
A375
  5
A375
331
D29B
  5
D29B
331
A572
  5
A572
331
A5B1
  5
A5B1
331
A4B5
  5
A4B5
331
A4EC
  5
A4EC
331
CFFC
  5
CFFC
331
A476
  5
A476
331
A52B
  5
A52B
331
A600
  5
A600
331
A326
  5
A326
331
A3FC
  5
A3FC
331
CFC7
  5
CFC7
331
A608
  5
A608
331
EAA8
  5
EAA3
331
A2C7
  5
A2C7
331
A43B
  5
A43B
331
A57A
  5
A57A
331
D3AA
  5
D3AA
331
A5B9
  5
A5B9
331
A47E
  5
A47E
331
A4BD
  5
A4BD
331
A4F4
  5
A4F4
331
D004
  5
D004
331
A443
  5
A443
331
A32E
  5
A32E
331
A385
  5
A385
331
A404
  5
A404
331
CFCF
  5
CFCF
331
A5C1
  5
A5C1
331
A610
  5
A610
331
A4FC
  5
A4FC
331
D00C
  5
D00C
331
A486
  5
A486
331
A4C5
  5
A4C5
331
A582
  5
A582
331
A2CF
  5
A2CF
331
A44B
  5
A44B
331
CFD7
  5
CFD7
331
A336
  5
A336
331
A40C
  5
A40C
331
D3DA
  5
D3DA
331
A5C9
  5
A5C9
331
A4CD
  5
A4CD
331
A48E
  5
A48E
331
A54B
  5
A54B
331
A58A
  5
A58A
331
CFDF
  5
CFDF
331
A453
  5
A453
331
A307
  5
A307
331
A553
  5
A553
331
A592
  5
A592
331
D3E2
  5
D3E2
331
D124
  5
D124
331
A5D1
  5
A5D1
331
A496
  5
A496
331
A620
  5
A620
331
A41C
  5
A41C
331
CFE7
  5
CFE7
331
A45B
  5
A45B
331
A5D9
  5
A5D9
331
A55B
  5
A55B
331
A59A
  5
A59A
331
D3EA
  5
D3EA
331
A30F
  5
A30F
331
A49E
  5
A49E
331
A4DD
  5
A4DD
331
D12C
  5
D12C
331
A3E5
  5
A3E5
331
A424
  5
A424
331
CFEF
  5
CFEF
331
A463
  5
A463
331
A2B0
  5
A2B0
331
D28C
  5
D28C
331
A4A6
  5
A4A6
331
A5A2
  5
A5A2
331
D3F2
  5
D3F2
331
A317
  5
A317
331
A36E
  5
A36E
331
A42C
  5
A42C
331
A5E1
  5
A5E1
331
CFB8
  5
CFB8
331
A56B
  5
A56B
331
A5AA
  5
A5AA
331
A46F
  5
A46F
331
A4AE
  5
A4AE
331
A4E5
  5
A4E5
331
CFF5
  5
CFF5
331
A434
  5
A434
331
A31F
  5
A31F
331
A376
  5
A376
331
CFC0
  5
CFC0
331
A5B2
  5
A5B2
331
A601
  5
A601
331
A4ED
  5
A4ED
331
CFFD
  5
CFFD
331
A52C
  5
A52C
331
A477
  5
A477
331
A4B6
  5
A4B6
331
A573
  5
A573
331
A2C0
  5
A2C0
331
A43C
  5
A43C
331
CFC8
  5
CFC8
331
A2C8
  5
A2C8
331
A327
  5
A327
331
A37E
  5
A37E
331
A57B
  5
A57B
331
D3AB
  5
D3AB
331
A5BA
  5
A5BA
331
A4F5
  5
A4F5
331
D005
  5
D005
331
A609
  5
A609
331
A47F
  5
A47F
331
A4BE
  5
A4BE
331
A3FD
  5
A3FD
331
A444
  5
A444
331
CFD0
  5
CFD0
331
A2D0
  5
A2D0
331
A32F
  5
A32F
331
A386
  5
A386
331
A583
  5
A583
331
A5C2
  5
A5C2
331
A4C6
  5
A4C6
331
A4FD
  5
A4FD
331
D00D
  5
D00D
331
A487
  5
A487
331
A611
  5
A611
331
A337
  5
A337
331
A44C
  5
A44C
331
A5CA
  5
A5CA
331
A54C
  5
A54C
331
A58B
  5
A58B
331
D3DB
  5
D3DB
331
CFD8
  5
CFD8
331
A48F
  5
A48F
331
A4CE
  5
A4CE
331
A505
  5
A505
331
A415
  5
A415
331
CFE0
  5
CFE0
331
A454
  5
A454
331
A5D2
  5
A5D2
331
A621
  5
A621
331
A50D
  5
A50D
331
D125
  5
D125
331
A497
  5
A497
331
A554
  5
A554
331
A593
  5
A593
331
D3E3
  5
D3E3
331
A308
  5
A308
331
A45C
  5
A45C
331
CFE8
  5
CFE8
331
D3EB
  5
D3EB
331
A5DA
  5
A5DA
331
A2A9
  5
A2A9
331
A3C6
  5
A3C6
331
A41D
  5
A41D
331
A4DE
  5
A4DE
331
D12D
  5
D12D
331
A49F
  5
A49F
331
D394
  5
D394
331
A59B
  5
A59B
331
A425
  5
A425
331
A464
  5
A464
331
A5A3
  5
A5A3
331
D3F3
  5
D3F3
331
A4A7
  5
A4A7
331
CFB1
  5
CFB1
331
A42D
  5
A42D
331
A36F
  5
A36F
331
A468
  5
A468
331
CFB9
  5
CFB9
331
A56C
  5
A56C
331
A5AB
  5
A5AB
331
A4AF
  5
A4AF
331
A4E6
  5
A4E6
331
CFF6
  5
CFF6
331
A470
  5
A470
331
A5E2
  5
A5E2
331
A435
  5
A435
331
A602
  5
A602
331
EAA2
  5
EAA2
331
CFC1
  5
CFC1
331
A574
  5
A574
331
A5B3
  5
A5B3
331
A320
  5
A320
331
A377
  5
A377
331
A4B7
  5
A4B7
331
A4EE
  5
A4EE
331
CFFE
  5
CFFE
331
A478
  5
A478
331
A52D
  5
A52D
331
A328
  5
A328
331
A37F
  5
A37F
331
A3FE
  5
A3FE
331
CFC9
  5
CFC9
331
A60A
  5
A60A
331
EAAA
  5
EAA6
331
A2C9
  5
A2C9
331
A43D
  5
A43D
331
A57C
  5
A57C
331
D3AC
  5
D3AC
331
A5BB
  5
A5BB
331
A480
  5
A480
331
A4BF
  5
A4BF
331
A4F6
  5
A4F6
331
D006
  5
D006
331
A445
  5
A445
331
A330
  5
A330
331
A387
  5
A387
331
A5C3
  5
A5C3
331
A612
  5
A612
331
A4FE
  5
A4FE
331
D00E
  5
D00E
331
A4C7
  5
A4C7
331
A584
  5
A584
331
CFD1
  5
CFD1
331
A44D
  5
A44D
331
A40E
  5
A40E
331
A488
  5
A488
331
CFD9
  5
CFD9
331
A338
  5
A338
331
A58C
  5
A58C
331
D2B5
  5
D2B5
331
D3DC
  5
D3DC
331
A5CB
  5
A5CB
331
A61A
  5
A61A
331
A4CF
  5
A4CF
331
A506
  5
A506
331
A490
  5
A490
331
A54D
  5
A54D
331
CFE1
  5
CFE1
331
A455
  5
A455
331
A309
  5
A309
331
A555
  5
A555
331
A594
  5
A594
331
D3E4
  5
D3E4
331
A50E
  5
A50E
331
D126
  5
D126
331
A5D3
  5
A5D3
331
A498
  5
A498
331
A622
  5
A622
331
A41E
  5
A41E
331
A5DB
  5
A5DB
331
A2AA
  5
A2AA
331
CFE9
  5
CFE9
331
A45D
  5
A45D
331
D395
  5
D395
331
A59C
  5
A59C
331
D3EC
  5
D3EC
331
A4A0
  5
A4A0
331
A4DF
  5
A4DF
331
D12E
  5
D12E
331
A426
  5
A426
331
A465
  5
A465
331
A5A4
  5
A5A4
331
D3F4
  5
D3F4
331
A42E
  5
A42E
331
A4A8
  5
A4A8
331
A469
  5
A469
331
A370
  5
A370
331
A5E3
  5
A5E3
331
CFBA
  5
CFBA
331
CFF7
  5
CFF7
331
A56D
  5
A56D
331
A471
  5
A471
331
A4B0
  5
A4B0
331
A4E7
  5
A4E7
331
A5AC
  5
A5AC
331
A436
  5
A436
331
A321
  5
A321
331
A378
  5
A378
331
A5B4
  5
A5B4
331
A603
  5
A603
331
A4EF
  5
A4EF
331
CFFF
  5
CFFF
331
A52E
  5
A52E
331
A479
  5
A479
331
A4B8
  5
A4B8
331
A575
  5
A575
331
EAA3
  5
EAA5
331
CFC2
  5
CFC2
331
A3FF
  5
A3FF
331
A43E
  5
A43E
331
CFCA
  5
CFCA
331
EAAB
  5
EAAA
331
A2CA
  5
A2CA
331
A329
  5
A329
331
A57D
  5
A57D
331
A5BC
  5
A5BC
331
A60B
  5
A60B
331
A4C0
  5
A4C0
331
A4F7
  5
A4F7
331
D007
  5
D007
331
A481
  5
A481
331
D2A6
  5
D2A6
331
A407
  5
A407
331
A446
  5
A446
331
CFD2
  5
CFD2
331
A585
  5
A585
331
A5C4
  5
A5C4
331
A4FF
  5
A4FF
331
D00F
  5
D00F
331
A331
  5
A331
331
A388
  5
A388
331
A40F
  5
A40F
331
A44E
  5
A44E
331
A4C8
  5
A4C8
331
A489
  5
A489
331
A339
  5
A339
331
A5CC
  5
A5CC
331
A61B
  5
A61B
331
A58D
  5
A58D
331
A54E
  5
A54E
331
D2B6
  5
D2B6
331
D3DD
  5
D3DD
331
CFDA
  5
CFDA
331
A491
  5
A491
331
A4D0
  5
A4D0
331
A507
  5
A507
331
A417
  5
A417
331
A351
  5
A351
331
CFE2
  5
CFE2
331
A456
  5
A456
331
A5D4
  5
A5D4
331
A50F
  5
A50F
331
D127
  5
D127
331
A499
  5
A499
331
A556
  5
A556
331
A595
  5
A595
331
D3E5
  5
D3E5
331
A30A
  5
A30A
331
A45E
  5
A45E
331
CFEA
  5
CFEA
331
D396
  5
D396
331
A59D
  5
A59D
331
D3ED
  5
D3ED
331
A5DC
  5
A5DC
331
A4A1
  5
A4A1
331
A2AB
  5
A2AB
331
A41F
  5
A41F
331
A427
  5
A427
331
A466
  5
A466
331
A5A5
  5
A5A5
331
D3F5
  5
D3F5
331
A42F
  5
A42F
331
A4E0
  5
A4E0
331
CFF0
  5
CFF0
331
A46A
  5
A46A
331
A4A9
  5
A4A9
331
CFBB
  5
CFBB
331
A56E
  5
A56E
331
A5AD
  5
A5AD
331
D3FD
  5
D3FD
331
A371
  5
A371
331
A4B1
  5
A4B1
331
A4E8
  5
A4E8
331
CFF8
  5
CFF8
331
A472
  5
A472
331
D297
  5
D297
331
A437
  5
A437
331
A604
  5
A604
331
EAA4
  5
EAA8
331
CFC3
  5
CFC3
331
A52F
  5
A52F
331
A576
  5
A576
331
A5B5
  5
A5B5
331
A4B9
  5
A4B9
331
A4F0
  5
A4F0
331
D000
  5
D000
331
D475
  5
D475
331
A322
  5
A322
331
A47A
  5
A47A
331
A379
  5
A379
331
A32A
  5
A32A
331
A400
  5
A400
331
CFCB
  5
CFCB
331
A60C
  5
A60C
331
EAAC
  5
EAAD
331
A2CB
  5
A2CB
331
A43F
  5
A43F
331
D008
  5
D008
331
D2A7
  5
D2A7
331
A57E
  5
A57E
331
A482
  5
A482
331
A4C1
  5
A4C1
331
A4F8
  5
A4F8
331
A5BD
  5
A5BD
331
A447
  5
A447
331
A332
  5
A332
331
A389
  5
A389
331
A408
  5
A408
331
A5C5
  5
A5C5
331
D49D
  5
D49D
331
CFD3
  5
CFD3
331
A586
  5
A586
331
D3D6
  5
D3D6
331
A44F
  5
A44F
331
A4C9
  5
A4C9
331
A500
  5
A500
331
D010
  5
D010
331
A48A
  5
A48A
331
A410
  5
A410
331
CFDB
  5
CFDB
331
A303
  5
A303
331
A33A
  5
A33A
331
A58E
  5
A58E
331
D2B7
  5
D2B7
331
D3DE
  5
D3DE
331
A5CD
  5
A5CD
331
A4D1
  5
A4D1
331
A508
  5
A508
331
D120
  5
D120
331
A492
  5
A492
331
A54F
  5
A54F
331
A418
  5
A418
331
A352
  5
A352
331
CFE3
  5
CFE3
331
A457
  5
A457
331
A30B
  5
A30B
331
A557
  5
A557
331
A596
  5
A596
331
D3E6
  5
D3E6
331
A510
  5
A510
331
D128
  5
D128
331
A5D5
  5
A5D5
331
A49A
  5
A49A
331
A420
  5
A420
331
A5DD
  5
A5DD
331
A2AC
  5
A2AC
331
CFEB
  5
CFEB
331
A45F
  5
A45F
331
A59E
  5
A59E
331
D3EE
  5
D3EE
331
A4A2
  5
A4A2
331
D288
  5
D288
331
A428
  5
A428
331
A467
  5
A467
331
A5A6
  5
A5A6
331
D3F6
  5
D3F6
331
A46B
  5
A46B
331
A4AA
  5
A4AA
331
A4E1
  5
A4E1
331
CFF1
  5
CFF1
331
A372
  5
A372
331
A5AE
  5
A5AE
331
D3FE
  5
D3FE
331
CFBC
  5
CFBC
331
CFF9
  5
CFF9
331
D298
  5
D298
331
A56F
  5
A56F
331
D39F
  5
D39F
331
A430
  5
A430
331
A473
  5
A473
331
A4B2
  5
A4B2
331
A4E9
  5
A4E9
331
A438
  5
A438
331
A323
  5
A323
331
A5B6
  5
A5B6
331
D476
  5
D476
331
A605
  5
A605
331
A4F1
  5
A4F1
331
D001
  5
D001
331
A530
  5
A530
331
A47B
  5
A47B
331
A4BA
  5
A4BA
331
A577
  5
A577
331
EAA5
  5
EAAC
331
CFC4
  5
CFC4
331
A401
  5
A401
331
A440
  5
A440
331
CFCC
  5
CFCC
331
EAAD
  5
EAB0
331
A2CC
  5
A2CC
331
A32B
  5
A32B
331
A57F
  5
A57F
331
A5BE
  5
A5BE
331
D47E
  5
D47E
331
A60D
  5
A60D
331
A4C2
  5
A4C2
331
A4F9
  5
A4F9
331
D009
  5
D009
331
A483
  5
A483
331
D2A8
  5
D2A8
331
A409
  5
A409
331
A448
  5
A448
331
CFD4
  5
CFD4
331
A587
  5
A587
331
D3D7
  5
D3D7
331
A5C6
  5
A5C6
331
A333
  5
A333
331
A38A
  5
A38A
331
A4CA
  5
A4CA
331
D011
  5
D011
331
A48B
  5
A48B
331
A411
  5
A411
331
CFDC
  5
CFDC
331
A450
  5
A450
331
A5CE
  5
A5CE
331
DEBE
  5
DEBE
331
A58F
  5
A58F
331
D121
  5
D121
331
A550
  5
A550
331
D2B8
  5
D2B8
331
D3DF
  5
D3DF
331
A304
  5
A304
331
A493
  5
A493
331
A4D2
  5
A4D2
331
A419
  5
A419
331
A353
  5
A353
331
A30C
  5
A30C
331
A5D6
  5
A5D6
331
CFE4
  5
CFE4
331
A458
  5
A458
331
D129
  5
D129
331
A49B
  5
A49B
331
A558
  5
A558
331
A597
  5
A597
331
D3E7
  5
D3E7
331
A421
  5
A421
331
A460
  5
A460
331
CFEC
  5
CFEC
331
A314
  5
A314
331
A363
  5
A363
331
A59F
  5
A59F
331
D3EF
  5
D3EF
331
D289
  5
D289
331
A5DE
  5
A5DE
331
A4A3
  5
A4A3
331
A2AD
  5
A2AD
331
A429
  5
A429
331
A5A7
  5
A5A7
331
D3F7
  5
D3F7
331
A36B
  5
A36B
331
A4E2
  5
A4E2
331
CFF2
  5
CFF2
331
A46C
  5
A46C
331
A4AB
  5
A4AB
331
A3F2
  5
A3F2
331
A431
  5
A431
331
CFBD
  5
CFBD
331
A2BD
  5
A2BD
331
A570
  5
A570
331
D3A0
  5
D3A0
331
A5AF
  5
A5AF
331
A31C
  5
A31C
331
A373
  5
A373
331
A4B3
  5
A4B3
331
A4EA
  5
A4EA
331
CFFA
  5
CFFA
331
A474
  5
A474
331
D299
  5
D299
331
A37B
  5
A37B
331
A439
  5
A439
331
CFC5
  5
CFC5
331
A606
  5
A606
331
EAA6
  5
EAAF
331
A2C5
  5
A2C5
331
A531
  5
A531
331
A578
  5
A578
331
A5B7
  5
A5B7
331
A47C
  5
A47C
331
A4BB
  5
A4BB
331
A4F2
  5
A4F2
331
D002
  5
D002
331
A324
  5
A324
331
A32C
  5
A32C
331
A402
  5
A402
331
CFCD
  5
CFCD
331
A5BF
  5
A5BF
331
D47F
  5
D47F
331
A60E
  5
A60E
331
D00A
  5
D00A
331
A539
  5
A539
331
D2A9
  5
D2A9
331
A580
  5
A580
331
A2CD
  5
A2CD
331
A484
  5
A484
331
A4C3
  5
A4C3
331
A4FA
  5
A4FA
331
A441
  5
A441
331
A449
  5
A449
331
A334
  5
A334
331
A40A
  5
A40A
331
A5C7
  5
A5C7
331
A616
  5
A616
331
CFD5
  5
CFD5
  0
XRECORD
  5
3D91
102
{ACAD_REACTORS
330
3D20
102
}
330
3D20
100
AcDbXrecord
280
     1
340
1A
  0
SORTENTSTABLE
  5
69B9
102
{ACAD_REACTORS
330
69B8
102
}
330
69B8
100
AcDbSortentsTable
330
69B7
  0
SORTENTSTABLE
  5
69CD
102
{ACAD_REACTORS
330
69CC
102
}
330
69CC
100
AcDbSortentsTable
330
69CB
  0
GROUP
  5
4143
102
{ACAD_REACTORS
330
D
102
}
330
D
100
AcDbGroup
300

 70
     1
 71
     1
  0
GROUP
  5
4378
102
{ACAD_REACTORS
330
D
102
}
330
D
100
AcDbGroup
300

 70
     1
 71
     1
  0
GROUP
  5
43BF
102
{ACAD_REACTORS
330
D
102
}
330
D
100
AcDbGroup
300

 70
     1
 71
     1
  0
GROUP
  5
423A
102
{ACAD_REACTORS
330
D
102
}
330
D
100
AcDbGroup
300

 70
     1
 71
     1
  0
GROUP
  5
414C
102
{ACAD_REACTORS
330
D
102
}
330
D
100
AcDbGroup
300

 70
     1
 71
     1
  0
GROUP
  5
579E
102
{ACAD_REACTORS
330
D
102
}
330
D
100
AcDbGroup
300

 70
     1
 71
     1
  0
GROUP
  5
4235
102
{ACAD_REACTORS
330
D
102
}
330
D
100
AcDbGroup
300

 70
     1
 71
     1
  0
GROUP
  5
437C
102
{ACAD_REACTORS
330
D
102
}
330
D
100
AcDbGroup
300

 70
     1
 71
     1
  0
GROUP
  5
414F
102
{ACAD_REACTORS
330
D
102
}
330
D
100
AcDbGroup
300

 70
     1
 71
     1
  0
GROUP
  5
437E
102
{ACAD_REACTORS
330
D
102
}
330
D
100
AcDbGroup
300

 70
     1
 71
     1
  0
GROUP
  5
4149
102
{ACAD_REACTORS
330
D
102
}
330
D
100
AcDbGroup
300

 70
     1
 71
     1
  0
GROUP
  5
4241
102
{ACAD_REACTORS
330
D
102
}
330
D
100
AcDbGroup
300

 70
     1
 71
     1
  0
GROUP
  5
4239
102
{ACAD_REACTORS
330
D
102
}
330
D
100
AcDbGroup
300

 70
     1
 71
     1
  0
GROUP
  5
4237
102
{ACAD_REACTORS
330
D
102
}
330
D
100
AcDbGroup
300

 70
     1
 71
     1
  0
GROUP
  5
423C
102
{ACAD_REACTORS
330
D
102
}
330
D
100
AcDbGroup
300

 70
     1
 71
     1
  0
GROUP
  5
43B6
102
{ACAD_REACTORS
330
D
102
}
330
D
100
AcDbGroup
300

 70
     1
 71
     1
  0
GROUP
  5
423B
102
{ACAD_REACTORS
330
D
102
}
330
D
100
AcDbGroup
300

 70
     1
 71
     1
  0
GROUP
  5
43B8
102
{ACAD_REACTORS
330
D
102
}
330
D
100
AcDbGroup
300

 70
     1
 71
     1
  0
GROUP
  5
576A
102
{ACAD_REACTORS
330
D
102
}
330
D
100
AcDbGroup
300

 70
     1
 71
     1
  0
GROUP
  5
4240
102
{ACAD_REACTORS
330
D
102
}
330
D
100
AcDbGroup
300

 70
     1
 71
     1
  0
GROUP
  5
423E
102
{ACAD_REACTORS
330
D
102
}
330
D
100
AcDbGroup
300

 70
     1
 71
     1
  0
GROUP
  5
4374
102
{ACAD_REACTORS
330
D
102
}
330
D
100
AcDbGroup
300

 70
     1
 71
     1
  0
GROUP
  5
43BB
102
{ACAD_REACTORS
330
D
102
}
330
D
100
AcDbGroup
300

 70
     1
 71
     1
  0
GROUP
  5
4373
102
{ACAD_REACTORS
330
D
102
}
330
D
100
AcDbGroup
300

 70
     1
 71
     1
  0
GROUP
  5
43BD
102
{ACAD_REACTORS
330
D
102
}
330
D
100
AcDbGroup
300

 70
     1
 71
     1
  0
GROUP
  5
4236
102
{ACAD_REACTORS
330
D
102
}
330
D
100
AcDbGroup
300

 70
     1
 71
     1
  0
GROUP
  5
4377
102
{ACAD_REACTORS
330
D
102
}
330
D
100
AcDbGroup
300

 70
     1
 71
     1
  0
GROUP
  5
4145
102
{ACAD_REACTORS
330
D
102
}
330
D
100
AcDbGroup
300

 70
     1
 71
     1
  0
GROUP
  5
437A
102
{ACAD_REACTORS
330
D
102
}
330
D
100
AcDbGroup
300

 70
     1
 71
     1
  0
GROUP
  5
4379
102
{ACAD_REACTORS
330
D
102
}
330
D
100
AcDbGroup
300

 70
     1
 71
     1
  0
GROUP
  5
43C1
102
{ACAD_REACTORS
330
D
102
}
330
D
100
AcDbGroup
300

 70
     1
 71
     1
  0
GROUP
  5
423D
102
{ACAD_REACTORS
330
D
102
}
330
D
100
AcDbGroup
300

 70
     1
 71
     1
  0
GROUP
  5
437D
102
{ACAD_REACTORS
330
D
102
}
330
D
100
AcDbGroup
300

 70
     1
 71
     1
  0
GROUP
  5
414D
102
{ACAD_REACTORS
330
D
102
}
330
D
100
AcDbGroup
300

 70
     1
 71
     1
  0
GROUP
  5
4146
102
{ACAD_REACTORS
330
D
102
}
330
D
100
AcDbGroup
300

 70
     1
 71
     1
  0
GROUP
  5
437F
102
{ACAD_REACTORS
330
D
102
}
330
D
100
AcDbGroup
300

 70
     1
 71
     1
  0
GROUP
  5
414B
102
{ACAD_REACTORS
330
D
102
}
330
D
100
AcDbGroup
300

 70
     1
 71
     1
  0
GROUP
  5
4375
102
{ACAD_REACTORS
330
D
102
}
330
D
100
AcDbGroup
300

 70
     1
 71
     1
  0
GROUP
  5
43B7
102
{ACAD_REACTORS
330
D
102
}
330
D
100
AcDbGroup
300

 70
     1
 71
     1
  0
GROUP
  5
414E
102
{ACAD_REACTORS
330
D
102
}
330
D
100
AcDbGroup
300

 70
     1
 71
     1
  0
GROUP
  5
43B9
102
{ACAD_REACTORS
330
D
102
}
330
D
100
AcDbGroup
300

 70
     1
 71
     1
  0
GROUP
  5
57D9
102
{ACAD_REACTORS
330
D
102
}
330
D
100
AcDbGroup
300

 70
     1
 71
     1
  0
GROUP
  5
437B
102
{ACAD_REACTORS
330
D
102
}
330
D
100
AcDbGroup
300

 70
     1
 71
     1
  0
GROUP
  5
43BC
102
{ACAD_REACTORS
330
D
102
}
330
D
100
AcDbGroup
300

 70
     1
 71
     1
  0
GROUP
  5
4144
102
{ACAD_REACTORS
330
D
102
}
330
D
100
AcDbGroup
300

 70
     1
 71
     1
  0
GROUP
  5
43BE
102
{ACAD_REACTORS
330
D
102
}
330
D
100
AcDbGroup
300

 70
     1
 71
     1
  0
GROUP
  5
4238
102
{ACAD_REACTORS
330
D
102
}
330
D
100
AcDbGroup
300

 70
     1
 71
     1
  0
GROUP
  5
43B5
102
{ACAD_REACTORS
330
D
102
}
330
D
100
AcDbGroup
300

 70
     1
 71
     1
  0
GROUP
  5
43C0
102
{ACAD_REACTORS
330
D
102
}
330
D
100
AcDbGroup
300

 70
     1
 71
     1
  0
GROUP
  5
4148
102
{ACAD_REACTORS
330
D
102
}
330
D
100
AcDbGroup
300

 70
     1
 71
     1
  0
GROUP
  5
423F
102
{ACAD_REACTORS
330
D
102
}
330
D
100
AcDbGroup
300

 70
     1
 71
     1
  0
GROUP
  5
43BA
102
{ACAD_REACTORS
330
D
102
}
330
D
100
AcDbGroup
300

 70
     1
 71
     1
  0
GROUP
  5
414A
102
{ACAD_REACTORS
330
D
102
}
330
D
100
AcDbGroup
300

 70
     1
 71
     1
  0
GROUP
  5
5691
102
{ACAD_REACTORS
330
D
102
}
330
D
100
AcDbGroup
300

 70
     1
 71
     1
  0
GROUP
  5
4376
102
{ACAD_REACTORS
330
D
102
}
330
D
100
AcDbGroup
300

 70
     1
 71
     1
  0
GROUP
  5
4147
102
{ACAD_REACTORS
330
D
102
}
330
D
100
AcDbGroup
300

 70
     1
 71
     1
  0
LAYOUT
  5
21
102
{ACAD_XDICTIONARY
360
EAD0
102
}
102
{ACAD_REACTORS
330
19
102
}
330
19
100
AcDbPlotSettings
  1

  2
HP 2200
  4

  6

 40
0.0
 41
0.0
 42
0.0
 43
0.0
 44
0.0
 45
0.0
 46
0.0
 47
0.0
 48
0.0
 49
0.0
140
0.0
141
0.0
142
1.0
143
1.0
 70
  1712
 72
     0
 73
     0
 74
     0
  7
AAA.ctb
 75
     0
147
1.0
148
0.0
149
0.0
100
AcDbLayout
  1
Model
 70
     1
 71
     0
 10
0.0
 20
0.0
 11
12.0
 21
9.0
 12
0.0
 22
0.0
 32
0.0
 14
0.0
 24
0.0
 34
0.0
 15
0.0
 25
0.0
 35
0.0
146
0.0
 13
0.0
 23
0.0
 33
0.0
 16
1.0
 26
0.0
 36
0.0
 17
0.0
 27
1.0
 37
0.0
 76
     0
330
1E
  0
LAYOUT
  5
1D
102
{ACAD_XDICTIONARY
360
EACE
102
}
102
{ACAD_REACTORS
330
19
102
}
330
19
100
AcDbPlotSettings
  1

  2
HP 2200
  4

  6

 40
0.0
 41
0.0
 42
0.0
 43
0.0
 44
0.0
 45
0.0
 46
0.0
 47
0.0
 48
0.0
 49
0.0
140
0.0
141
0.0
142
1.0
143
1.0
 70
   688
 72
     0
 73
     0
 74
     5
  7
AAA.ctb
 75
    16
147
1.0
148
0.0
149
0.0
100
AcDbLayout
  1
配置1
 70
     0
 71
     1
 10
0.0
 20
0.0
 11
12.0
 21
9.0
 12
0.0
 22
0.0
 32
0.0
 14
1.000000000000000E+20
 24
1.000000000000000E+20
 34
1.000000000000000E+20
 15
-1.000000000000000E+20
 25
-1.000000000000000E+20
 35
-1.000000000000000E+20
146
0.0
 13
0.0
 23
0.0
 33
0.0
 16
1.0
 26
0.0
 36
0.0
 17
0.0
 27
1.0
 37
0.0
 76
     0
330
1A
  0
MLINESTYLE
  5
17
102
{ACAD_REACTORS
330
16
102
}
330
16
100
AcDbMlineStyle
  2
STANDARD
 70
     0
  3

 62
   256
 51
90.0
 52
90.0
 71
     2
 49
0.5
 62
   256
  6
BYLAYER
 49
-0.5
 62
   256
  6
BYLAYER
  0
PLOTSETTINGS
  5
4150
102
{ACAD_XDICTIONARY
360
EAD2
102
}
102
{ACAD_REACTORS
330
18
102
}
330
18
100
AcDbPlotSettings
  1
LANSRO
  2
\\1260\HP2200
  4
A4
  6

 40
6.043083190917968
 41
6.762742042541503
 42
7.736419677734375
 43
5.027069091796875
 44
209.9733276367187
 45
296.9683227539062
 46
5.15
 47
0.0
 48
0.0
 49
0.0
140
0.0
141
0.0
142
1.0
143
0.8829829263240881
 70
  1716
 72
     1
 73
     1
 74
     0
  7
AAA.ctb
 75
     0
147
1.132524729739748
148
-132.297014905803
149
-71.78507365635891
  0
ACDBPLACEHOLDER
  5
F
102
{ACAD_REACTORS
330
E
102
}
330
E
  0
ACAD_PROXY_OBJECT
  5
E7A4
102
{ACAD_REACTORS
330
E7A3
102
}
330
E7A3
100
AcDbProxyObject
 90
      499
 91
      514
 95
   983063
 70
     0
 93
     1841
310
4214DD185B99185C9928B81E85EB51B8AE3F2E07A17AD46E2B8FC02B5E8DC0F42B1CFD028000000C1008070000C3001FDFF8000000C1003FBFF000000182007F7FE00000030400FEFFC00000060801FDFF8000000C1003FBFF00000018200000000000000681FA0B0000001820100E000186003FBFF000000182007F7FE000
310
00030400FEFFC00000060801FDFF8000000C1003FBFF000000182007F7FE000000304000AD7A3703D0AC73F4160000003040201C00030C007F7FE00000030400FEFFC00000060801FDFF8000000C1003FBFF000000182007F7FE00000030400FEFFC00000060804F
340
11
340
11
340
11
 94
        0
1001
ACAD
1000
AcRTDxfName
1000
TABLESTYLE
  0
XRECORD
  5
EACD
102
{ACAD_REACTORS
330
EACB
102
}
330
EACB
100
AcDbXrecord
280
     1
340
3D97
  0
XRECORD
  5
EACC
102
{ACAD_REACTORS
330
EACB
102
}
330
EACB
100
AcDbXrecord
280
     1
340
3D96
  0
DICTIONARYVAR
  5
E8F8
102
{ACAD_REACTORS
330
3E63
102
}
330
3E63
100
DictionaryVariables
280
     0
  1
STANDARD
  0
DICTIONARYVAR
  5
3E64
102
{ACAD_REACTORS
330
3E63
102
}
330
3E63
100
DictionaryVariables
280
     0
  1
1
  0
DICTIONARYVAR
  5
3E65
102
{ACAD_REACTORS
330
3E63
102
}
330
3E63
100
DictionaryVariables
280
     0
  1

  0
DICTIONARY
  5
EAD0
330
21
100
AcDbDictionary
280
     1
281
     1
  3
ACAD_XREC_ROUNDTRIP
360
EAD1
  0
DICTIONARY
  5
EACE
330
1D
100
AcDbDictionary
280
     1
281
     1
  3
ACAD_XREC_ROUNDTRIP
360
EACF
  0
DICTIONARY
  5
EAD2
330
4150
100
AcDbDictionary
280
     1
281
     1
  3
ACAD_XREC_ROUNDTRIP
360
EAD3
  0
XRECORD
  5
EAD1
102
{ACAD_REACTORS
330
EAD0
102
}
330
EAD0
100
AcDbXrecord
280
     1
102
SHADEPLOT
 70
     0
102
SHADEPLOTRESLEVEL
 70
     2
102
SHADEPLOTCUSTOMDPI
 70
   300
  0
XRECORD
  5
EACF
102
{ACAD_REACTORS
330
EACE
102
}
330
EACE
100
AcDbXrecord
280
     1
102
SHADEPLOT
 70
     0
102
SHADEPLOTRESLEVEL
 70
     2
102
SHADEPLOTCUSTOMDPI
 70
   300
  0
XRECORD
  5
EAD3
102
{ACAD_REACTORS
330
EAD2
102
}
330
EAD2
100
AcDbXrecord
280
     1
102
SHADEPLOT
 70
     0
102
SHADEPLOTRESLEVEL
 70
     2
102
SHADEPLOTCUSTOMDPI
 70
   300
  0
ENDSEC
  0
EOF
