  0
SECTION
  2
HEADER
  9
$ACADVER
  1
AC1015
  9
$ACADMAINTVER
 70
    20
  9
$DWGCODEPAGE
  3
ANSI_950
  9
$INSBASE
 10
0.0
 20
0.0
 30
0.0
  9
$EXTMIN
 10
813.6101568452797
 20
165.2752130502766
 30
0.0
  9
$EXTMAX
 10
1361.899228042757
 20
478.3964871758289
 30
0.0
  9
$LIMMIN
 10
-10.0
 20
-15.0
  9
$LIMMAX
 10
120.0
 20
90.0
  9
$ORTHOMODE
 70
     1
  9
$REGENMODE
 70
     0
  9
$FILLMODE
 70
     1
  9
$QTEXTMODE
 70
     0
  9
$MIRRTEXT
 70
     0
  9
$LTSCALE
 40
3.0
  9
$ATTMODE
 70
     1
  9
$TEXTSIZE
 40
3.0
  9
$TRACEWID
 40
1.0
  9
$TEXTSTYLE
  7
STANDARD
  9
$CLAYER
  8
0
  9
$CELTYPE
  6
ByLayer
  9
$CECOLOR
 62
   256
  9
$CELTSCALE
 40
1.0
  9
$DISPSILH
 70
     0
  9
$DIMSCALE
 40
1.0
  9
$DIMASZ
 40
3.0
  9
$DIMEXO
 40
1.0
  9
$DIMDLI
 40
6.0
  9
$DIMRND
 40
0.0
  9
$DIMDLE
 40
0.0
  9
$DIMEXE
 40
1.0
  9
$DIMTP
 40
0.0
  9
$DIMTM
 40
0.0
  9
$DIMTXT
 40
3.0
  9
$DIMCEN
 40
1.5
  9
$DIMTSZ
 40
0.0
  9
$DIMTOL
 70
     0
  9
$DIMLIM
 70
     0
  9
$DIMTIH
 70
     1
  9
$DIMTOH
 70
     1
  9
$DIMSE1
 70
     0
  9
$DIMSE2
 70
     0
  9
$DIMTAD
 70
     0
  9
$DIMZIN
 70
     0
  9
$DIMBLK
  1

  9
$DIMASO
 70
     1
  9
$DIMSHO
 70
     0
  9
$DIMPOST
  1

  9
$DIMAPOST
  1

  9
$DIMALT
 70
     0
  9
$DIMALTD
 70
     2
  9
$DIMALTF
 40
25.4
  9
$DIMLFAC
 40
1.0
  9
$DIMTOFL
 70
     1
  9
$DIMTVP
 40
0.0
  9
$DIMTIX
 70
     0
  9
$DIMSOXD
 70
     0
  9
$DIMSAH
 70
     0
  9
$DIMBLK1
  1

  9
$DIMBLK2
  1

  9
$DIMSTYLE
  2
Standard
  9
$DIMCLRD
 70
     0
  9
$DIMCLRE
 70
     0
  9
$DIMCLRT
 70
     0
  9
$DIMTFAC
 40
1.0
  9
$DIMGAP
 40
0.09
  9
$DIMJUST
 70
     0
  9
$DIMSD1
 70
     0
  9
$DIMSD2
 70
     0
  9
$DIMTOLJ
 70
     1
  9
$DIMTZIN
 70
     0
  9
$DIMALTZ
 70
     0
  9
$DIMALTTZ
 70
     0
  9
$DIMUPT
 70
     0
  9
$DIMDEC
 70
     4
  9
$DIMTDEC
 70
     8
  9
$DIMALTU
 70
     2
  9
$DIMALTTD
 70
     2
  9
$DIMTXSTY
  7
STANDARD
  9
$DIMAUNIT
 70
     0
  9
$DIMADEC
 70
     0
  9
$DIMALTRND
 40
0.0
  9
$DIMAZIN
 70
     0
  9
$DIMDSEP
 70
    46
  9
$DIMATFIT
 70
     3
  9
$DIMFRAC
 70
     0
  9
$DIMLDRBLK
  1

  9
$DIMLUNIT
 70
     2
  9
$DIMLWD
 70
    -2
  9
$DIMLWE
 70
    -2
  9
$DIMTMOVE
 70
     2
  9
$LUNITS
 70
     2
  9
$LUPREC
 70
     4
  9
$SKETCHINC
 40
0.5
  9
$FILLETRAD
 40
0.0
  9
$AUNITS
 70
     0
  9
$AUPREC
 70
     0
  9
$MENU
  1
ACAD
  9
$ELEVATION
 40
0.0
  9
$PELEVATION
 40
0.0
  9
$THICKNESS
 40
0.0
  9
$LIMCHECK
 70
     0
  9
$CHAMFERA
 40
0.0
  9
$CHAMFERB
 40
0.0
  9
$CHAMFERC
 40
0.0
  9
$CHAMFERD
 40
0.0
  9
$SKPOLY
 70
     0
  9
$TDCREATE
 40
2444975.333333334
  9
$TDUCREATE
 40
2444975.000000000
  9
$TDUPDATE
 40
2454042.477829028
  9
$TDUUPDATE
 40
2454042.144495694
  9
$TDINDWG
 40
0.3136991204
  9
$TDUSRTIMER
 40
0.0000000000
  9
$USRTIMER
 70
     0
  9
$ANGBASE
 50
0.0
  9
$ANGDIR
 70
     0
  9
$PDMODE
 70
     0
  9
$PDSIZE
 40
0.001
  9
$PLINEWID
 40
0.0
  9
$SPLFRAME
 70
     0
  9
$SPLINETYPE
 70
     6
  9
$SPLINESEGS
 70
  8000
  9
$HANDSEED
  5
EAD3
  9
$SURFTAB1
 70
     6
  9
$SURFTAB2
 70
     6
  9
$SURFTYPE
 70
     6
  9
$SURFU
 70
     6
  9
$SURFV
 70
     6
  9
$UCSBASE
  2

  9
$UCSNAME
  2

  9
$UCSORG
 10
0.0
 20
0.0
 30
0.0
  9
$UCSXDIR
 10
1.0
 20
0.0
 30
0.0
  9
$UCSYDIR
 10
0.0
 20
1.0
 30
0.0
  9
$UCSORTHOREF
  2

  9
$UCSORTHOVIEW
 70
     0
  9
$UCSORGTOP
 10
0.0
 20
0.0
 30
0.0
  9
$UCSORGBOTTOM
 10
0.0
 20
0.0
 30
0.0
  9
$UCSORGLEFT
 10
0.0
 20
0.0
 30
0.0
  9
$UCSORGRIGHT
 10
0.0
 20
0.0
 30
0.0
  9
$UCSORGFRONT
 10
0.0
 20
0.0
 30
0.0
  9
$UCSORGBACK
 10
0.0
 20
0.0
 30
0.0
  9
$PUCSBASE
  2

  9
$PUCSNAME
  2

  9
$PUCSORG
 10
0.0
 20
0.0
 30
0.0
  9
$PUCSXDIR
 10
1.0
 20
0.0
 30
0.0
  9
$PUCSYDIR
 10
0.0
 20
1.0
 30
0.0
  9
$PUCSORTHOREF
  2

  9
$PUCSORTHOVIEW
 70
     0
  9
$PUCSORGTOP
 10
0.0
 20
0.0
 30
0.0
  9
$PUCSORGBOTTOM
 10
0.0
 20
0.0
 30
0.0
  9
$PUCSORGLEFT
 10
0.0
 20
0.0
 30
0.0
  9
$PUCSORGRIGHT
 10
0.0
 20
0.0
 30
0.0
  9
$PUCSORGFRONT
 10
0.0
 20
0.0
 30
0.0
  9
$PUCSORGBACK
 10
0.0
 20
0.0
 30
0.0
  9
$USERI1
 70
     0
  9
$USERI2
 70
     0
  9
$USERI3
 70
     0
  9
$USERI4
 70
     0
  9
$USERI5
 70
     0
  9
$USERR1
 40
0.0
  9
$USERR2
 40
0.0
  9
$USERR3
 40
0.0
  9
$USERR4
 40
0.0
  9
$USERR5
 40
0.0
  9
$WORLDVIEW
 70
     1
  9
$SHADEDGE
 70
     3
  9
$SHADEDIF
 70
    70
  9
$TILEMODE
 70
     1
  9
$MAXACTVP
 70
    48
  9
$PINSBASE
 10
0.0
 20
0.0
 30
0.0
  9
$PLIMCHECK
 70
     0
  9
$PEXTMIN
 10
1.000000000000000E+20
 20
1.000000000000000E+20
 30
1.000000000000000E+20
  9
$PEXTMAX
 10
-1.000000000000000E+20
 20
-1.000000000000000E+20
 30
-1.000000000000000E+20
  9
$PLIMMIN
 10
0.0
 20
0.0
  9
$PLIMMAX
 10
12.0
 20
9.0
  9
$UNITMODE
 70
     0
  9
$VISRETAIN
 70
     1
  9
$PLINEGEN
 70
     0
  9
$PSLTSCALE
 70
     0
  9
$TREEDEPTH
 70
  3020
  9
$CMLSTYLE
  2
Standard
  9
$CMLJUST
 70
     0
  9
$CMLSCALE
 40
1.0
  9
$PROXYGRAPHICS
 70
     1
  9
$MEASUREMENT
 70
     0
  9
$CELWEIGHT
370
    -1
  9
$ENDCAPS
280
     0
  9
$JOINSTYLE
280
     0
  9
$LWDISPLAY
290
     0
  9
$INSUNITS
 70
     0
  9
$HYPERLINKBASE
  1

  9
$STYLESHEET
  1

  9
$XEDIT
290
     1
  9
$CEPSNTYPE
380
     0
  9
$PSTYLEMODE
290
     1
  9
$FINGERPRINTGUID
  2
{77095E5F-9CE7-11D7-970D-0040F4541FA8}
  9
$VERSIONGUID
  2
{0BF640D9-65C3-4C65-B035-A8B112AC5399}
  9
$EXTNAMES
290
     1
  9
$PSVPSCALE
 40
0.0
  9
$OLESTARTUP
290
     0
  0
ENDSEC
  0
SECTION
  2
CLASSES
  0
CLASS
  1
ACDBDICTIONARYWDFLT
  2
AcDbDictionaryWithDefault
  3
ObjectDBX Classes
 90
        0
280
     0
281
     0
  0
CLASS
  1
ACDBPLACEHOLDER
  2
AcDbPlaceHolder
  3
ObjectDBX Classes
 90
        0
280
     0
281
     0
  0
CLASS
  1
LAYOUT
  2
AcDbLayout
  3
ObjectDBX Classes
 90
        0
280
     0
281
     0
  0
CLASS
  1
LONG_TRANSACTION
  2
AcDbLongTransaction
  3
ObjectDBX Classes
 90
    32768
280
     0
281
     0
  0
CLASS
  1
LWPOLYLINE
  2
AcDbPolyline
  3
ObjectDBX Classes
 90
        0
280
     0
281
     1
  0
CLASS
  1
HATCH
  2
AcDbHatch
  3
ObjectDBX Classes
 90
    32768
280
     0
281
     1
  0
CLASS
  1
XRECORD
  2
AcDbXrecord
  3
ObjectDBX Classes
 90
        0
280
     0
281
     0
  0
CLASS
  1
LONG_TRANSACTION
  2
AcDbLongTransaction
  3
ObjectDBX Classes
 90
    32768
280
     0
281
     0
  0
CLASS
  1
LWPOLYLINE
  2
AcDbPolyline
  3
ObjectDBX Classes
 90
        0
280
     0
281
     1
  0
CLASS
  1
HATCH
  2
AcDbHatch
  3
ObjectDBX Classes
 90
    32768
280
     0
281
     1
  0
CLASS
  1
XRECORD
  2
AcDbXrecord
  3
ObjectDBX Classes
 90
        0
280
     0
281
     0
  0
CLASS
  1
DICTIONARYVAR
  2
AcDbDictionaryVar
  3
ObjectDBX Classes
 90
        0
280
     0
281
     0
  0
CLASS
  1
PLOTSETTINGS
  2
AcDbPlotSettings
  3
ObjectDBX Classes
 90
        0
280
     0
281
     0
  0
CLASS
  1
SORTENTSTABLE
  2
AcDbSortentsTable
  3
ObjectDBX Classes
 90
        0
280
     0
281
     0
  0
CLASS
  1
TABLESTYLE
  2
AcDbTableStyle
  3
ObjectDBX Classes
 90
     2047
280
     0
281
     0
  0
ENDSEC
  0
SECTION
  2
TABLES
  0
TABLE
  2
VPORT
  5
8
330
0
100
AcDbSymbolTable
 70
     3
  0
VPORT
  5
EAC9
330
8
100
AcDbSymbolTableRecord
100
AcDbViewportTableRecord
  2
*Active
 70
     0
 10
0.0
 20
0.0
 11
1.0
 21
1.0
 12
1089.145159419563
 22
335.4146269743068
 13
457.9999999999997
 23
1082.0
 14
10.0
 24
10.0
 15
10.0
 25
10.0
 16
0.0
 26
0.0
 36
1.0
 17
0.0
 27
0.0
 37
0.0
 40
394.5317143762362
 41
1.530456852791878
 42
1.0
 43
0.0
 44
0.0
 50
0.0
 51
0.0
 71
     0
 72
  2000
 73
     1
 74
     1
 75
     0
 76
     0
 77
     0
 78
     0
281
     0
 65
     1
110
0.0
120
0.0
130
0.0
111
1.0
121
0.0
131
0.0
112
0.0
122
1.0
132
0.0
 79
     0
146
0.0
  0
ENDTAB
  0
TABLE
  2
LTYPE
  5
5
330
0
100
AcDbSymbolTable
 70
     6
  0
LTYPE
  5
13
330
5
100
AcDbSymbolTableRecord
100
AcDbLinetypeTableRecord
  2
ByBlock
 70
     0
  3

 72
    65
 73
     0
 40
0.0
  0
LTYPE
  5
14
330
5
100
AcDbSymbolTableRecord
100
AcDbLinetypeTableRecord
  2
ByLayer
 70
     0
  3

 72
    65
 73
     0
 40
0.0
  0
LTYPE
  5
15
330
5
100
AcDbSymbolTableRecord
100
AcDbLinetypeTableRecord
  2
CONTINUOUS
 70
     0
  3
連續線 ________________________
 72
    65
 73
     0
 40
0.0
  0
LTYPE
  5
225
330
5
100
AcDbSymbolTableRecord
100
AcDbLinetypeTableRecord
  2
BYBLOCK
 70
     0
  3
Solid line
 72
    65
 73
     0
 40
0.0
  0
LTYPE
  5
226
330
5
100
AcDbSymbolTableRecord
100
AcDbLinetypeTableRecord
  2
BYLAYER
 70
     0
  3
Solid line
 72
    65
 73
     0
 40
0.0
  0
LTYPE
  5
413C
330
5
100
AcDbSymbolTableRecord
100
AcDbLinetypeTableRecord
  2
CENTER2
 70
     0
  3
Center (.5x) ___ _ ___ _ ___ _ ___ _ ___ _ ___
 72
    65
 73
     4
 40
28.575
 49
19.05
 74
     0
 49
-3.174999999999999
 74
     0
 49
3.174999999999999
 74
     0
 49
-3.174999999999999
 74
     0
  0
LTYPE
  5
413D
330
5
100
AcDbSymbolTableRecord
100
AcDbLinetypeTableRecord
  2
DASHED2
 70
     0
  3
Dashed (.5x) _ _ _ _ _ _ _ _ _ _ _ _ _ _ _ _ _
 72
    65
 73
     2
 40
9.524999999999998
 49
6.349999999999999
 74
     0
 49
-3.174999999999999
 74
     0
  0
LTYPE
  5
69DC
330
5
100
AcDbSymbolTableRecord
100
AcDbLinetypeTableRecord
  2
DASHED
 70
     0
  3
__ __ __ __ __ __ __ __ __ __ __ __ __ __ __
 72
    65
 73
     2
 40
4.0
 49
3.0
 74
     0
 49
-1.0
 74
     0
  0
ENDTAB
  0
TABLE
  2
LAYER
  5
2
102
{ACAD_XDICTIONARY
360
43C2
102
}
330
0
100
AcDbSymbolTable
 70
     7
  0
LAYER
  5
10
330
2
100
AcDbSymbolTableRecord
100
AcDbLayerTableRecord
  2
0
 70
     0
 62
     7
  6
CONTINUOUS
370
    -3
390
F
  0
LAYER
  5
413E
330
2
100
AcDbSymbolTableRecord
100
AcDbLayerTableRecord
  2
指線
 70
     0
 62
     3
  6
CONTINUOUS
370
    15
390
F
  0
LAYER
  5
413F
330
2
100
AcDbSymbolTableRecord
100
AcDbLayerTableRecord
  2
中心線
 70
     0
 62
     4
  6
CENTER2
370
    20
390
F
  0
LAYER
  5
4140
330
2
100
AcDbSymbolTableRecord
100
AcDbLayerTableRecord
  2
虛線
 70
     0
 62
     6
  6
DASHED2
290
     0
370
    -3
390
F
  0
LAYER
  5
43B4
330
2
100
AcDbSymbolTableRecord
100
AcDbLayerTableRecord
  2
建構線
 70
     0
 62
     1
  6
CONTINUOUS
370
    -3
390
F
  0
LAYER
  5
69DF
330
2
100
AcDbSymbolTableRecord
100
AcDbLayerTableRecord
  2
標註線
 70
     0
 62
     3
  6
CONTINUOUS
370
    13
390
F
  0
LAYER
  5
C701
330
2
100
AcDbSymbolTableRecord
100
AcDbLayerTableRecord
  2
Defpoints
 70
     0
 62
     7
  6
CONTINUOUS
290
     0
370
    -3
390
F
  0
ENDTAB
  0
TABLE
  2
STYLE
  5
3
330
0
100
AcDbSymbolTable
 70
     1
  0
STYLE
  5
11
330
3
100
AcDbSymbolTableRecord
100
AcDbTextStyleTableRecord
  2
STANDARD
 70
     0
 40
0.0
 41
1.0
 50
0.0
 71
     0
 42
3.0
  3

  4

  0
ENDTAB
  0
TABLE
  2
VIEW
  5
6
330
0
100
AcDbSymbolTable
 70
     0
  0
ENDTAB
  0
TABLE
  2
UCS
  5
7
330
0
100
AcDbSymbolTable
 70
     0
  0
ENDTAB
  0
TABLE
  2
APPID
  5
9
330
0
100
AcDbSymbolTable
 70
     4
  0
APPID
  5
12
330
9
100
AcDbSymbolTableRecord
100
AcDbRegAppTableRecord
  2
ACAD
 70
     0
  0
APPID
  5
230
330
9
100
AcDbSymbolTableRecord
100
AcDbRegAppTableRecord
  2
TCAD
 70
     0
  0
APPID
  5
4142
330
9
100
AcDbSymbolTableRecord
100
AcDbRegAppTableRecord
  2
CONTENTBLOCKICON
 70
     0
  0
APPID
  5
5D91
330
9
100
AcDbSymbolTableRecord
100
AcDbRegAppTableRecord
  2
pntflag
 70
     0
  0
ENDTAB
  0
TABLE
  2
DIMSTYLE
  5
A
330
0
100
AcDbSymbolTable
 70
     1
100
AcDbDimStyleTable
 71
     1
340
3C9D
  0
DIMSTYLE
105
3C9D
330
A
100
AcDbSymbolTableRecord
100
AcDbDimStyleTableRecord
  2
Standard
 70
     0
340
11
  0
ENDTAB
  0
TABLE
  2
BLOCK_RECORD
  5
1
330
0
100
AcDbSymbolTable
 70
     2
  0
BLOCK_RECORD
  5
1E
102
{ACAD_XDICTIONARY
360
3D1E
102
}
330
1
100
AcDbSymbolTableRecord
100
AcDbBlockTableRecord
  2
*Model_Space
340
21
  0
BLOCK_RECORD
  5
1A
102
{ACAD_XDICTIONARY
360
3D20
102
}
330
1
100
AcDbSymbolTableRecord
100
AcDbBlockTableRecord
  2
*Paper_Space
340
1D
  0
BLOCK_RECORD
  5
69B7
102
{ACAD_XDICTIONARY
360
69B8
102
}
330
1
100
AcDbSymbolTableRecord
100
AcDbBlockTableRecord
  2
A$C51E2538E
340
0
  0
BLOCK_RECORD
  5
69CB
102
{ACAD_XDICTIONARY
360
69CC
102
}
330
1
100
AcDbSymbolTableRecord
100
AcDbBlockTableRecord
  2
A$C3310154B
340
0
  0
ENDTAB
  0
ENDSEC
  0
SECTION
  2
BLOCKS
  0
BLOCK
  5
254
330
1E
100
AcDbEntity
  8
0
100
AcDbBlockBegin
  2
*Model_Space
 70
     0
 10
0.0
 20
0.0
 30
0.0
  3
*Model_Space
  1

  0
ENDBLK
  5
255
330
1E
100
AcDbEntity
  8
0
100
AcDbBlockEnd
  0
BLOCK
  5
252
330
1A
100
AcDbEntity
 67
     1
  8
0
100
AcDbBlockBegin
  2
*Paper_Space
 70
     0
 10
0.0
 20
0.0
 30
0.0
  3
*Paper_Space
  1

  0
ENDBLK
  5
253
330
1A
100
AcDbEntity
 67
     1
  8
0
100
AcDbBlockEnd
  0
BLOCK
  5
69BA
330
69B7
100
AcDbEntity
  8
0
 62
     1
 48
0.27
100
AcDbBlockBegin
  2
A$C51E2538E
 70
     0
 10
0.0
 20
0.0
 30
0.0
  3
A$C51E2538E
  1

  0
LINE
  5
69BB
330
69B7
100
AcDbEntity
  8
虛線
 48
0.25
100
AcDbLine
 10
9.230939415452212
 20
1.99838789798423
 30
0.0
 11
2.230939415459943
 21
1.998387897983548
 31
0.0
  0
LINE
  5
69BC
330
69B7
100
AcDbEntity
  8
虛線
 48
0.25
100
AcDbLine
 10
9.230939415453576
 20
15.79841841556197
 30
0.0
 11
9.230939415452212
 21
1.99838789798423
 31
0.0
  0
LINE
  5
69BD
330
69B7
100
AcDbEntity
  8
虛線
 48
0.25
100
AcDbLine
 10
0.2309394154581241
 20
24.698418415562
 30
0.0
 11
0.2309394154590336
 21
16.09842604495623
 31
0.0
  0
LINE
  5
69BE
330
69B7
100
AcDbEntity
  8
虛線
 48
0.25
100
AcDbLine
 10
2.230939415453576
 20
15.79841841556191
 30
0.0
 11
2.230939415459943
 21
1.998387897983576
 31
0.0
  0
LINE
  5
69BF
330
69B7
100
AcDbEntity
  8
虛線
 48
0.25
100
AcDbLine
 10
0.2309394154590336
 20
16.09835738040544
 30
0.0
 11
11.23093941545221
 21
16.09835738040573
 31
0.0
  0
LINE
  5
69C0
330
69B7
100
AcDbEntity
  8
中心線
 48
0.25
100
AcDbLine
 10
5.730939415455679
 20
27.09841841556201
 30
0.0
 11
5.730939415449938
 21
0.0
 31
0.0
  0
LINE
  5
69C1
330
69B7
100
AcDbEntity
  8
虛線
 48
0.25
100
AcDbLine
 10
2.230939415459943
 20
1.998387897983548
 30
0.0
 11
1.730939415460852
 21
1.498387897984002
 31
0.0
  0
LINE
  5
69C2
330
69B7
100
AcDbEntity
  8
虛線
 48
0.25
100
AcDbLine
 10
9.230939415452212
 20
1.99838789798423
 30
0.0
 11
9.730939415451302
 21
1.498387897984287
 31
0.0
  0
LINE
  5
69C3
330
69B7
100
AcDbEntity
  8
虛線
 48
0.25
100
AcDbLine
 10
11.23093941545358
 20
24.698418415562
 30
0.0
 11
11.23093941545221
 21
16.09835738040573
 31
0.0
  0
LINE
  5
69C4
330
69B7
100
AcDbEntity
  8
虛線
 48
0.25
100
AcDbLine
 10
0.2309394154535767
 20
24.698418415562
 30
0.0
 11
11.23093941545358
 21
24.698418415562
 31
0.0
  0
LINE
  5
69C5
330
69B7
100
AcDbEntity
  8
虛線
 48
0.25
100
AcDbLine
 10
2.230939415453576
 20
15.79841841556197
 30
0.0
 11
9.230939415453576
 21
15.79841841556197
 31
0.0
  0
LINE
  5
69C6
330
69B7
100
AcDbEntity
  8
虛線
 48
0.25
100
AcDbLine
 10
1.930939415453394
 20
16.09841841556192
 30
0.0
 11
2.230939415453576
 21
15.79841841556191
 31
0.0
  0
LINE
  5
69C7
330
69B7
100
AcDbEntity
  8
虛線
 48
0.25
100
AcDbLine
 10
0.2309394154535767
 20
24.698418415562
 30
0.0
 11
-0.0000006922223292
 21
25.09841841556204
 31
0.0
  0
LINE
  5
69C8
330
69B7
100
AcDbEntity
  8
虛線
 48
0.25
100
AcDbLine
 10
9.230939415453576
 20
15.79841841556197
 30
0.0
 11
9.530939415453758
 21
16.09841841556198
 31
0.0
  0
LINE
  5
69C9
330
69B7
100
AcDbEntity
  8
虛線
 48
0.25
100
AcDbLine
 10
11.23093941545358
 20
24.698418415562
 30
0.0
 11
11.46187952312948
 21
25.09841841556204
 31
0.0
  0
ENDBLK
  5
69CA
330
69B7
100
AcDbEntity
  8
0
 62
     1
 48
0.27
100
AcDbBlockEnd
  0
BLOCK
  5
69CE
330
69CB
100
AcDbEntity
  8
0
 62
     1
 48
0.27
100
AcDbBlockBegin
  2
A$C3310154B
 70
     0
 10
0.0
 20
0.0
 30
0.0
  3
A$C3310154B
  1

  0
LINE
  5
69CF
330
69CB
100
AcDbEntity
  8
虛線
 48
0.2
100
AcDbLine
 10
0.4999707651827521
 20
12.80115016654724
 30
0.0
 11
0.4999707651836616
 21
5.30113016654775
 31
0.0
  0
LINE
  5
69D0
330
69CB
100
AcDbEntity
  8
虛線
 48
0.2
100
AcDbLine
 10
6.499970765181842
 20
12.80111016654831
 30
0.0
 11
6.499970765183661
 21
5.301130166548432
 31
0.0
  0
LINE
  5
69D1
330
69CB
100
AcDbEntity
  8
虛線
 48
0.2
100
AcDbLine
 10
6.499970765183661
 20
5.301130166548432
 30
0.0
 11
0.4999707651836616
 21
5.30113016654775
 31
0.0
  0
LINE
  5
69D2
330
69CB
100
AcDbEntity
  8
中心線
 48
0.25
100
AcDbLine
 10
3.49999076518344
 20
15.30112016654811
 30
0.0
 11
3.499990765177699
 21
0.000000166540076
 31
0.0
  0
LINE
  5
69D3
330
69CB
100
AcDbEntity
  8
虛線
 48
0.2
100
AcDbLine
 10
5.999980765182044
 20
12.30112016654846
 30
0.0
 11
5.999980765187501
 21
2.30113016655747
 31
0.0
  0
LINE
  5
69D4
330
69CB
100
AcDbEntity
  8
虛線
 48
0.2
100
AcDbLine
 10
1.000000765181994
 20
12.30112016654812
 30
0.0
 11
1.000000765187905
 21
2.301130166554685
 31
0.0
  0
LINE
  5
69D5
330
69CB
100
AcDbEntity
  8
虛線
 48
0.2
100
AcDbLine
 10
5.999980765187501
 20
2.30113016655747
 30
0.0
 11
1.000000765187905
 21
2.301130166554685
 31
0.0
  0
LINE
  5
69D6
330
69CB
100
AcDbEntity
  8
虛線
 48
0.2
100
AcDbLine
 10
5.999980765182499
 20
12.3011201665484
 30
0.0
 11
1.000000765181994
 21
12.30112016654817
 31
0.0
  0
LINE
  5
69D7
330
69CB
100
AcDbEntity
  8
虛線
 48
0.2
100
AcDbLine
 10
5.999980765182044
 20
12.3011201665484
 30
0.0
 11
6.999980765182499
 21
13.30112016654863
 31
0.0
  0
LINE
  5
69D8
330
69CB
100
AcDbEntity
  8
虛線
 48
0.2
100
AcDbLine
 10
5.999980765187956
 20
2.301130166557413
 30
0.0
 11
3.499990765183611
 21
0.801130166544965
 31
0.0
  0
LINE
  5
69D9
330
69CB
100
AcDbEntity
  8
虛線
 48
0.2
100
AcDbLine
 10
1.000000765187905
 20
2.30113016657259
 30
0.0
 11
3.499990765178154
 21
0.801130166544965
 31
0.0
  0
LINE
  5
69DA
330
69CB
100
AcDbEntity
  8
虛線
 48
0.2
100
AcDbLine
 10
1.00000076518495
 20
12.30112016654834
 30
0.0
 11
0.0000007651844385
 21
13.30112016654854
 31
0.0
  0
ENDBLK
  5
69DB
330
69CB
100
AcDbEntity
  8
0
 62
     1
 48
0.27
100
AcDbBlockEnd
  0
ENDSEC
  0
SECTION
  2
ENTITIES
  0
LINE
  5
BC91
330
1E
100
AcDbEntity
  8
0
  6
Continuous
 62
     7
100
AcDbLine
 10
1105.299228050457
 20
231.2362366774396
 30
0.0
 11
1105.299228050457
 21
281.7362366775396
 31
0.0
  0
LINE
  5
BC92
330
1E
100
AcDbEntity
  8
0
  6
Continuous
 62
     7
100
AcDbLine
 10
1108.899228042757
 20
231.2362366774396
 30
0.0
 11
1108.899228042757
 21
282.7362366775396
 31
0.0
  0
LINE
  5
BC93
330
1E
100
AcDbEntity
  8
0
  6
Continuous
 62
     7
100
AcDbLine
 10
1112.399228042757
 20
248.9862366774396
 30
0.0
 11
1112.399228042757
 21
241.4862366774396
 31
0.0
  0
LINE
  5
BC94
330
1E
100
AcDbEntity
  8
0
  6
Continuous
 62
     7
100
AcDbLine
 10
1128.899228042757
 20
231.2362366775396
 30
0.0
 11
1128.899228042757
 21
283.2362366775397
 31
0.0
  0
LINE
  5
BC95
330
1E
100
AcDbEntity
  8
0
  6
Continuous
 62
     7
100
AcDbLine
 10
1133.149228042757
 20
237.2362366773397
 30
0.0
 11
1133.149228042757
 21
268.2362366776396
 31
0.0
  0
LINE
  5
BC96
330
1E
100
AcDbEntity
  8
0
  6
Continuous
 62
     7
100
AcDbLine
 10
1150.649228042757
 20
237.2362366773397
 30
0.0
 11
1150.649228042757
 21
268.2362366776396
 31
0.0
  0
LINE
  5
BC97
330
1E
100
AcDbEntity
  8
0
  6
Continuous
 62
     7
100
AcDbLine
 10
1078.899228042757
 20
223.2362366775396
 30
0.0
 11
1284.899228042757
 21
223.2362366775396
 31
0.0
  0
LINE
  5
BC99
330
1E
100
AcDbEntity
  8
0
  6
Continuous
 62
     7
100
AcDbLine
 10
1258.499228050457
 20
231.2362366774396
 30
0.0
 11
1105.299228050457
 21
231.2362366774396
 31
0.0
  0
LINE
  5
BC9E
330
1E
100
AcDbEntity
  8
0
  6
Continuous
 62
     7
100
AcDbLine
 10
1234.899228042757
 20
233.2362366775396
 30
0.0
 11
1258.499228050457
 21
233.2362366775396
 31
0.0
  0
LINE
  5
BC9F
330
1E
100
AcDbEntity
  8
0
  6
Continuous
 62
     7
100
AcDbLine
 10
1128.899228042757
 20
233.2362366775396
 30
0.0
 11
1105.299228050457
 21
233.2362366775396
 31
0.0
  0
LINE
  5
BCAC
330
1E
100
AcDbEntity
  8
0
  6
Continuous
 62
     7
100
AcDbLine
 10
1254.899228042757
 20
241.4862366774396
 30
0.0
 11
1251.399228042757
 21
241.4862366774396
 31
0.0
  0
LINE
  5
BCAD
330
1E
100
AcDbEntity
  8
0
  6
Continuous
 62
     7
100
AcDbLine
 10
1112.399228042757
 20
241.4862366774396
 30
0.0
 11
1108.899228042757
 21
241.4862366774396
 31
0.0
  0
LINE
  5
BCAE
330
1E
100
AcDbEntity
  8
0
  6
Continuous
 62
     7
100
AcDbLine
 10
1128.899228042757
 20
247.2362366774396
 30
0.0
 11
1133.149228042757
 21
247.2362366774396
 31
0.0
  0
LINE
  5
BCAF
330
1E
100
AcDbEntity
  8
0
  6
Continuous
 62
     7
100
AcDbLine
 10
1150.649228042757
 20
247.2362366774396
 30
0.0
 11
1213.149228042757
 21
247.2362366774396
 31
0.0
  0
LINE
  5
BCB0
330
1E
100
AcDbEntity
  8
0
  6
Continuous
 62
     7
100
AcDbLine
 10
1230.649228042757
 20
247.2362366774396
 30
0.0
 11
1234.899228042757
 21
247.2362366774396
 31
0.0
  0
LINE
  5
BCB1
330
1E
100
AcDbEntity
  8
0
  6
Continuous
 62
     7
100
AcDbLine
 10
1108.899228042757
 20
248.9862366774396
 30
0.0
 11
1112.399228042757
 21
248.9862366774396
 31
0.0
  0
LINE
  5
BCB2
330
1E
100
AcDbEntity
  8
0
  6
Continuous
 62
     7
100
AcDbLine
 10
1251.399228042757
 20
248.9862366774396
 30
0.0
 11
1254.899228042757
 21
248.9862366774396
 31
0.0
  0
LINE
  5
BCC7
330
1E
100
AcDbEntity
  8
0
  6
Continuous
 62
     7
100
AcDbLine
 10
1001.899228042757
 20
261.2362366775396
 30
0.0
 11
1103.662499331858
 21
261.2362366775396
 31
0.0
  0
LINE
  5
BCC8
330
1E
100
AcDbEntity
  8
0
  6
Continuous
 62
     7
100
AcDbLine
 10
1260.135956784456
 20
261.2362366775396
 30
0.0
 11
1361.899228042757
 21
261.2362366775396
 31
0.0
  0
LINE
  5
BCC9
330
1E
100
AcDbEntity
  8
0
  6
Continuous
 62
     7
100
AcDbLine
 10
1230.649228042757
 20
268.2362366776396
 30
0.0
 11
1213.149228042757
 21
268.2362366776396
 31
0.0
  0
LINE
  5
BCCA
330
1E
100
AcDbEntity
  8
0
  6
Continuous
 62
     7
100
AcDbLine
 10
1150.649228042757
 20
268.2362366776396
 30
0.0
 11
1133.149228042757
 21
268.2362366776396
 31
0.0
  0
LINE
  5
BCCB
330
1E
100
AcDbEntity
  8
0
  6
Continuous
 62
     7
100
AcDbLine
 10
1213.149228042757
 20
237.2362366773397
 30
0.0
 11
1213.149228042757
 21
268.2362366776396
 31
0.0
  0
LINE
  5
BCCC
330
1E
100
AcDbEntity
  8
0
  6
Continuous
 62
     7
100
AcDbLine
 10
1234.899228042757
 20
279.7362366775396
 30
0.0
 11
1258.499228050457
 21
279.7362366775396
 31
0.0
  0
LINE
  5
BCCD
330
1E
100
AcDbEntity
  8
0
  6
Continuous
 62
     7
100
AcDbLine
 10
1128.899228042757
 20
279.7362366775396
 30
0.0
 11
1105.299228050457
 21
279.7362366775398
 31
0.0
  0
LINE
  5
BCCE
330
1E
100
AcDbEntity
  8
0
  6
Continuous
 62
     7
100
AcDbLine
 10
1128.899228042757
 20
281.2362366775396
 30
0.0
 11
1234.899228042757
 21
281.2362366775396
 31
0.0
  0
LINE
  5
BCCF
330
1E
100
AcDbEntity
  8
0
  6
Continuous
 62
     7
100
AcDbLine
 10
1234.899228042757
 20
281.7362366775396
 30
0.0
 11
1258.499228050457
 21
281.7362366775396
 31
0.0
  0
LINE
  5
BCD0
330
1E
100
AcDbEntity
  8
0
  6
Continuous
 62
     7
100
AcDbLine
 10
1128.899228042757
 20
281.7362366775396
 30
0.0
 11
1105.299228050457
 21
281.7362366775396
 31
0.0
  0
LINE
  5
BCD1
330
1E
100
AcDbEntity
  8
0
  6
Continuous
 62
     7
100
AcDbLine
 10
1108.899228042757
 20
282.7362366775396
 30
0.0
 11
1128.899228042757
 21
282.7362366775396
 31
0.0
  0
LINE
  5
BCD2
330
1E
100
AcDbEntity
  8
0
  6
Continuous
 62
     7
100
AcDbLine
 10
1254.899228042757
 20
282.7362366775396
 30
0.0
 11
1234.899228042757
 21
282.7362366775396
 31
0.0
  0
LINE
  5
BCD3
330
1E
100
AcDbEntity
  8
0
  6
Continuous
 62
     7
100
AcDbLine
 10
1128.899228042757
 20
283.2362366775397
 30
0.0
 11
1234.899228042757
 21
283.2362366775397
 31
0.0
  0
LINE
  5
BCD4
330
1E
100
AcDbEntity
  8
0
  6
Continuous
 62
     7
100
AcDbLine
 10
1230.649228042757
 20
237.2362366773397
 30
0.0
 11
1230.649228042757
 21
268.2362366776396
 31
0.0
  0
LINE
  5
BCD5
330
1E
100
AcDbEntity
  8
0
  6
Continuous
 62
     7
100
AcDbLine
 10
1234.899228042757
 20
231.2362366775396
 30
0.0
 11
1234.899228042757
 21
283.2362366775397
 31
0.0
  0
LINE
  5
BCD6
330
1E
100
AcDbEntity
  8
0
  6
Continuous
 62
     7
100
AcDbLine
 10
1251.399228042757
 20
241.4862366774396
 30
0.0
 11
1251.399228042757
 21
248.9862366774396
 31
0.0
  0
LINE
  5
BCD7
330
1E
100
AcDbEntity
  8
0
  6
Continuous
 62
     7
100
AcDbLine
 10
1254.899228042757
 20
231.2362366774396
 30
0.0
 11
1254.899228042757
 21
282.7362366775396
 31
0.0
  0
LINE
  5
BCD8
330
1E
100
AcDbEntity
  8
0
  6
Continuous
 62
     7
100
AcDbLine
 10
1258.499228050457
 20
231.2362366774396
 30
0.0
 11
1258.499228050457
 21
281.7362366775396
 31
0.0
  0
CIRCLE
  5
BCD9
330
1E
100
AcDbEntity
  8
0
  6
Continuous
 62
     7
100
AcDbCircle
 10
1118.899228042757
 20
269.2362366775396
 30
0.0
 40
0.75
  0
CIRCLE
  5
BCDA
330
1E
100
AcDbEntity
  8
0
  6
Continuous
 62
     7
100
AcDbCircle
 10
1118.899228042757
 20
269.2362366775396
 30
0.0
 40
4.749883031499999
  0
CIRCLE
  5
BCDB
330
1E
100
AcDbEntity
  8
0
  6
Continuous
 62
     7
100
AcDbCircle
 10
1118.899228042757
 20
269.2362366775396
 30
0.0
 40
4.2411205224
  0
CIRCLE
  5
BCDC
330
1E
100
AcDbEntity
  8
0
  6
Continuous
 62
     7
100
AcDbCircle
 10
1118.899228042757
 20
269.2362366775396
 30
0.0
 40
4.075449350699999
  0
CIRCLE
  5
BCDD
330
1E
100
AcDbEntity
  8
0
  6
Continuous
 62
     7
100
AcDbCircle
 10
1244.899228042757
 20
269.2362366775396
 30
0.0
 40
0.75
  0
CIRCLE
  5
BCDE
330
1E
100
AcDbEntity
  8
0
  6
Continuous
 62
     7
100
AcDbCircle
 10
1244.899228042757
 20
269.2362366775396
 30
0.0
 40
4.749883031499999
  0
CIRCLE
  5
BCDF
330
1E
100
AcDbEntity
  8
0
  6
Continuous
 62
     7
100
AcDbCircle
 10
1244.899228042757
 20
269.2362366775396
 30
0.0
 40
4.236559657199999
  0
CIRCLE
  5
BCE0
330
1E
100
AcDbEntity
  8
0
  6
Continuous
 62
     7
100
AcDbCircle
 10
1244.899228042757
 20
269.2362366775396
 30
0.0
 40
3.9881407843
  0
SPLINE
  5
BCE1
330
1E
100
AcDbEntity
  8
0
  6
Continuous
 62
     7
100
AcDbSpline
210
0.0
220
0.0
230
1.0
 70
     8
 71
     3
 72
    11
 73
     7
 74
     5
 42
0.0000000001
 43
0.0000000001
 44
0.0000000001
 12
0.0
 22
-1.0
 32
0.0
 13
0.6857142857017957
 23
-0.7278708116035951
 33
0.0
 40
0.0
 40
0.0
 40
0.0
 40
0.0
 40
1.754491931212428
 40
3.449058656976971
 40
5.073051010203347
 40
6.60146332617721
 40
6.60146332617721
 40
6.60146332617721
 40
6.60146332617721
 10
1213.149228042757
 20
237.2362366773397
 30
0.0
 10
1213.149228042757
 20
236.6514060336022
 30
0.0
 10
1213.265269880224
 20
235.4983513708812
 30
0.0
 10
1213.764731315719
 20
233.8721064066636
 30
0.0
 10
1214.526046085923
 20
232.4367507107646
 30
0.0
 10
1215.181007054655
 20
231.6070655818372
 30
0.0
 10
1215.530358441157
 20
231.2362366775396
 30
0.0
 11
1213.149228042757
 21
237.2362366773397
 31
0.0
 11
1213.325127581957
 21
235.4905845674395
 31
0.0
 11
1213.822400485157
 21
233.8706228247396
 31
0.0
 11
1214.583471353257
 21
232.4360070932396
 31
0.0
 11
1215.530358441157
 21
231.2362366775396
 31
0.0
  0
SPLINE
  5
BCE2
330
1E
100
AcDbEntity
  8
0
  6
Continuous
 62
     7
100
AcDbSpline
210
0.0
220
0.0
230
1.0
 70
     8
 71
     3
 72
    11
 73
     7
 74
     5
 42
0.0000000001
 43
0.0000000001
 44
0.0000000001
 12
0.0
 22
-1.0
 32
0.0
 13
0.6857142857017957
 23
-0.7278708116035951
 33
0.0
 40
0.0
 40
0.0
 40
0.0
 40
0.0
 40
1.754491931212428
 40
3.449058656976971
 40
5.073051010203347
 40
6.60146332617721
 40
6.60146332617721
 40
6.60146332617721
 40
6.60146332617721
 10
1133.149228042757
 20
237.2362366773397
 30
0.0
 10
1133.149228042757
 20
236.6514060336022
 30
0.0
 10
1133.265269880224
 20
235.4983513708812
 30
0.0
 10
1133.764731315719
 20
233.8721064066636
 30
0.0
 10
1134.526046085922
 20
232.4367507107646
 30
0.0
 10
1135.181007054655
 20
231.6070655818372
 30
0.0
 10
1135.530358441157
 20
231.2362366775396
 30
0.0
 11
1133.149228042757
 21
237.2362366773397
 31
0.0
 11
1133.325127581957
 21
235.4905845674395
 31
0.0
 11
1133.822400485157
 21
233.8706228247396
 31
0.0
 11
1134.583471353257
 21
232.4360070932396
 31
0.0
 11
1135.530358441157
 21
231.2362366775396
 31
0.0
  0
SPLINE
  5
BCE3
330
1E
100
AcDbEntity
  8
0
  6
Continuous
 62
     7
100
AcDbSpline
210
0.0
220
0.0
230
1.0
 70
     8
 71
     3
 72
    11
 73
     7
 74
     5
 42
0.0000000001
 43
0.0000000001
 44
0.0000000001
 12
0.6857142857008335
 22
0.7278708116045017
 32
0.0
 13
0.0
 23
1.0
 33
0.0
 40
0.0
 40
0.0
 40
0.0
 40
0.0
 40
1.52825934413453
 40
3.148546468214781
 40
4.853490539843125
 40
6.601463522771503
 40
6.601463522771503
 40
6.601463522771503
 40
6.601463522771503
 10
1228.268097644257
 20
231.2362366775396
 30
0.0
 10
1228.617414065767
 20
231.6070284672588
 30
0.0
 10
1229.271581659351
 20
232.4356988673435
 30
0.0
 10
1230.034226238706
 20
233.8727476032296
 30
0.0
 10
1230.53350352543
 20
235.4992811239465
 30
0.0
 10
1230.649228042757
 20
236.6535790163635
 30
0.0
 10
1230.649228042757
 20
237.2362366773397
 30
0.0
 11
1228.268097644257
 21
231.2362366775396
 31
0.0
 11
1229.214900489157
 21
232.4358787057396
 31
0.0
 11
1229.974564395757
 21
233.8670464504396
 31
0.0
 11
1230.474633211357
 21
235.4970051821396
 31
0.0
 11
1230.649228042757
 21
237.2362366773397
 31
0.0
  0
SPLINE
  5
BCE4
330
1E
100
AcDbEntity
  8
0
  6
Continuous
 62
     7
100
AcDbSpline
210
0.0
220
0.0
230
1.0
 70
     8
 71
     3
 72
    11
 73
     7
 74
     5
 42
0.0000000001
 43
0.0000000001
 44
0.0000000001
 12
0.6857142857008335
 22
0.7278708116045017
 32
0.0
 13
0.0
 23
1.0
 33
0.0
 40
0.0
 40
0.0
 40
0.0
 40
0.0
 40
1.52825934413453
 40
3.148546468214781
 40
4.853490539843125
 40
6.601463522771503
 40
6.601463522771503
 40
6.601463522771503
 40
6.601463522771503
 10
1148.268097644257
 20
231.2362366775396
 30
0.0
 10
1148.617414065767
 20
231.6070284672588
 30
0.0
 10
1149.27158165935
 20
232.4356988673435
 30
0.0
 10
1150.034226238706
 20
233.8727476032296
 30
0.0
 10
1150.53350352543
 20
235.4992811239465
 30
0.0
 10
1150.649228042757
 20
236.6535790163635
 30
0.0
 10
1150.649228042757
 20
237.2362366773397
 30
0.0
 11
1148.268097644257
 21
231.2362366775396
 31
0.0
 11
1149.214900489157
 21
232.4358787057396
 31
0.0
 11
1149.974564395757
 21
233.8670464504396
 31
0.0
 11
1150.474633211357
 21
235.4970051821396
 31
0.0
 11
1150.649228042757
 21
237.2362366773397
 31
0.0
  0
LINE
  5
BCE5
330
1E
100
AcDbEntity
  8
虛線
  6
DASHED
100
AcDbLine
 10
1135.899228042757
 20
282.6112366775857
 30
0.0
 11
1135.899228042757
 21
268.2362366776396
 31
0.0
  0
LINE
  5
BCE6
330
1E
100
AcDbEntity
  8
虛線
  6
DASHED
100
AcDbLine
 10
1147.899228042757
 20
282.6112366775857
 30
0.0
 11
1147.899228042757
 21
268.2362366776396
 31
0.0
  0
LINE
  5
BCE9
330
1E
100
AcDbEntity
  8
虛線
  6
DASHED
100
AcDbLine
 10
1147.024228042757
 20
281.7362366775862
 30
0.0
 11
1136.774228042757
 21
281.7362366775861
 31
0.0
  0
LINE
  5
BCEA
330
1E
100
AcDbEntity
  8
虛線
  6
DASHED
100
AcDbLine
 10
1136.774228042757
 20
281.736236677586
 30
0.0
 11
1135.274228042803
 21
283.2362366775392
 31
0.0
  0
LINE
  5
BCEB
330
1E
100
AcDbEntity
  8
虛線
  6
DASHED
100
AcDbLine
 10
1147.024228042757
 20
281.7362366775862
 30
0.0
 11
1148.524228042711
 21
283.2362366775398
 31
0.0
  0
LINE
  5
BCEF
330
1E
100
AcDbEntity
  8
中心線
 48
0.4
100
AcDbLine
 10
1141.899228042757
 20
285.3362366775859
 30
0.0
 11
1141.899228042757
 21
231.1535663097479
 31
0.0
  0
LINE
  5
BCFA
330
1E
100
AcDbEntity
  8
中心線
 48
0.4
100
AcDbLine
 10
1221.899228042757
 20
285.3362366775859
 30
0.0
 11
1221.899228042757
 21
231.1535663097479
 31
0.0
  0
ARC
  5
BCFB
330
1E
100
AcDbEntity
  8
0
  6
Continuous
 62
     7
100
AcDbCircle
 10
1109.899228042757
 20
242.9862366769398
 30
0.0
 40
0.5
100
AcDbArc
 50
180.0
 51
270.0
  0
ARC
  5
BCFC
330
1E
100
AcDbEntity
  8
0
  6
Continuous
 62
     7
100
AcDbCircle
 10
1109.899228042757
 20
247.4862366769398
 30
0.0
 40
0.5
100
AcDbArc
 50
90.0
 51
180.0
  0
LINE
  5
BCFD
330
1E
100
AcDbEntity
  8
0
  6
Continuous
 62
     7
100
AcDbLine
 10
1109.899228042757
 20
247.9862366769398
 30
0.0
 11
1112.399228042757
 21
247.9862366769398
 31
0.0
  0
LINE
  5
BCFE
330
1E
100
AcDbEntity
  8
0
  6
Continuous
 62
     7
100
AcDbLine
 10
1109.899228042757
 20
242.4862366769398
 30
0.0
 11
1112.399228042757
 21
242.4862366769398
 31
0.0
  0
LINE
  5
BCFF
330
1E
100
AcDbEntity
  8
0
  6
Continuous
 62
     7
100
AcDbLine
 10
1112.399228042757
 20
248.2362366774396
 30
0.0
 11
1112.399228042757
 21
242.2362366774396
 31
0.0
  0
LINE
  5
BD00
330
1E
100
AcDbEntity
  8
0
  6
Continuous
 62
     7
100
AcDbLine
 10
1109.399228042757
 20
242.9862383199397
 30
0.0
 11
1109.399228042757
 21
247.48623503404
 31
0.0
  0
ARC
  5
BD01
330
1E
100
AcDbEntity
  8
0
  6
Continuous
 62
     7
100
AcDbCircle
 10
1253.899228042757
 20
242.9862366769398
 30
0.0
 40
0.5
100
AcDbArc
 50
270.0
 51
0.0
  0
ARC
  5
BD02
330
1E
100
AcDbEntity
  8
0
  6
Continuous
 62
     7
100
AcDbCircle
 10
1253.899228042757
 20
247.4862366769398
 30
0.0
 40
0.5
100
AcDbArc
 50
0.0
 51
90.0
  0
LINE
  5
BD03
330
1E
100
AcDbEntity
  8
0
  6
Continuous
 62
     7
100
AcDbLine
 10
1253.899228042757
 20
247.9862366769398
 30
0.0
 11
1251.399228042757
 21
247.9862366769398
 31
0.0
  0
LINE
  5
BD04
330
1E
100
AcDbEntity
  8
0
  6
Continuous
 62
     7
100
AcDbLine
 10
1253.899228042757
 20
242.4862366769398
 30
0.0
 11
1251.399228042757
 21
242.4862366769398
 31
0.0
  0
LINE
  5
BD06
330
1E
100
AcDbEntity
  8
0
  6
Continuous
 62
     7
100
AcDbLine
 10
1254.399228042757
 20
242.9862383199397
 30
0.0
 11
1254.399228042757
 21
247.48623503404
 31
0.0
  0
LINE
  5
BD17
330
1E
100
AcDbEntity
  8
虛線
  6
DASHED
100
AcDbLine
 10
1157.899228042758
 20
282.6112366775854
 30
0.0
 11
1157.899228042758
 21
272.5362366775841
 31
0.0
  0
LINE
  5
BD19
330
1E
100
AcDbEntity
  8
虛線
  6
DASHED
100
AcDbLine
 10
1157.024228042758
 20
281.7362366775859
 30
0.0
 11
1158.524228042712
 21
283.2362366775397
 31
0.0
  0
LINE
  5
BD1C
330
1E
100
AcDbEntity
  8
虛線
  6
DASHED
100
AcDbLine
 10
1145.899228042756
 20
282.6112366775873
 30
0.0
 11
1145.899228042756
 21
272.5362366775839
 31
0.0
  0
LINE
  5
BD1E
330
1E
100
AcDbEntity
  8
虛線
  6
DASHED
100
AcDbLine
 10
1146.774228042758
 20
281.736236677586
 30
0.0
 11
1145.274228042803
 21
283.2362366775396
 31
0.0
  0
LINE
  5
BD20
330
1E
100
AcDbEntity
  8
虛線
  6
DASHED
100
AcDbLine
 10
1143.149228042758
 20
272.5362366775839
 30
0.0
 11
1160.649228042758
 21
272.5362366775842
 31
0.0
  0
LINE
  5
BD26
330
1E
100
AcDbEntity
  8
中心線
 48
0.3
100
AcDbLine
 10
1151.899228042758
 20
285.3603103936777
 30
0.0
 11
1151.899228042758
 21
259.2136653716417
 31
0.0
  0
LINE
  5
BD27
330
1E
100
AcDbEntity
  8
中心線
 48
0.3
100
AcDbLine
 10
1211.899228042758
 20
285.3603103936777
 30
0.0
 11
1211.899228042758
 21
259.2136653716417
 31
0.0
  0
LINE
  5
BD28
330
1E
100
AcDbEntity
  8
0
100
AcDbLine
 10
1234.899228042757
 20
353.3964871758294
 30
0.0
 11
1234.899228042757
 21
473.3964871758289
 31
0.0
  0
LINE
  5
BD29
330
1E
100
AcDbEntity
  8
0
100
AcDbLine
 10
1128.899228042757
 20
353.3964871758294
 30
0.0
 11
1128.899228042757
 21
473.3964871758289
 31
0.0
  0
LINE
  5
BD2A
330
1E
100
AcDbEntity
  8
0
100
AcDbLine
 10
1234.899228042757
 20
353.3964871758294
 30
0.0
 11
1128.899228042757
 21
353.3964871758294
 31
0.0
  0
LINE
  5
BD2B
330
1E
100
AcDbEntity
  8
0
100
AcDbLine
 10
1128.899228042757
 20
355.5964871758277
 30
0.0
 11
1234.899228042757
 21
355.5964871758277
 31
0.0
  0
LINE
  5
BD2C
330
1E
100
AcDbEntity
  8
0
100
AcDbLine
 10
1128.899228042757
 20
375.1964871758278
 30
0.0
 11
1234.899228042757
 21
375.1964871758278
 31
0.0
  0
LINE
  5
BD2D
330
1E
100
AcDbEntity
  8
0
100
AcDbLine
 10
1128.899228042757
 20
376.3964871758267
 30
0.0
 11
1234.899228042757
 21
376.3964871758267
 31
0.0
  0
LINE
  5
BD2E
330
1E
100
AcDbEntity
  8
0
100
AcDbLine
 10
1128.899228042757
 20
401.3964871758275
 30
0.0
 11
1234.899228042757
 21
401.3964871758275
 31
0.0
  0
LINE
  5
BD2F
330
1E
100
AcDbEntity
  8
0
100
AcDbLine
 10
1128.899228042757
 20
402.5964871758276
 30
0.0
 11
1234.899228042757
 21
402.5964871758276
 31
0.0
  0
LINE
  5
BD30
330
1E
100
AcDbEntity
  8
0
100
AcDbLine
 10
1128.899228042757
 20
424.1964871758275
 30
0.0
 11
1234.899228042757
 21
424.1964871758275
 31
0.0
  0
LINE
  5
BD31
330
1E
100
AcDbEntity
  8
0
100
AcDbLine
 10
1128.899228042757
 20
425.3964871758276
 30
0.0
 11
1234.899228042757
 21
425.3964871758276
 31
0.0
  0
LINE
  5
BD32
330
1E
100
AcDbEntity
  8
0
100
AcDbLine
 10
1128.899228042757
 20
471.1964871758275
 30
0.0
 11
1234.899228042757
 21
471.1964871758275
 31
0.0
  0
LINE
  5
BD34
330
1E
100
AcDbEntity
  8
中心線
 48
0.3
100
AcDbLine
 10
1211.899243301546
 20
406.3964871758282
 30
0.0
 11
1211.899243301546
 21
420.3964871758282
 31
0.0
  0
LINE
  5
BD35
330
1E
100
AcDbEntity
  8
中心線
 48
0.3
100
AcDbLine
 10
1134.899212783968
 20
363.3964871758283
 30
0.0
 11
1148.899212783968
 21
363.3964871758283
 31
0.0
  0
LINE
  5
BD36
330
1E
100
AcDbEntity
  8
中心線
 48
0.3
100
AcDbLine
 10
1141.899212783968
 20
370.3964871758283
 30
0.0
 11
1141.899212783968
 21
356.3964871758283
 31
0.0
  0
LINE
  5
BD37
330
1E
100
AcDbEntity
  8
中心線
 48
0.3
100
AcDbLine
 10
1228.899243301546
 20
363.3964871758283
 30
0.0
 11
1214.899243301546
 21
363.3964871758283
 31
0.0
  0
LINE
  5
BD38
330
1E
100
AcDbEntity
  8
中心線
 48
0.3
100
AcDbLine
 10
1221.899243301546
 20
370.3964871758283
 30
0.0
 11
1221.899243301546
 21
356.3964871758283
 31
0.0
  0
LINE
  5
BD39
330
1E
100
AcDbEntity
  8
中心線
 48
0.3
100
AcDbLine
 10
1151.899212783968
 20
406.3964871758282
 30
0.0
 11
1151.899212783968
 21
420.3964871758282
 31
0.0
  0
LINE
  5
BD3A
330
1E
100
AcDbEntity
  8
中心線
 48
0.3
100
AcDbLine
 10
1134.899212783968
 20
463.3964871758283
 30
0.0
 11
1148.899212783968
 21
463.3964871758283
 31
0.0
  0
LINE
  5
BD3B
330
1E
100
AcDbEntity
  8
中心線
 48
0.3
100
AcDbLine
 10
1141.899212783968
 20
456.3964871758282
 30
0.0
 11
1141.899212783968
 21
470.3964871758282
 31
0.0
  0
LINE
  5
BD3C
330
1E
100
AcDbEntity
  8
中心線
 48
0.3
100
AcDbLine
 10
1228.899243301546
 20
463.3964871758283
 30
0.0
 11
1214.899243301546
 21
463.3964871758283
 31
0.0
  0
LINE
  5
BD3D
330
1E
100
AcDbEntity
  8
中心線
 48
0.3
100
AcDbLine
 10
1221.899243301546
 20
456.3964871758282
 30
0.0
 11
1221.899243301546
 21
470.3964871758282
 31
0.0
  0
CIRCLE
  5
BD3E
330
1E
100
AcDbEntity
  8
0
  6
Continuous
100
AcDbCircle
 10
1141.899212783968
 20
463.3964871758283
 30
0.0
 40
5.125
  0
LINE
  5
BD43
330
1E
100
AcDbEntity
  8
0
100
AcDbLine
 10
1128.899228042757
 20
451.5964871758289
 30
0.0
 11
1234.899228042757
 21
451.5964871758289
 31
0.0
  0
LINE
  5
BD44
330
1E
100
AcDbEntity
  8
0
100
AcDbLine
 10
1128.899228042757
 20
450.39648717583
 30
0.0
 11
1234.899228042757
 21
450.39648717583
 31
0.0
  0
LINE
  5
BD53
330
1E
100
AcDbEntity
  8
0
100
AcDbLine
 10
1234.899228042757
 20
473.3964871758289
 30
0.0
 11
1128.899228042757
 21
473.3964871758289
 31
0.0
  0
LINE
  5
BD54
330
1E
100
AcDbEntity
  8
中心線
 48
0.4
100
AcDbLine
 10
1076.899228042757
 20
426.3720658751931
 30
0.0
 11
1076.899228042756
 21
400.4209084764656
 31
0.0
  0
LINE
  5
BD55
330
1E
100
AcDbEntity
  8
0
  6
Continuous
 62
     7
100
AcDbLine
 10
1128.899228042757
 20
371.3964871758292
 30
0.0
 11
1105.299228050457
 21
371.3964871758292
 31
0.0
  0
LINE
  5
BD56
330
1E
100
AcDbEntity
  8
0
  6
Continuous
 62
     7
100
AcDbLine
 10
1128.899228042757
 20
373.3964871758292
 30
0.0
 11
1105.299228050457
 21
373.3964871758292
 31
0.0
  0
LINE
  5
BD57
330
1E
100
AcDbEntity
  8
0
  6
Continuous
 62
     7
100
AcDbLine
 10
1128.899228042757
 20
402.3964871758291
 30
0.0
 11
1108.899228042757
 21
402.3964871758291
 31
0.0
  0
LINE
  5
BD58
330
1E
100
AcDbEntity
  8
0
  6
Continuous
 62
     7
100
AcDbLine
 10
1108.899228042757
 20
403.3964871758291
 30
0.0
 11
1128.899228042757
 21
403.3964871758291
 31
0.0
  0
LINE
  5
BD59
330
1E
100
AcDbEntity
  8
0
  6
Continuous
 62
     7
100
AcDbLine
 10
1128.899228042757
 20
371.3964871758292
 30
0.0
 11
1128.899228042757
 21
455.3964871758291
 31
0.0
  0
LINE
  5
BD5A
330
1E
100
AcDbEntity
  8
0
  6
Continuous
 62
     7
100
AcDbLine
 10
1108.899228042757
 20
423.3964871758291
 30
0.0
 11
1128.899228042757
 21
423.3964871758291
 31
0.0
  0
LINE
  5
BD5B
330
1E
100
AcDbEntity
  8
0
  6
Continuous
 62
     7
100
AcDbLine
 10
1128.899228042757
 20
424.3964871758292
 30
0.0
 11
1108.899228042757
 21
424.3964871758292
 31
0.0
  0
LINE
  5
BD5C
330
1E
100
AcDbEntity
  8
0
  6
Continuous
 62
     7
100
AcDbLine
 10
1108.899228042757
 20
371.3964871758292
 30
0.0
 11
1108.899228042757
 21
455.3964871758291
 31
0.0
  0
LINE
  5
BD5D
330
1E
100
AcDbEntity
  8
0
  6
Continuous
 62
     7
100
AcDbLine
 10
1128.899228042757
 20
453.3964871758292
 30
0.0
 11
1105.299228050457
 21
453.3964871758292
 31
0.0
  0
LINE
  5
BD5E
330
1E
100
AcDbEntity
  8
0
  6
Continuous
 62
     7
100
AcDbLine
 10
1128.899228042757
 20
455.3964871758291
 30
0.0
 11
1105.299228050457
 21
455.3964871758291
 31
0.0
  0
CIRCLE
  5
BD5F
330
1E
100
AcDbEntity
  8
0
  6
Continuous
 62
     7
100
AcDbCircle
 10
1120.899228042757
 20
413.3964871758291
 30
0.0
 40
0.75
  0
CIRCLE
  5
BD60
330
1E
100
AcDbEntity
  8
0
  6
Continuous
 62
     7
100
AcDbCircle
 10
1120.899228042757
 20
413.3964871758291
 30
0.0
 40
5.15
  0
LINE
  5
BD63
330
1E
100
AcDbEntity
  8
0
  6
Continuous
 62
     7
100
AcDbLine
 10
1234.899228042757
 20
455.3964871758291
 30
0.0
 11
1258.499228035057
 21
455.3964871758291
 31
0.0
  0
LINE
  5
BD64
330
1E
100
AcDbEntity
  8
0
  6
Continuous
 62
     7
100
AcDbLine
 10
1234.899228042757
 20
453.3964871758292
 30
0.0
 11
1258.499228035057
 21
453.3964871758292
 31
0.0
  0
LINE
  5
BD65
330
1E
100
AcDbEntity
  8
0
  6
Continuous
 62
     7
100
AcDbLine
 10
1234.899228042757
 20
424.3964871758292
 30
0.0
 11
1254.899228042757
 21
424.3964871758292
 31
0.0
  0
LINE
  5
BD66
330
1E
100
AcDbEntity
  8
0
  6
Continuous
 62
     7
100
AcDbLine
 10
1254.899228042757
 20
423.3964871758291
 30
0.0
 11
1234.899228042757
 21
423.3964871758291
 31
0.0
  0
LINE
  5
BD67
330
1E
100
AcDbEntity
  8
0
  6
Continuous
 62
     7
100
AcDbLine
 10
1234.899228042757
 20
455.3964871758291
 30
0.0
 11
1234.899228042757
 21
371.3964871758292
 31
0.0
  0
LINE
  5
BD68
330
1E
100
AcDbEntity
  8
0
  6
Continuous
 62
     7
100
AcDbLine
 10
1254.899228042757
 20
403.3964871758291
 30
0.0
 11
1234.899228042757
 21
403.3964871758291
 31
0.0
  0
LINE
  5
BD69
330
1E
100
AcDbEntity
  8
0
  6
Continuous
 62
     7
100
AcDbLine
 10
1234.899228042757
 20
402.3964871758291
 30
0.0
 11
1254.899228042757
 21
402.3964871758291
 31
0.0
  0
LINE
  5
BD6A
330
1E
100
AcDbEntity
  8
0
  6
Continuous
 62
     7
100
AcDbLine
 10
1254.899228042757
 20
455.3964871758291
 30
0.0
 11
1254.899228042757
 21
371.3964871758292
 31
0.0
  0
LINE
  5
BD6B
330
1E
100
AcDbEntity
  8
0
  6
Continuous
 62
     7
100
AcDbLine
 10
1234.899228042757
 20
373.3964871758292
 30
0.0
 11
1258.499228035057
 21
373.3964871758292
 31
0.0
  0
LINE
  5
BD6C
330
1E
100
AcDbEntity
  8
0
  6
Continuous
 62
     7
100
AcDbLine
 10
1234.899228042757
 20
371.3964871758292
 30
0.0
 11
1258.499228035057
 21
371.3964871758292
 31
0.0
  0
CIRCLE
  5
BD6D
330
1E
100
AcDbEntity
  8
0
  6
Continuous
 62
     7
100
AcDbCircle
 10
1242.899228042757
 20
413.3964871758291
 30
0.0
 40
0.75
  0
CIRCLE
  5
BD6E
330
1E
100
AcDbEntity
  8
0
  6
Continuous
 62
     7
100
AcDbCircle
 10
1242.899228042757
 20
413.3964871758291
 30
0.0
 40
5.15
  0
LINE
  5
BD71
330
1E
100
AcDbEntity
  8
0
100
AcDbLine
 10
1001.899228042757
 20
223.2362366775396
 30
0.0
 11
1361.899228042757
 21
223.2362366775396
 31
0.0
  0
LINE
  5
BD72
330
1E
100
AcDbEntity
  8
0
100
AcDbLine
 10
1105.299228050457
 20
455.3964871758291
 30
0.0
 11
1105.299228050457
 21
371.3964871758292
 31
0.0
  0
LINE
  5
BD73
330
1E
100
AcDbEntity
  8
0
  6
Continuous
100
AcDbLine
 10
1103.662499316458
 20
408.7964877837387
 30
0.0
 11
1103.662499316458
 21
417.9964880493196
 31
0.0
  0
ARC
  5
BD74
330
1E
100
AcDbEntity
  8
0
  6
Continuous
100
AcDbCircle
 10
1114.285744622636
 20
413.3964879165289
 30
0.0
 40
10.62324530617823
100
AcDbArc
 50
163.2213499979164
 51
196.7786500020835
  0
ARC
  5
BD75
330
1E
100
AcDbEntity
  8
0
  6
Continuous
100
AcDbCircle
 10
1092.56258813519
 20
408.7003499914403
 30
0.0
 40
2.472178306553661
100
AcDbArc
 50
34.63277999893215
 51
100.3672200010633
  0
ARC
  5
BD76
330
1E
100
AcDbEntity
  8
0
  6
Continuous
100
AcDbCircle
 10
1098.864420886478
 20
413.3964879165289
 30
0.0
 40
5.333333333333332
100
AcDbArc
 50
90.0
 51
210.8352048940846
  0
LINE
  5
BD77
330
1E
100
AcDbEntity
  8
0
  6
Continuous
100
AcDbLine
 10
1100.375891953999
 20
408.0631545831959
 30
0.0
 11
1103.759328767145
 21
408.0631545831959
 31
0.0
  0
ARC
  5
BD78
330
1E
100
AcDbEntity
  8
0
  6
Continuous
100
AcDbCircle
 10
1099.9998185866
 20
405.6197482719719
 30
0.0
 40
2.472178306553661
100
AcDbArc
 50
34.63277999893215
 51
100.3672200010633
  0
ARC
  5
BD79
330
1E
100
AcDbEntity
  8
0
  6
Continuous
100
AcDbCircle
 10
1100.888326123785
 20
402.3989420097427
 30
0.0
 40
2.746231479756805
100
AcDbArc
 50
89.1520988349392
 51
159.1520988349398
  0
ARC
  5
BD7A
330
1E
100
AcDbEntity
  8
0
  6
Continuous
100
AcDbCircle
 10
1100.826244157863
 20
407.6149160944074
 30
0.0
 40
2.472178306553661
100
AcDbArc
 50
214.6327799989322
 51
280.3672200010634
  0
LINE
  5
BD7B
330
1E
100
AcDbEntity
  8
0
  6
Continuous
100
AcDbLine
 10
1093.50864981496
 20
410.9843449295838
 30
0.0
 11
1100.94588026637
 21
407.9037432101154
 31
0.0
  0
LINE
  5
BD7C
330
1E
100
AcDbEntity
  8
0
  6
Continuous
100
AcDbLine
 10
1092.442952026682
 20
408.4115228757323
 30
0.0
 11
1099.880182478092
 21
405.3309211562639
 31
0.0
  0
LINE
  5
BD7D
330
1E
100
AcDbEntity
  8
0
  6
Continuous
100
AcDbLine
 10
1092.409065616579
 20
405.8254678585792
 30
0.0
 11
1098.075526749315
 21
403.4783428067401
 31
0.0
  0
ARC
  5
BD7E
330
1E
100
AcDbEntity
  8
0
  6
Continuous
100
AcDbCircle
 10
1093.987542284779
 20
402.5786359353487
 30
0.0
 40
3.813798694049016
100
AcDbArc
 50
118.5864858262631
 51
163.586485826268
  0
LINE
  5
BD7F
330
1E
100
AcDbEntity
  8
0
  6
Continuous
100
AcDbLine
 10
1090.329165983125
 20
403.6562923343124
 30
0.0
 11
1098.012399161526
 21
400.4737929489436
 31
0.0
  0
LINE
  5
BD80
330
1E
100
AcDbEntity
  8
0
  6
Continuous
100
AcDbLine
 10
1090.329165983125
 20
399.6136310511311
 30
0.0
 11
1090.329165983125
 21
403.6562923343124
 31
0.0
  0
ARC
  5
BD81
330
1E
100
AcDbEntity
  8
0
  6
Continuous
100
AcDbCircle
 10
1094.663518322998
 20
402.2986374924789
 30
0.0
 40
3.813798694049014
100
AcDbArc
 50
331.4135141737369
 51
16.41351417374012
  0
ARC
  5
BD82
330
1E
100
AcDbEntity
  8
0
  6
Continuous
100
AcDbCircle
 10
1089.6568644816
 20
407.0511657472093
 30
0.0
 40
2.746231479756805
100
AcDbArc
 50
335.8479011650582
 51
45.84790116506007
  0
ARC
  5
BD83
330
1E
100
AcDbEntity
  8
0
  6
Continuous
100
AcDbCircle
 10
1093.389013706453
 20
410.6955178138758
 30
0.0
 40
2.472178306553661
100
AcDbArc
 50
214.6327799989322
 51
280.3672200010634
  0
LINE
  5
BD84
330
1E
100
AcDbEntity
  8
0
  6
Continuous
100
AcDbLine
 10
1091.354877809705
 20
409.2906229963659
 30
0.0
 11
1092.117647501059
 21
411.1321119302004
 31
0.0
  0
ARC
  5
BD85
330
1E
100
AcDbEntity
  8
0
  6
Continuous
100
AcDbCircle
 10
1093.670092561119
 20
400.8562700260279
 30
0.0
 40
9.295339642905961
100
AcDbArc
 50
50.72134999790536
 51
84.27865000208958
  0
LINE
  5
BD86
330
1E
100
AcDbEntity
  8
0
  6
Continuous
100
AcDbLine
 10
1093.833954769972
 20
408.263755697257
 30
0.0
 11
1094.596724461326
 21
410.1052446310916
 31
0.0
  0
ARC
  5
BD87
330
1E
100
AcDbEntity
  8
0
  6
Continuous
100
AcDbCircle
 10
1099.718739731934
 20
415.4589960598197
 30
0.0
 40
9.295339642905961
100
AcDbArc
 50
230.7213499979104
 51
264.2786500020895
  0
LINE
  5
BD88
330
1E
100
AcDbEntity
  8
0
  6
Continuous
100
AcDbLine
 10
1098.792107831727
 20
406.2100214547562
 30
0.0
 11
1099.554877523081
 21
408.0515103885907
 31
0.0
  0
LINE
  5
BD89
330
1E
100
AcDbEntity
  8
0
  6
Continuous
100
AcDbLine
 10
1101.271128455931
 20
405.18309711662
 30
0.0
 11
1102.033954980419
 21
407.0247232577762
 31
0.0
  0
ARC
  5
BD8A
330
1E
100
AcDbEntity
  8
0
  6
Continuous
100
AcDbCircle
 10
1106.48784595252
 20
408.7964877837387
 30
0.0
 40
2.825346636061326
100
AcDbArc
 50
147.1327799989424
 51
212.8672200010575
  0
LINE
  5
BD8B
330
1E
100
AcDbEntity
  8
0
  6
Continuous
100
AcDbLine
 10
1104.11483603927
 20
407.2631545831957
 30
0.0
 11
1105.299228050457
 21
407.2631545831957
 31
0.0
  0
LINE
  5
BD8C
330
1E
100
AcDbEntity
  8
0
  6
Continuous
100
AcDbLine
 10
1104.11483603927
 20
410.3298215154434
 30
0.0
 11
1105.299228050457
 21
410.3298215154434
 31
0.0
  0
LINE
  5
BD8D
330
1E
100
AcDbEntity
  8
0
  6
Continuous
100
AcDbLine
 10
1098.864420886478
 20
418.7298212498624
 30
0.0
 11
1103.759328767145
 21
418.7298212498624
 31
0.0
  0
ARC
  5
BD8E
330
1E
100
AcDbEntity
  8
0
  6
Continuous
100
AcDbCircle
 10
1106.48784595252
 20
417.9964880493196
 30
0.0
 40
2.825346636061326
100
AcDbArc
 50
147.1327799989424
 51
212.8672200010575
  0
LINE
  5
BD8F
330
1E
100
AcDbEntity
  8
0
  6
Continuous
100
AcDbLine
 10
1104.11483603927
 20
416.4631543176144
 30
0.0
 11
1105.299228050457
 21
416.4631543176144
 31
0.0
  0
LINE
  5
BD90
330
1E
100
AcDbEntity
  8
0
  6
Continuous
100
AcDbLine
 10
1104.11483603927
 20
419.5298212498626
 30
0.0
 11
1105.299228050457
 21
419.5298212498626
 31
0.0
  0
LINE
  5
BD91
330
1E
100
AcDbEntity
  8
0
  6
Continuous
100
AcDbLine
 10
1090.329165983125
 20
399.6136310511311
 30
0.0
 11
1095.153805954148
 21
397.6151997415659
 31
0.0
  0
LINE
  5
BD92
330
1E
100
AcDbEntity
  8
0
  6
Continuous
100
AcDbLine
 10
1095.153805954148
 20
397.6151997415659
 30
0.0
 11
1098.012399161526
 21
400.4737929489436
 31
0.0
  0
LINE
  5
BD93
330
1E
100
AcDbEntity
  8
0
  6
Continuous
100
AcDbLine
 10
1103.662499316458
 20
408.7964877837387
 30
0.0
 11
1103.662499316458
 21
417.9964880493196
 31
0.0
  0
ARC
  5
BD94
330
1E
100
AcDbEntity
  8
0
  6
Continuous
100
AcDbCircle
 10
1114.285744622636
 20
413.3964879165289
 30
0.0
 40
10.62324530617823
100
AcDbArc
 50
163.2213499979164
 51
196.7786500020835
  0
ARC
  5
BD95
330
1E
100
AcDbEntity
  8
0
  6
Continuous
100
AcDbCircle
 10
1092.56258813519
 20
408.7003499914403
 30
0.0
 40
2.472178306553661
100
AcDbArc
 50
34.63277999893215
 51
100.3672200010633
  0
ARC
  5
BD96
330
1E
100
AcDbEntity
  8
0
  6
Continuous
100
AcDbCircle
 10
1098.864420886478
 20
413.3964879165289
 30
0.0
 40
5.333333333333332
100
AcDbArc
 50
90.0
 51
210.8352048940846
  0
LINE
  5
BD97
330
1E
100
AcDbEntity
  8
0
  6
Continuous
100
AcDbLine
 10
1100.375891953999
 20
408.0631545831959
 30
0.0
 11
1103.759328767145
 21
408.0631545831959
 31
0.0
  0
ARC
  5
BD98
330
1E
100
AcDbEntity
  8
0
  6
Continuous
100
AcDbCircle
 10
1099.9998185866
 20
405.6197482719719
 30
0.0
 40
2.472178306553661
100
AcDbArc
 50
34.63277999893215
 51
100.3672200010633
  0
ARC
  5
BD99
330
1E
100
AcDbEntity
  8
0
  6
Continuous
100
AcDbCircle
 10
1100.888326123785
 20
402.3989420097427
 30
0.0
 40
2.746231479756805
100
AcDbArc
 50
89.1520988349392
 51
159.1520988349398
  0
ARC
  5
BD9A
330
1E
100
AcDbEntity
  8
0
  6
Continuous
100
AcDbCircle
 10
1100.826244157863
 20
407.6149160944074
 30
0.0
 40
2.472178306553661
100
AcDbArc
 50
214.6327799989322
 51
280.3672200010634
  0
LINE
  5
BD9B
330
1E
100
AcDbEntity
  8
0
  6
Continuous
100
AcDbLine
 10
1093.50864981496
 20
410.9843449295838
 30
0.0
 11
1100.94588026637
 21
407.9037432101154
 31
0.0
  0
LINE
  5
BD9C
330
1E
100
AcDbEntity
  8
0
  6
Continuous
100
AcDbLine
 10
1092.442952026682
 20
408.4115228757323
 30
0.0
 11
1099.880182478092
 21
405.3309211562639
 31
0.0
  0
LINE
  5
BD9D
330
1E
100
AcDbEntity
  8
0
  6
Continuous
100
AcDbLine
 10
1092.409065616579
 20
405.8254678585792
 30
0.0
 11
1098.075526749315
 21
403.4783428067401
 31
0.0
  0
ARC
  5
BD9E
330
1E
100
AcDbEntity
  8
0
  6
Continuous
100
AcDbCircle
 10
1093.987542284779
 20
402.5786359353487
 30
0.0
 40
3.813798694049016
100
AcDbArc
 50
118.5864858262631
 51
163.586485826268
  0
LINE
  5
BD9F
330
1E
100
AcDbEntity
  8
0
  6
Continuous
100
AcDbLine
 10
1090.329165983125
 20
403.6562923343124
 30
0.0
 11
1098.012399161526
 21
400.4737929489436
 31
0.0
  0
LINE
  5
BDA0
330
1E
100
AcDbEntity
  8
0
  6
Continuous
100
AcDbLine
 10
1090.329165983125
 20
399.6136310511311
 30
0.0
 11
1090.329165983125
 21
403.6562923343124
 31
0.0
  0
ARC
  5
BDA1
330
1E
100
AcDbEntity
  8
0
  6
Continuous
100
AcDbCircle
 10
1094.663518322998
 20
402.2986374924789
 30
0.0
 40
3.813798694049014
100
AcDbArc
 50
331.4135141737369
 51
16.41351417374012
  0
ARC
  5
BDA2
330
1E
100
AcDbEntity
  8
0
  6
Continuous
100
AcDbCircle
 10
1089.6568644816
 20
407.0511657472093
 30
0.0
 40
2.746231479756805
100
AcDbArc
 50
335.8479011650582
 51
45.84790116506007
  0
ARC
  5
BDA3
330
1E
100
AcDbEntity
  8
0
  6
Continuous
100
AcDbCircle
 10
1093.389013706453
 20
410.6955178138758
 30
0.0
 40
2.472178306553661
100
AcDbArc
 50
214.6327799989322
 51
280.3672200010634
  0
LINE
  5
BDA4
330
1E
100
AcDbEntity
  8
0
  6
Continuous
100
AcDbLine
 10
1091.354877809705
 20
409.2906229963659
 30
0.0
 11
1092.117647501059
 21
411.1321119302004
 31
0.0
  0
ARC
  5
BDA5
330
1E
100
AcDbEntity
  8
0
  6
Continuous
100
AcDbCircle
 10
1093.670092561119
 20
400.8562700260279
 30
0.0
 40
9.295339642905961
100
AcDbArc
 50
50.72134999790536
 51
84.27865000208958
  0
LINE
  5
BDA6
330
1E
100
AcDbEntity
  8
0
  6
Continuous
100
AcDbLine
 10
1093.833954769972
 20
408.263755697257
 30
0.0
 11
1094.596724461326
 21
410.1052446310916
 31
0.0
  0
ARC
  5
BDA7
330
1E
100
AcDbEntity
  8
0
  6
Continuous
100
AcDbCircle
 10
1099.718739731934
 20
415.4589960598197
 30
0.0
 40
9.295339642905961
100
AcDbArc
 50
230.7213499979104
 51
264.2786500020895
  0
LINE
  5
BDA8
330
1E
100
AcDbEntity
  8
0
  6
Continuous
100
AcDbLine
 10
1098.792107831727
 20
406.2100214547562
 30
0.0
 11
1099.554877523081
 21
408.0515103885907
 31
0.0
  0
LINE
  5
BDA9
330
1E
100
AcDbEntity
  8
0
  6
Continuous
100
AcDbLine
 10
1101.271128455931
 20
405.18309711662
 30
0.0
 11
1102.033954980419
 21
407.0247232577762
 31
0.0
  0
ARC
  5
BDAA
330
1E
100
AcDbEntity
  8
0
  6
Continuous
100
AcDbCircle
 10
1106.48784595252
 20
408.7964877837387
 30
0.0
 40
2.825346636061326
100
AcDbArc
 50
147.1327799989424
 51
212.8672200010575
  0
LINE
  5
BDAB
330
1E
100
AcDbEntity
  8
0
  6
Continuous
100
AcDbLine
 10
1104.11483603927
 20
407.2631545831957
 30
0.0
 11
1105.299228050457
 21
407.2631545831957
 31
0.0
  0
LINE
  5
BDAC
330
1E
100
AcDbEntity
  8
0
  6
Continuous
100
AcDbLine
 10
1104.11483603927
 20
410.3298215154434
 30
0.0
 11
1105.299228050457
 21
410.3298215154434
 31
0.0
  0
LINE
  5
BDAD
330
1E
100
AcDbEntity
  8
0
  6
Continuous
100
AcDbLine
 10
1098.864420886478
 20
418.7298212498624
 30
0.0
 11
1103.759328767145
 21
418.7298212498624
 31
0.0
  0
ARC
  5
BDAE
330
1E
100
AcDbEntity
  8
0
  6
Continuous
100
AcDbCircle
 10
1106.48784595252
 20
417.9964880493196
 30
0.0
 40
2.825346636061326
100
AcDbArc
 50
147.1327799989424
 51
212.8672200010575
  0
LINE
  5
BDAF
330
1E
100
AcDbEntity
  8
0
  6
Continuous
100
AcDbLine
 10
1104.11483603927
 20
416.4631543176144
 30
0.0
 11
1105.299228050457
 21
416.4631543176144
 31
0.0
  0
LINE
  5
BDB0
330
1E
100
AcDbEntity
  8
0
  6
Continuous
100
AcDbLine
 10
1104.11483603927
 20
419.5298212498626
 30
0.0
 11
1105.299228050457
 21
419.5298212498626
 31
0.0
  0
LINE
  5
BDB1
330
1E
100
AcDbEntity
  8
0
  6
Continuous
100
AcDbLine
 10
1090.329165983125
 20
399.6136310511311
 30
0.0
 11
1095.153805954148
 21
397.6151997415659
 31
0.0
  0
LINE
  5
BDB2
330
1E
100
AcDbEntity
  8
0
  6
Continuous
100
AcDbLine
 10
1095.153805954148
 20
397.6151997415659
 30
0.0
 11
1098.012399161526
 21
400.4737929489436
 31
0.0
  0
LINE
  5
BDB3
330
1E
100
AcDbEntity
  8
0
  6
Continuous
 62
     7
100
AcDbLine
 10
933.6101568452798
 20
281.2362366775395
 30
0.0
 11
931.6101568452797
 21
283.2362366775395
 31
0.0
  0
LINE
  5
BDB4
330
1E
100
AcDbEntity
  8
0
  6
Continuous
 62
     7
100
AcDbLine
 10
933.6101568452798
 20
247.2362366774395
 30
0.0
 11
933.6101568452798
 21
281.2362366775395
 31
0.0
  0
LINE
  5
BDB5
330
1E
100
AcDbEntity
  8
0
  6
Continuous
 62
     7
100
AcDbLine
 10
831.6101568452797
 20
279.7362366775395
 30
0.0
 11
833.6101568452798
 21
281.7362366775395
 31
0.0
  0
LINE
  5
BDB6
330
1E
100
AcDbEntity
  8
0
  6
Continuous
 62
     7
100
AcDbLine
 10
831.6101568452797
 20
233.2362366775395
 30
0.0
 11
831.6101568452797
 21
279.7362366775395
 31
0.0
  0
LINE
  5
BDB7
330
1E
100
AcDbEntity
  8
0
  6
Continuous
 62
     7
100
AcDbLine
 10
917.6101568453796
 20
231.2362366775395
 30
0.0
 11
933.6101568452798
 21
247.2362366774395
 31
0.0
  0
LINE
  5
BDB8
330
1E
100
AcDbEntity
  8
0
  6
Continuous
 62
     7
100
AcDbLine
 10
833.6101568453798
 20
231.2362366774395
 30
0.0
 11
831.6101568452797
 21
233.2362366775395
 31
0.0
  0
LINE
  5
BDB9
330
1E
100
AcDbEntity
  8
0
  6
Continuous
 62
     7
100
AcDbLine
 10
861.6101568452798
 20
282.2362366775395
 30
0.0
 11
862.6101568452797
 21
283.2362366775395
 31
0.0
  0
LINE
  5
BDBA
330
1E
100
AcDbEntity
  8
0
  6
Continuous
 62
     7
100
AcDbLine
 10
863.6101568452797
 20
282.7362366775395
 30
0.0
 11
862.6101568452797
 21
281.7362366775395
 31
0.0
  0
LINE
  5
BDBB
330
1E
100
AcDbEntity
  8
0
  6
Continuous
 62
     7
100
AcDbLine
 10
853.1101568452797
 20
223.2362366775395
 30
0.0
 11
851.1101568452797
 21
225.2362366775395
 31
0.0
  0
LINE
  5
BDBC
330
1E
100
AcDbEntity
  8
0
  6
Continuous
 62
     7
100
AcDbLine
 10
848.1398247841799
 20
261.4665885020394
 30
0.0
 11
848.1398247841799
 21
255.7094382528393
 31
0.0
  0
LINE
  5
BDBD
330
1E
100
AcDbEntity
  8
0
  6
Continuous
 62
     7
100
AcDbLine
 10
848.1398247841799
 20
234.7630351055394
 30
0.0
 11
848.1398247841799
 21
231.7362366774395
 31
0.0
  0
LINE
  5
BDBE
330
1E
100
AcDbEntity
  8
0
  6
Continuous
 62
     7
100
AcDbLine
 10
848.1398247841799
 20
261.4665885020394
 30
0.0
 11
850.8798050207797
 21
264.2065687386392
 31
0.0
  0
LINE
  5
BDC0
330
1E
100
AcDbEntity
  8
0
  6
Continuous
 62
     7
100
AcDbLine
 10
850.3321340689799
 20
260.6602954292392
 30
0.0
 11
851.6860980935799
 21
262.0142594538394
 31
0.0
  0
LINE
  5
BDC1
330
1E
100
AcDbEntity
  8
0
  6
Continuous
 62
     7
100
AcDbLine
 10
851.1101568452797
 20
260.2362366775393
 30
0.0
 11
852.1101568452797
 21
261.2362366775395
 31
0.0
  0
LINE
  5
BDC4
330
1E
100
AcDbEntity
  8
0
  6
Continuous
 62
     7
100
AcDbLine
 10
850.2601568452799
 20
231.7362366774395
 30
0.0
 11
850.2601568452799
 21
233.8847648101586
 31
0.0
  0
LINE
  5
BDC5
330
1E
100
AcDbEntity
  8
0
  6
Continuous
 62
     7
100
AcDbLine
 10
850.2601568452799
 20
256.5877085480364
 30
0.0
 11
850.2601568452799
 21
260.4865270396393
 31
0.0
  0
LINE
  5
BDC6
330
1E
100
AcDbEntity
  8
0
  6
Continuous
 62
     7
100
AcDbLine
 10
851.1101568452797
 20
225.2362366775395
 30
0.0
 11
851.1101568452797
 21
233.5326832825657
 31
0.0
  0
LINE
  5
BDC7
330
1E
100
AcDbEntity
  8
0
  6
Continuous
 62
     7
100
AcDbLine
 10
851.1101568452799
 20
256.9397900755569
 30
0.0
 11
851.1101568452797
 21
260.2362366775393
 31
0.0
  0
LINE
  5
BDCD
330
1E
100
AcDbEntity
  8
0
  6
Continuous
 62
     7
100
AcDbLine
 10
894.1101568452797
 20
223.2362366775395
 30
0.0
 11
888.8601651611798
 21
223.2362366775395
 31
0.0
  0
LINE
  5
BDCE
330
1E
100
AcDbEntity
  8
0
  6
Continuous
 62
     7
100
AcDbLine
 10
858.3601485293797
 20
223.2362366775395
 30
0.0
 11
853.1101568452797
 21
223.2362366775395
 31
0.0
  0
LINE
  5
BDCF
330
1E
100
AcDbEntity
  8
0
  6
Continuous
 62
     7
100
AcDbLine
 10
865.3601490452798
 20
223.2362366775395
 30
0.0
 11
881.8601646452798
 21
223.2362366775395
 31
0.0
  0
LINE
  5
BDD0
330
1E
100
AcDbEntity
  8
0
  6
Continuous
 62
     7
100
AcDbLine
 10
887.8601656652799
 20
224.2362366775395
 30
0.0
 11
882.8601651452798
 21
224.2362366775395
 31
0.0
  0
LINE
  5
BDD1
330
1E
100
AcDbEntity
  8
0
  6
Continuous
 62
     7
100
AcDbLine
 10
864.3601485452798
 20
224.2362366775395
 30
0.0
 11
859.3601480252798
 21
224.2362366775395
 31
0.0
  0
LINE
  5
BDD7
330
1E
100
AcDbEntity
  8
0
  6
Continuous
 62
     7
100
AcDbLine
 10
865.3601493296799
 20
223.2362366775395
 30
0.0
 11
864.3601485452798
 21
224.2362366775395
 31
0.0
  0
LINE
  5
BDD8
330
1E
100
AcDbEntity
  8
0
  6
Continuous
 62
     7
100
AcDbLine
 10
855.6398247841798
 20
242.2630351187394
 30
0.0
 11
855.6398247841798
 21
248.2094382370395
 31
0.0
  0
LINE
  5
BDDA
330
1E
100
AcDbEntity
  8
0
  6
Continuous
 62
     7
100
AcDbLine
 10
857.7601568452799
 20
241.4865559892395
 30
0.0
 11
857.7601568452799
 21
248.9859173664394
 31
0.0
  0
LINE
  5
BDDB
330
1E
100
AcDbEntity
  8
0
  6
Continuous
 62
     7
100
AcDbLine
 10
858.6101568452798
 20
241.0326832957976
 30
0.0
 11
858.6101568452797
 21
249.4397900597304
 31
0.0
  0
LINE
  5
BDDC
330
1E
100
AcDbEntity
  8
0
  6
Continuous
 62
     7
100
AcDbLine
 10
855.6398247841798
 20
242.2630351187394
 30
0.0
 11
848.1398247841799
 21
234.7630351055394
 31
0.0
  0
LINE
  5
BDDF
330
1E
100
AcDbEntity
  8
0
  6
Continuous
 62
     7
100
AcDbLine
 10
829.6101568451799
 20
231.2362366775395
 30
0.0
 11
851.1101568452797
 21
231.2362366774394
 31
0.0
  0
LINE
  5
BDE0
330
1E
100
AcDbEntity
  8
0
  6
Continuous
 62
     7
100
AcDbLine
 10
896.1101568452798
 20
231.2362366774395
 30
0.0
 11
917.6101568452798
 21
231.2362366774395
 31
0.0
  0
LINE
  5
BDE1
330
1E
100
AcDbEntity
  8
0
  6
Continuous
 62
     7
100
AcDbLine
 10
848.1398247841799
 20
231.7362366774395
 30
0.0
 11
850.2601568452799
 21
231.7362366774395
 31
0.0
  0
LINE
  5
BDE2
330
1E
100
AcDbEntity
  8
0
  6
Continuous
 62
     7
100
AcDbLine
 10
896.96015684528
 20
231.7362366774395
 30
0.0
 11
899.0804889063797
 21
231.7362366774395
 31
0.0
  0
LINE
  5
BDEC
330
1E
100
AcDbEntity
  8
0
  6
Continuous
 62
     7
100
AcDbLine
 10
848.1398247841799
 20
255.7094382528393
 30
0.0
 11
855.6398247841798
 21
248.2094382370395
 31
0.0
  0
LINE
  5
BDF1
330
1E
100
AcDbEntity
  8
0
  6
Continuous
 62
     7
100
AcDbLine
 10
850.2601568452799
 20
233.8847648101586
 30
0.0
 11
857.6881796217799
 21
241.3127875997394
 31
0.0
  0
LINE
  5
BDF3
330
1E
100
AcDbEntity
  8
0
  6
Continuous
 62
     7
100
AcDbLine
 10
851.1101568452797
 20
233.5326832825657
 30
0.0
 11
858.6101568452798
 21
241.0326832957976
 31
0.0
  0
LINE
  5
BDF8
330
1E
100
AcDbEntity
  8
0
  6
Continuous
 62
     7
100
AcDbLine
 10
857.6881796217799
 20
249.1596857558394
 30
0.0
 11
850.2601568452799
 21
256.5877085480364
 31
0.0
  0
LINE
  5
BDFA
330
1E
100
AcDbEntity
  8
0
  6
Continuous
 62
     7
100
AcDbLine
 10
858.6101568452797
 20
249.4397900597304
 30
0.0
 11
851.1101568452799
 21
256.9397900755569
 31
0.0
  0
LINE
  5
BDFC
330
1E
100
AcDbEntity
  8
0
  6
Continuous
 62
     7
100
AcDbLine
 10
888.8601651611798
 20
223.2362366775395
 30
0.0
 11
887.8601656652799
 21
224.2362366775395
 31
0.0
  0
LINE
  5
BDFD
330
1E
100
AcDbEntity
  8
0
  6
Continuous
 62
     7
100
AcDbLine
 10
910.6101568452798
 20
282.2362366775395
 30
0.0
 11
911.6101568452798
 21
283.2362366775395
 31
0.0
  0
LINE
  5
BDFE
330
1E
100
AcDbEntity
  8
0
  6
Continuous
 62
     7
100
AcDbLine
 10
835.6101568452798
 20
283.2362366775395
 30
0.0
 11
836.6101568452798
 21
282.2362366775395
 31
0.0
  0
LINE
  5
BDFF
330
1E
100
AcDbEntity
  8
0
  6
Continuous
 62
     7
100
AcDbLine
 10
859.3601480252798
 20
224.2362366775395
 30
0.0
 11
858.3601485293797
 21
223.2362366775395
 31
0.0
  0
LINE
  5
BE03
330
1E
100
AcDbEntity
  8
0
  6
Continuous
 62
     7
100
AcDbLine
 10
896.1101568452798
 20
256.939790075557
 30
0.0
 11
888.6101568452797
 21
249.4397900597304
 31
0.0
  0
LINE
  5
BE05
330
1E
100
AcDbEntity
  8
0
  6
Continuous
 62
     7
100
AcDbLine
 10
896.9601568452798
 20
256.5877085480365
 30
0.0
 11
889.5321340687798
 21
249.1596857558394
 31
0.0
  0
LINE
  5
BE06
330
1E
100
AcDbEntity
  8
0
  6
Continuous
 62
     7
100
AcDbLine
 10
891.5804889063798
 20
248.2094382370395
 30
0.0
 11
899.0804889063797
 21
255.7094382528393
 31
0.0
  0
LINE
  5
BE0F
330
1E
100
AcDbEntity
  8
0
  6
Continuous
 62
     7
100
AcDbLine
 10
888.6101568452797
 20
241.0326832957981
 30
0.0
 11
896.1101568452798
 21
233.5326832825658
 31
0.0
  0
LINE
  5
BE11
330
1E
100
AcDbEntity
  8
0
  6
Continuous
 62
     7
100
AcDbLine
 10
889.5321340687798
 20
241.3127875997394
 30
0.0
 11
896.96015684528
 21
233.8847648101582
 31
0.0
  0
LINE
  5
BE14
330
1E
100
AcDbEntity
  8
0
  6
Continuous
 62
     7
100
AcDbLine
 10
899.0804889063797
 20
234.7630351055394
 30
0.0
 11
891.5804889063798
 21
242.2630351187394
 31
0.0
  0
LINE
  5
BE15
330
1E
100
AcDbEntity
  8
0
  6
Continuous
 62
     7
100
AcDbLine
 10
888.6101568452797
 20
249.4397900597304
 30
0.0
 11
888.6101568452797
 21
241.0326832957981
 31
0.0
  0
LINE
  5
BE16
330
1E
100
AcDbEntity
  8
0
  6
Continuous
 62
     7
100
AcDbLine
 10
889.4601568452799
 20
248.9859173664394
 30
0.0
 11
889.4601568452799
 21
241.4865559892395
 31
0.0
  0
LINE
  5
BE1A
330
1E
100
AcDbEntity
  8
0
  6
Continuous
 62
     7
100
AcDbLine
 10
895.1101568452797
 20
261.2362366775395
 30
0.0
 11
852.1101568452797
 21
261.2362366775395
 31
0.0
  0
LINE
  5
BE1C
330
1E
100
AcDbEntity
  8
0
  6
Continuous
 62
     7
100
AcDbLine
 10
891.5804889063798
 20
248.2094382370395
 30
0.0
 11
891.5804889063798
 21
242.2630351187394
 31
0.0
  0
LINE
  5
BE1F
330
1E
100
AcDbEntity
  8
0
  6
Continuous
 62
     7
100
AcDbLine
 10
851.8598664831797
 20
262.0862366775394
 30
0.0
 11
895.3604472073799
 21
262.0862366775394
 31
0.0
  0
LINE
  5
BE21
330
1E
100
AcDbEntity
  8
0
  6
Continuous
 62
     7
100
AcDbLine
 10
850.8798050207797
 20
264.2065687386392
 30
0.0
 11
896.3405086697799
 21
264.2065687386392
 31
0.0
  0
LINE
  5
BE22
330
1E
100
AcDbEntity
  8
0
  6
Continuous
 62
     7
100
AcDbLine
 10
896.1101568452797
 20
260.2362366775393
 30
0.0
 11
896.1101568452798
 21
256.939790075557
 31
0.0
  0
LINE
  5
BE23
330
1E
100
AcDbEntity
  8
0
  6
Continuous
 62
     7
100
AcDbLine
 10
896.1101568452798
 20
233.5326832825658
 30
0.0
 11
896.1101568452798
 21
225.2362366775395
 31
0.0
  0
LINE
  5
BE24
330
1E
100
AcDbEntity
  8
0
  6
Continuous
 62
     7
100
AcDbLine
 10
896.96015684528
 20
260.4865270396393
 30
0.0
 11
896.9601568452798
 21
256.5877085480365
 31
0.0
  0
LINE
  5
BE25
330
1E
100
AcDbEntity
  8
0
  6
Continuous
 62
     7
100
AcDbLine
 10
896.96015684528
 20
231.7362366774395
 30
0.0
 11
896.96015684528
 21
233.8847648101582
 31
0.0
  0
LINE
  5
BE27
330
1E
100
AcDbEntity
  8
0
  6
Continuous
 62
     7
100
AcDbLine
 10
899.0804889063797
 20
231.7362366774395
 30
0.0
 11
899.0804889063797
 21
234.7630351055394
 31
0.0
  0
LINE
  5
BE28
330
1E
100
AcDbEntity
  8
0
  6
Continuous
 62
     7
100
AcDbLine
 10
899.0804889063797
 20
255.7094382528393
 30
0.0
 11
899.0804889063797
 21
261.4665885020394
 31
0.0
  0
LINE
  5
BE29
330
1E
100
AcDbEntity
  8
0
  6
Continuous
 62
     7
100
AcDbLine
 10
882.8601651452798
 20
224.2362366775395
 30
0.0
 11
881.8601643608799
 21
223.2362366775395
 31
0.0
  0
LINE
  5
BE2D
330
1E
100
AcDbEntity
  8
0
  6
Continuous
 62
     7
100
AcDbLine
 10
813.6101568452797
 20
269.2362366775396
 30
0.0
 11
814.6101568452797
 21
268.2362366813394
 31
0.0
  0
LINE
  5
BE30
330
1E
100
AcDbEntity
  8
0
  6
Continuous
 62
     7
100
AcDbLine
 10
896.1101568452798
 20
225.2362366775395
 30
0.0
 11
894.1101568452797
 21
223.2362366775395
 31
0.0
  0
LINE
  5
BE31
330
1E
100
AcDbEntity
  8
0
  6
Continuous
 62
     7
100
AcDbLine
 10
895.1101568452797
 20
261.2362366775395
 30
0.0
 11
896.1101568452797
 21
260.2362366775393
 31
0.0
  0
LINE
  5
BE32
330
1E
100
AcDbEntity
  8
0
  6
Continuous
 62
     7
100
AcDbLine
 10
895.5342155969796
 20
262.0142594538394
 30
0.0
 11
896.8881796215798
 21
260.6602954292392
 31
0.0
  0
LINE
  5
BE33
330
1E
100
AcDbEntity
  8
0
  6
Continuous
 62
     7
100
AcDbLine
 10
896.3405086697799
 20
264.2065687386392
 30
0.0
 11
899.0804889063797
 21
261.4665885020394
 31
0.0
  0
LINE
  5
BE34
330
1E
100
AcDbEntity
  8
0
  6
Continuous
 62
     7
100
AcDbLine
 10
833.6101568452798
 20
281.7362366775395
 30
0.0
 11
913.6101568452797
 21
281.7362366775395
 31
0.0
  0
LINE
  5
BE35
330
1E
100
AcDbEntity
  8
0
  6
Continuous
 62
     7
100
AcDbLine
 10
884.6101568452798
 20
281.7362366775395
 30
0.0
 11
883.6101568452798
 21
282.7362366775395
 31
0.0
  0
LINE
  5
BE36
330
1E
100
AcDbEntity
  8
0
  6
Continuous
 62
     7
100
AcDbLine
 10
884.6101568452798
 20
283.2362366775395
 30
0.0
 11
885.6101568452798
 21
282.2362366775395
 31
0.0
  0
LINE
  5
BE37
330
1E
100
AcDbEntity
  8
0
  6
Continuous
 62
     7
100
AcDbLine
 10
913.6101568451799
 20
231.2362366774395
 30
0.0
 11
915.6101568452797
 21
233.2362366775395
 31
0.0
  0
LINE
  5
BE38
330
1E
100
AcDbEntity
  8
0
  6
Continuous
 62
     7
100
AcDbLine
 10
814.6101568452797
 20
246.2362366774395
 30
0.0
 11
829.6101568452797
 21
231.2362366775395
 31
0.0
  0
LINE
  5
BE39
330
1E
100
AcDbEntity
  8
0
  6
Continuous
 62
     7
100
AcDbLine
 10
836.6101568452798
 20
282.2362366775395
 30
0.0
 11
861.6101568452798
 21
282.2362366775395
 31
0.0
  0
LINE
  5
BE3A
330
1E
100
AcDbEntity
  8
0
  6
Continuous
 62
     7
100
AcDbLine
 10
885.6101568452798
 20
282.2362366775395
 30
0.0
 11
910.6101568452798
 21
282.2362366775395
 31
0.0
  0
LINE
  5
BE3B
330
1E
100
AcDbEntity
  8
0
  6
Continuous
 62
     7
100
AcDbLine
 10
883.6101568452798
 20
282.7362366775395
 30
0.0
 11
863.6101568452797
 21
282.7362366775395
 31
0.0
  0
LINE
  5
BE3C
330
1E
100
AcDbEntity
  8
0
  6
Continuous
 62
     7
100
AcDbLine
 10
884.6101568452798
 20
283.2362366775395
 30
0.0
 11
862.6101568452797
 21
283.2362366775395
 31
0.0
  0
LINE
  5
BE3D
330
1E
100
AcDbEntity
  8
0
  6
Continuous
 62
     7
100
AcDbLine
 10
815.6101568452797
 20
283.2362366775395
 30
0.0
 11
835.6101568452798
 21
283.2362366775395
 31
0.0
  0
LINE
  5
BE3E
330
1E
100
AcDbEntity
  8
0
  6
Continuous
 62
     7
100
AcDbLine
 10
911.6101568452798
 20
283.2362366775395
 30
0.0
 11
931.6101568452797
 21
283.2362366775395
 31
0.0
  0
LINE
  5
BE3F
330
1E
100
AcDbEntity
  8
0
  6
Continuous
 62
     7
100
AcDbLine
 10
915.6101568452797
 20
233.2362366775395
 30
0.0
 11
915.6101568452797
 21
279.7362366775395
 31
0.0
  0
LINE
  5
BE40
330
1E
100
AcDbEntity
  8
0
  6
Continuous
 62
     7
100
AcDbLine
 10
915.6101568452797
 20
279.7362366775395
 30
0.0
 11
913.6101568452797
 21
281.7362366775395
 31
0.0
  0
LINE
  5
BE41
330
1E
100
AcDbEntity
  8
0
  6
Continuous
 62
     7
100
AcDbLine
 10
814.6101568452797
 20
268.2362366775859
 30
0.0
 11
814.6101568452797
 21
246.2362366774395
 31
0.0
  0
LINE
  5
BE42
330
1E
100
AcDbEntity
  8
0
  6
Continuous
 62
     7
100
AcDbLine
 10
813.6101568452797
 20
281.2362366775395
 30
0.0
 11
813.6101568452797
 21
269.2362366775396
 31
0.0
  0
LINE
  5
BE43
330
1E
100
AcDbEntity
  8
0
  6
Continuous
 62
     7
100
AcDbLine
 10
815.6101568452797
 20
283.2362366775395
 30
0.0
 11
813.6101568452797
 21
281.2362366775395
 31
0.0
  0
SPLINE
  5
BE62
330
1E
100
AcDbEntity
  8
0
  6
Continuous
 62
     7
100
AcDbSpline
210
0.0
220
0.0
230
1.0
 70
     8
 71
     3
 72
    10
 73
     6
 74
     4
 42
0.0000000001
 43
0.0000000001
 44
0.0000000001
 12
0.0000000000000002
 22
1.0
 32
0.0
 13
-0.7071067804076013
 23
0.7071067819654938
 33
0.0
 40
0.0
 40
0.0
 40
0.0
 40
0.0
 40
0.0647590235176535
 40
0.1278007256591239
 40
0.1925678500758114
 40
0.1925678500758114
 40
0.1925678500758114
 40
0.1925678500758114
 10
857.7601568452799
 20
248.9859173664394
 30
0.0
 10
857.7601568452799
 20
249.0075037076119
 30
0.0
 10
857.7547521261283
 20
249.0503492264713
 30
0.0
 10
857.7299212550187
 20
249.1102992109861
 30
0.0
 10
857.7034453793874
 20
249.1444199981982
 30
0.0
 10
857.6881796217799
 20
249.1596857558394
 30
0.0
 11
857.7601568452799
 21
248.9859173664394
 31
0.0
 11
857.7518359211799
 21
249.0501395849396
 31
0.0
 11
857.7277118984797
 21
249.1083829342393
 31
0.0
 11
857.6881796217799
 21
249.1596857558394
 31
0.0
  0
SPLINE
  5
BE63
330
1E
100
AcDbEntity
  8
0
  6
Continuous
 62
     7
100
AcDbSpline
210
0.0
220
0.0
230
1.0
 70
     8
 71
     3
 72
    10
 73
     6
 74
     4
 42
0.0000000001
 43
0.0000000001
 44
0.0000000001
 12
0.7071067806672503
 22
0.707106781705845
 32
0.0
 13
0.0000000000000002
 23
1.0
 33
0.0
 40
0.0
 40
0.0
 40
0.0
 40
0.0
 40
0.0647590235192106
 40
0.1278007256290093
 40
0.1925678501649636
 40
0.1925678501649636
 40
0.1925678501649636
 40
0.1925678501649636
 10
857.6881796217799
 20
241.3127875997394
 30
0.0
 10
857.7034434699932
 20
241.3280514479751
 30
0.0
 10
857.7299181133385
 20
241.3621695184802
 30
0.0
 10
857.7547510764377
 20
241.42211863649
 30
0.0
 10
857.7601568452799
 20
241.4649669477275
 30
0.0
 10
857.7601568452799
 20
241.4865559892395
 30
0.0
 11
857.6881796217799
 21
241.3127875997394
 31
0.0
 11
857.7277078060797
 21
241.3640833478392
 31
0.0
 11
857.7518338131799
 21
241.4223258751393
 31
0.0
 11
857.7601568452799
 21
241.4865559892395
 31
0.0
  0
SPLINE
  5
BE66
330
1E
100
AcDbEntity
  8
0
  6
Continuous
 62
     7
100
AcDbSpline
210
0.0
220
0.0
230
1.0
 70
     8
 71
     3
 72
    10
 73
     6
 74
     4
 42
0.0000000001
 43
0.0000000001
 44
0.0000000001
 12
-0.0000000000000002
 22
-1.0
 32
0.0
 13
0.70710678066725
 23
-0.7071067817058453
 33
0.0
 40
0.0
 40
0.0
 40
0.0
 40
0.0
 40
0.0647590235176535
 40
0.1278007256592469
 40
0.1925678501551395
 40
0.1925678501551395
 40
0.1925678501551395
 40
0.1925678501551395
 10
889.4601568452799
 20
241.4865559892395
 30
0.0
 10
889.4601568452799
 20
241.4649696480669
 30
0.0
 10
889.4655615644239
 20
241.4221241292017
 30
0.0
 10
889.4903924355768
 20
241.362174144688
 30
0.0
 10
889.516868311148
 20
241.3280533573936
 30
0.0
 10
889.5321340687798
 20
241.3127875997394
 30
0.0
 11
889.4601568452799
 21
241.4865559892395
 31
0.0
 11
889.4684777693798
 21
241.4223337707393
 31
0.0
 11
889.4926017920797
 21
241.3640904214393
 31
0.0
 11
889.5321340687798
 21
241.3127875997394
 31
0.0
  0
SPLINE
  5
BE67
330
1E
100
AcDbEntity
  8
0
  6
Continuous
 62
     7
100
AcDbSpline
210
0.0
220
0.0
230
1.0
 70
     8
 71
     3
 72
    10
 73
     6
 74
     4
 42
0.0000000001
 43
0.0000000001
 44
0.0000000001
 12
-0.7071067804076014
 22
-0.7071067819654937
 32
0.0
 13
-0.0000000000000002
 23
-1.0
 33
0.0
 40
0.0
 40
0.0
 40
0.0
 40
0.0
 40
0.0647590234402841
 40
0.127800725680501
 40
0.1925678501043839
 40
0.1925678501043839
 40
0.1925678501043839
 40
0.1925678501043839
 10
889.5321340687798
 20
249.1596857558394
 30
0.0
 10
889.5168702205907
 20
249.1444219076167
 30
0.0
 10
889.4903955771937
 20
249.1103038371474
 30
0.0
 10
889.4655626139918
 20
249.0503547191743
 30
0.0
 10
889.4601568452799
 20
249.007506407914
 30
0.0
 10
889.4601568452799
 20
248.9859173664394
 30
0.0
 11
889.5321340687798
 21
249.1596857558394
 31
0.0
 11
889.4926058844799
 21
249.1083900078394
 31
0.0
 11
889.4684798772798
 21
249.0501474804395
 31
0.0
 11
889.4601568452799
 21
248.9859173664394
 31
0.0
  0
SPLINE
  5
BE74
330
1E
100
AcDbEntity
  8
0
  6
Continuous
 62
     7
100
AcDbSpline
210
0.0
220
0.0
230
1.0
 70
     8
 71
     3
 72
    10
 73
     6
 74
     4
 42
0.0000000001
 43
0.0000000001
 44
0.0000000001
 12
0.7071067811865475
 22
-0.7071067811865478
 32
0.0
 13
-0.0000000000000002
 23
-1.0
 33
0.0
 40
0.0
 40
0.0
 40
0.0
 40
0.0
 40
0.0647590235804154
 40
0.1278007258205453
 40
0.1925678503565287
 40
0.1925678503565287
 40
0.1925678503565287
 40
0.1925678503565287
 10
896.8881796215798
 20
260.6602954292392
 30
0.0
 10
896.9034434698187
 20
260.6450315810003
 30
0.0
 10
896.9299181132566
 20
260.6109135104887
 30
0.0
 10
896.9547510764423
 20
260.550964392435
 30
0.0
 10
896.96015684528
 20
260.5081160811514
 30
0.0
 10
896.96015684528
 20
260.4865270396393
 30
0.0
 11
896.8881796215798
 21
260.6602954292392
 31
0.0
 11
896.92770780598
 21
260.6089996811394
 31
0.0
 11
896.9518338131797
 21
260.5507571537395
 31
0.0
 11
896.96015684528
 21
260.4865270396393
 31
0.0
  0
SPLINE
  5
BE75
330
1E
100
AcDbEntity
  8
0
  6
Continuous
 62
     7
100
AcDbSpline
210
0.0
220
0.0
230
1.0
 70
     8
 71
     3
 72
    10
 73
     6
 74
     4
 42
0.0000000001
 43
0.0000000001
 44
0.0000000001
 12
1.0
 22
-0.0000000000000002
 32
0.0
 13
0.7071067811865475
 23
-0.7071067811865478
 33
0.0
 40
0.0
 40
0.0
 40
0.0
 40
0.0
 40
0.0647590235174572
 40
0.127800725789677
 40
0.1925678503466343
 40
0.1925678503466343
 40
0.1925678503466343
 40
0.1925678503466343
 10
895.3604472073799
 20
262.0862366775394
 30
0.0
 10
895.3820335485522
 20
262.0862366775394
 30
0.0
 10
895.4248790674638
 20
262.0808319583998
 30
0.0
 10
895.4848290520212
 20
262.0560010871599
 30
0.0
 10
895.5189498393222
 20
262.0295252114968
 30
0.0
 10
895.5342155969796
 20
262.0142594538394
 30
0.0
 11
895.3604472073799
 21
262.0862366775394
 31
0.0
 11
895.4246694258797
 21
262.0779157534392
 31
0.0
 11
895.4829127752798
 21
262.0537917306395
 31
0.0
 11
895.5342155969796
 21
262.0142594538394
 31
0.0
  0
SPLINE
  5
BE76
330
1E
100
AcDbEntity
  8
0
  6
Continuous
 62
     7
100
AcDbSpline
210
0.0
220
0.0
230
1.0
 70
     8
 71
     3
 72
    10
 73
     6
 74
     4
 42
0.0000000001
 43
0.0000000001
 44
0.0000000001
 12
0.7071067811865478
 22
0.7071067811865475
 32
0.0
 13
1.0
 23
-0.0000000000000002
 33
0.0
 40
0.0
 40
0.0
 40
0.0
 40
0.0
 40
0.0647590235805955
 40
0.1278007258207254
 40
0.1925678503564833
 40
0.1925678503564833
 40
0.1925678503564833
 40
0.1925678503564833
 10
851.6860980935799
 20
262.0142594538394
 30
0.0
 10
851.7013619418188
 20
262.0295233020783
 30
0.0
 10
851.7354800123305
 20
262.0559979455161
 30
0.0
 10
851.7954291303844
 20
262.0808309087015
 30
0.0
 10
851.8382774416679
 20
262.0862366775394
 30
0.0
 10
851.8598664831797
 20
262.0862366775394
 30
0.0
 11
851.6860980935799
 21
262.0142594538394
 31
0.0
 11
851.7373938416799
 21
262.0537876382394
 31
0.0
 11
851.7956363690798
 21
262.0779136454392
 31
0.0
 11
851.8598664831797
 21
262.0862366775394
 31
0.0
  0
SPLINE
  5
BE77
330
1E
100
AcDbEntity
  8
0
  6
Continuous
 62
     7
100
AcDbSpline
210
0.0
220
0.0
230
1.0
 70
     8
 71
     3
 72
    10
 73
     6
 74
     4
 42
0.0000000001
 43
0.0000000001
 44
0.0000000001
 12
0.0000000000000002
 22
1.0
 32
0.0
 13
0.7071067811865478
 23
0.7071067811865475
 33
0.0
 40
0.0
 40
0.0
 40
0.0
 40
0.0
 40
0.0647590235176535
 40
0.1278007257897503
 40
0.1925678503467075
 40
0.1925678503467075
 40
0.1925678503467075
 40
0.1925678503467075
 10
850.2601568452799
 20
260.4865270396393
 30
0.0
 10
850.2601568452799
 20
260.5081133808119
 30
0.0
 10
850.2655615644192
 20
260.5509588997234
 30
0.0
 10
850.2903924356594
 20
260.6109088842806
 30
0.0
 10
850.3168683113225
 20
260.6450296715818
 30
0.0
 10
850.3321340689799
 20
260.6602954292392
 30
0.0
 11
850.2601568452799
 21
260.4865270396393
 31
0.0
 11
850.2684777693797
 21
260.5507492581395
 31
0.0
 11
850.2926017921797
 21
260.6089926075394
 31
0.0
 11
850.3321340689799
 21
260.6602954292392
 31
0.0
  0
LINE
  5
BE80
330
1E
100
AcDbEntity
  8
虛線
  6
DASHED
100
AcDbLine
 10
832.3601568452797
 20
268.2362366775859
 30
0.0
 11
832.3601568452797
 21
231.3362366775858
 31
0.0
  0
LINE
  5
BE81
330
1E
100
AcDbEntity
  8
虛線
  6
DASHED
100
AcDbLine
 10
814.6101568452797
 20
268.2362366775859
 30
0.0
 11
832.3601568452797
 21
268.2362366775859
 31
0.0
  0
LINE
  5
BE88
330
1E
100
AcDbEntity
  8
中心線
 48
0.4
100
AcDbLine
 10
823.6101568452797
 20
285.2362366775395
 30
0.0
 11
823.6101568452797
 21
231.1535663097478
 31
0.0
  0
LINE
  5
BE89
330
1E
100
AcDbEntity
  8
虛線
  6
DASHED
100
AcDbLine
 10
929.6101568452799
 20
282.6112366775855
 30
0.0
 11
929.6101568452797
 21
268.2362366775859
 31
0.0
  0
LINE
  5
BE8A
330
1E
100
AcDbEntity
  8
虛線
  6
DASHED
100
AcDbLine
 10
917.6101568452798
 20
282.6112366775855
 30
0.0
 11
917.6101568452798
 21
268.2362366775859
 31
0.0
  0
LINE
  5
BE8D
330
1E
100
AcDbEntity
  8
虛線
  6
DASHED
100
AcDbLine
 10
914.8601568452798
 20
268.2362366775859
 30
0.0
 11
914.8601568452798
 21
231.3362366775858
 31
0.0
  0
LINE
  5
BE8E
330
1E
100
AcDbEntity
  8
虛線
  6
DASHED
100
AcDbLine
 10
933.6101568452798
 20
268.2362366775859
 30
0.0
 11
914.8601568452798
 21
268.2362366775859
 31
0.0
  0
LINE
  5
BE8F
330
1E
100
AcDbEntity
  8
虛線
  6
DASHED
100
AcDbLine
 10
918.4851568452797
 20
281.7362366775859
 30
0.0
 11
928.7351568452798
 21
281.7362366775859
 31
0.0
  0
LINE
  5
BE90
330
1E
100
AcDbEntity
  8
虛線
  6
DASHED
100
AcDbLine
 10
928.7351568452798
 20
281.7362366775859
 30
0.0
 11
930.2351568452339
 21
283.2362366775391
 31
0.0
  0
LINE
  5
BE91
330
1E
100
AcDbEntity
  8
虛線
  6
DASHED
100
AcDbLine
 10
918.4851568452797
 20
281.7362366775859
 30
0.0
 11
916.9851568453253
 21
283.2362366775395
 31
0.0
  0
LINE
  5
BE95
330
1E
100
AcDbEntity
  8
中心線
 48
0.4
100
AcDbLine
 10
923.6101568452799
 20
285.2362366775395
 30
0.0
 11
923.6101568452797
 21
231.1535663097478
 31
0.0
  0
LINE
  5
BE96
330
1E
100
AcDbEntity
  8
虛線
  6
DASHED
100
AcDbLine
 10
868.4851568452796
 20
281.7362366775833
 30
0.0
 11
878.7351568452798
 21
281.7362366775842
 31
0.0
  0
LINE
  5
BE97
330
1E
100
AcDbEntity
  8
虛線
  6
DASHED
100
AcDbLine
 10
879.6101568452812
 20
282.6112366775851
 30
0.0
 11
879.610156845281
 21
272.5362366775838
 31
0.0
  0
LINE
  5
BE99
330
1E
100
AcDbEntity
  8
虛線
  6
DASHED
100
AcDbLine
 10
878.7351568452798
 20
281.7362366775842
 30
0.0
 11
880.2351568452358
 21
283.2362366775395
 31
0.0
  0
LINE
  5
BE9C
330
1E
100
AcDbEntity
  8
虛線
  6
DASHED
100
AcDbLine
 10
867.6101568452791
 20
282.6112366775399
 30
0.0
 11
867.6101568452795
 21
272.5362366775838
 31
0.0
  0
LINE
  5
BE9E
330
1E
100
AcDbEntity
  8
虛線
  6
DASHED
100
AcDbLine
 10
868.4851568452797
 20
281.7362366775395
 30
0.0
 11
866.9851568452793
 21
283.2362366775395
 31
0.0
  0
LINE
  5
BEA0
330
1E
100
AcDbEntity
  8
虛線
  6
DASHED
100
AcDbLine
 10
864.8601568452797
 20
272.5362366775838
 30
0.0
 11
882.3601568452797
 21
272.5362366775838
 31
0.0
  0
LINE
  5
BEA5
330
1E
100
AcDbEntity
  8
中心線
 48
0.4
100
AcDbLine
 10
871.1101568452798
 20
273.2362366775395
 30
0.0
 11
876.1101568452797
 21
273.2362366775395
 31
0.0
  0
LINE
  5
BEA6
330
1E
100
AcDbEntity
  8
中心線
 48
0.4
100
AcDbLine
 10
873.6101568452797
 20
270.7362366775395
 30
0.0
 11
873.6101568452797
 21
275.7362366775395
 31
0.0
  0
LINE
  5
BEA7
330
1E
100
AcDbEntity
  8
中心線
 48
0.4
100
AcDbLine
 10
873.6101568452797
 20
285.2362366775395
 30
0.0
 11
873.6101568452799
 21
221.2362366775395
 31
0.0
  0
LINE
  5
BEA8
330
1E
100
AcDbEntity
  8
虛線
 48
0.4
100
AcDbLine
 10
863.6101568452788
 20
244.2362366775413
 30
0.0
 11
883.6101568452788
 21
244.2362366775413
 31
0.0
  0
LINE
  5
BEA9
330
1E
100
AcDbEntity
  8
虛線
 48
0.4
100
AcDbLine
 10
863.6101568452788
 20
260.8362366775413
 30
0.0
 11
883.6101568452788
 21
260.8362366775413
 31
0.0
  0
LINE
  5
BEAA
330
1E
100
AcDbEntity
  8
虛線
 48
0.4
100
AcDbLine
 10
866.6101568452788
 20
243.9362366775412
 30
0.0
 11
880.6101568452788
 21
243.9362366775412
 31
0.0
  0
LINE
  5
BEAB
330
1E
100
AcDbEntity
  8
虛線
 48
0.4
100
AcDbLine
 10
866.6101568452788
 20
243.9362366775412
 30
0.0
 11
866.6101568452788
 21
223.9362366775416
 31
0.0
  0
LINE
  5
BEAC
330
1E
100
AcDbEntity
  8
虛線
 48
0.4
100
AcDbLine
 10
863.6101568452788
 20
260.8362366775413
 30
0.0
 11
863.6101568452788
 21
244.2362366775413
 31
0.0
  0
LINE
  5
BEAD
330
1E
100
AcDbEntity
  8
虛線
 48
0.4
100
AcDbLine
 10
866.6101568452786
 20
243.9362366775412
 30
0.0
 11
866.3101568452786
 21
244.2362366775413
 31
0.0
  0
LINE
  5
BEAE
330
1E
100
AcDbEntity
  8
虛線
 48
0.4
100
AcDbLine
 10
863.6101568452787
 20
260.8362366775413
 30
0.0
 11
863.3792167376043
 21
261.2362366775391
 31
0.0
  0
LINE
  5
BEAF
330
1E
100
AcDbEntity
  8
虛線
 48
0.4
100
AcDbLine
 10
880.6101568452788
 20
243.9362366775412
 30
0.0
 11
880.6101568452788
 21
223.9362366775416
 31
0.0
  0
LINE
  5
BEB0
330
1E
100
AcDbEntity
  8
虛線
 48
0.4
100
AcDbLine
 10
883.6101568452788
 20
260.8362366775413
 30
0.0
 11
883.6101568452788
 21
244.2362366775413
 31
0.0
  0
LINE
  5
BEB1
330
1E
100
AcDbEntity
  8
虛線
 48
0.4
100
AcDbLine
 10
880.6101568452788
 20
243.9362366775412
 30
0.0
 11
880.9101568452788
 21
244.2362366775413
 31
0.0
  0
LINE
  5
BEB2
330
1E
100
AcDbEntity
  8
虛線
 48
0.4
100
AcDbLine
 10
883.6101568452788
 20
260.8362366775413
 30
0.0
 11
883.8410969529537
 21
261.2362366775395
 31
0.0
  0
LINE
  5
BEB3
330
1E
100
AcDbEntity
  8
虛線
 48
0.4
100
AcDbLine
 10
866.6101568452759
 20
223.9362366775416
 30
0.0
 11
880.6101568452758
 21
223.9362366775416
 31
0.0
  0
LINE
  5
BEB4
330
1E
100
AcDbEntity
  8
虛線
 48
0.4
100
AcDbLine
 10
866.6101568452759
 20
223.9362366775416
 30
0.0
 11
865.910156845274
 21
223.2362366775395
 31
0.0
  0
LINE
  5
BEB5
330
1E
100
AcDbEntity
  8
虛線
 48
0.4
100
AcDbLine
 10
880.6101568452842
 20
223.9362366775416
 30
0.0
 11
881.3101568452859
 21
223.2362366775395
 31
0.0
  0
ARC
  5
BEB6
330
1E
100
AcDbEntity
  8
標註線
  6
Continuous
 62
     1
100
AcDbCircle
 10
1141.899212783968
 20
463.3964871758283
 30
0.0
 40
6.0
100
AcDbArc
 50
180.0
 51
90.0
  0
ARC
  5
BEBC
330
1E
100
AcDbEntity
  8
0
100
AcDbCircle
 10
1105.920221125023
 20
448.2107471740126
 30
0.0
 40
2.258017748891656
100
AcDbArc
 50
105.9630221688284
 51
179.0723572120041
  0
LINE
  5
BEBD
330
1E
100
AcDbEntity
  8
0
100
AcDbLine
 10
1103.662499316458
 20
445.5456705169788
 30
0.0
 11
1103.662499316458
 21
448.2473038346807
 31
0.0
  0
ARC
  5
BEBE
330
1E
100
AcDbEntity
  8
0
100
AcDbCircle
 10
1105.920221125023
 20
445.582227177646
 30
0.0
 40
2.258017748891656
100
AcDbArc
 50
180.9276427879959
 51
254.0369778311716
  0
ARC
  5
BEBF
330
1E
100
AcDbEntity
  8
0
100
AcDbCircle
 10
1105.920221125023
 20
381.2107471740126
 30
0.0
 40
2.258017748891656
100
AcDbArc
 50
105.9630221688284
 51
179.0723572120041
  0
LINE
  5
BEC0
330
1E
100
AcDbEntity
  8
0
100
AcDbLine
 10
1103.662499316458
 20
378.5456705169788
 30
0.0
 11
1103.662499316458
 21
381.2473038346807
 31
0.0
  0
ARC
  5
BEC1
330
1E
100
AcDbEntity
  8
0
100
AcDbCircle
 10
1105.920221125023
 20
378.582227177646
 30
0.0
 40
2.258017748891656
100
AcDbArc
 50
180.9276427879959
 51
254.0369778311716
  0
ARC
  5
BEC2
330
1E
100
AcDbEntity
  8
0
100
AcDbCircle
 10
1257.87823496049
 20
448.2107471740126
 30
0.0
 40
2.258017748891656
100
AcDbArc
 50
0.9276427879959022
 51
74.03697783117156
  0
LINE
  5
BEC3
330
1E
100
AcDbEntity
  8
0
100
AcDbLine
 10
1260.135956769055
 20
445.5456705169788
 30
0.0
 11
1260.135956769055
 21
448.2473038346807
 31
0.0
  0
ARC
  5
BEC4
330
1E
100
AcDbEntity
  8
0
100
AcDbCircle
 10
1257.87823496049
 20
445.582227177646
 30
0.0
 40
2.258017748891656
100
AcDbArc
 50
285.9630221688284
 51
359.0723572120041
  0
ARC
  5
BEC5
330
1E
100
AcDbEntity
  8
0
100
AcDbCircle
 10
1257.87823496049
 20
381.2107471740126
 30
0.0
 40
2.258017748891656
100
AcDbArc
 50
0.9276427879959022
 51
74.03697783117156
  0
LINE
  5
BEC6
330
1E
100
AcDbEntity
  8
0
100
AcDbLine
 10
1260.135956769055
 20
378.5456705169788
 30
0.0
 11
1260.135956769055
 21
381.2473038346807
 31
0.0
  0
ARC
  5
BEC7
330
1E
100
AcDbEntity
  8
0
100
AcDbCircle
 10
1257.87823496049
 20
378.582227177646
 30
0.0
 40
2.258017748891656
100
AcDbArc
 50
285.9630221688284
 51
359.0723572120041
  0
LINE
  5
BEC8
330
1E
100
AcDbEntity
  8
0
100
AcDbLine
 10
1258.499228035057
 20
455.3964871758291
 30
0.0
 11
1258.499228035057
 21
371.3964871758292
 31
0.0
  0
LINE
  5
BEC9
330
1E
100
AcDbEntity
  8
0
100
AcDbLine
 10
1001.899228042757
 20
435.8964871758294
 30
0.0
 11
1105.299228050457
 21
435.8964871758294
 31
0.0
  0
LINE
  5
BECA
330
1E
100
AcDbEntity
  8
0
100
AcDbLine
 10
1258.499228035057
 20
435.8964871758294
 30
0.0
 11
1361.899228042757
 21
435.8964871758294
 31
0.0
  0
LINE
  5
BECB
330
1E
100
AcDbEntity
  8
0
100
AcDbLine
 10
1001.899228042757
 20
390.8964871758294
 30
0.0
 11
1105.299228050457
 21
390.8964871758294
 31
0.0
  0
LINE
  5
BECC
330
1E
100
AcDbEntity
  8
0
100
AcDbLine
 10
1258.499228035057
 20
390.8964871758294
 30
0.0
 11
1361.899228042757
 21
390.8964871758294
 31
0.0
  0
LINE
  5
BECD
330
1E
100
AcDbEntity
  8
0
100
AcDbLine
 10
1361.899228042757
 20
435.8964871758294
 30
0.0
 11
1361.899228042757
 21
390.8964871758294
 31
0.0
  0
LINE
  5
BECE
330
1E
100
AcDbEntity
  8
0
100
AcDbLine
 10
1001.899228042757
 20
435.8964871758294
 30
0.0
 11
1001.899228042757
 21
390.8964871758294
 31
0.0
  0
LINE
  5
BECF
330
1E
100
AcDbEntity
  8
中心線
 48
0.4
100
AcDbLine
 10
1063.923649343393
 20
413.3964871758293
 30
0.0
 11
1089.874806742121
 21
413.3964871758293
 31
0.0
  0
CIRCLE
  5
BED0
330
1E
100
AcDbEntity
  8
0
100
AcDbCircle
 10
1076.899228042757
 20
413.3964871758293
 30
0.0
 40
10.0
  0
CIRCLE
  5
BED1
330
1E
100
AcDbEntity
  8
0
100
AcDbCircle
 10
1076.899228042757
 20
413.3964871758293
 30
0.0
 40
7.0
  0
LINE
  5
BED2
330
1E
100
AcDbEntity
  8
中心線
 48
0.4
100
AcDbLine
 10
1024.399228042757
 20
426.3720658751931
 30
0.0
 11
1024.399228042756
 21
400.4209084764656
 31
0.0
  0
LINE
  5
BED3
330
1E
100
AcDbEntity
  8
中心線
 48
0.4
100
AcDbLine
 10
1011.423649343393
 20
413.3964871758293
 30
0.0
 11
1037.374806742121
 21
413.3964871758293
 31
0.0
  0
CIRCLE
  5
BED4
330
1E
100
AcDbEntity
  8
0
100
AcDbCircle
 10
1024.399228042757
 20
413.3964871758293
 30
0.0
 40
10.0
  0
CIRCLE
  5
BED5
330
1E
100
AcDbEntity
  8
0
100
AcDbCircle
 10
1024.399228042757
 20
413.3964871758293
 30
0.0
 40
7.0
  0
LINE
  5
BED6
330
1E
100
AcDbEntity
  8
中心線
 48
0.4
100
AcDbLine
 10
1286.899228042757
 20
426.3720658751931
 30
0.0
 11
1286.899228042757
 21
400.4209084764656
 31
0.0
  0
LINE
  5
BED7
330
1E
100
AcDbEntity
  8
中心線
 48
0.4
100
AcDbLine
 10
1299.87480674212
 20
413.3964871758293
 30
0.0
 11
1273.923649343393
 21
413.3964871758293
 31
0.0
  0
CIRCLE
  5
BED8
330
1E
100
AcDbEntity
  8
0
100
AcDbCircle
 10
1286.899228042757
 20
413.3964871758293
 30
0.0
 40
10.0
  0
CIRCLE
  5
BED9
330
1E
100
AcDbEntity
  8
0
100
AcDbCircle
 10
1286.899228042757
 20
413.3964871758293
 30
0.0
 40
7.0
  0
LINE
  5
BEDA
330
1E
100
AcDbEntity
  8
中心線
 48
0.4
100
AcDbLine
 10
1339.399228042757
 20
426.3720658751931
 30
0.0
 11
1339.399228042757
 21
400.4209084764656
 31
0.0
  0
LINE
  5
BEDB
330
1E
100
AcDbEntity
  8
中心線
 48
0.4
100
AcDbLine
 10
1352.37480674212
 20
413.3964871758293
 30
0.0
 11
1326.423649343393
 21
413.3964871758293
 31
0.0
  0
CIRCLE
  5
BEDC
330
1E
100
AcDbEntity
  8
0
100
AcDbCircle
 10
1339.399228042757
 20
413.3964871758293
 30
0.0
 40
10.0
  0
CIRCLE
  5
BEDD
330
1E
100
AcDbEntity
  8
0
100
AcDbCircle
 10
1339.399228042757
 20
413.3964871758293
 30
0.0
 40
7.0
  0
LINE
  5
BEDE
330
1E
100
AcDbEntity
  8
0
100
AcDbLine
 10
1361.899228042757
 20
261.2362366775396
 30
0.0
 11
1361.899228042757
 21
223.2362366775396
 31
0.0
  0
LINE
  5
BEDF
330
1E
100
AcDbEntity
  8
0
100
AcDbLine
 10
1001.899228042757
 20
261.2362366775396
 30
0.0
 11
1001.899228042757
 21
223.2362366775396
 31
0.0
  0
LINE
  5
BEE0
330
1E
100
AcDbEntity
  8
中心線
 48
0.4
100
AcDbLine
 10
1286.899228042757
 20
263.2362366775396
 30
0.0
 11
1286.899228042757
 21
221.2362366775396
 31
0.0
  0
LINE
  5
BEE1
330
1E
100
AcDbEntity
  8
中心線
 48
0.4
100
AcDbLine
 10
1234.399228042757
 20
231.2362366774396
 30
0.0
 11
1234.399228042757
 21
221.2362366775396
 31
0.0
  0
LINE
  5
BEE2
330
1E
100
AcDbEntity
  8
中心線
 48
0.4
100
AcDbLine
 10
1181.899228042757
 20
231.2362366774396
 30
0.0
 11
1181.899228042756
 21
221.2362366775396
 31
0.0
  0
LINE
  5
BEE3
330
1E
100
AcDbEntity
  8
中心線
 48
0.4
100
AcDbLine
 10
1129.399228042757
 20
231.2362366774396
 30
0.0
 11
1129.399228042757
 21
221.2362366775396
 31
0.0
  0
LINE
  5
BEE4
330
1E
100
AcDbEntity
  8
中心線
 48
0.4
100
AcDbLine
 10
1076.899228042757
 20
263.2362366775396
 30
0.0
 11
1076.899228042757
 21
221.2362366775396
 31
0.0
  0
LINE
  5
BEE5
330
1E
100
AcDbEntity
  8
虛線
 48
0.4
100
AcDbLine
 10
1276.899228042756
 20
244.2362366775415
 30
0.0
 11
1296.899228042756
 21
244.2362366775415
 31
0.0
  0
LINE
  5
BEE6
330
1E
100
AcDbEntity
  8
虛線
 48
0.4
100
AcDbLine
 10
1276.899228042756
 20
260.8362366775416
 30
0.0
 11
1296.899228042756
 21
260.8362366775416
 31
0.0
  0
LINE
  5
BEE7
330
1E
100
AcDbEntity
  8
虛線
 48
0.4
100
AcDbLine
 10
1279.899228042756
 20
243.9362366775415
 30
0.0
 11
1293.899228042756
 21
243.9362366775415
 31
0.0
  0
LINE
  5
BEE8
330
1E
100
AcDbEntity
  8
虛線
 48
0.4
100
AcDbLine
 10
1279.899228042756
 20
243.9362366775415
 30
0.0
 11
1279.899228042756
 21
223.9362366775417
 31
0.0
  0
LINE
  5
BEE9
330
1E
100
AcDbEntity
  8
虛線
 48
0.4
100
AcDbLine
 10
1276.899228042756
 20
260.8362366775416
 30
0.0
 11
1276.899228042756
 21
244.2362366775415
 31
0.0
  0
LINE
  5
BEEA
330
1E
100
AcDbEntity
  8
虛線
 48
0.4
100
AcDbLine
 10
1279.899228042756
 20
243.9362366775415
 30
0.0
 11
1279.599228042756
 21
244.2362366775415
 31
0.0
  0
LINE
  5
BEEB
330
1E
100
AcDbEntity
  8
虛線
 48
0.4
100
AcDbLine
 10
1276.899228042756
 20
260.8362366775416
 30
0.0
 11
1276.668287935081
 21
261.2362366775394
 31
0.0
  0
LINE
  5
BEEC
330
1E
100
AcDbEntity
  8
虛線
 48
0.4
100
AcDbLine
 10
1293.899228042756
 20
243.9362366775415
 30
0.0
 11
1293.899228042756
 21
223.9362366775417
 31
0.0
  0
LINE
  5
BEED
330
1E
100
AcDbEntity
  8
虛線
 48
0.4
100
AcDbLine
 10
1296.899228042756
 20
260.8362366775416
 30
0.0
 11
1296.899228042756
 21
244.2362366775415
 31
0.0
  0
LINE
  5
BEEE
330
1E
100
AcDbEntity
  8
虛線
 48
0.4
100
AcDbLine
 10
1293.899228042756
 20
243.9362366775415
 30
0.0
 11
1294.199228042756
 21
244.2362366775415
 31
0.0
  0
LINE
  5
BEEF
330
1E
100
AcDbEntity
  8
虛線
 48
0.4
100
AcDbLine
 10
1296.899228042756
 20
260.8362366775416
 30
0.0
 11
1297.130168150431
 21
261.2362366775396
 31
0.0
  0
LINE
  5
BEF0
330
1E
100
AcDbEntity
  8
虛線
 48
0.4
100
AcDbLine
 10
1279.899228042753
 20
223.9362366775417
 30
0.0
 11
1293.899228042753
 21
223.9362366775417
 31
0.0
  0
LINE
  5
BEF1
330
1E
100
AcDbEntity
  8
虛線
 48
0.4
100
AcDbLine
 10
1279.899228042753
 20
223.9362366775417
 30
0.0
 11
1279.199228042751
 21
223.2362366775399
 31
0.0
  0
LINE
  5
BEF2
330
1E
100
AcDbEntity
  8
虛線
 48
0.4
100
AcDbLine
 10
1293.899228042761
 20
223.9362366775417
 30
0.0
 11
1294.599228042763
 21
223.2362366775399
 31
0.0
  0
LINE
  5
BEF3
330
1E
100
AcDbEntity
  8
虛線
 48
0.4
100
AcDbLine
 10
1066.899228042756
 20
244.2362366775415
 30
0.0
 11
1086.899228042756
 21
244.2362366775415
 31
0.0
  0
LINE
  5
BEF4
330
1E
100
AcDbEntity
  8
虛線
 48
0.4
100
AcDbLine
 10
1066.899228042756
 20
260.8362366775416
 30
0.0
 11
1086.899228042756
 21
260.8362366775416
 31
0.0
  0
LINE
  5
BEF5
330
1E
100
AcDbEntity
  8
虛線
 48
0.4
100
AcDbLine
 10
1069.899228042756
 20
243.9362366775415
 30
0.0
 11
1083.899228042756
 21
243.9362366775415
 31
0.0
  0
LINE
  5
BEF6
330
1E
100
AcDbEntity
  8
虛線
 48
0.4
100
AcDbLine
 10
1069.899228042756
 20
243.9362366775415
 30
0.0
 11
1069.899228042756
 21
223.9362366775417
 31
0.0
  0
LINE
  5
BEF7
330
1E
100
AcDbEntity
  8
虛線
 48
0.4
100
AcDbLine
 10
1066.899228042756
 20
260.8362366775416
 30
0.0
 11
1066.899228042756
 21
244.2362366775415
 31
0.0
  0
LINE
  5
BEF8
330
1E
100
AcDbEntity
  8
虛線
 48
0.4
100
AcDbLine
 10
1069.899228042756
 20
243.9362366775415
 30
0.0
 11
1069.599228042756
 21
244.2362366775415
 31
0.0
  0
LINE
  5
BEF9
330
1E
100
AcDbEntity
  8
虛線
 48
0.4
100
AcDbLine
 10
1066.899228042756
 20
260.8362366775416
 30
0.0
 11
1066.668287935081
 21
261.2362366775394
 31
0.0
  0
LINE
  5
BEFA
330
1E
100
AcDbEntity
  8
虛線
 48
0.4
100
AcDbLine
 10
1083.899228042756
 20
243.9362366775415
 30
0.0
 11
1083.899228042756
 21
223.9362366775417
 31
0.0
  0
LINE
  5
BEFB
330
1E
100
AcDbEntity
  8
虛線
 48
0.4
100
AcDbLine
 10
1086.899228042756
 20
260.8362366775416
 30
0.0
 11
1086.899228042756
 21
244.2362366775415
 31
0.0
  0
LINE
  5
BEFC
330
1E
100
AcDbEntity
  8
虛線
 48
0.4
100
AcDbLine
 10
1083.899228042756
 20
243.9362366775415
 30
0.0
 11
1084.199228042756
 21
244.2362366775415
 31
0.0
  0
LINE
  5
BEFD
330
1E
100
AcDbEntity
  8
虛線
 48
0.4
100
AcDbLine
 10
1086.899228042756
 20
260.8362366775416
 30
0.0
 11
1087.130168150431
 21
261.2362366775396
 31
0.0
  0
LINE
  5
BEFE
330
1E
100
AcDbEntity
  8
虛線
 48
0.4
100
AcDbLine
 10
1069.899228042753
 20
223.9362366775417
 30
0.0
 11
1083.899228042753
 21
223.9362366775417
 31
0.0
  0
LINE
  5
BEFF
330
1E
100
AcDbEntity
  8
虛線
 48
0.4
100
AcDbLine
 10
1069.899228042753
 20
223.9362366775417
 30
0.0
 11
1069.199228042751
 21
223.2362366775399
 31
0.0
  0
LINE
  5
BF00
330
1E
100
AcDbEntity
  8
虛線
 48
0.4
100
AcDbLine
 10
1083.899228042761
 20
223.9362366775417
 30
0.0
 11
1084.599228042763
 21
223.2362366775399
 31
0.0
  0
LINE
  5
BF01
330
1E
100
AcDbEntity
  8
虛線
 48
0.4
100
AcDbLine
 10
1329.399228042756
 20
244.2362366775415
 30
0.0
 11
1349.399228042756
 21
244.2362366775415
 31
0.0
  0
LINE
  5
BF02
330
1E
100
AcDbEntity
  8
虛線
 48
0.4
100
AcDbLine
 10
1329.399228042756
 20
260.8362366775416
 30
0.0
 11
1349.399228042756
 21
260.8362366775416
 31
0.0
  0
LINE
  5
BF03
330
1E
100
AcDbEntity
  8
虛線
 48
0.4
100
AcDbLine
 10
1332.399228042756
 20
243.9362366775415
 30
0.0
 11
1346.399228042756
 21
243.9362366775415
 31
0.0
  0
LINE
  5
BF04
330
1E
100
AcDbEntity
  8
虛線
 48
0.4
100
AcDbLine
 10
1332.399228042756
 20
243.9362366775415
 30
0.0
 11
1332.399228042756
 21
223.9362366775417
 31
0.0
  0
LINE
  5
BF05
330
1E
100
AcDbEntity
  8
虛線
 48
0.4
100
AcDbLine
 10
1329.399228042756
 20
260.8362366775416
 30
0.0
 11
1329.399228042756
 21
244.2362366775415
 31
0.0
  0
LINE
  5
BF06
330
1E
100
AcDbEntity
  8
虛線
 48
0.4
100
AcDbLine
 10
1332.399228042756
 20
243.9362366775415
 30
0.0
 11
1332.099228042756
 21
244.2362366775415
 31
0.0
  0
LINE
  5
BF07
330
1E
100
AcDbEntity
  8
虛線
 48
0.4
100
AcDbLine
 10
1329.399228042756
 20
260.8362366775416
 30
0.0
 11
1329.168287935082
 21
261.2362366775394
 31
0.0
  0
LINE
  5
BF08
330
1E
100
AcDbEntity
  8
虛線
 48
0.4
100
AcDbLine
 10
1346.399228042756
 20
243.9362366775415
 30
0.0
 11
1346.399228042756
 21
223.9362366775417
 31
0.0
  0
LINE
  5
BF09
330
1E
100
AcDbEntity
  8
虛線
 48
0.4
100
AcDbLine
 10
1349.399228042756
 20
260.8362366775416
 30
0.0
 11
1349.399228042756
 21
244.2362366775415
 31
0.0
  0
LINE
  5
BF0A
330
1E
100
AcDbEntity
  8
虛線
 48
0.4
100
AcDbLine
 10
1346.399228042756
 20
243.9362366775415
 30
0.0
 11
1346.699228042756
 21
244.2362366775415
 31
0.0
  0
LINE
  5
BF0B
330
1E
100
AcDbEntity
  8
虛線
 48
0.4
100
AcDbLine
 10
1349.399228042756
 20
260.8362366775416
 30
0.0
 11
1349.630168150431
 21
261.2362366775396
 31
0.0
  0
LINE
  5
BF0C
330
1E
100
AcDbEntity
  8
虛線
 48
0.4
100
AcDbLine
 10
1332.399228042753
 20
223.9362366775417
 30
0.0
 11
1346.399228042753
 21
223.9362366775417
 31
0.0
  0
LINE
  5
BF0D
330
1E
100
AcDbEntity
  8
虛線
 48
0.4
100
AcDbLine
 10
1332.399228042753
 20
223.9362366775417
 30
0.0
 11
1331.699228042751
 21
223.2362366775399
 31
0.0
  0
LINE
  5
BF0E
330
1E
100
AcDbEntity
  8
虛線
 48
0.4
100
AcDbLine
 10
1346.399228042761
 20
223.9362366775417
 30
0.0
 11
1347.099228042763
 21
223.2362366775399
 31
0.0
  0
LINE
  5
BF0F
330
1E
100
AcDbEntity
  8
0
100
AcDbLine
 10
1014.399228042756
 20
244.2362366775415
 30
0.0
 11
1034.399228042756
 21
244.2362366775415
 31
0.0
  0
LINE
  5
BF10
330
1E
100
AcDbEntity
  8
0
100
AcDbLine
 10
1014.399228042756
 20
260.8362366775416
 30
0.0
 11
1034.399228042756
 21
260.8362366775416
 31
0.0
  0
LINE
  5
BF11
330
1E
100
AcDbEntity
  8
0
100
AcDbLine
 10
1017.399228042756
 20
243.9362366775415
 30
0.0
 11
1031.399228042755
 21
243.9362366775415
 31
0.0
  0
LINE
  5
BF12
330
1E
100
AcDbEntity
  8
0
100
AcDbLine
 10
1017.399228042756
 20
243.9362366775415
 30
0.0
 11
1017.399228042756
 21
223.9362366775417
 31
0.0
  0
LINE
  5
BF13
330
1E
100
AcDbEntity
  8
0
100
AcDbLine
 10
1014.399228042756
 20
260.8362366775416
 30
0.0
 11
1014.399228042756
 21
244.2362366775415
 31
0.0
  0
LINE
  5
BF14
330
1E
100
AcDbEntity
  8
0
100
AcDbLine
 10
1017.399228042755
 20
243.9362366775415
 30
0.0
 11
1017.099228042755
 21
244.2362366775415
 31
0.0
  0
LINE
  5
BF15
330
1E
100
AcDbEntity
  8
0
100
AcDbLine
 10
1014.399228042755
 20
260.8362366775416
 30
0.0
 11
1014.168287935081
 21
261.2362366775394
 31
0.0
  0
LINE
  5
BF16
330
1E
100
AcDbEntity
  8
0
100
AcDbLine
 10
1031.399228042755
 20
243.9362366775415
 30
0.0
 11
1031.399228042755
 21
223.9362366775417
 31
0.0
  0
LINE
  5
BF17
330
1E
100
AcDbEntity
  8
0
100
AcDbLine
 10
1034.399228042756
 20
260.8362366775416
 30
0.0
 11
1034.399228042756
 21
244.2362366775415
 31
0.0
  0
LINE
  5
BF18
330
1E
100
AcDbEntity
  8
0
100
AcDbLine
 10
1031.399228042755
 20
243.9362366775415
 30
0.0
 11
1031.699228042755
 21
244.2362366775415
 31
0.0
  0
LINE
  5
BF19
330
1E
100
AcDbEntity
  8
0
100
AcDbLine
 10
1034.399228042756
 20
260.8362366775416
 30
0.0
 11
1034.63016815043
 21
261.2362366775396
 31
0.0
  0
LINE
  5
BF1A
330
1E
100
AcDbEntity
  8
0
100
AcDbLine
 10
1017.399228042753
 20
223.9362366775417
 30
0.0
 11
1031.399228042753
 21
223.9362366775417
 31
0.0
  0
LINE
  5
BF1B
330
1E
100
AcDbEntity
  8
0
100
AcDbLine
 10
1017.399228042753
 20
223.9362366775417
 30
0.0
 11
1016.699228042751
 21
223.2362366775399
 31
0.0
  0
LINE
  5
BF1C
330
1E
100
AcDbEntity
  8
0
100
AcDbLine
 10
1031.399228042761
 20
223.9362366775417
 30
0.0
 11
1032.099228042763
 21
223.2362366775399
 31
0.0
  0
LINE
  5
BF1D
330
1E
100
AcDbEntity
  8
中心線
 48
0.4
100
AcDbLine
 10
1024.399228042756
 20
263.2362366775396
 30
0.0
 11
1024.399228042756
 21
221.2362366775396
 31
0.0
  0
LINE
  5
BF1E
330
1E
100
AcDbEntity
  8
中心線
 48
0.4
100
AcDbLine
 10
1339.399228042757
 20
263.2362366775396
 30
0.0
 11
1339.399228042757
 21
221.2362366775396
 31
0.0
  0
LINE
  5
BF1F
330
1E
100
AcDbEntity
  8
0
100
AcDbLine
 10
1103.899228050457
 20
268.2362593404707
 30
0.0
 11
1103.899228050457
 21
278.2362593404707
 31
0.0
  0
LINE
  5
BF20
330
1E
100
AcDbEntity
  8
中心線
 48
0.27
100
AcDbLine
 10
1090.227345550457
 20
273.2362593404707
 30
0.0
 11
1106.297424161255
 21
273.2362351765957
 31
0.0
  0
LINE
  5
BF21
330
1E
100
AcDbEntity
  8
0
 48
0.27
100
AcDbLine
 10
1099.213803050457
 20
268.2362593404707
 30
0.0
 11
1105.299228050457
 21
268.2362593404707
 31
0.0
  0
LINE
  5
BF22
330
1E
100
AcDbEntity
  8
0
 48
0.27
100
AcDbLine
 10
1105.299228050457
 20
278.2362593404707
 30
0.0
 11
1099.213803050457
 21
278.2362593404707
 31
0.0
  0
ARC
  5
BF23
330
1E
100
AcDbEntity
  8
0
 48
0.27
100
AcDbCircle
 10
1099.213803050457
 20
273.2362593404707
 30
0.0
 40
4.99999999999996
100
AcDbArc
 50
90.0
 51
131.4096219995944
  0
LWPOLYLINE
  5
BF24
330
1E
100
AcDbEntity
  8
0
 48
0.27
100
AcDbPolyline
 90
       31
 70
     0
 43
0.0
 10
1094.738331800457
 20
273.2362593404707
 10
1094.697309300457
 20
273.4990780904707
 10
1094.642125550457
 20
273.6309368404707
 10
1094.563334300457
 20
273.7531605904708
 10
1094.463989300457
 20
273.8583018404709
 10
1094.349625550457
 20
273.9406430904708
 10
1094.227225550457
 20
273.9972443404706
 10
1094.061430550457
 20
274.0334205904708
 10
1093.907669300457
 20
274.0300968404708
 10
1093.774014300457
 20
273.9982143404707
 10
1093.628758050457
 20
273.9285043404707
 10
1093.490545550457
 20
273.8166430904708
 10
1093.380258050457
 20
273.6734555904707
 10
1093.309465550457
 20
273.5236568404709
 10
1093.274651800457
 20
273.3940868404709
 10
1093.260125550457
 20
273.2362593404707
 10
1093.301148050457
 20
272.9734405904708
 10
1093.356333050457
 20
272.8415805904708
 10
1093.435123050457
 20
272.7193580904707
 10
1093.534468050457
 20
272.6142168404708
 10
1093.648831800457
 20
272.5318755904707
 10
1093.771231800457
 20
272.4752743404708
 10
1093.937026800457
 20
272.4390968404707
 10
1094.090788050457
 20
272.4424218404708
 10
1094.224443050457
 20
272.4743030904708
 10
1094.369699300457
 20
272.5440130904708
 10
1094.507911800457
 20
272.6558755904707
 10
1094.618199300457
 20
272.7990618404708
 10
1094.688991800457
 20
272.9488605904708
 10
1094.723806800457
 20
273.078431840471
 10
1094.738331800457
 20
273.2362593404707
  0
ARC
  5
BF25
330
1E
100
AcDbEntity
  8
0
 48
0.27
100
AcDbCircle
 10
1099.213803050457
 20
273.2362593404707
 30
0.0
 40
4.99999999999996
100
AcDbArc
 50
228.5903779972973
 51
270.0
  0
LINE
  5
BF26
330
1E
100
AcDbEntity
  8
0
 48
0.27
100
AcDbLine
 10
1094.804506800457
 20
276.9862593404707
 30
0.0
 11
1099.679226800457
 21
276.9862593404707
 31
0.0
  0
LINE
  5
BF27
330
1E
100
AcDbEntity
  8
0
 48
0.27
100
AcDbLine
 10
1094.496515550457
 20
270.0636680904708
 30
0.0
 11
1094.804506800457
 21
269.4862593404709
 31
0.0
  0
LINE
  5
BF28
330
1E
100
AcDbEntity
  8
0
 48
0.27
100
AcDbLine
 10
1094.804506800457
 20
276.9862593404707
 30
0.0
 11
1094.496515550457
 21
276.4088505904708
 31
0.0
  0
LINE
  5
BF29
330
1E
100
AcDbEntity
  8
0
 48
0.27
100
AcDbLine
 10
1100.805279300457
 20
273.2362593404707
 30
0.0
 11
1101.679484300457
 21
273.2362593404707
 31
0.0
  0
LINE
  5
BF2A
330
1E
100
AcDbEntity
  8
0
 48
0.27
100
AcDbLine
 10
1099.679226800457
 20
276.9862593404707
 30
0.0
 11
1101.679484300457
 21
273.2362593404707
 31
0.0
  0
LINE
  5
BF2B
330
1E
100
AcDbEntity
  8
0
 48
0.27
100
AcDbLine
 10
1099.679226800457
 20
269.4862593404709
 30
0.0
 11
1094.804506800457
 21
269.4862593404709
 31
0.0
  0
LINE
  5
BF2C
330
1E
100
AcDbEntity
  8
0
 48
0.27
100
AcDbLine
 10
1101.679484300457
 20
273.2362593404707
 30
0.0
 11
1099.679226800457
 21
269.4862593404709
 31
0.0
  0
LINE
  5
BF2D
330
1E
100
AcDbEntity
  8
0
 48
0.27
100
AcDbLine
 10
1094.955855550457
 20
276.3981768404708
 30
0.0
 11
1095.478939300457
 21
276.7008068404707
 31
0.0
  0
LINE
  5
BF2E
330
1E
100
AcDbEntity
  8
0
 48
0.27
100
AcDbLine
 10
1094.955855550457
 20
270.0743405904709
 30
0.0
 11
1095.478939300457
 21
269.7717105904708
 31
0.0
  0
LINE
  5
BF2F
330
1E
100
AcDbEntity
  8
0
 48
0.27
100
AcDbLine
 10
1095.478939300457
 20
276.7008068404707
 30
0.0
 11
1096.128864300457
 21
276.9142043404706
 31
0.0
  0
LINE
  5
BF30
330
1E
100
AcDbEntity
  8
0
 48
0.27
100
AcDbLine
 10
1095.478939300457
 20
269.7717105904708
 30
0.0
 11
1096.128864300457
 21
269.5583143404708
 31
0.0
  0
LINE
  5
BF31
330
1E
100
AcDbEntity
  8
0
 48
0.27
100
AcDbLine
 10
1096.128864300457
 20
276.9142043404706
 30
0.0
 11
1096.804764300457
 21
276.9862593404707
 31
0.0
  0
LINE
  5
BF32
330
1E
100
AcDbEntity
  8
0
 48
0.27
100
AcDbLine
 10
1096.128864300457
 20
269.5583143404708
 30
0.0
 11
1096.804764300457
 21
269.4862593404709
 31
0.0
  0
LINE
  5
BF33
330
1E
100
AcDbEntity
  8
0
 48
0.27
100
AcDbLine
 10
1096.804764300457
 20
276.9862593404707
 30
0.0
 11
1097.480664300457
 21
276.9142043404706
 31
0.0
  0
LINE
  5
BF34
330
1E
100
AcDbEntity
  8
0
 48
0.27
100
AcDbLine
 10
1096.804764300457
 20
269.4862593404709
 30
0.0
 11
1097.480664300457
 21
269.5583143404708
 31
0.0
  0
LINE
  5
BF35
330
1E
100
AcDbEntity
  8
0
 48
0.27
100
AcDbLine
 10
1097.480664300457
 20
276.9142043404706
 30
0.0
 11
1098.130589300457
 21
276.7008068404707
 31
0.0
  0
LINE
  5
BF36
330
1E
100
AcDbEntity
  8
0
 48
0.27
100
AcDbLine
 10
1097.480664300457
 20
269.5583143404708
 30
0.0
 11
1098.130589300457
 21
269.7717105904708
 31
0.0
  0
LINE
  5
BF37
330
1E
100
AcDbEntity
  8
0
 48
0.27
100
AcDbLine
 10
1098.130589300457
 20
276.7008068404707
 30
0.0
 11
1098.729564300457
 21
276.3542705904708
 31
0.0
  0
LINE
  5
BF38
330
1E
100
AcDbEntity
  8
0
 48
0.27
100
AcDbLine
 10
1098.130589300457
 20
269.7717105904708
 30
0.0
 11
1098.729564300457
 21
270.1182480904709
 31
0.0
  0
LINE
  5
BF39
330
1E
100
AcDbEntity
  8
0
 48
0.27
100
AcDbLine
 10
1098.729564300457
 20
276.3542705904708
 30
0.0
 11
1099.254569300457
 21
275.8879093404707
 31
0.0
  0
LINE
  5
BF3A
330
1E
100
AcDbEntity
  8
0
 48
0.27
100
AcDbLine
 10
1098.729564300457
 20
270.1182480904709
 30
0.0
 11
1099.254569300457
 21
270.5846080904708
 31
0.0
  0
LINE
  5
BF3B
330
1E
100
AcDbEntity
  8
0
 48
0.27
100
AcDbLine
 10
1098.805021800457
 20
276.9862593404707
 30
0.0
 11
1100.805279300457
 21
273.2362593404707
 31
0.0
  0
LINE
  5
BF3C
330
1E
100
AcDbEntity
  8
0
 48
0.27
100
AcDbLine
 10
1100.805279300457
 20
273.2362593404707
 30
0.0
 11
1098.805021800457
 21
269.4862593404709
 31
0.0
  0
LINE
  5
BF3D
330
1E
100
AcDbEntity
  8
0
 48
0.27
100
AcDbLine
 10
1099.254569300457
 20
275.8879093404707
 30
0.0
 11
1099.685430550457
 21
275.3196468404708
 31
0.0
  0
LINE
  5
BF3E
330
1E
100
AcDbEntity
  8
0
 48
0.27
100
AcDbLine
 10
1099.685430550457
 20
271.1528705904709
 30
0.0
 11
1099.254569300457
 21
270.5846080904708
 31
0.0
  0
LINE
  5
BF3F
330
1E
100
AcDbEntity
  8
0
 48
0.27
100
AcDbLine
 10
1099.685430550457
 20
275.3196468404708
 30
0.0
 11
1100.005589300457
 21
274.6713218404709
 31
0.0
  0
LINE
  5
BF40
330
1E
100
AcDbEntity
  8
0
 48
0.27
100
AcDbLine
 10
1100.005589300457
 20
271.8011955904708
 30
0.0
 11
1099.685430550457
 21
271.1528705904709
 31
0.0
  0
LINE
  5
BF41
330
1E
100
AcDbEntity
  8
0
 48
0.27
100
AcDbLine
 10
1100.005589300457
 20
274.6713218404709
 30
0.0
 11
1100.202741800457
 21
273.9678480904709
 31
0.0
  0
LINE
  5
BF42
330
1E
100
AcDbEntity
  8
0
 48
0.27
100
AcDbLine
 10
1100.202741800457
 20
272.5046705904708
 30
0.0
 11
1100.005589300457
 21
271.8011955904708
 31
0.0
  0
LINE
  5
BF43
330
1E
100
AcDbEntity
  8
0
 48
0.27
100
AcDbLine
 10
1100.202741800457
 20
273.9678480904709
 30
0.0
 11
1100.269311800457
 21
273.2362593404707
 31
0.0
  0
LINE
  5
BF44
330
1E
100
AcDbEntity
  8
0
 48
0.27
100
AcDbLine
 10
1100.269311800457
 20
273.2362593404707
 30
0.0
 11
1100.202741800457
 21
272.5046705904708
 31
0.0
  0
LINE
  5
BF45
330
1E
100
AcDbEntity
  8
0
 48
0.27
100
AcDbLine
 10
1093.174893050457
 20
275.2865430904708
 30
0.0
 11
1093.178606800457
 21
275.2845243404709
 31
0.0
  0
LINE
  5
BF46
330
1E
100
AcDbEntity
  8
0
 48
0.27
100
AcDbLine
 10
1093.174893050457
 20
271.1859743404709
 30
0.0
 11
1093.178606800457
 21
271.1879943404708
 31
0.0
  0
LINE
  5
BF47
330
1E
100
AcDbEntity
  8
0
 48
0.27
100
AcDbLine
 10
1091.784005550457
 20
273.8589368404707
 30
0.0
 11
1091.727345550457
 21
273.2362593404707
 31
0.0
  0
LINE
  5
BF48
330
1E
100
AcDbEntity
  8
0
 48
0.27
100
AcDbLine
 10
1091.951808050457
 20
274.4576843404709
 30
0.0
 11
1091.784005550457
 21
273.8589368404707
 31
0.0
  0
LINE
  5
BF49
330
1E
100
AcDbEntity
  8
0
 48
0.27
100
AcDbLine
 10
1091.727345550457
 20
273.2362593404707
 30
0.0
 11
1091.784005550457
 21
272.6135818404707
 31
0.0
  0
LINE
  5
BF4A
330
1E
100
AcDbEntity
  8
0
 48
0.27
100
AcDbLine
 10
1092.224304300457
 20
275.0094943404708
 30
0.0
 11
1091.951808050457
 21
274.4576843404709
 31
0.0
  0
LINE
  5
BF4B
330
1E
100
AcDbEntity
  8
0
 48
0.27
100
AcDbLine
 10
1091.784005550457
 20
272.6135818404707
 30
0.0
 11
1091.951808050457
 21
272.0148330904708
 31
0.0
  0
LINE
  5
BF4C
330
1E
100
AcDbEntity
  8
0
 48
0.27
100
AcDbLine
 10
1092.591024300457
 20
275.4931593404708
 30
0.0
 11
1092.224304300457
 21
275.0094943404708
 31
0.0
  0
LINE
  5
BF4D
330
1E
100
AcDbEntity
  8
0
 48
0.27
100
AcDbLine
 10
1091.951808050457
 20
272.0148330904708
 30
0.0
 11
1092.224304300457
 21
271.4630243404708
 31
0.0
  0
LINE
  5
BF4E
330
1E
100
AcDbEntity
  8
0
 48
0.27
100
AcDbLine
 10
1092.591024300457
 20
275.4931593404708
 30
0.0
 11
1093.037871800457
 21
275.8900930904708
 31
0.0
  0
LINE
  5
BF4F
330
1E
100
AcDbEntity
  8
0
 48
0.27
100
AcDbLine
 10
1092.224304300457
 20
271.4630243404708
 30
0.0
 11
1092.591024300457
 21
270.9793593404709
 31
0.0
  0
LINE
  5
BF50
330
1E
100
AcDbEntity
  8
0
 48
0.27
100
AcDbLine
 10
1091.969884300457
 20
273.6731793404708
 30
0.0
 11
1091.930126800457
 21
273.2362593404707
 31
0.0
  0
LINE
  5
BF51
330
1E
100
AcDbEntity
  8
0
 48
0.27
100
AcDbLine
 10
1092.087628050457
 20
274.0933093404708
 30
0.0
 11
1091.969884300457
 21
273.6731793404708
 31
0.0
  0
LINE
  5
BF52
330
1E
100
AcDbEntity
  8
0
 48
0.27
100
AcDbLine
 10
1091.930126800457
 20
273.2362593404707
 30
0.0
 11
1091.969884300457
 21
272.7993393404708
 31
0.0
  0
LINE
  5
BF53
330
1E
100
AcDbEntity
  8
0
 48
0.27
100
AcDbLine
 10
1092.278833050457
 20
274.4805030904708
 30
0.0
 11
1092.087628050457
 21
274.0933093404708
 31
0.0
  0
LINE
  5
BF54
330
1E
100
AcDbEntity
  8
0
 48
0.27
100
AcDbLine
 10
1091.969884300457
 20
272.7993393404708
 30
0.0
 11
1092.087628050457
 21
272.3792093404709
 31
0.0
  0
LINE
  5
BF55
330
1E
100
AcDbEntity
  8
0
 48
0.27
100
AcDbLine
 10
1093.037871800457
 20
275.8900930904708
 30
0.0
 11
1093.547678050457
 21
276.1850418404709
 31
0.0
  0
LINE
  5
BF56
330
1E
100
AcDbEntity
  8
0
 48
0.27
100
AcDbLine
 10
1092.591024300457
 20
270.9793593404709
 30
0.0
 11
1093.037871800457
 21
270.5824255904708
 31
0.0
  0
LINE
  5
BF57
330
1E
100
AcDbEntity
  8
0
 48
0.27
100
AcDbLine
 10
1092.536153050457
 20
274.8198805904708
 30
0.0
 11
1092.278833050457
 21
274.4805030904708
 31
0.0
  0
LINE
  5
BF58
330
1E
100
AcDbEntity
  8
0
 48
0.27
100
AcDbLine
 10
1092.087628050457
 20
272.3792093404709
 30
0.0
 11
1092.278833050457
 21
271.9920155904708
 31
0.0
  0
LINE
  5
BF59
330
1E
100
AcDbEntity
  8
0
 48
0.27
100
AcDbLine
 10
1093.547678050457
 20
276.1850418404709
 30
0.0
 11
1094.100849300457
 21
276.3666693404707
 31
0.0
  0
LINE
  5
BF5A
330
1E
100
AcDbEntity
  8
0
 48
0.27
100
AcDbLine
 10
1093.037871800457
 20
270.5824255904708
 30
0.0
 11
1093.547678050457
 21
270.2874768404708
 31
0.0
  0
LINE
  5
BF5B
330
1E
100
AcDbEntity
  8
0
 48
0.27
100
AcDbLine
 10
1092.536153050457
 20
274.8198805904708
 30
0.0
 11
1092.849696800457
 21
275.0984018404708
 31
0.0
  0
LINE
  5
BF5C
330
1E
100
AcDbEntity
  8
0
 48
0.27
100
AcDbLine
 10
1092.278833050457
 20
271.9920155904708
 30
0.0
 11
1092.536153050457
 21
271.6526368404709
 31
0.0
  0
LINE
  5
BF5D
330
1E
100
AcDbEntity
  8
0
 48
0.27
100
AcDbLine
 10
1094.100849300457
 20
276.3666693404707
 30
0.0
 11
1094.676128050457
 21
276.4279980904707
 31
0.0
  0
LINE
  5
BF5E
330
1E
100
AcDbEntity
  8
0
 48
0.27
100
AcDbLine
 10
1093.547678050457
 20
270.2874768404708
 30
0.0
 11
1094.100849300457
 21
270.1058480904708
 31
0.0
  0
LINE
  5
BF5F
330
1E
100
AcDbEntity
  8
0
 48
0.27
100
AcDbLine
 10
1092.849696800457
 20
275.0984018404708
 30
0.0
 11
1093.207418050457
 21
275.3053605904709
 31
0.0
  0
LINE
  5
BF60
330
1E
100
AcDbEntity
  8
0
 48
0.27
100
AcDbLine
 10
1092.536153050457
 20
271.6526368404709
 30
0.0
 11
1092.849696800457
 21
271.3741168404709
 31
0.0
  0
LINE
  5
BF61
330
1E
100
AcDbEntity
  8
0
 48
0.27
100
AcDbLine
 10
1095.431951800457
 20
276.3324855904709
 30
0.0
 11
1095.979081800457
 21
276.1528405904708
 31
0.0
  0
LINE
  5
BF62
330
1E
100
AcDbEntity
  8
0
 48
0.27
100
AcDbLine
 10
1093.207418050457
 20
275.3053605904709
 30
0.0
 11
1093.595566800457
 21
275.4328055904709
 31
0.0
  0
LINE
  5
BF63
330
1E
100
AcDbEntity
  8
0
 48
0.27
100
AcDbLine
 10
1092.849696800457
 20
271.3741168404709
 30
0.0
 11
1093.207418050457
 21
271.1671568404709
 31
0.0
  0
LINE
  5
BF64
330
1E
100
AcDbEntity
  8
0
 48
0.27
100
AcDbLine
 10
1095.251406800457
 20
276.3666693404707
 30
0.0
 11
1095.431951800457
 21
276.3324855904709
 31
0.0
  0
LINE
  5
BF65
330
1E
100
AcDbEntity
  8
0
 48
0.27
100
AcDbLine
 10
1094.676128050457
 20
276.4279980904707
 30
0.0
 11
1095.251406800457
 21
276.3666693404707
 31
0.0
  0
LINE
  5
BF66
330
1E
100
AcDbEntity
  8
0
 48
0.27
100
AcDbLine
 10
1094.100849300457
 20
270.1058480904708
 30
0.0
 11
1094.676128050457
 21
270.0445205904709
 31
0.0
  0
LINE
  5
BF67
330
1E
100
AcDbEntity
  8
0
 48
0.27
100
AcDbLine
 10
1095.979081800457
 20
276.1528405904708
 30
0.0
 11
1096.483320550457
 21
275.8611130904708
 31
0.0
  0
LINE
  5
BF68
330
1E
100
AcDbEntity
  8
0
 48
0.27
100
AcDbLine
 10
1095.431951800457
 20
270.140033090471
 30
0.0
 11
1095.979081800457
 21
270.3196780904709
 31
0.0
  0
LINE
  5
BF69
330
1E
100
AcDbEntity
  8
0
 48
0.27
100
AcDbLine
 10
1096.483320550457
 20
275.8611130904708
 30
0.0
 11
1096.925289300457
 21
275.4685143404708
 31
0.0
  0
LINE
  5
BF6A
330
1E
100
AcDbEntity
  8
0
 48
0.27
100
AcDbLine
 10
1095.979081800457
 20
270.3196780904709
 30
0.0
 11
1096.483320550457
 21
270.6114055904709
 31
0.0
  0
LINE
  5
BF6B
330
1E
100
AcDbEntity
  8
0
 48
0.27
100
AcDbLine
 10
1093.595566800457
 20
275.4328055904709
 30
0.0
 11
1093.999229300457
 21
275.4758380904709
 31
0.0
  0
LINE
  5
BF6C
330
1E
100
AcDbEntity
  8
0
 48
0.27
100
AcDbLine
 10
1093.207418050457
 20
271.1671568404709
 30
0.0
 11
1093.595566800457
 21
271.0397118404708
 31
0.0
  0
LINE
  5
BF6D
330
1E
100
AcDbEntity
  8
0
 48
0.27
100
AcDbLine
 10
1095.251406800457
 20
276.3666693404707
 30
0.0
 11
1095.804578050457
 21
276.1850418404709
 31
0.0
  0
LINE
  5
BF6E
330
1E
100
AcDbEntity
  8
0
 48
0.27
100
AcDbLine
 10
1095.251406800457
 20
270.1058480904708
 30
0.0
 11
1095.431951800457
 21
270.140033090471
 31
0.0
  0
LINE
  5
BF6F
330
1E
100
AcDbEntity
  8
0
 48
0.27
100
AcDbLine
 10
1094.676128050457
 20
270.0445205904709
 30
0.0
 11
1095.251406800457
 21
270.1058480904708
 31
0.0
  0
LINE
  5
BF70
330
1E
100
AcDbEntity
  8
0
 48
0.27
100
AcDbLine
 10
1096.925289300457
 20
275.4685143404708
 30
0.0
 11
1097.288003050457
 21
274.9901305904707
 31
0.0
  0
LINE
  5
BF71
330
1E
100
AcDbEntity
  8
0
 48
0.27
100
AcDbLine
 10
1096.483320550457
 20
270.6114055904709
 30
0.0
 11
1096.925289300457
 21
271.0040043404708
 31
0.0
  0
LINE
  5
BF72
330
1E
100
AcDbEntity
  8
0
 48
0.27
100
AcDbLine
 10
1093.999229300457
 20
275.4758380904709
 30
0.0
 11
1094.402890550457
 21
275.4328055904709
 31
0.0
  0
LINE
  5
BF73
330
1E
100
AcDbEntity
  8
0
 48
0.27
100
AcDbLine
 10
1093.595566800457
 20
271.0397118404708
 30
0.0
 11
1093.999229300457
 21
270.9966793404708
 31
0.0
  0
LINE
  5
BF74
330
1E
100
AcDbEntity
  8
0
 48
0.27
100
AcDbLine
 10
1095.804578050457
 20
276.1850418404709
 30
0.0
 11
1096.314383050457
 21
275.8900930904708
 31
0.0
  0
LINE
  5
BF75
330
1E
100
AcDbEntity
  8
0
 48
0.27
100
AcDbLine
 10
1095.251406800457
 20
270.1058480904708
 30
0.0
 11
1095.804578050457
 21
270.2874768404708
 31
0.0
  0
LINE
  5
BF76
330
1E
100
AcDbEntity
  8
0
 48
0.27
100
AcDbLine
 10
1097.288003050457
 20
274.9901305904707
 30
0.0
 11
1097.557524300457
 21
274.4443468404709
 31
0.0
  0
LINE
  5
BF77
330
1E
100
AcDbEntity
  8
0
 48
0.27
100
AcDbLine
 10
1097.288003050457
 20
271.4823880904707
 30
0.0
 11
1096.925289300457
 21
271.0040043404708
 31
0.0
  0
LINE
  5
BF78
330
1E
100
AcDbEntity
  8
0
 48
0.27
100
AcDbLine
 10
1097.557524300457
 20
274.4443468404709
 30
0.0
 11
1097.723494300457
 21
273.8521368404708
 31
0.0
  0
LINE
  5
BF79
330
1E
100
AcDbEntity
  8
0
 48
0.27
100
AcDbLine
 10
1097.557524300457
 20
272.0281718404708
 30
0.0
 11
1097.288003050457
 21
271.4823880904707
 31
0.0
  0
LINE
  5
BF7A
330
1E
100
AcDbEntity
  8
0
 48
0.27
100
AcDbLine
 10
1096.314383050457
 20
275.8900930904708
 30
0.0
 11
1096.761231800457
 21
275.4931593404708
 31
0.0
  0
LINE
  5
BF7B
330
1E
100
AcDbEntity
  8
0
 48
0.27
100
AcDbLine
 10
1095.804578050457
 20
270.2874768404708
 30
0.0
 11
1096.314383050457
 21
270.5824255904708
 31
0.0
  0
LINE
  5
BF7C
330
1E
100
AcDbEntity
  8
0
 48
0.27
100
AcDbLine
 10
1097.723494300457
 20
273.8521368404708
 30
0.0
 11
1097.779535550457
 21
273.2362593404707
 31
0.0
  0
LINE
  5
BF7D
330
1E
100
AcDbEntity
  8
0
 48
0.27
100
AcDbLine
 10
1097.723494300457
 20
272.6203818404708
 30
0.0
 11
1097.557524300457
 21
272.0281718404708
 31
0.0
  0
LINE
  5
BF7E
330
1E
100
AcDbEntity
  8
0
 48
0.27
100
AcDbLine
 10
1094.402890550457
 20
275.4328055904709
 30
0.0
 11
1094.791039300457
 21
275.3053605904709
 31
0.0
  0
LINE
  5
BF7F
330
1E
100
AcDbEntity
  8
0
 48
0.27
100
AcDbLine
 10
1093.999229300457
 20
270.9966793404708
 30
0.0
 11
1094.402890550457
 21
271.0397118404708
 31
0.0
  0
LINE
  5
BF80
330
1E
100
AcDbEntity
  8
0
 48
0.27
100
AcDbLine
 10
1097.779535550457
 20
273.2362593404707
 30
0.0
 11
1097.723494300457
 21
272.6203818404708
 31
0.0
  0
LINE
  5
BF81
330
1E
100
AcDbEntity
  8
0
 48
0.27
100
AcDbLine
 10
1096.761231800457
 20
275.4931593404708
 30
0.0
 11
1097.127950550457
 21
275.0094943404708
 31
0.0
  0
LINE
  5
BF82
330
1E
100
AcDbEntity
  8
0
 48
0.27
100
AcDbLine
 10
1096.314383050457
 20
270.5824255904708
 30
0.0
 11
1096.761231800457
 21
270.9793593404709
 31
0.0
  0
LINE
  5
BF83
330
1E
100
AcDbEntity
  8
0
 48
0.27
100
AcDbLine
 10
1094.791039300457
 20
275.3053605904709
 30
0.0
 11
1095.148760550457
 21
275.0984018404708
 31
0.0
  0
LINE
  5
BF84
330
1E
100
AcDbEntity
  8
0
 48
0.27
100
AcDbLine
 10
1094.402890550457
 20
271.0397118404708
 30
0.0
 11
1094.791039300457
 21
271.1671568404709
 31
0.0
  0
LINE
  5
BF85
330
1E
100
AcDbEntity
  8
0
 48
0.27
100
AcDbLine
 10
1097.127950550457
 20
275.0094943404708
 30
0.0
 11
1097.400446800457
 21
274.4576843404709
 31
0.0
  0
LINE
  5
BF86
330
1E
100
AcDbEntity
  8
0
 48
0.27
100
AcDbLine
 10
1097.127950550457
 20
271.4630243404708
 30
0.0
 11
1096.761231800457
 21
270.9793593404709
 31
0.0
  0
LINE
  5
BF87
330
1E
100
AcDbEntity
  8
0
 48
0.27
100
AcDbLine
 10
1097.400446800457
 20
274.4576843404709
 30
0.0
 11
1097.568250550457
 21
273.8589368404707
 31
0.0
  0
LINE
  5
BF88
330
1E
100
AcDbEntity
  8
0
 48
0.27
100
AcDbLine
 10
1097.400446800457
 20
272.0148330904708
 30
0.0
 11
1097.127950550457
 21
271.4630243404708
 31
0.0
  0
LINE
  5
BF89
330
1E
100
AcDbEntity
  8
0
 48
0.27
100
AcDbLine
 10
1095.148760550457
 20
275.0984018404708
 30
0.0
 11
1095.462304300457
 21
274.8198805904708
 31
0.0
  0
LINE
  5
BF8A
330
1E
100
AcDbEntity
  8
0
 48
0.27
100
AcDbLine
 10
1094.791039300457
 20
271.1671568404709
 30
0.0
 11
1095.148760550457
 21
271.3741168404709
 31
0.0
  0
LINE
  5
BF8B
330
1E
100
AcDbEntity
  8
0
 48
0.27
100
AcDbLine
 10
1097.568250550457
 20
273.8589368404707
 30
0.0
 11
1097.624910550457
 21
273.2362593404707
 31
0.0
  0
LINE
  5
BF8C
330
1E
100
AcDbEntity
  8
0
 48
0.27
100
AcDbLine
 10
1097.568250550457
 20
272.6135818404707
 30
0.0
 11
1097.400446800457
 21
272.0148330904708
 31
0.0
  0
LINE
  5
BF8D
330
1E
100
AcDbEntity
  8
0
 48
0.27
100
AcDbLine
 10
1097.624910550457
 20
273.2362593404707
 30
0.0
 11
1097.568250550457
 21
272.6135818404707
 31
0.0
  0
LINE
  5
BF8E
330
1E
100
AcDbEntity
  8
0
 48
0.27
100
AcDbLine
 10
1095.462304300457
 20
274.8198805904708
 30
0.0
 11
1095.719624300457
 21
274.4805030904708
 31
0.0
  0
LINE
  5
BF8F
330
1E
100
AcDbEntity
  8
0
 48
0.27
100
AcDbLine
 10
1095.148760550457
 20
271.3741168404709
 30
0.0
 11
1095.462304300457
 21
271.6526368404709
 31
0.0
  0
LINE
  5
BF90
330
1E
100
AcDbEntity
  8
0
 48
0.27
100
AcDbLine
 10
1095.719624300457
 20
274.4805030904708
 30
0.0
 11
1095.910829300457
 21
274.0933093404708
 31
0.0
  0
LINE
  5
BF91
330
1E
100
AcDbEntity
  8
0
 48
0.27
100
AcDbLine
 10
1095.719624300457
 20
271.9920155904708
 30
0.0
 11
1095.462304300457
 21
271.6526368404709
 31
0.0
  0
LINE
  5
BF92
330
1E
100
AcDbEntity
  8
0
 48
0.27
100
AcDbLine
 10
1095.910829300457
 20
274.0933093404708
 30
0.0
 11
1096.028573050457
 21
273.6731793404708
 31
0.0
  0
LINE
  5
BF93
330
1E
100
AcDbEntity
  8
0
 48
0.27
100
AcDbLine
 10
1095.910829300457
 20
272.3792093404709
 30
0.0
 11
1095.719624300457
 21
271.9920155904708
 31
0.0
  0
LINE
  5
BF94
330
1E
100
AcDbEntity
  8
0
 48
0.27
100
AcDbLine
 10
1096.028573050457
 20
273.6731793404708
 30
0.0
 11
1096.068330550457
 21
273.2362593404707
 31
0.0
  0
LINE
  5
BF95
330
1E
100
AcDbEntity
  8
0
 48
0.27
100
AcDbLine
 10
1096.028573050457
 20
272.7993393404708
 30
0.0
 11
1095.910829300457
 21
272.3792093404709
 31
0.0
  0
LINE
  5
BF96
330
1E
100
AcDbEntity
  8
0
 48
0.27
100
AcDbLine
 10
1096.068330550457
 20
273.2362593404707
 30
0.0
 11
1096.028573050457
 21
272.7993393404708
 31
0.0
  0
POINT
  5
BF97
330
1E
100
AcDbEntity
  8
0
100
AcDbPoint
 10
1091.727345550457
 20
273.2362593404707
 30
0.0
1001
pntflag
1000
endpoint
  0
LINE
  5
BF98
330
1E
100
AcDbEntity
  8
指線
 48
0.27
100
AcDbLine
 10
906.3112468964684
 20
260.4370778557268
 30
0.0
 11
903.1926291746625
 21
260.4366714102747
 31
0.0
  0
LINE
  5
BF99
330
1E
100
AcDbEntity
  8
指線
 48
0.27
100
AcDbLine
 10
907.9093139875279
 20
260.4373252014324
 30
0.0
 11
911.0215270707882
 21
260.4378831523288
 31
0.0
  0
LINE
  5
BF9A
330
1E
100
AcDbEntity
  8
指線
 48
0.27
100
AcDbLine
 10
907.9090667940914
 20
262.0353954993523
 30
0.0
 11
911.0212798773517
 21
262.0359534502488
 31
0.0
  0
ARC
  5
BF9B
330
1E
100
AcDbEntity
  8
指線
 48
0.27
100
AcDbCircle
 10
907.1101568452801
 20
261.2362366775394
 30
0.0
 40
2.397105012956624
100
AcDbArc
 50
19.48100010832805
 51
70.53767875679579
  0
LINE
  5
BF9C
330
1E
100
AcDbEntity
  8
指線
 48
0.27
100
AcDbLine
 10
907.9088408065393
 20
263.496373039171
 30
0.0
 11
907.9090667940914
 21
262.0353954993523
 31
0.0
  0
ARC
  5
BF9D
330
1E
100
AcDbEntity
  8
指線
 48
0.27
100
AcDbCircle
 10
907.1101568452798
 20
261.2362366775394
 30
0.0
 40
2.397105012956624
100
AcDbArc
 50
289.4623212432114
 51
340.5208129039578
  0
ARC
  5
BF9E
330
1E
100
AcDbEntity
  8
指線
 48
0.27
100
AcDbCircle
 10
907.1101568452801
 20
261.2362366775394
 30
0.0
 40
2.397105012956624
100
AcDbArc
 50
199.4791870960422
 51
250.5376787567886
  0
LINE
  5
BF9F
330
1E
100
AcDbEntity
  8
指線
 48
0.27
100
AcDbLine
 10
906.3112468964684
 20
260.4370778557268
 30
0.0
 11
906.3114728840208
 21
258.9761003159077
 31
0.0
  0
LINE
  5
BFA0
330
1E
100
AcDbEntity
  8
指線
 48
0.27
100
AcDbLine
 10
907.9093139875279
 20
260.4373252014324
 30
0.0
 11
907.9095399753997
 21
258.9763476616065
 31
0.0
  0
LINE
  5
BFA1
330
1E
100
AcDbEntity
  8
指線
 48
0.27
100
AcDbLine
 10
906.3109997030322
 20
262.0351481536463
 30
0.0
 11
903.1923819812261
 21
262.0347417081947
 31
0.0
  0
ARC
  5
BFA2
330
1E
100
AcDbEntity
  8
指線
 48
0.27
100
AcDbCircle
 10
907.1101568452798
 20
261.2362366775394
 30
0.0
 40
2.397105012956624
100
AcDbArc
 50
109.4623212432042
 51
160.5189998916719
  0
LINE
  5
BFA3
330
1E
100
AcDbEntity
  8
指線
 48
0.27
100
AcDbLine
 10
906.3107737151604
 20
263.4961256934726
 30
0.0
 11
906.3109997030322
 21
262.0351481536463
 31
0.0
  0
CIRCLE
  5
BFA4
330
1E
100
AcDbEntity
  8
指線
 48
0.27
100
AcDbCircle
 10
907.11015684528
 20
261.2362366775394
 30
0.0
 40
4.0
  0
LINE
  5
BFA5
330
1E
100
AcDbEntity
  8
指線
 48
0.27
100
AcDbLine
 10
839.3112468964684
 20
260.4370778557268
 30
0.0
 11
836.1926291746623
 21
260.4366714102747
 31
0.0
  0
LINE
  5
BFA6
330
1E
100
AcDbEntity
  8
指線
 48
0.27
100
AcDbLine
 10
840.9093139875279
 20
260.4373252014324
 30
0.0
 11
844.0215270707883
 21
260.4378831523288
 31
0.0
  0
LINE
  5
BFA7
330
1E
100
AcDbEntity
  8
指線
 48
0.27
100
AcDbLine
 10
840.9090667940914
 20
262.0353954993523
 30
0.0
 11
844.0212798773517
 21
262.0359534502488
 31
0.0
  0
ARC
  5
BFA8
330
1E
100
AcDbEntity
  8
指線
 48
0.27
100
AcDbCircle
 10
840.1101568452801
 20
261.2362366775394
 30
0.0
 40
2.397105012956624
100
AcDbArc
 50
19.48100010832805
 51
70.53767875679579
  0
LINE
  5
BFA9
330
1E
100
AcDbEntity
  8
指線
 48
0.27
100
AcDbLine
 10
840.9088408065393
 20
263.496373039171
 30
0.0
 11
840.9090667940914
 21
262.0353954993523
 31
0.0
  0
ARC
  5
BFAA
330
1E
100
AcDbEntity
  8
指線
 48
0.27
100
AcDbCircle
 10
840.1101568452798
 20
261.2362366775394
 30
0.0
 40
2.397105012956624
100
AcDbArc
 50
289.4623212432114
 51
340.5208129039578
  0
ARC
  5
BFAB
330
1E
100
AcDbEntity
  8
指線
 48
0.27
100
AcDbCircle
 10
840.1101568452801
 20
261.2362366775394
 30
0.0
 40
2.397105012956624
100
AcDbArc
 50
199.4791870960422
 51
250.5376787567886
  0
LINE
  5
BFAC
330
1E
100
AcDbEntity
  8
指線
 48
0.27
100
AcDbLine
 10
839.3112468964684
 20
260.4370778557268
 30
0.0
 11
839.3114728840208
 21
258.9761003159077
 31
0.0
  0
LINE
  5
BFAD
330
1E
100
AcDbEntity
  8
指線
 48
0.27
100
AcDbLine
 10
840.9093139875279
 20
260.4373252014324
 30
0.0
 11
840.9095399753997
 21
258.9763476616065
 31
0.0
  0
LINE
  5
BFAE
330
1E
100
AcDbEntity
  8
指線
 48
0.27
100
AcDbLine
 10
839.3109997030322
 20
262.0351481536463
 30
0.0
 11
836.1923819812259
 21
262.0347417081947
 31
0.0
  0
ARC
  5
BFAF
330
1E
100
AcDbEntity
  8
指線
 48
0.27
100
AcDbCircle
 10
840.1101568452798
 20
261.2362366775394
 30
0.0
 40
2.397105012956624
100
AcDbArc
 50
109.4623212432042
 51
160.5189998916719
  0
LINE
  5
BFB0
330
1E
100
AcDbEntity
  8
指線
 48
0.27
100
AcDbLine
 10
839.3107737151604
 20
263.4961256934726
 30
0.0
 11
839.3109997030322
 21
262.0351481536463
 31
0.0
  0
CIRCLE
  5
BFB1
330
1E
100
AcDbEntity
  8
指線
 48
0.27
100
AcDbCircle
 10
840.11015684528
 20
261.2362366775394
 30
0.0
 40
4.0
  0
LWPOLYLINE
  5
BFB3
330
1E
100
AcDbEntity
  8
0
 48
0.27
100
AcDbPolyline
 90
       17
 70
     0
 43
0.0
 10
884.801421841955
 20
273.2362366775395
 10
884.8433572257084
 20
272.964940079108
 10
884.8844709690743
 20
272.8863097734767
 10
884.9301838939583
 20
272.8493827214348
 10
884.972655347801
 20
272.849766821499
 10
885.018271412669
 20
272.8875221938041
 10
885.057451295462
 20
272.962234678156
 10
885.0941846274714
 20
273.1248259311839
 10
885.1003936895082
 20
273.2362366775395
 10
885.0584599757555
 20
273.5075316059707
 10
885.0173445623891
 20
273.586161911602
 10
884.9716316375051
 20
273.6230889636439
 10
884.9291618536627
 20
273.6227048634547
 10
884.8835441187944
 20
273.5849494911493
 10
884.8443659060016
 20
273.5102370067974
 10
884.8076309039921
 20
273.3476457538949
 10
884.801421841955
 20
273.2362366775395
  0
ARC
  5
BFB4
330
1E
100
AcDbEntity
  8
0
 48
0.27
100
AcDbCircle
 10
873.6118103141649
 20
273.2362366775395
 30
0.0
 40
5.0
100
AcDbArc
 50
48.59037799889628
 51
311.4096220031988
  0
LINE
  5
BFB5
330
1E
100
AcDbEntity
  8
0
 48
0.27
100
AcDbLine
 10
877.2202506305244
 20
276.9862362600394
 30
0.0
 11
876.4985615652523
 21
278.2362366775395
 31
0.0
  0
LINE
  5
BFB6
330
1E
100
AcDbEntity
  8
0
 48
0.27
100
AcDbLine
 10
870.7250590630774
 20
278.2362366775395
 30
0.0
 11
876.4985615652523
 21
278.2362366775395
 31
0.0
  0
LINE
  5
BFB7
330
1E
100
AcDbEntity
  8
0
 48
0.27
100
AcDbLine
 10
870.7250590630774
 20
278.2362366775395
 30
0.0
 11
867.83830781199
 21
273.2362366775395
 31
0.0
  0
LINE
  5
BFB8
330
1E
100
AcDbEntity
  8
0
 48
0.27
100
AcDbLine
 10
867.83830781199
 20
273.2362366775395
 30
0.0
 11
870.7250590630774
 21
268.2362350075392
 31
0.0
  0
LINE
  5
BFB9
330
1E
100
AcDbEntity
  8
0
 48
0.27
100
AcDbLine
 10
876.4985632352527
 20
268.2362350075392
 30
0.0
 11
870.7250590630774
 21
268.2362350075392
 31
0.0
  0
LINE
  5
BFBA
330
1E
100
AcDbEntity
  8
0
 48
0.27
100
AcDbLine
 10
877.2202506305244
 20
269.4862354250393
 30
0.0
 11
876.4985632352527
 21
268.2362350075392
 31
0.0
  0
LINE
  5
BFBB
330
1E
100
AcDbEntity
  8
0
 48
0.27
100
AcDbLine
 10
875.2386931146045
 20
269.4862354250393
 30
0.0
 11
879.0062794727912
 21
269.4862354250393
 31
0.0
  0
LINE
  5
BFBC
330
1E
100
AcDbEntity
  8
0
 48
0.27
100
AcDbLine
 10
879.0849030984213
 20
276.630377513986
 30
0.0
 11
879.0062794727912
 21
276.9862362600394
 31
0.0
  0
LINE
  5
BFBD
330
1E
100
AcDbEntity
  8
0
 48
0.27
100
AcDbLine
 10
879.0062794727912
 20
269.4862354250393
 30
0.0
 11
879.0849030984213
 21
269.8420941710927
 31
0.0
  0
LINE
  5
BFBE
330
1E
100
AcDbEntity
  8
0
 48
0.27
100
AcDbLine
 10
875.2386931146045
 20
276.9862362600394
 30
0.0
 11
879.0062794727912
 21
276.9862362600394
 31
0.0
  0
LINE
  5
BFBF
330
1E
100
AcDbEntity
  8
0
 48
0.27
100
AcDbLine
 10
878.4577126839305
 20
269.5582909385724
 30
0.0
 11
880.9599713596828
 21
270.6905596576613
 31
0.0
  0
LINE
  5
BFC0
330
1E
100
AcDbEntity
  8
0
 48
0.27
100
AcDbLine
 10
885.7914900147964
 20
272.7993161050737
 30
0.0
 11
885.8079578901715
 21
273.2362366775395
 31
0.0
  0
LINE
  5
BFC1
330
1E
100
AcDbEntity
  8
0
 48
0.27
100
AcDbLine
 10
885.7427193189018
 20
272.3791857181619
 30
0.0
 11
885.7914900147964
 21
272.7993161050737
 31
0.0
  0
LINE
  5
BFC2
330
1E
100
AcDbEntity
  8
0
 48
0.27
100
AcDbLine
 10
885.8079578901715
 20
273.2362366775395
 30
0.0
 11
885.7914900147964
 21
273.6731572500052
 31
0.0
  0
LINE
  5
BFC3
330
1E
100
AcDbEntity
  8
0
 48
0.27
100
AcDbLine
 10
878.1777454426761
 20
269.4862354250393
 30
0.0
 11
878.4577126839305
 21
269.5582909385724
 31
0.0
  0
LINE
  5
BFC4
330
1E
100
AcDbEntity
  8
0
 48
0.27
100
AcDbLine
 10
878.1777454426761
 20
276.9862362600394
 30
0.0
 11
878.4577126839305
 21
276.9141807465061
 31
0.0
  0
LINE
  5
BFC5
330
1E
100
AcDbEntity
  8
0
 48
0.27
100
AcDbLine
 10
878.4577126839305
 20
276.9141807465061
 30
0.0
 11
880.9599713596828
 21
275.7819120274172
 31
0.0
  0
LINE
  5
BFC6
330
1E
100
AcDbEntity
  8
0
 48
0.27
100
AcDbLine
 10
885.6635195430504
 20
271.9919927518757
 30
0.0
 11
885.7427193189018
 21
272.3791857181619
 31
0.0
  0
LINE
  5
BFC7
330
1E
100
AcDbEntity
  8
0
 48
0.27
100
AcDbLine
 10
885.7914900147964
 20
273.6731572500052
 30
0.0
 11
885.7427193189018
 21
274.0932859669166
 31
0.0
  0
LINE
  5
BFC8
330
1E
100
AcDbEntity
  8
0
 48
0.27
100
AcDbLine
 10
885.5569334282504
 20
271.6526135713244
 30
0.0
 11
885.6635195430504
 21
271.9919927518757
 31
0.0
  0
LINE
  5
BFC9
330
1E
100
AcDbEntity
  8
0
 48
0.27
100
AcDbLine
 10
884.6077401888601
 20
271.1883500799173
 30
0.0
 11
884.6101132596315
 21
271.1895107302363
 31
0.0
  0
LINE
  5
BFCA
330
1E
100
AcDbEntity
  8
0
 48
0.27
100
AcDbLine
 10
885.7427193189018
 20
274.0932859669166
 30
0.0
 11
885.6635195430504
 21
274.4804806032033
 31
0.0
  0
LINE
  5
BFCB
330
1E
100
AcDbEntity
  8
0
 48
0.27
100
AcDbLine
 10
877.8977782014216
 20
269.5582909385724
 30
0.0
 11
878.1777454426761
 21
269.4862354250393
 31
0.0
  0
LINE
  5
BFCC
330
1E
100
AcDbEntity
  8
0
 48
0.27
100
AcDbLine
 10
877.8977782014216
 20
276.9141807465061
 30
0.0
 11
878.1777454426761
 21
276.9862362600394
 31
0.0
  0
LINE
  5
BFCD
330
1E
100
AcDbEntity
  8
0
 48
0.27
100
AcDbLine
 10
885.4270591559364
 20
271.3740925504363
 30
0.0
 11
885.5569334282504
 21
271.6526135713244
 31
0.0
  0
LINE
  5
BFCE
330
1E
100
AcDbEntity
  8
0
 48
0.27
100
AcDbLine
 10
885.6635195430504
 20
274.4804806032033
 30
0.0
 11
885.5569334282504
 21
274.8198581137543
 31
0.0
  0
LINE
  5
BFCF
330
1E
100
AcDbEntity
  8
0
 48
0.27
100
AcDbLine
 10
880.9599713596828
 20
270.6905596576613
 30
0.0
 11
881.2613747278922
 21
270.813563547703
 31
0.0
  0
LINE
  5
BFD0
330
1E
100
AcDbEntity
  8
0
 48
0.27
100
AcDbLine
 10
880.9599713596828
 20
275.7819120274172
 30
0.0
 11
881.2613747278922
 21
275.6589098073758
 31
0.0
  0
LINE
  5
BFD1
330
1E
100
AcDbEntity
  8
0
 48
0.27
100
AcDbLine
 10
885.2788866876917
 20
271.1671343929994
 30
0.0
 11
885.4270591559364
 21
271.3740925504363
 31
0.0
  0
LINE
  5
BFD2
330
1E
100
AcDbEntity
  8
0
 48
0.27
100
AcDbLine
 10
885.5569334282504
 20
274.8198581137543
 30
0.0
 11
885.4270591559364
 21
275.0983791346422
 31
0.0
  0
LINE
  5
BFD3
330
1E
100
AcDbEntity
  8
0
 48
0.27
100
AcDbLine
 10
877.628570773589
 20
269.7716869480847
 30
0.0
 11
877.8977782014216
 21
269.5582909385724
 31
0.0
  0
LINE
  5
BFD4
330
1E
100
AcDbEntity
  8
0
 48
0.27
100
AcDbLine
 10
877.628570773589
 20
276.700784736994
 30
0.0
 11
877.8977782014216
 21
276.9141807465061
 31
0.0
  0
LINE
  5
BFD5
330
1E
100
AcDbEntity
  8
0
 48
0.27
100
AcDbLine
 10
881.2613747278922
 20
270.813563547703
 30
0.0
 11
881.5300293855075
 21
270.8021541040476
 31
0.0
  0
LINE
  5
BFD6
330
1E
100
AcDbEntity
  8
0
 48
0.27
100
AcDbLine
 10
881.2613747278922
 20
275.6589098073758
 30
0.0
 11
881.5300293855075
 21
275.6703175810309
 31
0.0
  0
LINE
  5
BFD7
330
1E
100
AcDbEntity
  8
0
 48
0.27
100
AcDbLine
 10
883.5550169356805
 20
270.1058256670109
 30
0.0
 11
885.1181107252171
 21
271.0396883014658
 31
0.0
  0
LINE
  5
BFD8
330
1E
100
AcDbEntity
  8
0
 48
0.27
100
AcDbLine
 10
885.1181107252171
 20
271.0396883014658
 30
0.0
 11
885.2788866876917
 21
271.1671343929994
 31
0.0
  0
LINE
  5
BFD9
330
1E
100
AcDbEntity
  8
0
 48
0.27
100
AcDbLine
 10
885.4270591559364
 20
275.0983791346422
 30
0.0
 11
885.2788866876917
 21
275.3053372920793
 31
0.0
  0
LINE
  5
BFDA
330
1E
100
AcDbEntity
  8
0
 48
0.27
100
AcDbLine
 10
874.4101590844891
 20
273.2362366775395
 30
0.0
 11
875.2386931146045
 21
276.9862362600394
 31
0.0
  0
LINE
  5
BFDB
330
1E
100
AcDbEntity
  8
0
 48
0.27
100
AcDbLine
 10
874.4101590844891
 20
273.2362366775395
 30
0.0
 11
876.5206773824457
 21
273.2362366775395
 31
0.0
  0
LINE
  5
BFDC
330
1E
100
AcDbEntity
  8
0
 48
0.27
100
AcDbLine
 10
875.2386931146045
 20
269.4862354250393
 30
0.0
 11
874.4101590844891
 21
273.2362366775395
 31
0.0
  0
LINE
  5
BFDD
330
1E
100
AcDbEntity
  8
0
 48
0.27
100
AcDbLine
 10
877.628570773589
 20
269.7716869480847
 30
0.0
 11
877.3804671427805
 21
270.1182237510812
 31
0.0
  0
LINE
  5
BFDE
330
1E
100
AcDbEntity
  8
0
 48
0.27
100
AcDbLine
 10
877.3804671427805
 20
276.3542479339973
 30
0.0
 11
877.628570773589
 21
276.700784736994
 31
0.0
  0
LINE
  5
BFDF
330
1E
100
AcDbEntity
  8
0
 48
0.27
100
AcDbLine
 10
883.3167295680114
 20
270.0444965670189
 30
0.0
 11
883.5550169356805
 21
270.1058256670109
 31
0.0
  0
LINE
  5
BFE0
330
1E
100
AcDbEntity
  8
0
 48
0.27
100
AcDbLine
 10
882.8656891409377
 20
270.0793511483397
 30
0.0
 11
883.3167295680114
 21
270.0444965670189
 31
0.0
  0
LINE
  5
BFE1
330
1E
100
AcDbEntity
  8
0
 48
0.27
100
AcDbLine
 10
881.5300293855075
 20
270.8021541040476
 30
0.0
 11
882.2224633812689
 21
270.3456327351836
 31
0.0
  0
LINE
  5
BFE2
330
1E
100
AcDbEntity
  8
0
 48
0.27
100
AcDbLine
 10
884.9509086006694
 20
270.9966557274043
 30
0.0
 11
885.1181107252171
 21
271.0396883014658
 31
0.0
  0
LINE
  5
BFE3
330
1E
100
AcDbEntity
  8
0
 48
0.27
100
AcDbLine
 10
883.5550169356805
 20
276.3666476880682
 30
0.0
 11
885.1181107252171
 21
275.4327833836127
 31
0.0
  0
LINE
  5
BFE4
330
1E
100
AcDbEntity
  8
0
 48
0.27
100
AcDbLine
 10
885.1181107252171
 20
275.4327833836127
 30
0.0
 11
885.2788866876917
 21
275.3053372920793
 31
0.0
  0
LINE
  5
BFE5
330
1E
100
AcDbEntity
  8
0
 48
0.27
100
AcDbLine
 10
883.3167295680114
 20
276.4279751180596
 30
0.0
 11
883.5550169356805
 21
276.3666476880682
 31
0.0
  0
LINE
  5
BFE6
330
1E
100
AcDbEntity
  8
0
 48
0.27
100
AcDbLine
 10
882.8656891409377
 20
276.3931222066143
 30
0.0
 11
883.3167295680114
 21
276.4279751180596
 31
0.0
  0
LINE
  5
BFE7
330
1E
100
AcDbEntity
  8
0
 48
0.27
100
AcDbLine
 10
881.2914848377955
 20
270.9827830329626
 30
0.0
 11
881.4665860647876
 21
270.8439826076582
 31
0.0
  0
LINE
  5
BFE8
330
1E
100
AcDbEntity
  8
0
 48
0.27
100
AcDbLine
 10
882.2224633812689
 20
270.3456327351836
 30
0.0
 11
882.6300036340782
 21
270.1400089082193
 31
0.0
  0
LINE
  5
BFE9
330
1E
100
AcDbEntity
  8
0
 48
0.27
100
AcDbLine
 10
882.6300036340782
 20
270.1400089082193
 30
0.0
 11
882.8656891409377
 21
270.0793511483397
 31
0.0
  0
LINE
  5
BFEA
330
1E
100
AcDbEntity
  8
0
 48
0.27
100
AcDbLine
 10
881.5300293855075
 20
275.6703175810309
 30
0.0
 11
882.2224633812689
 21
276.1268389498949
 31
0.0
  0
LINE
  5
BFEB
330
1E
100
AcDbEntity
  8
0
 48
0.27
100
AcDbLine
 10
881.2914848377955
 20
275.4896886521159
 30
0.0
 11
881.4665860647876
 21
275.6284890774206
 31
0.0
  0
LINE
  5
BFEC
330
1E
100
AcDbEntity
  8
0
 48
0.27
100
AcDbLine
 10
877.3804671427805
 20
270.1182237510812
 30
0.0
 11
877.1630030118391
 21
270.5845847630886
 31
0.0
  0
LINE
  5
BFED
330
1E
100
AcDbEntity
  8
0
 48
0.27
100
AcDbLine
 10
877.1630030118391
 20
275.8878869219901
 30
0.0
 11
877.3804671427805
 21
276.3542479339973
 31
0.0
  0
LINE
  5
BFEE
330
1E
100
AcDbEntity
  8
0
 48
0.27
100
AcDbLine
 10
883.0784405303422
 20
270.1058256670109
 30
0.0
 11
883.3167295680114
 21
270.0444965670189
 31
0.0
  0
LINE
  5
BFEF
330
1E
100
AcDbEntity
  8
0
 48
0.27
100
AcDbLine
 10
882.6300036340782
 20
276.3324627768592
 30
0.0
 11
882.8656891409377
 21
276.3931222066143
 31
0.0
  0
LINE
  5
BFF0
330
1E
100
AcDbEntity
  8
0
 48
0.27
100
AcDbLine
 10
882.2224633812689
 20
276.1268389498949
 30
0.0
 11
882.6300036340782
 21
276.3324627768592
 31
0.0
  0
LINE
  5
BFF1
330
1E
100
AcDbEntity
  8
0
 48
0.27
100
AcDbLine
 10
877.3492114125609
 20
269.4862354250393
 30
0.0
 11
876.5206773824457
 21
273.2362366775395
 31
0.0
  0
LINE
  5
BFF2
330
1E
100
AcDbEntity
  8
0
 48
0.27
100
AcDbLine
 10
876.5206773824457
 20
273.2362366775395
 30
0.0
 11
877.3492114125609
 21
276.9862362600394
 31
0.0
  0
LINE
  5
BFF3
330
1E
100
AcDbEntity
  8
0
 48
0.27
100
AcDbLine
 10
881.2914848377955
 20
270.9827830329626
 30
0.0
 11
881.1301093450959
 21
271.2081813363542
 31
0.0
  0
LINE
  5
BFF4
330
1E
100
AcDbEntity
  8
0
 48
0.27
100
AcDbLine
 10
884.7837064762465
 20
271.0396883014658
 30
0.0
 11
884.9509086006694
 21
270.9966557274043
 31
0.0
  0
LINE
  5
BFF5
330
1E
100
AcDbEntity
  8
0
 48
0.27
100
AcDbLine
 10
884.9509086006694
 20
275.4758159576742
 30
0.0
 11
885.1181107252171
 21
275.4327833836127
 31
0.0
  0
LINE
  5
BFF6
330
1E
100
AcDbEntity
  8
0
 48
0.27
100
AcDbLine
 10
883.0784405303422
 20
276.3666476880682
 30
0.0
 11
883.3167295680114
 21
276.4279751180596
 31
0.0
  0
LINE
  5
BFF7
330
1E
100
AcDbEntity
  8
0
 48
0.27
100
AcDbLine
 10
882.0108843323103
 20
275.9591241351367
 30
0.0
 11
882.2224633812689
 21
276.1268389498949
 31
0.0
  0
LINE
  5
BFF8
330
1E
100
AcDbEntity
  8
0
 48
0.27
100
AcDbLine
 10
881.1301093450959
 20
275.2642903487243
 30
0.0
 11
881.2914848377955
 21
275.4896886521159
 31
0.0
  0
LINE
  5
BFF9
330
1E
100
AcDbEntity
  8
0
 48
0.27
100
AcDbLine
 10
877.1630030118391
 20
270.5845847630886
 30
0.0
 11
876.9845333936597
 21
271.1528475383635
 31
0.0
  0
LINE
  5
BFFA
330
1E
100
AcDbEntity
  8
0
 48
0.27
100
AcDbLine
 10
876.9845333936597
 20
275.3196241467152
 30
0.0
 11
877.1630030118391
 21
275.8878869219901
 31
0.0
  0
LINE
  5
BFFB
330
1E
100
AcDbEntity
  8
0
 48
0.27
100
AcDbLine
 10
881.1301093450959
 20
271.2081813363542
 30
0.0
 11
880.9886636390995
 21
271.5115168952613
 31
0.0
  0
LINE
  5
BFFC
330
1E
100
AcDbEntity
  8
0
 48
0.27
100
AcDbLine
 10
882.8493097755773
 20
270.2874532562177
 30
0.0
 11
883.0784405303422
 21
270.1058256670109
 31
0.0
  0
LINE
  5
BFFD
330
1E
100
AcDbEntity
  8
0
 48
0.27
100
AcDbLine
 10
880.9886636390995
 20
274.9609547898175
 30
0.0
 11
881.1301093450959
 21
275.2642903487243
 31
0.0
  0
LINE
  5
BFFE
330
1E
100
AcDbEntity
  8
0
 48
0.27
100
AcDbLine
 10
884.6229288437717
 20
271.1671343929994
 30
0.0
 11
884.7837064762465
 21
271.0396883014658
 31
0.0
  0
LINE
  5
BFFF
330
1E
100
AcDbEntity
  8
0
 48
0.27
100
AcDbLine
 10
882.8493097755773
 20
276.1850184288609
 30
0.0
 11
883.0784405303422
 21
276.3666476880682
 31
0.0
  0
LINE
  5
C000
330
1E
100
AcDbEntity
  8
0
 48
0.27
100
AcDbLine
 10
884.7837064762465
 20
275.4327833836127
 30
0.0
 11
884.9509086006694
 21
275.4758159576742
 31
0.0
  0
LINE
  5
C001
330
1E
100
AcDbEntity
  8
0
 48
0.27
100
AcDbLine
 10
880.9886636390995
 20
271.5115168952613
 30
0.0
 11
880.8725819012138
 21
271.8811331057371
 31
0.0
  0
LINE
  5
C002
330
1E
100
AcDbEntity
  8
0
 48
0.27
100
AcDbLine
 10
876.9845333936597
 20
271.1528475383635
 30
0.0
 11
876.8519203205132
 21
271.8011734797589
 31
0.0
  0
LINE
  5
C003
330
1E
100
AcDbEntity
  8
0
 48
0.27
100
AcDbLine
 10
876.8519203205132
 20
274.67129987532
 30
0.0
 11
876.9845333936597
 21
275.3196241467152
 31
0.0
  0
LINE
  5
C004
330
1E
100
AcDbEntity
  8
0
 48
0.27
100
AcDbLine
 10
880.8725819012138
 20
274.5913385793414
 30
0.0
 11
880.9886636390995
 21
274.9609547898175
 31
0.0
  0
LINE
  5
C005
330
1E
100
AcDbEntity
  8
0
 48
0.27
100
AcDbLine
 10
882.8493097755773
 20
270.2874532562177
 30
0.0
 11
882.6381415468121
 21
270.5824020723491
 31
0.0
  0
LINE
  5
C006
330
1E
100
AcDbEntity
  8
0
 48
0.27
100
AcDbLine
 10
880.8725819012138
 20
271.8811331057371
 30
0.0
 11
880.7863263730592
 21
272.3028249432847
 31
0.0
  0
LINE
  5
C007
330
1E
100
AcDbEntity
  8
0
 48
0.27
100
AcDbLine
 10
876.8519203205132
 20
271.8011734797589
 30
0.0
 11
876.7702572938755
 21
272.5046478489891
 31
0.0
  0
LINE
  5
C008
330
1E
100
AcDbEntity
  8
0
 48
0.27
100
AcDbLine
 10
876.7702572938755
 20
273.9678255059647
 30
0.0
 11
876.8519203205132
 21
274.67129987532
 31
0.0
  0
LINE
  5
C009
330
1E
100
AcDbEntity
  8
0
 48
0.27
100
AcDbLine
 10
884.6229288437717
 20
275.3053372920793
 30
0.0
 11
884.7837064762465
 21
275.4327833836127
 31
0.0
  0
LINE
  5
C00A
330
1E
100
AcDbEntity
  8
0
 48
0.27
100
AcDbLine
 10
884.6229288437717
 20
271.1671343929994
 30
0.0
 11
884.4747563755269
 21
271.3740925504363
 31
0.0
  0
LINE
  5
C00B
330
1E
100
AcDbEntity
  8
0
 48
0.27
100
AcDbLine
 10
882.6381415468121
 20
275.8900696127295
 30
0.0
 11
882.8493097755773
 21
276.1850184288609
 31
0.0
  0
LINE
  5
C00C
330
1E
100
AcDbEntity
  8
0
 48
0.27
100
AcDbLine
 10
880.7863263730592
 20
274.169646741794
 30
0.0
 11
880.8725819012138
 21
274.5913385793414
 31
0.0
  0
LINE
  5
C00D
330
1E
100
AcDbEntity
  8
0
 48
0.27
100
AcDbLine
 10
880.7863263730592
 20
272.3028249432847
 30
0.0
 11
880.7332086658133
 21
272.7603867224474
 31
0.0
  0
LINE
  5
C00E
330
1E
100
AcDbEntity
  8
0
 48
0.27
100
AcDbLine
 10
876.7702572938755
 20
272.5046478489891
 30
0.0
 11
876.7426822448955
 21
273.2362366775395
 31
0.0
  0
LINE
  5
C00F
330
1E
100
AcDbEntity
  8
0
 48
0.27
100
AcDbLine
 10
876.7426822448955
 20
273.2362366775395
 30
0.0
 11
876.7702572938755
 21
273.9678255059647
 31
0.0
  0
LINE
  5
C010
330
1E
100
AcDbEntity
  8
0
 48
0.27
100
AcDbLine
 10
880.7332086658133
 20
273.7120849626311
 30
0.0
 11
880.7863263730592
 21
274.169646741794
 31
0.0
  0
LINE
  5
C011
330
1E
100
AcDbEntity
  8
0
 48
0.27
100
AcDbLine
 10
880.7332086658133
 20
272.7603867224474
 30
0.0
 11
880.7152745299434
 21
273.2362366775395
 31
0.0
  0
LINE
  5
C012
330
1E
100
AcDbEntity
  8
0
 48
0.27
100
AcDbLine
 10
880.7152745299434
 20
273.2362366775395
 30
0.0
 11
880.7332086658133
 21
273.7120849626311
 31
0.0
  0
LINE
  5
C013
330
1E
100
AcDbEntity
  8
0
 48
0.27
100
AcDbLine
 10
882.6381415468121
 20
270.5824020723491
 30
0.0
 11
882.4530503764021
 21
270.9793361517621
 31
0.0
  0
LINE
  5
C014
330
1E
100
AcDbEntity
  8
0
 48
0.27
100
AcDbLine
 10
884.4747563755269
 20
275.0983791346422
 30
0.0
 11
884.6229288437717
 21
275.3053372920793
 31
0.0
  0
LINE
  5
C015
330
1E
100
AcDbEntity
  8
0
 48
0.27
100
AcDbLine
 10
884.4747563755269
 20
271.3740925504363
 30
0.0
 11
884.3448821032129
 21
271.6526135713244
 31
0.0
  0
LINE
  5
C016
330
1E
100
AcDbEntity
  8
0
 48
0.27
100
AcDbLine
 10
882.4530503764021
 20
275.4931372033169
 30
0.0
 11
882.6381415468121
 21
275.8900696127295
 31
0.0
  0
LINE
  5
C017
330
1E
100
AcDbEntity
  8
0
 48
0.27
100
AcDbLine
 10
884.3448821032129
 20
274.8198581137543
 30
0.0
 11
884.4747563755269
 21
275.0983791346422
 31
0.0
  0
LINE
  5
C018
330
1E
100
AcDbEntity
  8
0
 48
0.27
100
AcDbLine
 10
882.4530503764021
 20
270.9793361517621
 30
0.0
 11
882.3011504669098
 21
271.4630000394089
 31
0.0
  0
LINE
  5
C019
330
1E
100
AcDbEntity
  8
0
 48
0.27
100
AcDbLine
 10
884.3448821032129
 20
271.6526135713244
 30
0.0
 11
884.2382976584133
 21
271.9919927518757
 31
0.0
  0
LINE
  5
C01A
330
1E
100
AcDbEntity
  8
0
 48
0.27
100
AcDbLine
 10
882.3011504669098
 20
275.0094716455448
 30
0.0
 11
882.4530503764021
 21
275.4931372033169
 31
0.0
  0
LINE
  5
C01B
330
1E
100
AcDbEntity
  8
0
 48
0.27
100
AcDbLine
 10
884.2382976584133
 20
274.4804806032033
 30
0.0
 11
884.3448821032129
 21
274.8198581137543
 31
0.0
  0
LINE
  5
C01C
330
1E
100
AcDbEntity
  8
0
 48
0.27
100
AcDbLine
 10
882.3011504669098
 20
271.4630000394089
 30
0.0
 11
882.1882784700601
 21
272.0148099693111
 31
0.0
  0
LINE
  5
C01D
330
1E
100
AcDbEntity
  8
0
 48
0.27
100
AcDbLine
 10
884.2382976584133
 20
271.9919927518757
 30
0.0
 11
884.1590978825619
 21
272.3791857181619
 31
0.0
  0
LINE
  5
C01E
330
1E
100
AcDbEntity
  8
0
 48
0.27
100
AcDbLine
 10
882.1882784700601
 20
274.4576617157674
 30
0.0
 11
882.3011504669098
 21
275.0094716455448
 31
0.0
  0
LINE
  5
C01F
330
1E
100
AcDbEntity
  8
0
 48
0.27
100
AcDbLine
 10
884.1590978825619
 20
274.0932859669166
 30
0.0
 11
884.2382976584133
 21
274.4804806032033
 31
0.0
  0
LINE
  5
C020
330
1E
100
AcDbEntity
  8
0
 48
0.27
100
AcDbLine
 10
882.1882784700601
 20
272.0148099693111
 30
0.0
 11
882.1187730474527
 21
272.6135586045522
 31
0.0
  0
LINE
  5
C021
330
1E
100
AcDbEntity
  8
0
 48
0.27
100
AcDbLine
 10
884.1590978825619
 20
272.3791857181619
 30
0.0
 11
884.110325516667
 21
272.7993161050737
 31
0.0
  0
LINE
  5
C022
330
1E
100
AcDbEntity
  8
0
 48
0.27
100
AcDbLine
 10
882.1187730474527
 20
273.8589130805264
 30
0.0
 11
882.1882784700601
 21
274.4576617157674
 31
0.0
  0
LINE
  5
C023
330
1E
100
AcDbEntity
  8
0
 48
0.27
100
AcDbLine
 10
884.110325516667
 20
273.6731572500052
 30
0.0
 11
884.1590978825619
 21
274.0932859669166
 31
0.0
  0
LINE
  5
C024
330
1E
100
AcDbEntity
  8
0
 48
0.27
100
AcDbLine
 10
882.1187730474527
 20
272.6135586045522
 30
0.0
 11
882.0953028597831
 21
273.2362366775395
 31
0.0
  0
LINE
  5
C025
330
1E
100
AcDbEntity
  8
0
 48
0.27
100
AcDbLine
 10
884.110325516667
 20
272.7993161050737
 30
0.0
 11
884.0938576412918
 21
273.2362366775395
 31
0.0
  0
LINE
  5
C026
330
1E
100
AcDbEntity
  8
0
 48
0.27
100
AcDbLine
 10
884.0938576412918
 20
273.2362366775395
 30
0.0
 11
884.110325516667
 21
273.6731572500052
 31
0.0
  0
LINE
  5
C027
330
1E
100
AcDbEntity
  8
0
 48
0.27
100
AcDbLine
 10
882.0953028597831
 20
273.2362366775395
 30
0.0
 11
882.1187730474527
 21
273.8589130805264
 31
0.0
  0
LINE
  5
C028
330
1E
100
AcDbEntity
  8
0
 48
0.27
100
AcDbLine
 10
881.4665860647876
 20
270.8439826076582
 30
0.0
 11
881.5300293855075
 21
270.8021541040476
 31
0.0
  0
LINE
  5
C029
330
1E
100
AcDbEntity
  8
0
 48
0.27
100
AcDbLine
 10
881.2009323982984
 20
270.8161303386317
 30
0.0
 11
881.2613747278922
 21
270.813563547703
 31
0.0
  0
LINE
  5
C02A
330
1E
100
AcDbEntity
  8
0
 48
0.27
100
AcDbLine
 10
881.4665860647876
 20
275.6284890774206
 30
0.0
 11
881.5300293855075
 21
275.6703175810309
 31
0.0
  0
LINE
  5
C02B
330
1E
100
AcDbEntity
  8
中心線
 48
0.27
100
AcDbLine
 10
887.3079578901716
 20
273.2362366775395
 30
0.0
 11
865.5493092182274
 21
273.2362366775395
 31
0.0
  0
POINT
  5
C02C
330
1E
100
AcDbEntity
  8
0
100
AcDbPoint
 10
885.8079578901715
 20
273.2362366775395
 30
0.0
1001
pntflag
1000
endpoint
  0
LINE
  5
C02D
330
1E
100
AcDbEntity
  8
中心線
 48
0.4
100
AcDbLine
 10
887.3079578901716
 20
273.2362366775395
 30
0.0
 11
865.5493092182274
 21
273.2362366775395
 31
0.0
  0
ARC
  5
C02E
330
1E
100
AcDbEntity
  8
0
100
AcDbCircle
 10
1105.920221140423
 20
262.5504966757225
 30
0.0
 40
2.258017748891656
100
AcDbArc
 50
105.9630221688284
 51
179.0723572120041
  0
LINE
  5
C02F
330
1E
100
AcDbEntity
  8
0
100
AcDbLine
 10
1103.662499331858
 20
259.8854200186887
 30
0.0
 11
1103.662499331858
 21
262.5870533363906
 31
0.0
  0
ARC
  5
C030
330
1E
100
AcDbEntity
  8
0
100
AcDbCircle
 10
1105.920221140423
 20
259.9219766793559
 30
0.0
 40
2.258017748891656
100
AcDbArc
 50
180.9276427879959
 51
254.0369778311716
  0
ARC
  5
C031
330
1E
100
AcDbEntity
  8
0
100
AcDbCircle
 10
1257.878234975891
 20
262.5504966757225
 30
0.0
 40
2.258017748891656
100
AcDbArc
 50
0.9276427879959022
 51
74.03697783117156
  0
LINE
  5
C032
330
1E
100
AcDbEntity
  8
0
100
AcDbLine
 10
1260.135956784456
 20
259.8854200186887
 30
0.0
 11
1260.135956784456
 21
262.5870533363906
 31
0.0
  0
ARC
  5
C033
330
1E
100
AcDbEntity
  8
0
100
AcDbCircle
 10
1257.878234975891
 20
259.9219766793559
 30
0.0
 40
2.258017748891656
100
AcDbArc
 50
285.9630221688284
 51
359.0723572120041
  0
LINE
  5
DED0
330
1E
100
AcDbEntity
  8
虛線
  6
DASHED
100
AcDbLine
 10
883.3601568452797
 20
262.5362366775395
 30
0.0
 11
863.8601568452797
 21
262.5362366775395
 31
0.0
  0
LINE
  5
DED3
330
1E
100
AcDbEntity
  8
虛線
  6
DASHED
100
AcDbLine
 10
1128.899228042757
 20
262.5362366775395
 30
0.0
 11
1234.899228042757
 21
262.5362366775395
 31
0.0
  0
LINE
  5
DED8
330
1E
100
AcDbEntity
  8
中心線
100
AcDbLine
 10
1181.899228042757
 20
478.3964871758289
 30
0.0
 11
1181.899228042757
 21
348.3964871758294
 31
0.0
  0
LINE
  5
DED9
330
1E
100
AcDbEntity
  8
中心線
100
AcDbLine
 10
1239.899228042757
 20
413.3964871758291
 30
0.0
 11
1123.899228042757
 21
413.3964871758291
 31
0.0
  0
LINE
  5
DEDA
330
1E
100
AcDbEntity
  8
虛線
 48
0.4
100
AcDbLine
 10
1241.399228042761
 20
223.9362366775417
 30
0.0
 11
1242.099228042763
 21
223.2362366775399
 31
0.0
  0
LINE
  5
DEDB
330
1E
100
AcDbEntity
  8
虛線
 48
0.4
100
AcDbLine
 10
1227.399228042753
 20
223.9362366775417
 30
0.0
 11
1226.699228042751
 21
223.2362366775399
 31
0.0
  0
LINE
  5
DEDC
330
1E
100
AcDbEntity
  8
虛線
 48
0.4
100
AcDbLine
 10
1227.399228042753
 20
223.9362366775417
 30
0.0
 11
1241.399228042753
 21
223.9362366775417
 31
0.0
  0
LINE
  5
DEDE
330
1E
100
AcDbEntity
  8
虛線
 48
0.4
100
AcDbLine
 10
1241.399228042756
 20
231.2362366774396
 30
0.0
 11
1241.399228042756
 21
223.9362366775417
 31
0.0
  0
LINE
  5
DEE0
330
1E
100
AcDbEntity
  8
虛線
 48
0.4
100
AcDbLine
 10
1227.399228042756
 20
231.2362366774396
 30
0.0
 11
1227.399228042756
 21
223.9362366775417
 31
0.0
  0
LINE
  5
DEEE
330
1E
100
AcDbEntity
  8
虛線
 48
0.4
100
AcDbLine
 10
1174.899228042756
 20
231.2362366774396
 30
0.0
 11
1174.899228042756
 21
223.9362366775417
 31
0.0
  0
LINE
  5
DEEF
330
1E
100
AcDbEntity
  8
虛線
 48
0.4
100
AcDbLine
 10
1188.899228042756
 20
231.2362366774396
 30
0.0
 11
1188.899228042756
 21
223.9362366775417
 31
0.0
  0
LINE
  5
DEF0
330
1E
100
AcDbEntity
  8
虛線
 48
0.4
100
AcDbLine
 10
1174.899228042753
 20
223.9362366775417
 30
0.0
 11
1188.899228042753
 21
223.9362366775417
 31
0.0
  0
LINE
  5
DEF1
330
1E
100
AcDbEntity
  8
虛線
 48
0.4
100
AcDbLine
 10
1174.899228042753
 20
223.9362366775417
 30
0.0
 11
1174.199228042751
 21
223.2362366775399
 31
0.0
  0
LINE
  5
DEF2
330
1E
100
AcDbEntity
  8
虛線
 48
0.4
100
AcDbLine
 10
1188.899228042761
 20
223.9362366775417
 30
0.0
 11
1189.599228042763
 21
223.2362366775399
 31
0.0
  0
LINE
  5
DEFD
330
1E
100
AcDbEntity
  8
虛線
 48
0.4
100
AcDbLine
 10
1122.399228042756
 20
231.2362366774397
 30
0.0
 11
1122.399228042756
 21
223.9362366775417
 31
0.0
  0
LINE
  5
DEFE
330
1E
100
AcDbEntity
  8
虛線
 48
0.4
100
AcDbLine
 10
1136.399228042756
 20
231.2362366774397
 30
0.0
 11
1136.399228042756
 21
223.9362366775417
 31
0.0
  0
LINE
  5
DEFF
330
1E
100
AcDbEntity
  8
虛線
 48
0.4
100
AcDbLine
 10
1122.399228042753
 20
223.9362366775417
 30
0.0
 11
1136.399228042753
 21
223.9362366775417
 31
0.0
  0
LINE
  5
DF00
330
1E
100
AcDbEntity
  8
虛線
 48
0.4
100
AcDbLine
 10
1122.399228042753
 20
223.9362366775417
 30
0.0
 11
1121.699228042751
 21
223.2362366775399
 31
0.0
  0
LINE
  5
DF01
330
1E
100
AcDbEntity
  8
虛線
 48
0.4
100
AcDbLine
 10
1136.399228042761
 20
223.9362366775417
 30
0.0
 11
1137.099228042763
 21
223.2362366775399
 31
0.0
  0
LINE
  5
DF0A
330
1E
100
AcDbEntity
  8
中心線
 48
0.27
100
AcDbLine
 10
1113.061636728939
 20
269.2362366775396
 30
0.0
 11
1124.736819356574
 21
269.2362366775396
 31
0.0
  0
LINE
  5
DF0B
330
1E
100
AcDbEntity
  8
中心線
 48
0.27
100
AcDbLine
 10
1118.899228042757
 20
263.3986453637218
 30
0.0
 11
1118.899228042757
 21
275.0738279913572
 31
0.0
  0
LINE
  5
DF13
330
1E
100
AcDbEntity
  8
中心線
 48
0.27
100
AcDbLine
 10
1239.061636728939
 20
269.2362366775396
 30
0.0
 11
1250.736819356575
 21
269.2362366775396
 31
0.0
  0
LINE
  5
DF14
330
1E
100
AcDbEntity
  8
中心線
 48
0.27
100
AcDbLine
 10
1244.899228042757
 20
263.3986453637218
 30
0.0
 11
1244.899228042757
 21
275.0738279913572
 31
0.0
  0
CIRCLE
  5
DF1E
330
1E
100
AcDbEntity
  8
0
  6
Continuous
100
AcDbCircle
 10
1151.899212783968
 20
413.3964871758283
 30
0.0
 40
5.125
  0
ARC
  5
DF1F
330
1E
100
AcDbEntity
  8
標註線
  6
Continuous
 62
     1
100
AcDbCircle
 10
1151.899212783968
 20
413.3964871758283
 30
0.0
 40
6.0
100
AcDbArc
 50
180.0
 51
90.0
  0
CIRCLE
  5
DF27
330
1E
100
AcDbEntity
  8
0
  6
Continuous
100
AcDbCircle
 10
1141.899212783968
 20
363.3964871758283
 30
0.0
 40
5.125
  0
ARC
  5
DF28
330
1E
100
AcDbEntity
  8
標註線
  6
Continuous
 62
     1
100
AcDbCircle
 10
1141.899212783968
 20
363.3964871758283
 30
0.0
 40
6.0
100
AcDbArc
 50
180.0
 51
90.0
  0
CIRCLE
  5
DF30
330
1E
100
AcDbEntity
  8
0
  6
Continuous
100
AcDbCircle
 10
1221.899243301546
 20
363.3964871758283
 30
0.0
 40
5.125
  0
ARC
  5
DF31
330
1E
100
AcDbEntity
  8
標註線
  6
Continuous
 62
     1
100
AcDbCircle
 10
1221.899243301546
 20
363.3964871758283
 30
0.0
 40
6.0
100
AcDbArc
 50
180.0
 51
90.0
  0
CIRCLE
  5
DF39
330
1E
100
AcDbEntity
  8
0
  6
Continuous
100
AcDbCircle
 10
1211.899243301546
 20
413.3964871758291
 30
0.0
 40
5.125
  0
ARC
  5
DF3A
330
1E
100
AcDbEntity
  8
標註線
  6
Continuous
 62
     1
100
AcDbCircle
 10
1211.899243301546
 20
413.3964871758291
 30
0.0
 40
6.0
100
AcDbArc
 50
180.0
 51
90.0
  0
CIRCLE
  5
DF42
330
1E
100
AcDbEntity
  8
0
  6
Continuous
100
AcDbCircle
 10
1221.899243301546
 20
463.3964871758283
 30
0.0
 40
5.125
  0
ARC
  5
DF43
330
1E
100
AcDbEntity
  8
標註線
  6
Continuous
 62
     1
100
AcDbCircle
 10
1221.899243301546
 20
463.3964871758283
 30
0.0
 40
6.0
100
AcDbArc
 50
180.0
 51
90.0
  0
LINE
  5
DF4B
330
1E
100
AcDbEntity
  8
中心線
100
AcDbLine
 10
1261.800806955093
 20
446.8964871758301
 30
0.0
 11
1251.155581427165
 21
446.8964871758301
 31
0.0
  0
LINE
  5
DF52
330
1E
100
AcDbEntity
  8
中心線
100
AcDbLine
 10
1261.800806955093
 20
379.8964871758302
 30
0.0
 11
1251.155581427165
 21
379.8964871758302
 31
0.0
  0
LINE
  5
DF53
330
1E
100
AcDbEntity
  8
中心線
100
AcDbLine
 10
1101.99764913042
 20
446.8964871758301
 30
0.0
 11
1112.642874658349
 21
446.8964871758301
 31
0.0
  0
LINE
  5
DF54
330
1E
100
AcDbEntity
  8
中心線
100
AcDbLine
 10
1101.99764913042
 20
379.8964871758302
 30
0.0
 11
1112.642874658349
 21
379.8964871758302
 31
0.0
  0
LINE
  5
DF55
330
1E
100
AcDbEntity
  8
中心線
100
AcDbLine
 10
1261.800806970494
 20
261.2362366775396
 30
0.0
 11
1251.155581442565
 21
261.2362366775396
 31
0.0
  0
LINE
  5
DF56
330
1E
100
AcDbEntity
  8
中心線
100
AcDbLine
 10
1101.99764911502
 20
261.2362366775396
 30
0.0
 11
1112.642874642949
 21
261.2362366775396
 31
0.0
  0
LINE
  5
DF57
330
1E
100
AcDbEntity
  8
虛線
  6
DASHED
100
AcDbLine
 10
928.7351568452798
 20
281.7362366775859
 30
0.0
 11
928.7351568452798
 21
268.2362366775859
 31
0.0
  0
LINE
  5
DF58
330
1E
100
AcDbEntity
  8
虛線
  6
DASHED
100
AcDbLine
 10
918.4851568452797
 20
281.7362366775859
 30
0.0
 11
918.4851568452797
 21
268.2362366775859
 31
0.0
  0
LINE
  5
DF59
330
1E
100
AcDbEntity
  8
虛線
  6
DASHED
100
AcDbLine
 10
878.7351568452798
 20
281.7362366775842
 30
0.0
 11
878.7351568452796
 21
272.5362366775838
 31
0.0
  0
LINE
  5
DF5A
330
1E
100
AcDbEntity
  8
虛線
  6
DASHED
100
AcDbLine
 10
868.4851568452796
 20
281.7362366775833
 30
0.0
 11
868.4851568452797
 21
272.5362366775838
 31
0.0
  0
LINE
  5
DF5B
330
1E
100
AcDbEntity
  8
虛線
  6
DASHED
100
AcDbLine
 10
818.4851568452796
 20
281.7362366775859
 30
0.0
 11
818.4851568452796
 21
268.236236677586
 31
0.0
  0
LINE
  5
DF5C
330
1E
100
AcDbEntity
  8
虛線
  6
DASHED
100
AcDbLine
 10
828.7351568452798
 20
281.736236677586
 30
0.0
 11
828.7351568452798
 21
268.236236677586
 31
0.0
  0
LINE
  5
DF5D
330
1E
100
AcDbEntity
  8
虛線
  6
DASHED
100
AcDbLine
 10
818.4851568452796
 20
281.7362366775859
 30
0.0
 11
816.9851568453253
 21
283.2362366775395
 31
0.0
  0
LINE
  5
DF5E
330
1E
100
AcDbEntity
  8
虛線
  6
DASHED
100
AcDbLine
 10
828.7351568452798
 20
281.736236677586
 30
0.0
 11
830.2351568452339
 21
283.2362366775391
 31
0.0
  0
LINE
  5
DF5F
330
1E
100
AcDbEntity
  8
虛線
  6
DASHED
100
AcDbLine
 10
818.4851568452796
 20
281.7362366775859
 30
0.0
 11
828.7351568452798
 21
281.736236677586
 31
0.0
  0
LINE
  5
DF60
330
1E
100
AcDbEntity
  8
虛線
  6
DASHED
100
AcDbLine
 10
817.6101568452798
 20
282.6112366775856
 30
0.0
 11
817.6101568452798
 21
268.236236677586
 31
0.0
  0
LINE
  5
DF61
330
1E
100
AcDbEntity
  8
虛線
  6
DASHED
100
AcDbLine
 10
829.6101568452799
 20
282.6112366775855
 30
0.0
 11
829.6101568452797
 21
268.236236677586
 31
0.0
  0
LINE
  5
DF62
330
1E
100
AcDbEntity
  8
虛線
  6
DASHED
100
AcDbLine
 10
1147.024228042757
 20
281.736236677586
 30
0.0
 11
1147.024228042757
 21
268.2362366776396
 31
0.0
  0
LINE
  5
DF63
330
1E
100
AcDbEntity
  8
虛線
  6
DASHED
100
AcDbLine
 10
1136.774228042757
 20
281.7362366775861
 30
0.0
 11
1136.774228042757
 21
268.2362366776396
 31
0.0
  0
LINE
  5
DF65
330
1E
100
AcDbEntity
  8
虛線
  6
DASHED
100
AcDbLine
 10
1146.774228042758
 20
281.736236677586
 30
0.0
 11
1146.774228042758
 21
272.5362366775839
 31
0.0
  0
LINE
  5
DF66
330
1E
100
AcDbEntity
  8
虛線
  6
DASHED
100
AcDbLine
 10
1157.024228042758
 20
281.7362366775859
 30
0.0
 11
1157.024228042758
 21
272.536236677584
 31
0.0
  0
LINE
  5
DF67
330
1E
100
AcDbEntity
  8
虛線
  6
DASHED
100
AcDbLine
 10
1146.774228042758
 20
281.7362366775862
 30
0.0
 11
1157.024228042758
 21
281.7362366775859
 31
0.0
  0
LINE
  5
DF68
330
1E
100
AcDbEntity
  8
虛線
  6
DASHED
100
AcDbLine
 10
1217.024228042756
 20
281.7362366775862
 30
0.0
 11
1206.774228042756
 21
281.7362366775859
 31
0.0
  0
LINE
  5
DF69
330
1E
100
AcDbEntity
  8
虛線
  6
DASHED
100
AcDbLine
 10
1206.774228042756
 20
281.7362366775859
 30
0.0
 11
1206.774228042756
 21
272.536236677584
 31
0.0
  0
LINE
  5
DF6A
330
1E
100
AcDbEntity
  8
虛線
  6
DASHED
100
AcDbLine
 10
1217.024228042756
 20
281.736236677586
 30
0.0
 11
1217.024228042756
 21
272.5362366775839
 31
0.0
  0
LINE
  5
DF6B
330
1E
100
AcDbEntity
  8
虛線
  6
DASHED
100
AcDbLine
 10
1220.649228042758
 20
272.5362366775839
 30
0.0
 11
1203.149228042758
 21
272.5362366775841
 31
0.0
  0
LINE
  5
DF6C
330
1E
100
AcDbEntity
  8
虛線
  6
DASHED
100
AcDbLine
 10
1217.024228042756
 20
281.736236677586
 30
0.0
 11
1218.52422804271
 21
283.2362366775396
 31
0.0
  0
LINE
  5
DF6D
330
1E
100
AcDbEntity
  8
虛線
  6
DASHED
100
AcDbLine
 10
1217.899228042757
 20
282.6112366775873
 30
0.0
 11
1217.899228042757
 21
272.5362366775839
 31
0.0
  0
LINE
  5
DF6E
330
1E
100
AcDbEntity
  8
虛線
  6
DASHED
100
AcDbLine
 10
1206.774228042756
 20
281.7362366775859
 30
0.0
 11
1205.274228042801
 21
283.2362366775397
 31
0.0
  0
LINE
  5
DF6F
330
1E
100
AcDbEntity
  8
虛線
  6
DASHED
100
AcDbLine
 10
1205.899228042756
 20
282.6112366775854
 30
0.0
 11
1205.899228042756
 21
272.5362366775841
 31
0.0
  0
LINE
  5
DF70
330
1E
100
AcDbEntity
  8
虛線
  6
DASHED
100
AcDbLine
 10
1216.774228042757
 20
281.7362366775862
 30
0.0
 11
1215.274228042803
 21
283.2362366775398
 31
0.0
  0
LINE
  5
DF71
330
1E
100
AcDbEntity
  8
虛線
  6
DASHED
100
AcDbLine
 10
1227.024228042757
 20
281.736236677586
 30
0.0
 11
1228.524228042711
 21
283.2362366775392
 31
0.0
  0
LINE
  5
DF72
330
1E
100
AcDbEntity
  8
虛線
  6
DASHED
100
AcDbLine
 10
1216.774228042757
 20
281.7362366775862
 30
0.0
 11
1227.024228042757
 21
281.7362366775861
 31
0.0
  0
LINE
  5
DF73
330
1E
100
AcDbEntity
  8
虛線
  6
DASHED
100
AcDbLine
 10
1227.024228042757
 20
281.7362366775861
 30
0.0
 11
1227.024228042757
 21
268.2362366776396
 31
0.0
  0
LINE
  5
DF74
330
1E
100
AcDbEntity
  8
虛線
  6
DASHED
100
AcDbLine
 10
1227.899228042757
 20
282.6112366775857
 30
0.0
 11
1227.899228042757
 21
268.2362366776396
 31
0.0
  0
LINE
  5
DF76
330
1E
100
AcDbEntity
  8
虛線
  6
DASHED
100
AcDbLine
 10
1216.774228042757
 20
281.736236677586
 30
0.0
 11
1216.774228042757
 21
268.2362366776396
 31
0.0
  0
LINE
  5
DF77
330
1E
100
AcDbEntity
  8
虛線
  6
DASHED
100
AcDbLine
 10
1215.899228042757
 20
282.6112366775857
 30
0.0
 11
1215.899228042757
 21
268.2362366776396
 31
0.0
  0
LINE
  5
DF83
330
1E
100
AcDbEntity
  8
0
100
AcDbLine
 10
1046.647498772533
 20
261.2362366775396
 30
0.0
 11
1043.724725624803
 21
254.3621409101888
 31
0.0
  0
LINE
  5
DF84
330
1E
100
AcDbEntity
  8
0
100
AcDbLine
 10
1043.724725624803
 20
254.3621409101888
 30
0.0
 11
1048.609911797986
 21
245.9388894144758
 31
0.0
  0
LINE
  5
DF85
330
1E
100
AcDbEntity
  8
0
100
AcDbLine
 10
1048.609911797986
 20
245.9388894144758
 30
0.0
 11
1044.091107482332
 21
237.027334590899
 31
0.0
  0
LINE
  5
DF86
330
1E
100
AcDbEntity
  8
0
100
AcDbLine
 10
1044.091107482332
 20
237.027334590899
 30
0.0
 11
1048.732044497513
 21
228.8482373044599
 31
0.0
  0
LINE
  5
DF87
330
1E
100
AcDbEntity
  8
0
100
AcDbLine
 10
1048.732044497513
 20
228.8482373044599
 30
0.0
 11
1046.408817197761
 21
223.2362366775396
 31
0.0
  0
MTEXT
  5
DF88
330
1E
100
AcDbEntity
  8
0
100
AcDbMText
 10
842.854941393192
 20
203.6690532612183
 30
0.0
 40
7.800000159341863
 41
100.6095
 71
     1
 72
     5
  1
\A1;{\fTimes New Roman|b0|i0|c0|p18;RGW45CC\PC : 9440 kgf\PC\fProxy 1|b0|i0|c0|p0;\H0.7x;\S^ 0;\fTimes New Roman|b0|i0|c0|p18;\H1.429x;: 18220 kgf}
 73
     1
 44
1.0
1001
ACAD
1000
MTEXTBEGIN
1070
    73
1070
     1
1070
    44
1040
1.0
1070
    74
1070
     0
1000
MTEXTEND
  0
LINE
  5
E48C
330
1E
100
AcDbEntity
  8
虛線
  6
DASHED
100
AcDbLine
 10
882.3601568452797
 20
272.5362366775838
 30
0.0
 11
882.3601568452797
 21
262.5362366775395
 31
0.0
  0
LINE
  5
E48D
330
1E
100
AcDbEntity
  8
虛線
  6
DASHED
100
AcDbLine
 10
864.8601568452797
 20
272.5362366775838
 30
0.0
 11
864.8601568452798
 21
262.5362366775395
 31
0.0
  0
LINE
  5
E490
330
1E
100
AcDbEntity
  8
虛線
  6
DASHED
100
AcDbLine
 10
1220.649228042758
 20
272.5362366775839
 30
0.0
 11
1220.649228042758
 21
262.5362366775395
 31
0.0
  0
LINE
  5
E491
330
1E
100
AcDbEntity
  8
虛線
  6
DASHED
100
AcDbLine
 10
1203.149228042758
 20
272.5362366775841
 30
0.0
 11
1203.149228042758
 21
262.5362366775395
 31
0.0
  0
LINE
  5
E492
330
1E
100
AcDbEntity
  8
虛線
  6
DASHED
100
AcDbLine
 10
1160.649228042758
 20
272.5362366775842
 30
0.0
 11
1160.649228042758
 21
262.5362366775395
 31
0.0
  0
LINE
  5
E493
330
1E
100
AcDbEntity
  8
虛線
  6
DASHED
100
AcDbLine
 10
1143.149228042758
 20
272.5362366775839
 30
0.0
 11
1143.149228042758
 21
262.5362366775395
 31
0.0
  0
LINE
  5
EAA1
330
1E
100
AcDbEntity
  8
0
  6
Continuous
 62
     7
100
AcDbLine
 10
1361.899228042757
 20
260.236236677731
 30
0.0
 11
1260.135956784456
 21
260.2362366776891
 31
0.0
  0
LINE
  5
EAA2
330
1E
100
AcDbEntity
  8
0
  6
Continuous
 62
     7
100
AcDbLine
 10
1361.899228042757
 20
256.9397900757486
 30
0.0
 11
1258.499228050457
 21
256.9397900757061
 31
0.0
  0
LINE
  5
EAA3
330
1E
100
AcDbEntity
  8
0
  6
Continuous
 62
     7
100
AcDbLine
 10
1361.899228042757
 20
249.4397900599251
 30
0.0
 11
1258.499228050457
 21
249.4397900598825
 31
0.0
  0
LINE
  5
EAA4
330
1E
100
AcDbEntity
  8
0
  6
Continuous
 62
     7
100
AcDbLine
 10
1361.899228042757
 20
241.0326832959928
 30
0.0
 11
1258.499228050457
 21
241.0326832959502
 31
0.0
  0
LINE
  5
EAA5
330
1E
100
AcDbEntity
  8
0
  6
Continuous
 62
     7
100
AcDbLine
 10
1361.899228042757
 20
233.5326832827575
 30
0.0
 11
1258.499228050457
 21
233.5326832827149
 31
0.0
  0
LINE
  5
EAA6
330
1E
100
AcDbEntity
  8
0
  6
Continuous
 62
     7
100
AcDbLine
 10
1361.899228042757
 20
225.2362366777312
 30
0.0
 11
1047.236766962656
 21
225.2362366776017
 31
0.0
  0
LINE
  5
EAA7
330
1E
100
AcDbEntity
  8
0
  6
Continuous
 62
     7
100
AcDbLine
 10
1103.662499331858
 20
260.2362366776248
 30
0.0
 11
1046.222312210334
 21
260.2362366776011
 31
0.0
  0
LINE
  5
EAA9
330
1E
100
AcDbEntity
  8
0
  6
Continuous
 62
     7
100
AcDbLine
 10
1105.299228050457
 20
256.939790075643
 30
0.0
 11
1044.820707412076
 21
256.9397900756182
 31
0.0
  0
LINE
  5
EAAA
330
1E
100
AcDbEntity
  8
0
  6
Continuous
 62
     7
100
AcDbLine
 10
1105.299228050457
 20
249.4397900598195
 30
0.0
 11
1046.579513983685
 21
249.4397900597953
 31
0.0
  0
LINE
  5
EAAB
330
1E
100
AcDbEntity
  8
0
  6
Continuous
 62
     7
100
AcDbLine
 10
1105.299228050457
 20
241.0326832958872
 30
0.0
 11
1046.122109633136
 21
241.0326832958628
 31
0.0
  0
LINE
  5
EAAC
330
1E
100
AcDbEntity
  8
0
  6
Continuous
 62
     7
100
AcDbLine
 10
1105.299228050457
 20
233.5326832826519
 30
0.0
 11
1046.074022716584
 21
233.5326832826275
 31
0.0
  0
ENDSEC
  0
SECTION
  2
OBJECTS
  0
DICTIONARY
  5
C
330
0
100
AcDbDictionary
281
     1
  3
ACAD_COLOR
350
3D97
  3
ACAD_GROUP
350
D
  3
ACAD_LAYOUT
350
19
  3
ACAD_MATERIAL
350
3D96
  3
ACAD_MLINESTYLE
350
16
  3
ACAD_PLOTSETTINGS
350
18
  3
ACAD_PLOTSTYLENAME
350
E
  3
ACAD_TABLESTYLE
350
E7A3
  3
ACDBHEADERROUNDTRIPXREC
350
EACA
  3
AcDbVariableDictionary
350
3E63
  0
DICTIONARY
  5
43C2
330
2
100
AcDbDictionary
280
     1
281
     1
  3
ACAD_LAYERSTATES
360
43C3
  0
DICTIONARY
  5
3D1E
330
1E
100
AcDbDictionary
280
     1
281
     1
  3
ACAD_LAYOUTSELFREF
360
3D92
  3
ACAD_SORTENTS
360
EAA8
  0
DICTIONARY
  5
3D20
330
1A
100
AcDbDictionary
280
     1
281
     1
  3
ACAD_LAYOUTSELFREF
360
3D91
  0
DICTIONARY
  5
69B8
330
69B7
100
AcDbDictionary
280
     1
281
     1
  3
ACAD_SORTENTS
360
69B9
  0
DICTIONARY
  5
69CC
330
69CB
100
AcDbDictionary
280
     1
281
     1
  3
ACAD_SORTENTS
360
69CD
  0
DICTIONARY
  5
3D97
102
{ACAD_REACTORS
330
C
102
}
330
C
100
AcDbDictionary
281
     1
  0
DICTIONARY
  5
D
102
{ACAD_REACTORS
330
C
102
}
330
C
100
AcDbDictionary
281
     1
  3
*A1
350
4143
  3
*A10
350
4378
  3
*A11
350
43BF
  3
*A12
350
423A
  3
*A13
350
414C
  3
*A14
350
579E
  3
*A15
350
4235
  3
*A16
350
437C
  3
*A17
350
414F
  3
*A18
350
437E
  3
*A19
350
4149
  3
*A2
350
4241
  3
*A20
350
4239
  3
*A21
350
4237
  3
*A22
350
423C
  3
*A23
350
43B6
  3
*A24
350
423B
  3
*A25
350
43B8
  3
*A26
350
576A
  3
*A27
350
4240
  3
*A28
350
423E
  3
*A29
350
4374
  3
*A3
350
43BB
  3
*A30
350
4373
  3
*A31
350
43BD
  3
*A32
350
4236
  3
*A33
350
4377
  3
*A34
350
4145
  3
*A35
350
437A
  3
*A36
350
4379
  3
*A37
350
43C1
  3
*A38
350
423D
  3
*A39
350
437D
  3
*A4
350
414D
  3
*A40
350
4146
  3
*A41
350
437F
  3
*A42
350
414B
  3
*A43
350
4375
  3
*A44
350
43B7
  3
*A45
350
414E
  3
*A46
350
43B9
  3
*A47
350
57D9
  3
*A48
350
437B
  3
*A49
350
43BC
  3
*A5
350
4144
  3
*A50
350
43BE
  3
*A51
350
4238
  3
*A52
350
43B5
  3
*A53
350
43C0
  3
*A54
350
4148
  3
*A55
350
423F
  3
*A56
350
43BA
  3
*A6
350
414A
  3
*A7
350
5691
  3
*A8
350
4376
  3
*A9
350
4147
  0
DICTIONARY
  5
19
102
{ACAD_REACTORS
330
C
102
}
330
C
100
AcDbDictionary
281
     1
  3
Model
350
21
  3
配置1
350
1D
  0
DICTIONARY
  5
3D96
102
{ACAD_REACTORS
330
C
102
}
330
C
100
AcDbDictionary
281
     1
  0
DICTIONARY
  5
16
102
{ACAD_REACTORS
330
C
102
}
330
C
100
AcDbDictionary
281
     1
  3
Standard
350
17
  0
DICTIONARY
  5
18
102
{ACAD_REACTORS
330
C
102
}
330
C
100
AcDbDictionary
281
     1
  3
LANSRO
350
4150
  0
ACDBDICTIONARYWDFLT
  5
E
102
{ACAD_REACTORS
330
C
102
}
330
C
100
AcDbDictionary
281
     1
  3
Normal
350
F
100
AcDbDictionaryWithDefault
340
F
  0
DICTIONARY
  5
E7A3
102
{ACAD_REACTORS
330
C
102
}
330
C
100
AcDbDictionary
281
     1
  3
Standard
350
E7A4
  0
DICTIONARY
  5
EACA
102
{ACAD_REACTORS
330
C
102
}
330
C
100
AcDbDictionary
281
     1
  3
COLORDICT
350
EACC
  3
MATERIALDICT
350
EACB
  0
DICTIONARY
  5
3E63
102
{ACAD_REACTORS
330
C
102
}
330
C
100
AcDbDictionary
281
     1
  3
CTABLESTYLE
350
E8F8
  3
DIMASSOC
350
3E64
  3
PROJECTNAME
350
3E65
  0
DICTIONARY
  5
43C3
102
{ACAD_REACTORS
330
43C2
102
}
330
43C2
100
AcDbDictionary
281
     1
  0
XRECORD
  5
3D92
102
{ACAD_REACTORS
330
3D1E
102
}
330
3D1E
100
AcDbXrecord
280
     1
340
1E
  0
SORTENTSTABLE
  5
EAA8
102
{ACAD_REACTORS
330
3D1E
102
}
330
3D1E
100
AcDbSortentsTable
330
1E
331
BF28
  5
BF28
331
BE14
  5
BE14
331
BEB2
  5
BEB2
331
C01A
  5
C01A
331
BEF1
  5
BEF1
331
BD63
  5
BD63
331
BD9A
  5
BD9A
331
BFE5
  5
BFE5
331
BCD5
  5
BCD5
331
BD1C
  5
BD1C
331
BEF9
  5
BEF9
331
DEF1
  5
DEF1
331
BF30
  5
BF30
331
DF28
  5
DF28
331
BE1C
  5
BE1C
331
C022
  5
C022
331
BF6F
  5
BF6F
331
DF67
  5
DF67
331
BFA6
  5
BFA6
331
BDE1
  5
BDE1
331
BCDD
  5
BCDD
331
BF77
  5
BF77
331
DF6F
  5
DF6F
331
BFAE
  5
BFAE
331
BFED
  5
BFED
331
BF01
  5
BF01
331
BF38
  5
BF38
331
DF30
  5
DF30
331
BD6B
  5
BD6B
331
BE24
  5
BE24
331
BEC2
  5
BEC2
331
C02A
  5
C02A
331
BDA2
  5
BDA2
331
BDAA
  5
BDAA
331
BD2C
  5
BD2C
331
BCE5
  5
BCE5
331
BC96
  5
BC96
331
BF7F
  5
BF7F
331
DF77
  5
DF77
331
BFB6
  5
BFB6
331
BFF5
  5
BFF5
331
BECA
  5
BECA
331
C032
  5
C032
331
BF40
  5
BF40
331
BD73
  5
BD73
331
BDB2
  5
BDB2
331
BD34
  5
BD34
331
BC9E
  5
BC9E
331
BFBE
  5
BFBE
331
EAA6
  5
EAB1
331
BED2
  5
BED2
331
BF09
  5
BF09
331
DF01
  5
DF01
331
BE34
  5
BE34
331
BFFB
  5
BFFB
331
BF48
  5
BF48
331
BD7B
  5
BD7B
331
BDBA
  5
BDBA
331
BD3C
  5
BD3C
331
BF50
  5
BF50
331
BF87
  5
BF87
331
DF87
  5
DF87
331
C003
  5
C003
331
BE3C
  5
BE3C
331
BEDA
  5
BEDA
331
BF11
  5
BF11
331
BCAE
  5
BCAE
331
BFC6
  5
BFC6
331
BDFD
  5
BDFD
331
BD44
  5
BD44
331
BD83
  5
BD83
331
BFCE
  5
BFCE
331
BCFD
  5
BCFD
331
BF19
  5
BF19
331
BF58
  5
BF58
331
BE05
  5
BE05
331
C00B
  5
C00B
331
BEE2
  5
BEE2
331
DEDA
  5
DEDA
331
BF8F
  5
BF8F
331
BD54
  5
BD54
331
BF97
  5
BF97
331
BFD6
  5
BFD6
331
BD8B
  5
BD8B
331
BEEA
  5
BEEA
331
BF21
  5
BF21
331
BEAB
  5
BEAB
331
C013
  5
C013
331
BF60
  5
BF60
331
DF58
  5
DF58
331
BD5C
  5
BD5C
331
BFDE
  5
BFDE
331
BF9F
  5
BF9F
331
BCCE
  5
BCCE
331
BD93
  5
BD93
331
BF68
  5
BF68
331
DF60
  5
DF60
331
BEF2
  5
BEF2
331
BF29
  5
BF29
331
BE15
  5
BE15
331
BE74
  5
BE74
331
BEB3
  5
BEB3
331
C01B
  5
C01B
331
BD9B
  5
BD9B
331
BDDA
  5
BDDA
331
BD64
  5
BD64
331
BCD6
  5
BCD6
331
BF70
  5
BF70
331
DF68
  5
DF68
331
BFA7
  5
BFA7
331
BFE6
  5
BFE6
331
C023
  5
C023
331
BEFA
  5
BEFA
331
DEF2
  5
DEF2
331
BF31
  5
BF31
331
BFEE
  5
BFEE
331
BD6C
  5
BD6C
331
BDA3
  5
BDA3
331
BCDE
  5
BCDE
331
BDE2
  5
BDE2
331
BF39
  5
BF39
331
DF31
  5
DF31
331
BF78
  5
BF78
331
DF70
  5
DF70
331
BFAF
  5
BFAF
331
BE25
  5
BE25
331
BEC3
  5
BEC3
331
C02B
  5
C02B
331
BF02
  5
BF02
331
BD74
  5
BD74
331
BDAB
  5
BDAB
331
BFF6
  5
BFF6
331
BCE6
  5
BCE6
331
BD2D
  5
BD2D
331
BF41
  5
BF41
331
DF39
  5
DF39
331
BE2D
  5
BE2D
331
BECB
  5
BECB
331
C033
  5
C033
331
BC97
  5
BC97
331
BFB7
  5
BFB7
331
BD35
  5
BD35
331
BFBF
  5
BFBF
331
EAA7
  5
EAA2
331
BDB3
  5
BDB3
331
BC9F
  5
BC9F
331
BF0A
  5
BF0A
331
BF49
  5
BF49
331
BFFC
  5
BFFC
331
BE35
  5
BE35
331
BED3
  5
BED3
331
BF80
  5
BF80
331
BDBB
  5
BDBB
331
BD3D
  5
BD3D
331
BF88
  5
BF88
331
DF88
  5
DF88
331
BCAF
  5
BCAF
331
BFC7
  5
BFC7
331
BD7C
  5
BD7C
331
BEDB
  5
BEDB
331
DED3
  5
DED3
331
BF12
  5
BF12
331
DF0A
  5
DF0A
331
BE9C
  5
BE9C
331
C004
  5
C004
331
BF51
  5
BF51
331
BDFE
  5
BDFE
331
BE3D
  5
BE3D
331
BCFE
  5
BCFE
331
BF90
  5
BF90
331
BFCF
  5
BFCF
331
BD84
  5
BD84
331
BEE3
  5
BEE3
331
DEDB
  5
DEDB
331
BF1A
  5
BF1A
331
BE06
  5
BE06
331
C00C
  5
C00C
331
BF59
  5
BF59
331
BD8C
  5
BD8C
331
BD06
  5
BD06
331
BD55
  5
BD55
331
BCC7
  5
BCC7
331
BF61
  5
BF61
331
DF59
  5
DF59
331
BF98
  5
BF98
331
E490
  5
E490
331
BEAC
  5
BEAC
331
C014
  5
C014
331
BEEB
  5
BEEB
331
BF22
  5
BF22
331
BFD7
  5
BFD7
331
BD5D
  5
BD5D
331
BFDF
  5
BFDF
331
BCCF
  5
BCCF
331
BD94
  5
BD94
331
BF2A
  5
BF2A
331
BF69
  5
BF69
331
DF61
  5
DF61
331
BFA0
  5
BFA0
331
BE16
  5
BE16
331
BE75
  5
BE75
331
BEB4
  5
BEB4
331
C01C
  5
C01C
331
BEF3
  5
BEF3
331
BDDB
  5
BDDB
331
BD65
  5
BD65
331
BD9C
  5
BD9C
331
BFE7
  5
BFE7
331
BFA8
  5
BFA8
331
BCD7
  5
BCD7
331
BEFB
  5
BEFB
331
BF32
  5
BF32
331
BEBC
  5
BEBC
331
C024
  5
C024
331
BF71
  5
BF71
331
DF69
  5
DF69
331
BD1E
  5
BD1E
331
BD26
  5
BD26
331
BCDF
  5
BCDF
331
BF79
  5
BF79
331
DF71
  5
DF71
331
BFB0
  5
BFB0
331
BFEF
  5
BFEF
331
BF03
  5
BF03
331
BF3A
  5
BF3A
331
BD6D
  5
BD6D
331
BE8D
  5
BE8D
331
BEC4
  5
BEC4
331
C02C
  5
C02C
331
BDA4
  5
BDA4
331
BD75
  5
BD75
331
BDAC
  5
BDAC
331
BD2E
  5
BD2E
331
BFB8
  5
BFB8
331
BFF7
  5
BFF7
331
BECC
  5
BECC
331
BF42
  5
BF42
331
DF3A
  5
DF3A
331
BDB4
  5
BDB4
331
BD36
  5
BD36
331
BF4A
  5
BF4A
331
DF42
  5
DF42
331
BF81
  5
BF81
331
BED4
  5
BED4
331
BF0B
  5
BF0B
331
BFC0
  5
BFC0
331
BE36
  5
BE36
331
BE95
  5
BE95
331
BFFD
  5
BFFD
331
BD7D
  5
BD7D
331
BDBC
  5
BDBC
331
BCEF
  5
BCEF
331
BD3E
  5
BD3E
331
BF52
  5
BF52
331
BF89
  5
BF89
331
C005
  5
C005
331
BDFF
  5
BDFF
331
BE3E
  5
BE3E
331
BEDC
  5
BEDC
331
BF13
  5
BF13
331
DF0B
  5
DF0B
331
BCB0
  5
BCB0
331
BFC8
  5
BFC8
331
BD85
  5
BD85
331
BFD0
  5
BFD0
331
BCFF
  5
BCFF
331
BDC4
  5
BDC4
331
BF1B
  5
BF1B
331
DF13
  5
DF13
331
BF5A
  5
BF5A
331
DF52
  5
DF52
331
BEA5
  5
BEA5
331
C00D
  5
C00D
331
BEE4
  5
BEE4
331
DEDC
  5
DEDC
331
BF91
  5
BF91
331
BD56
  5
BD56
331
BFD8
  5
BFD8
331
BF99
  5
BF99
331
E491
  5
E491
331
BCC8
  5
BCC8
331
BD8D
  5
BD8D
331
BEEC
  5
BEEC
331
BF23
  5
BF23
331
BE0F
  5
BE0F
331
BE66
  5
BE66
331
BEAD
  5
BEAD
331
C015
  5
C015
331
BF62
  5
BF62
331
DF5A
  5
DF5A
331
BD17
  5
BD17
331
BD5E
  5
BD5E
331
BD95
  5
BD95
331
BFE0
  5
BFE0
331
BF6A
  5
BF6A
331
DF62
  5
DF62
331
BFA1
  5
BFA1
331
BEF4
  5
BEF4
331
BF2B
  5
BF2B
331
BCD0
  5
BCD0
331
BE76
  5
BE76
331
BEB5
  5
BEB5
331
C01D
  5
C01D
331
BD9D
  5
BD9D
331
BDDC
  5
BDDC
331
BD66
  5
BD66
331
BCD8
  5
BCD8
331
BF72
  5
BF72
331
DF6A
  5
DF6A
331
BFA9
  5
BFA9
331
BFE8
  5
BFE8
331
BEBD
  5
BEBD
331
C025
  5
C025
331
BEFC
  5
BEFC
331
BF33
  5
BF33
331
BE1F
  5
BE1F
331
BD6E
  5
BD6E
331
BDA5
  5
BDA5
331
BFF0
  5
BFF0
331
BCE0
  5
BCE0
331
BD27
  5
BD27
331
BC91
  5
BC91
331
BF3B
  5
BF3B
331
BF7A
  5
BF7A
331
DF72
  5
DF72
331
BFB1
  5
BFB1
331
BE27
  5
BE27
331
BE8E
  5
BE8E
331
BEC5
  5
BEC5
331
C02D
  5
C02D
331
BF04
  5
BF04
331
BD76
  5
BD76
331
BDAD
  5
BDAD
331
BFB9
  5
BFB9
331
EAA1
  5
EAA1
331
BF43
  5
BF43
331
BECD
  5
BECD
331
BC99
  5
BC99
331
BD2F
  5
BD2F
331
BDEC
  5
BDEC
331
BD37
  5
BD37
331
BDB5
  5
BDB5
331
BFC1
  5
BFC1
331
EAA9
  5
EAA5
331
BF0C
  5
BF0C
331
BF4B
  5
BF4B
331
DF43
  5
DF43
331
BE96
  5
BE96
331
BFFE
  5
BFFE
331
BDF8
  5
BDF8
331
BE37
  5
BE37
331
BED5
  5
BED5
331
BF82
  5
BF82
331
BDBD
  5
BDBD
331
BF8A
  5
BF8A
331
BCB1
  5
BCB1
331
BFC9
  5
BFC9
331
BD7E
  5
BD7E
331
BEDD
  5
BEDD
331
BF14
  5
BF14
331
BE9E
  5
BE9E
331
C006
  5
C006
331
BF53
  5
BF53
331
DF4B
  5
DF4B
331
BE3F
  5
BE3F
331
BD86
  5
BD86
331
BD00
  5
BD00
331
BDC5
  5
BDC5
331
BF5B
  5
BF5B
331
DF53
  5
DF53
331
BF92
  5
BF92
331
BEE5
  5
BEE5
331
BF1C
  5
BF1C
331
DF14
  5
DF14
331
BFD1
  5
BFD1
331
BEA6
  5
BEA6
331
C00E
  5
C00E
331
BD8E
  5
BD8E
331
BDCD
  5
BDCD
331
BD57
  5
BD57
331
BCC9
  5
BCC9
331
BF63
  5
BF63
331
DF5B
  5
DF5B
331
BF9A
  5
BF9A
331
E492
  5
E492
331
BE67
  5
BE67
331
BEAE
  5
BEAE
331
C016
  5
C016
331
BEED
  5
BEED
331
BF24
  5
BF24
331
BFD9
  5
BFD9
331
BD5F
  5
BD5F
331
BD96
  5
BD96
331
BFE1
  5
BFE1
331
BCD1
  5
BCD1
331
BEF5
  5
BEF5
331
BF2C
  5
BF2C
331
BE77
  5
BE77
331
BEB6
  5
BEB6
331
C01E
  5
C01E
331
BF6B
  5
BF6B
331
DF63
  5
DF63
331
BFA2
  5
BFA2
331
BD20
  5
BD20
331
BD67
  5
BD67
331
BFE9
  5
BFE9
331
BD9E
  5
BD9E
331
BFAA
  5
BFAA
331
BCD9
  5
BCD9
331
BEFD
  5
BEFD
331
BF34
  5
BF34
331
BEBE
  5
BEBE
331
C026
  5
C026
331
BF73
  5
BF73
331
DF6B
  5
DF6B
331
BD28
  5
BD28
331
BC92
  5
BC92
331
BCE1
  5
BCE1
331
BF7B
  5
BF7B
331
DF73
  5
DF73
331
BFF1
  5
BFF1
331
BF05
  5
BF05
331
DEFD
  5
DEFD
331
BF3C
  5
BF3C
331
BE28
  5
BE28
331
BE8F
  5
BE8F
331
BEC6
  5
BEC6
331
C02E
  5
C02E
331
BDA6
  5
BDA6
331
BD77
  5
BD77
331
BDAE
  5
BDAE
331
BD30
  5
BD30
331
BFBA
  5
BFBA
331
EAA2
  5
EAA4
331
BECE
  5
BECE
331
BF44
  5
BF44
331
BDB6
  5
BDB6
331
BDF1
  5
BDF1
331
BE30
  5
BE30
331
EAAA
  5
EAA9
331
BCE9
  5
BCE9
331
BD38
  5
BD38
331
BF4C
  5
BF4C
331
BF83
  5
BF83
331
DF83
  5
DF83
331
BE97
  5
BE97
331
BFFF
  5
BFFF
331
BE38
  5
BE38
331
BED6
  5
BED6
331
BF0D
  5
BF0D
331
BFC2
  5
BFC2
331
BCB2
  5
BCB2
331
BFCA
  5
BFCA
331
BD7F
  5
BD7F
331
BDBE
  5
BDBE
331
BF54
  5
BF54
331
BF8B
  5
BF8B
331
C007
  5
C007
331
BE40
  5
BE40
331
BEDE
  5
BEDE
331
BF15
  5
BF15
331
BD87
  5
BD87
331
BFD2
  5
BFD2
331
BD01
  5
BD01
331
BDC6
  5
BDC6
331
BF1D
  5
BF1D
331
BF5C
  5
BF5C
331
DF54
  5
DF54
331
BEA7
  5
BEA7
331
C00F
  5
C00F
331
BEE6
  5
BEE6
331
DEDE
  5
DEDE
331
BF93
  5
BF93
331
BDCE
  5
BDCE
331
BD58
  5
BD58
331
BFDA
  5
BFDA
331
BF64
  5
BF64
331
DF5C
  5
DF5C
331
BF9B
  5
BF9B
331
E493
  5
E493
331
BEEE
  5
BEEE
331
BF25
  5
BF25
331
BEAF
  5
BEAF
331
C017
  5
C017
331
BCCA
  5
BCCA
331
BD8F
  5
BD8F
331
BD97
  5
BD97
331
BE11
  5
BE11
331
BD19
  5
BD19
331
BD60
  5
BD60
331
BFE2
  5
BFE2
331
BF6C
  5
BF6C
331
BFA3
  5
BFA3
331
BEF6
  5
BEF6
331
DEEE
  5
DEEE
331
BF2D
  5
BF2D
331
BCD2
  5
BCD2
331
BE80
  5
BE80
331
C01F
  5
C01F
331
BD68
  5
BD68
331
BD9F
  5
BD9F
331
BCDA
  5
BCDA
331
BF74
  5
BF74
331
DF6C
  5
DF6C
331
BFAB
  5
BFAB
331
BFEA
  5
BFEA
331
BE21
  5
BE21
331
BE88
  5
BE88
331
BEBF
  5
BEBF
331
C027
  5
C027
331
BEFE
  5
BEFE
331
BF35
  5
BF35
331
BDA7
  5
BDA7
331
BFF2
  5
BFF2
331
BCE2
  5
BCE2
331
BD29
  5
BD29
331
BC93
  5
BC93
331
BF06
  5
BF06
331
DEFE
  5
DEFE
331
BF3D
  5
BF3D
331
BE29
  5
BE29
331
BEC7
  5
BEC7
331
C02F
  5
C02F
331
BF7C
  5
BF7C
331
DF74
  5
DF74
331
BFB3
  5
BFB3
331
BD31
  5
BD31
331
BFBB
  5
BFBB
331
EAA3
  5
EAA7
331
BF45
  5
BF45
331
BECF
  5
BECF
331
BDAF
  5
BDAF
331
BDB7
  5
BDB7
331
BE90
  5
BE90
331
BFF8
  5
BFF8
331
BE31
  5
BE31
331
BD39
  5
BD39
331
BD78
  5
BD78
331
BFC3
  5
BFC3
331
EAAB
  5
EAAC
331
BCEA
  5
BCEA
331
BF0E
  5
BF0E
331
BF4D
  5
BF4D
331
C000
  5
C000
331
BDFA
  5
BDFA
331
BE39
  5
BE39
331
BED7
  5
BED7
331
BF84
  5
BF84
331
DF84
  5
DF84
331
BCFA
  5
BCFA
331
BF8C
  5
BF8C
331
BFCB
  5
BFCB
331
BD80
  5
BD80
331
BEDF
  5
BEDF
331
BF16
  5
BF16
331
BEA0
  5
BEA0
331
C008
  5
C008
331
BF55
  5
BF55
331
BE41
  5
BE41
331
BD88
  5
BD88
331
BD02
  5
BD02
331
BDC7
  5
BDC7
331
BF5D
  5
BF5D
331
DF55
  5
DF55
331
BF94
  5
BF94
331
E48C
  5
E48C
331
BEA8
  5
BEA8
331
C010
  5
C010
331
BEE7
  5
BEE7
331
BF1E
  5
BF1E
331
BFD3
  5
BFD3
331
BD90
  5
BD90
331
BDCF
  5
BDCF
331
BD59
  5
BD59
331
BCCB
  5
BCCB
331
BF65
  5
BF65
331
DF5D
  5
DF5D
331
BF9C
  5
BF9C
331
BEEF
  5
BEEF
331
BF26
  5
BF26
331
DF1E
  5
DF1E
331
BFDB
  5
BFDB
331
BDD7
  5
BDD7
331
BEB0
  5
BEB0
331
C018
  5
C018
331
BFE3
  5
BFE3
331
BCD3
  5
BCD3
331
BD98
  5
BD98
331
BEF7
  5
BEF7
331
DEEF
  5
DEEF
331
BF2E
  5
BF2E
331
BE1A
  5
BE1A
331
BE81
  5
BE81
331
C020
  5
C020
331
BF6D
  5
BF6D
331
DF65
  5
DF65
331
BFA4
  5
BFA4
331
BDDF
  5
BDDF
331
BFEB
  5
BFEB
331
BD69
  5
BD69
331
BDA0
  5
BDA0
331
BF75
  5
BF75
331
DF6D
  5
DF6D
331
BFAC
  5
BFAC
331
BEFF
  5
BEFF
331
BF36
  5
BF36
331
BE22
  5
BE22
331
BE89
  5
BE89
331
BEC0
  5
BEC0
331
C028
  5
C028
331
BCDB
  5
BCDB
331
BDA8
  5
BDA8
331
BD2A
  5
BD2A
331
BCE3
  5
BCE3
331
BC94
  5
BC94
331
BF7D
  5
BF7D
331
BFB4
  5
BFB4
331
BFF3
  5
BFF3
331
BF07
  5
BF07
331
DEFF
  5
DEFF
331
BF3E
  5
BF3E
331
BD71
  5
BD71
331
BEC8
  5
BEC8
331
C030
  5
C030
331
BDB0
  5
BDB0
331
BD32
  5
BD32
331
BFBC
  5
BFBC
331
EAA4
  5
EAAB
331
BF46
  5
BF46
331
BED0
  5
BED0
331
BE32
  5
BE32
331
BDF3
  5
BDF3
331
BE91
  5
BE91
331
BFF9
  5
BFF9
331
BD79
  5
BD79
331
BDB8
  5
BDB8
331
EAAC
  5
EAAF
331
BCEB
  5
BCEB
331
BD3A
  5
BD3A
331
BF4E
  5
BF4E
331
BF85
  5
BF85
331
DF85
  5
DF85
331
BE99
  5
BE99
331
C001
  5
C001
331
BE3A
  5
BE3A
331
BED8
  5
BED8
331
DED0
  5
DED0
331
BF0F
  5
BF0F
331
BCAC
  5
BCAC
331
BFC4
  5
BFC4
331
BD81
  5
BD81
331
BFCC
  5
BFCC
331
BCFB
  5
BCFB
331
BDC0
  5
BDC0
331
BF17
  5
BF17
331
BF56
  5
BF56
331
C009
  5
C009
331
BE03
  5
BE03
331
BE42
  5
BE42
331
BEE0
  5
BEE0
331
DED8
  5
DED8
331
BF8D
  5
BF8D
331
BD89
  5
BD89
331
BFD4
  5
BFD4
331
BD03
  5
BD03
331
BEE8
  5
BEE8
331
DEE0
  5
DEE0
331
BF1F
  5
BF1F
331
BE62
  5
BE62
331
BEA9
  5
BEA9
331
C011
  5
C011
331
BF5E
  5
BF5E
331
DF56
  5
DF56
331
BF95
  5
BF95
331
E48D
  5
E48D
331
BDD0
  5
BDD0
331
BD5A
  5
BD5A
331
BFDC
  5
BFDC
331
BF66
  5
BF66
331
DF5E
  5
DF5E
331
BF9D
  5
BF9D
331
BF27
  5
BF27
331
DF1F
  5
DF1F
331
BCCC
  5
BCCC
331
BD91
  5
BD91
331
BEF0
  5
BEF0
331
BEB1
  5
BEB1
331
C019
  5
C019
331
BD99
  5
BD99
331
BDD8
  5
BDD8
331
BCD4
  5
BCD4
331
BF6E
  5
BF6E
331
DF66
  5
DF66
331
BFA5
  5
BFA5
331
BFE4
  5
BFE4
331
C021
  5
C021
331
BEF8
  5
BEF8
331
DEF0
  5
DEF0
331
BF2F
  5
BF2F
331
DF27
  5
DF27
331
BD6A
  5
BD6A
331
BDA1
  5
BDA1
331
BDE0
  5
BDE0
331
BCDC
  5
BCDC
331
BF76
  5
BF76
331
DF6E
  5
DF6E
331
BFAD
  5
BFAD
331
BFEC
  5
BFEC
331
BE23
  5
BE23
331
BE8A
  5
BE8A
331
BEC1
  5
BEC1
331
C029
  5
C029
331
BF00
  5
BF00
331
BF37
  5
BF37
331
BD72
  5
BD72
331
BDA9
  5
BDA9
331
BFF4
  5
BFF4
331
BCE4
  5
BCE4
331
BD2B
  5
BD2B
331
BC95
  5
BC95
331
BF3F
  5
BF3F
331
BEC9
  5
BEC9
331
C031
  5
C031
331
BF7E
  5
BF7E
331
DF76
  5
DF76
331
BFB5
  5
BFB5
331
BFBD
  5
BFBD
331
EAA5
  5
EAAE
331
BF47
  5
BF47
331
BDB1
  5
BDB1
331
BF08
  5
BF08
331
DF00
  5
DF00
331
BFFA
  5
BFFA
331
BE33
  5
BE33
331
BED1
  5
BED1
331
BDB9
  5
BDB9
331
BD3B
  5
BD3B
331
BF86
  5
BF86
331
DF86
  5
DF86
331
BCAD
  5
BCAD
331
BFC5
  5
BFC5
331
BD7A
  5
BD7A
331
BF10
  5
BF10
331
BF4F
  5
BF4F
331
C002
  5
C002
331
BDFC
  5
BDFC
331
BE3B
  5
BE3B
331
BED9
  5
BED9
331
BDC1
  5
BDC1
331
BCFC
  5
BCFC
331
BD43
  5
BD43
331
BF8E
  5
BF8E
331
BFCD
  5
BFCD
331
BD82
  5
BD82
331
BEE1
  5
BEE1
331
DED9
  5
DED9
331
BF18
  5
BF18
331
BE43
  5
BE43
331
C00A
  5
C00A
331
BF57
  5
BF57
331
BD8A
  5
BD8A
331
BD04
  5
BD04
331
BD53
  5
BD53
331
BF5F
  5
BF5F
331
DF57
  5
DF57
331
BF96
  5
BF96
331
BEAA
  5
BEAA
331
C012
  5
C012
331
BEE9
  5
BEE9
331
BF20
  5
BF20
331
BFD5
  5
BFD5
331
BE63
  5
BE63
331
BD5B
  5
BD5B
331
BFDD
  5
BFDD
331
BCCD
  5
BCCD
331
BD92
  5
BD92
331
BF67
  5
BF67
331
DF5F
  5
DF5F
331
BF9E
  5
BF9E
331
BDD1
  5
BDD1
  0
XRECORD
  5
3D91
102
{ACAD_REACTORS
330
3D20
102
}
330
3D20
100
AcDbXrecord
280
     1
340
1A
  0
SORTENTSTABLE
  5
69B9
102
{ACAD_REACTORS
330
69B8
102
}
330
69B8
100
AcDbSortentsTable
330
69B7
  0
SORTENTSTABLE
  5
69CD
102
{ACAD_REACTORS
330
69CC
102
}
330
69CC
100
AcDbSortentsTable
330
69CB
  0
GROUP
  5
4143
102
{ACAD_REACTORS
330
D
102
}
330
D
100
AcDbGroup
300

 70
     1
 71
     1
  0
GROUP
  5
4378
102
{ACAD_REACTORS
330
D
102
}
330
D
100
AcDbGroup
300

 70
     1
 71
     1
  0
GROUP
  5
43BF
102
{ACAD_REACTORS
330
D
102
}
330
D
100
AcDbGroup
300

 70
     1
 71
     1
  0
GROUP
  5
423A
102
{ACAD_REACTORS
330
D
102
}
330
D
100
AcDbGroup
300

 70
     1
 71
     1
  0
GROUP
  5
414C
102
{ACAD_REACTORS
330
D
102
}
330
D
100
AcDbGroup
300

 70
     1
 71
     1
  0
GROUP
  5
579E
102
{ACAD_REACTORS
330
D
102
}
330
D
100
AcDbGroup
300

 70
     1
 71
     1
  0
GROUP
  5
4235
102
{ACAD_REACTORS
330
D
102
}
330
D
100
AcDbGroup
300

 70
     1
 71
     1
  0
GROUP
  5
437C
102
{ACAD_REACTORS
330
D
102
}
330
D
100
AcDbGroup
300

 70
     1
 71
     1
  0
GROUP
  5
414F
102
{ACAD_REACTORS
330
D
102
}
330
D
100
AcDbGroup
300

 70
     1
 71
     1
  0
GROUP
  5
437E
102
{ACAD_REACTORS
330
D
102
}
330
D
100
AcDbGroup
300

 70
     1
 71
     1
  0
GROUP
  5
4149
102
{ACAD_REACTORS
330
D
102
}
330
D
100
AcDbGroup
300

 70
     1
 71
     1
  0
GROUP
  5
4241
102
{ACAD_REACTORS
330
D
102
}
330
D
100
AcDbGroup
300

 70
     1
 71
     1
  0
GROUP
  5
4239
102
{ACAD_REACTORS
330
D
102
}
330
D
100
AcDbGroup
300

 70
     1
 71
     1
  0
GROUP
  5
4237
102
{ACAD_REACTORS
330
D
102
}
330
D
100
AcDbGroup
300

 70
     1
 71
     1
  0
GROUP
  5
423C
102
{ACAD_REACTORS
330
D
102
}
330
D
100
AcDbGroup
300

 70
     1
 71
     1
  0
GROUP
  5
43B6
102
{ACAD_REACTORS
330
D
102
}
330
D
100
AcDbGroup
300

 70
     1
 71
     1
  0
GROUP
  5
423B
102
{ACAD_REACTORS
330
D
102
}
330
D
100
AcDbGroup
300

 70
     1
 71
     1
  0
GROUP
  5
43B8
102
{ACAD_REACTORS
330
D
102
}
330
D
100
AcDbGroup
300

 70
     1
 71
     1
  0
GROUP
  5
576A
102
{ACAD_REACTORS
330
D
102
}
330
D
100
AcDbGroup
300

 70
     1
 71
     1
  0
GROUP
  5
4240
102
{ACAD_REACTORS
330
D
102
}
330
D
100
AcDbGroup
300

 70
     1
 71
     1
  0
GROUP
  5
423E
102
{ACAD_REACTORS
330
D
102
}
330
D
100
AcDbGroup
300

 70
     1
 71
     1
  0
GROUP
  5
4374
102
{ACAD_REACTORS
330
D
102
}
330
D
100
AcDbGroup
300

 70
     1
 71
     1
  0
GROUP
  5
43BB
102
{ACAD_REACTORS
330
D
102
}
330
D
100
AcDbGroup
300

 70
     1
 71
     1
  0
GROUP
  5
4373
102
{ACAD_REACTORS
330
D
102
}
330
D
100
AcDbGroup
300

 70
     1
 71
     1
  0
GROUP
  5
43BD
102
{ACAD_REACTORS
330
D
102
}
330
D
100
AcDbGroup
300

 70
     1
 71
     1
  0
GROUP
  5
4236
102
{ACAD_REACTORS
330
D
102
}
330
D
100
AcDbGroup
300

 70
     1
 71
     1
  0
GROUP
  5
4377
102
{ACAD_REACTORS
330
D
102
}
330
D
100
AcDbGroup
300

 70
     1
 71
     1
  0
GROUP
  5
4145
102
{ACAD_REACTORS
330
D
102
}
330
D
100
AcDbGroup
300

 70
     1
 71
     1
  0
GROUP
  5
437A
102
{ACAD_REACTORS
330
D
102
}
330
D
100
AcDbGroup
300

 70
     1
 71
     1
  0
GROUP
  5
4379
102
{ACAD_REACTORS
330
D
102
}
330
D
100
AcDbGroup
300

 70
     1
 71
     1
  0
GROUP
  5
43C1
102
{ACAD_REACTORS
330
D
102
}
330
D
100
AcDbGroup
300

 70
     1
 71
     1
  0
GROUP
  5
423D
102
{ACAD_REACTORS
330
D
102
}
330
D
100
AcDbGroup
300

 70
     1
 71
     1
  0
GROUP
  5
437D
102
{ACAD_REACTORS
330
D
102
}
330
D
100
AcDbGroup
300

 70
     1
 71
     1
  0
GROUP
  5
414D
102
{ACAD_REACTORS
330
D
102
}
330
D
100
AcDbGroup
300

 70
     1
 71
     1
  0
GROUP
  5
4146
102
{ACAD_REACTORS
330
D
102
}
330
D
100
AcDbGroup
300

 70
     1
 71
     1
  0
GROUP
  5
437F
102
{ACAD_REACTORS
330
D
102
}
330
D
100
AcDbGroup
300

 70
     1
 71
     1
  0
GROUP
  5
414B
102
{ACAD_REACTORS
330
D
102
}
330
D
100
AcDbGroup
300

 70
     1
 71
     1
  0
GROUP
  5
4375
102
{ACAD_REACTORS
330
D
102
}
330
D
100
AcDbGroup
300

 70
     1
 71
     1
  0
GROUP
  5
43B7
102
{ACAD_REACTORS
330
D
102
}
330
D
100
AcDbGroup
300

 70
     1
 71
     1
  0
GROUP
  5
414E
102
{ACAD_REACTORS
330
D
102
}
330
D
100
AcDbGroup
300

 70
     1
 71
     1
  0
GROUP
  5
43B9
102
{ACAD_REACTORS
330
D
102
}
330
D
100
AcDbGroup
300

 70
     1
 71
     1
  0
GROUP
  5
57D9
102
{ACAD_REACTORS
330
D
102
}
330
D
100
AcDbGroup
300

 70
     1
 71
     1
  0
GROUP
  5
437B
102
{ACAD_REACTORS
330
D
102
}
330
D
100
AcDbGroup
300

 70
     1
 71
     1
  0
GROUP
  5
43BC
102
{ACAD_REACTORS
330
D
102
}
330
D
100
AcDbGroup
300

 70
     1
 71
     1
  0
GROUP
  5
4144
102
{ACAD_REACTORS
330
D
102
}
330
D
100
AcDbGroup
300

 70
     1
 71
     1
  0
GROUP
  5
43BE
102
{ACAD_REACTORS
330
D
102
}
330
D
100
AcDbGroup
300

 70
     1
 71
     1
  0
GROUP
  5
4238
102
{ACAD_REACTORS
330
D
102
}
330
D
100
AcDbGroup
300

 70
     1
 71
     1
  0
GROUP
  5
43B5
102
{ACAD_REACTORS
330
D
102
}
330
D
100
AcDbGroup
300

 70
     1
 71
     1
  0
GROUP
  5
43C0
102
{ACAD_REACTORS
330
D
102
}
330
D
100
AcDbGroup
300

 70
     1
 71
     1
  0
GROUP
  5
4148
102
{ACAD_REACTORS
330
D
102
}
330
D
100
AcDbGroup
300

 70
     1
 71
     1
  0
GROUP
  5
423F
102
{ACAD_REACTORS
330
D
102
}
330
D
100
AcDbGroup
300

 70
     1
 71
     1
  0
GROUP
  5
43BA
102
{ACAD_REACTORS
330
D
102
}
330
D
100
AcDbGroup
300

 70
     1
 71
     1
  0
GROUP
  5
414A
102
{ACAD_REACTORS
330
D
102
}
330
D
100
AcDbGroup
300

 70
     1
 71
     1
  0
GROUP
  5
5691
102
{ACAD_REACTORS
330
D
102
}
330
D
100
AcDbGroup
300

 70
     1
 71
     1
  0
GROUP
  5
4376
102
{ACAD_REACTORS
330
D
102
}
330
D
100
AcDbGroup
300

 70
     1
 71
     1
  0
GROUP
  5
4147
102
{ACAD_REACTORS
330
D
102
}
330
D
100
AcDbGroup
300

 70
     1
 71
     1
  0
LAYOUT
  5
21
102
{ACAD_XDICTIONARY
360
EACF
102
}
102
{ACAD_REACTORS
330
19
102
}
330
19
100
AcDbPlotSettings
  1

  2
HP 2200
  4

  6

 40
0.0
 41
0.0
 42
0.0
 43
0.0
 44
0.0
 45
0.0
 46
0.0
 47
0.0
 48
0.0
 49
0.0
140
0.0
141
0.0
142
1.0
143
1.0
 70
  1712
 72
     0
 73
     0
 74
     0
  7
AAA.ctb
 75
     0
147
1.0
148
0.0
149
0.0
100
AcDbLayout
  1
Model
 70
     1
 71
     0
 10
0.0
 20
0.0
 11
12.0
 21
9.0
 12
0.0
 22
0.0
 32
0.0
 14
0.0
 24
0.0
 34
0.0
 15
0.0
 25
0.0
 35
0.0
146
0.0
 13
0.0
 23
0.0
 33
0.0
 16
1.0
 26
0.0
 36
0.0
 17
0.0
 27
1.0
 37
0.0
 76
     0
330
1E
  0
LAYOUT
  5
1D
102
{ACAD_XDICTIONARY
360
EACD
102
}
102
{ACAD_REACTORS
330
19
102
}
330
19
100
AcDbPlotSettings
  1

  2
HP 2200
  4

  6

 40
0.0
 41
0.0
 42
0.0
 43
0.0
 44
0.0
 45
0.0
 46
0.0
 47
0.0
 48
0.0
 49
0.0
140
0.0
141
0.0
142
1.0
143
1.0
 70
   688
 72
     0
 73
     0
 74
     5
  7
AAA.ctb
 75
    16
147
1.0
148
0.0
149
0.0
100
AcDbLayout
  1
配置1
 70
     0
 71
     1
 10
0.0
 20
0.0
 11
12.0
 21
9.0
 12
0.0
 22
0.0
 32
0.0
 14
1.000000000000000E+20
 24
1.000000000000000E+20
 34
1.000000000000000E+20
 15
-1.000000000000000E+20
 25
-1.000000000000000E+20
 35
-1.000000000000000E+20
146
0.0
 13
0.0
 23
0.0
 33
0.0
 16
1.0
 26
0.0
 36
0.0
 17
0.0
 27
1.0
 37
0.0
 76
     0
330
1A
  0
MLINESTYLE
  5
17
102
{ACAD_REACTORS
330
16
102
}
330
16
100
AcDbMlineStyle
  2
STANDARD
 70
     0
  3

 62
   256
 51
90.0
 52
90.0
 71
     2
 49
0.5
 62
   256
  6
BYLAYER
 49
-0.5
 62
   256
  6
BYLAYER
  0
PLOTSETTINGS
  5
4150
102
{ACAD_XDICTIONARY
360
EAD1
102
}
102
{ACAD_REACTORS
330
18
102
}
330
18
100
AcDbPlotSettings
  1
LANSRO
  2
\\1260\HP2200
  4
A4
  6

 40
6.043083190917968
 41
6.762742042541503
 42
7.736419677734375
 43
5.027069091796875
 44
209.9733276367187
 45
296.9683227539062
 46
5.15
 47
0.0
 48
0.0
 49
0.0
140
0.0
141
0.0
142
1.0
143
0.8829829263240881
 70
  1716
 72
     1
 73
     1
 74
     0
  7
AAA.ctb
 75
     0
147
1.132524729739748
148
-132.297014905803
149
-71.78507365635891
  0
ACDBPLACEHOLDER
  5
F
102
{ACAD_REACTORS
330
E
102
}
330
E
  0
ACAD_PROXY_OBJECT
  5
E7A4
102
{ACAD_REACTORS
330
E7A3
102
}
330
E7A3
100
AcDbProxyObject
 90
      499
 91
      514
 95
   983063
 70
     0
 93
     1841
310
4214DD185B99185C9928B81E85EB51B8AE3F2E07A17AD46E2B8FC02B5E8DC0F42B1CFD028000000C1008070000C3001FDFF8000000C1003FBFF000000182007F7FE00000030400FEFFC00000060801FDFF8000000C1003FBFF00000018200000000000000681FA0B0000001820100E000186003FBFF000000182007F7FE000
310
00030400FEFFC00000060801FDFF8000000C1003FBFF000000182007F7FE000000304000AD7A3703D0AC73F4160000003040201C00030C007F7FE00000030400FEFFC00000060801FDFF8000000C1003FBFF000000182007F7FE00000030400FEFFC00000060803D
340
11
340
11
340
11
 94
        0
1001
ACAD
1000
AcRTDxfName
1000
TABLESTYLE
  0
XRECORD
  5
EACC
102
{ACAD_REACTORS
330
EACA
102
}
330
EACA
100
AcDbXrecord
280
     1
340
3D97
  0
XRECORD
  5
EACB
102
{ACAD_REACTORS
330
EACA
102
}
330
EACA
100
AcDbXrecord
280
     1
340
3D96
  0
DICTIONARYVAR
  5
E8F8
102
{ACAD_REACTORS
330
3E63
102
}
330
3E63
100
DictionaryVariables
280
     0
  1
STANDARD
  0
DICTIONARYVAR
  5
3E64
102
{ACAD_REACTORS
330
3E63
102
}
330
3E63
100
DictionaryVariables
280
     0
  1
1
  0
DICTIONARYVAR
  5
3E65
102
{ACAD_REACTORS
330
3E63
102
}
330
3E63
100
DictionaryVariables
280
     0
  1

  0
DICTIONARY
  5
EACF
330
21
100
AcDbDictionary
280
     1
281
     1
  3
ACAD_XREC_ROUNDTRIP
360
EAD0
  0
DICTIONARY
  5
EACD
330
1D
100
AcDbDictionary
280
     1
281
     1
  3
ACAD_XREC_ROUNDTRIP
360
EACE
  0
DICTIONARY
  5
EAD1
330
4150
100
AcDbDictionary
280
     1
281
     1
  3
ACAD_XREC_ROUNDTRIP
360
EAD2
  0
XRECORD
  5
EAD0
102
{ACAD_REACTORS
330
EACF
102
}
330
EACF
100
AcDbXrecord
280
     1
102
SHADEPLOT
 70
     0
102
SHADEPLOTRESLEVEL
 70
     2
102
SHADEPLOTCUSTOMDPI
 70
   300
  0
XRECORD
  5
EACE
102
{ACAD_REACTORS
330
EACD
102
}
330
EACD
100
AcDbXrecord
280
     1
102
SHADEPLOT
 70
     0
102
SHADEPLOTRESLEVEL
 70
     2
102
SHADEPLOTCUSTOMDPI
 70
   300
  0
XRECORD
  5
EAD2
102
{ACAD_REACTORS
330
EAD1
102
}
330
EAD1
100
AcDbXrecord
280
     1
102
SHADEPLOT
 70
     0
102
SHADEPLOTRESLEVEL
 70
     2
102
SHADEPLOTCUSTOMDPI
 70
   300
  0
ENDSEC
  0
EOF
