  0
SECTION
  2
HEADER
  9
$ACADVER
  1
AC1015
  9
$ACADMAINTVER
 70
    20
  9
$DWGCODEPAGE
  3
ANSI_950
  9
$INSBASE
 10
0.0
 20
0.0
 30
0.0
  9
$EXTMIN
 10
2097.335396941591
 20
636.7873125502565
 30
0.0
  9
$EXTMAX
 10
2527.635021583137
 20
909.0287483749479
 30
0.0
  9
$LIMMIN
 10
-10.0
 20
-15.0
  9
$LIMMAX
 10
120.0
 20
90.0
  9
$ORTHOMODE
 70
     1
  9
$REGENMODE
 70
     0
  9
$FILLMODE
 70
     1
  9
$QTEXTMODE
 70
     0
  9
$MIRRTEXT
 70
     0
  9
$LTSCALE
 40
3.0
  9
$ATTMODE
 70
     1
  9
$TEXTSIZE
 40
3.0
  9
$TRACEWID
 40
1.0
  9
$TEXTSTYLE
  7
STANDARD
  9
$CLAYER
  8
0
  9
$CELTYPE
  6
ByLayer
  9
$CECOLOR
 62
   256
  9
$CELTSCALE
 40
1.0
  9
$DISPSILH
 70
     0
  9
$DIMSCALE
 40
1.0
  9
$DIMASZ
 40
3.0
  9
$DIMEXO
 40
1.0
  9
$DIMDLI
 40
6.0
  9
$DIMRND
 40
0.0
  9
$DIMDLE
 40
0.0
  9
$DIMEXE
 40
1.0
  9
$DIMTP
 40
0.0
  9
$DIMTM
 40
0.0
  9
$DIMTXT
 40
3.0
  9
$DIMCEN
 40
1.5
  9
$DIMTSZ
 40
0.0
  9
$DIMTOL
 70
     0
  9
$DIMLIM
 70
     0
  9
$DIMTIH
 70
     1
  9
$DIMTOH
 70
     1
  9
$DIMSE1
 70
     0
  9
$DIMSE2
 70
     0
  9
$DIMTAD
 70
     0
  9
$DIMZIN
 70
     0
  9
$DIMBLK
  1

  9
$DIMASO
 70
     1
  9
$DIMSHO
 70
     0
  9
$DIMPOST
  1

  9
$DIMAPOST
  1

  9
$DIMALT
 70
     0
  9
$DIMALTD
 70
     2
  9
$DIMALTF
 40
25.4
  9
$DIMLFAC
 40
1.0
  9
$DIMTOFL
 70
     1
  9
$DIMTVP
 40
0.0
  9
$DIMTIX
 70
     0
  9
$DIMSOXD
 70
     0
  9
$DIMSAH
 70
     0
  9
$DIMBLK1
  1

  9
$DIMBLK2
  1

  9
$DIMSTYLE
  2
Standard
  9
$DIMCLRD
 70
     0
  9
$DIMCLRE
 70
     0
  9
$DIMCLRT
 70
     0
  9
$DIMTFAC
 40
1.0
  9
$DIMGAP
 40
0.09
  9
$DIMJUST
 70
     0
  9
$DIMSD1
 70
     0
  9
$DIMSD2
 70
     0
  9
$DIMTOLJ
 70
     1
  9
$DIMTZIN
 70
     0
  9
$DIMALTZ
 70
     0
  9
$DIMALTTZ
 70
     0
  9
$DIMUPT
 70
     0
  9
$DIMDEC
 70
     4
  9
$DIMTDEC
 70
     8
  9
$DIMALTU
 70
     2
  9
$DIMALTTD
 70
     2
  9
$DIMTXSTY
  7
STANDARD
  9
$DIMAUNIT
 70
     0
  9
$DIMADEC
 70
     0
  9
$DIMALTRND
 40
0.0
  9
$DIMAZIN
 70
     0
  9
$DIMDSEP
 70
    46
  9
$DIMATFIT
 70
     3
  9
$DIMFRAC
 70
     0
  9
$DIMLDRBLK
  1

  9
$DIMLUNIT
 70
     2
  9
$DIMLWD
 70
    -2
  9
$DIMLWE
 70
    -2
  9
$DIMTMOVE
 70
     2
  9
$LUNITS
 70
     2
  9
$LUPREC
 70
     4
  9
$SKETCHINC
 40
0.5
  9
$FILLETRAD
 40
0.0
  9
$AUNITS
 70
     0
  9
$AUPREC
 70
     0
  9
$MENU
  1
ACAD
  9
$ELEVATION
 40
0.0
  9
$PELEVATION
 40
0.0
  9
$THICKNESS
 40
0.0
  9
$LIMCHECK
 70
     0
  9
$CHAMFERA
 40
0.0
  9
$CHAMFERB
 40
0.0
  9
$CHAMFERC
 40
0.0
  9
$CHAMFERD
 40
0.0
  9
$SKPOLY
 70
     0
  9
$TDCREATE
 40
2444975.333333334
  9
$TDUCREATE
 40
2444975.000000000
  9
$TDUPDATE
 40
2454042.477411806
  9
$TDUUPDATE
 40
2454042.144078472
  9
$TDINDWG
 40
0.3137994213
  9
$TDUSRTIMER
 40
0.0000000000
  9
$USRTIMER
 70
     0
  9
$ANGBASE
 50
0.0
  9
$ANGDIR
 70
     0
  9
$PDMODE
 70
     0
  9
$PDSIZE
 40
0.001
  9
$PLINEWID
 40
0.0
  9
$SPLFRAME
 70
     0
  9
$SPLINETYPE
 70
     6
  9
$SPLINESEGS
 70
  8000
  9
$HANDSEED
  5
EADC
  9
$SURFTAB1
 70
     6
  9
$SURFTAB2
 70
     6
  9
$SURFTYPE
 70
     6
  9
$SURFU
 70
     6
  9
$SURFV
 70
     6
  9
$UCSBASE
  2

  9
$UCSNAME
  2

  9
$UCSORG
 10
0.0
 20
0.0
 30
0.0
  9
$UCSXDIR
 10
1.0
 20
0.0
 30
0.0
  9
$UCSYDIR
 10
0.0
 20
1.0
 30
0.0
  9
$UCSORTHOREF
  2

  9
$UCSORTHOVIEW
 70
     0
  9
$UCSORGTOP
 10
0.0
 20
0.0
 30
0.0
  9
$UCSORGBOTTOM
 10
0.0
 20
0.0
 30
0.0
  9
$UCSORGLEFT
 10
0.0
 20
0.0
 30
0.0
  9
$UCSORGRIGHT
 10
0.0
 20
0.0
 30
0.0
  9
$UCSORGFRONT
 10
0.0
 20
0.0
 30
0.0
  9
$UCSORGBACK
 10
0.0
 20
0.0
 30
0.0
  9
$PUCSBASE
  2

  9
$PUCSNAME
  2

  9
$PUCSORG
 10
0.0
 20
0.0
 30
0.0
  9
$PUCSXDIR
 10
1.0
 20
0.0
 30
0.0
  9
$PUCSYDIR
 10
0.0
 20
1.0
 30
0.0
  9
$PUCSORTHOREF
  2

  9
$PUCSORTHOVIEW
 70
     0
  9
$PUCSORGTOP
 10
0.0
 20
0.0
 30
0.0
  9
$PUCSORGBOTTOM
 10
0.0
 20
0.0
 30
0.0
  9
$PUCSORGLEFT
 10
0.0
 20
0.0
 30
0.0
  9
$PUCSORGRIGHT
 10
0.0
 20
0.0
 30
0.0
  9
$PUCSORGFRONT
 10
0.0
 20
0.0
 30
0.0
  9
$PUCSORGBACK
 10
0.0
 20
0.0
 30
0.0
  9
$USERI1
 70
     0
  9
$USERI2
 70
     0
  9
$USERI3
 70
     0
  9
$USERI4
 70
     0
  9
$USERI5
 70
     0
  9
$USERR1
 40
0.0
  9
$USERR2
 40
0.0
  9
$USERR3
 40
0.0
  9
$USERR4
 40
0.0
  9
$USERR5
 40
0.0
  9
$WORLDVIEW
 70
     1
  9
$SHADEDGE
 70
     3
  9
$SHADEDIF
 70
    70
  9
$TILEMODE
 70
     1
  9
$MAXACTVP
 70
    48
  9
$PINSBASE
 10
0.0
 20
0.0
 30
0.0
  9
$PLIMCHECK
 70
     0
  9
$PEXTMIN
 10
1.000000000000000E+20
 20
1.000000000000000E+20
 30
1.000000000000000E+20
  9
$PEXTMAX
 10
-1.000000000000000E+20
 20
-1.000000000000000E+20
 30
-1.000000000000000E+20
  9
$PLIMMIN
 10
0.0
 20
0.0
  9
$PLIMMAX
 10
12.0
 20
9.0
  9
$UNITMODE
 70
     0
  9
$VISRETAIN
 70
     1
  9
$PLINEGEN
 70
     0
  9
$PSLTSCALE
 70
     0
  9
$TREEDEPTH
 70
  3020
  9
$CMLSTYLE
  2
Standard
  9
$CMLJUST
 70
     0
  9
$CMLSCALE
 40
1.0
  9
$PROXYGRAPHICS
 70
     1
  9
$MEASUREMENT
 70
     0
  9
$CELWEIGHT
370
    -1
  9
$ENDCAPS
280
     0
  9
$JOINSTYLE
280
     0
  9
$LWDISPLAY
290
     0
  9
$INSUNITS
 70
     0
  9
$HYPERLINKBASE
  1

  9
$STYLESHEET
  1

  9
$XEDIT
290
     1
  9
$CEPSNTYPE
380
     0
  9
$PSTYLEMODE
290
     1
  9
$FINGERPRINTGUID
  2
{77095E5F-9CE7-11D7-970D-0040F4541FA8}
  9
$VERSIONGUID
  2
{BAD1F921-8219-4C67-B6EC-B23B128CC96C}
  9
$EXTNAMES
290
     1
  9
$PSVPSCALE
 40
0.0
  9
$OLESTARTUP
290
     0
  0
ENDSEC
  0
SECTION
  2
CLASSES
  0
CLASS
  1
ACDBDICTIONARYWDFLT
  2
AcDbDictionaryWithDefault
  3
ObjectDBX Classes
 90
        0
280
     0
281
     0
  0
CLASS
  1
ACDBPLACEHOLDER
  2
AcDbPlaceHolder
  3
ObjectDBX Classes
 90
        0
280
     0
281
     0
  0
CLASS
  1
LAYOUT
  2
AcDbLayout
  3
ObjectDBX Classes
 90
        0
280
     0
281
     0
  0
CLASS
  1
LONG_TRANSACTION
  2
AcDbLongTransaction
  3
ObjectDBX Classes
 90
    32768
280
     0
281
     0
  0
CLASS
  1
LWPOLYLINE
  2
AcDbPolyline
  3
ObjectDBX Classes
 90
        0
280
     0
281
     1
  0
CLASS
  1
HATCH
  2
AcDbHatch
  3
ObjectDBX Classes
 90
    32768
280
     0
281
     1
  0
CLASS
  1
XRECORD
  2
AcDbXrecord
  3
ObjectDBX Classes
 90
        0
280
     0
281
     0
  0
CLASS
  1
LONG_TRANSACTION
  2
AcDbLongTransaction
  3
ObjectDBX Classes
 90
    32768
280
     0
281
     0
  0
CLASS
  1
LWPOLYLINE
  2
AcDbPolyline
  3
ObjectDBX Classes
 90
        0
280
     0
281
     1
  0
CLASS
  1
HATCH
  2
AcDbHatch
  3
ObjectDBX Classes
 90
    32768
280
     0
281
     1
  0
CLASS
  1
XRECORD
  2
AcDbXrecord
  3
ObjectDBX Classes
 90
        0
280
     0
281
     0
  0
CLASS
  1
DICTIONARYVAR
  2
AcDbDictionaryVar
  3
ObjectDBX Classes
 90
        0
280
     0
281
     0
  0
CLASS
  1
PLOTSETTINGS
  2
AcDbPlotSettings
  3
ObjectDBX Classes
 90
        0
280
     0
281
     0
  0
CLASS
  1
SORTENTSTABLE
  2
AcDbSortentsTable
  3
ObjectDBX Classes
 90
        0
280
     0
281
     0
  0
CLASS
  1
TABLESTYLE
  2
AcDbTableStyle
  3
ObjectDBX Classes
 90
     2047
280
     0
281
     0
  0
ENDSEC
  0
SECTION
  2
TABLES
  0
TABLE
  2
VPORT
  5
8
330
0
100
AcDbSymbolTable
 70
     4
  0
VPORT
  5
EAD2
330
8
100
AcDbSymbolTableRecord
100
AcDbViewportTableRecord
  2
*Active
 70
     0
 10
0.0
 20
0.0
 11
1.0
 21
1.0
 12
2313.934293178704
 22
773.512506832622
 13
457.9999999999997
 23
1082.0
 14
10.0
 24
10.0
 15
10.0
 25
10.0
 16
0.0
 26
0.0
 36
1.0
 17
0.0
 27
0.0
 37
0.0
 40
291.9651199466907
 41
1.530456852791878
 42
1.0
 43
0.0
 44
0.0
 50
0.0
 51
0.0
 71
     0
 72
  2000
 73
     1
 74
     1
 75
     0
 76
     0
 77
     0
 78
     0
281
     0
 65
     1
110
0.0
120
0.0
130
0.0
111
1.0
121
0.0
131
0.0
112
0.0
122
1.0
132
0.0
 79
     0
146
0.0
  0
ENDTAB
  0
TABLE
  2
LTYPE
  5
5
330
0
100
AcDbSymbolTable
 70
     6
  0
LTYPE
  5
13
330
5
100
AcDbSymbolTableRecord
100
AcDbLinetypeTableRecord
  2
ByBlock
 70
     0
  3

 72
    65
 73
     0
 40
0.0
  0
LTYPE
  5
14
330
5
100
AcDbSymbolTableRecord
100
AcDbLinetypeTableRecord
  2
ByLayer
 70
     0
  3

 72
    65
 73
     0
 40
0.0
  0
LTYPE
  5
15
330
5
100
AcDbSymbolTableRecord
100
AcDbLinetypeTableRecord
  2
CONTINUOUS
 70
     0
  3
連續線 ________________________
 72
    65
 73
     0
 40
0.0
  0
LTYPE
  5
225
330
5
100
AcDbSymbolTableRecord
100
AcDbLinetypeTableRecord
  2
BYBLOCK
 70
     0
  3
Solid line
 72
    65
 73
     0
 40
0.0
  0
LTYPE
  5
226
330
5
100
AcDbSymbolTableRecord
100
AcDbLinetypeTableRecord
  2
BYLAYER
 70
     0
  3
Solid line
 72
    65
 73
     0
 40
0.0
  0
LTYPE
  5
413C
330
5
100
AcDbSymbolTableRecord
100
AcDbLinetypeTableRecord
  2
CENTER2
 70
     0
  3
Center (.5x) ___ _ ___ _ ___ _ ___ _ ___ _ ___
 72
    65
 73
     4
 40
28.575
 49
19.05
 74
     0
 49
-3.174999999999999
 74
     0
 49
3.174999999999999
 74
     0
 49
-3.174999999999999
 74
     0
  0
LTYPE
  5
413D
330
5
100
AcDbSymbolTableRecord
100
AcDbLinetypeTableRecord
  2
DASHED2
 70
     0
  3
Dashed (.5x) _ _ _ _ _ _ _ _ _ _ _ _ _ _ _ _ _
 72
    65
 73
     2
 40
9.524999999999998
 49
6.349999999999999
 74
     0
 49
-3.174999999999999
 74
     0
  0
LTYPE
  5
69DC
330
5
100
AcDbSymbolTableRecord
100
AcDbLinetypeTableRecord
  2
DASHED
 70
     0
  3
__ __ __ __ __ __ __ __ __ __ __ __ __ __ __
 72
    65
 73
     2
 40
4.0
 49
3.0
 74
     0
 49
-1.0
 74
     0
  0
ENDTAB
  0
TABLE
  2
LAYER
  5
2
102
{ACAD_XDICTIONARY
360
43C2
102
}
330
0
100
AcDbSymbolTable
 70
     7
  0
LAYER
  5
10
330
2
100
AcDbSymbolTableRecord
100
AcDbLayerTableRecord
  2
0
 70
     0
 62
     7
  6
CONTINUOUS
370
    -3
390
F
  0
LAYER
  5
413E
330
2
100
AcDbSymbolTableRecord
100
AcDbLayerTableRecord
  2
指線
 70
     0
 62
     3
  6
CONTINUOUS
370
    15
390
F
  0
LAYER
  5
413F
330
2
100
AcDbSymbolTableRecord
100
AcDbLayerTableRecord
  2
中心線
 70
     0
 62
     4
  6
CENTER2
370
    20
390
F
  0
LAYER
  5
4140
330
2
100
AcDbSymbolTableRecord
100
AcDbLayerTableRecord
  2
虛線
 70
     0
 62
     6
  6
DASHED2
290
     0
370
    -3
390
F
  0
LAYER
  5
43B4
330
2
100
AcDbSymbolTableRecord
100
AcDbLayerTableRecord
  2
建構線
 70
     0
 62
     1
  6
CONTINUOUS
370
    -3
390
F
  0
LAYER
  5
69DF
330
2
100
AcDbSymbolTableRecord
100
AcDbLayerTableRecord
  2
標註線
 70
     0
 62
     3
  6
CONTINUOUS
370
    13
390
F
  0
LAYER
  5
C701
330
2
100
AcDbSymbolTableRecord
100
AcDbLayerTableRecord
  2
Defpoints
 70
     0
 62
     7
  6
CONTINUOUS
290
     0
370
    -3
390
F
  0
ENDTAB
  0
TABLE
  2
STYLE
  5
3
330
0
100
AcDbSymbolTable
 70
     1
  0
STYLE
  5
11
330
3
100
AcDbSymbolTableRecord
100
AcDbTextStyleTableRecord
  2
STANDARD
 70
     0
 40
0.0
 41
1.0
 50
0.0
 71
     0
 42
3.0
  3

  4

  0
ENDTAB
  0
TABLE
  2
VIEW
  5
6
330
0
100
AcDbSymbolTable
 70
     0
  0
ENDTAB
  0
TABLE
  2
UCS
  5
7
330
0
100
AcDbSymbolTable
 70
     0
  0
ENDTAB
  0
TABLE
  2
APPID
  5
9
330
0
100
AcDbSymbolTable
 70
     4
  0
APPID
  5
12
330
9
100
AcDbSymbolTableRecord
100
AcDbRegAppTableRecord
  2
ACAD
 70
     0
  0
APPID
  5
230
330
9
100
AcDbSymbolTableRecord
100
AcDbRegAppTableRecord
  2
TCAD
 70
     0
  0
APPID
  5
4142
330
9
100
AcDbSymbolTableRecord
100
AcDbRegAppTableRecord
  2
CONTENTBLOCKICON
 70
     0
  0
APPID
  5
5D91
330
9
100
AcDbSymbolTableRecord
100
AcDbRegAppTableRecord
  2
pntflag
 70
     0
  0
ENDTAB
  0
TABLE
  2
DIMSTYLE
  5
A
330
0
100
AcDbSymbolTable
 70
     1
100
AcDbDimStyleTable
 71
     1
340
3C9D
  0
DIMSTYLE
105
3C9D
330
A
100
AcDbSymbolTableRecord
100
AcDbDimStyleTableRecord
  2
Standard
 70
     0
340
11
  0
ENDTAB
  0
TABLE
  2
BLOCK_RECORD
  5
1
330
0
100
AcDbSymbolTable
 70
     2
  0
BLOCK_RECORD
  5
1E
102
{ACAD_XDICTIONARY
360
3D1E
102
}
330
1
100
AcDbSymbolTableRecord
100
AcDbBlockTableRecord
  2
*Model_Space
340
21
  0
BLOCK_RECORD
  5
1A
102
{ACAD_XDICTIONARY
360
3D20
102
}
330
1
100
AcDbSymbolTableRecord
100
AcDbBlockTableRecord
  2
*Paper_Space
340
1D
  0
BLOCK_RECORD
  5
69B7
102
{ACAD_XDICTIONARY
360
69B8
102
}
330
1
100
AcDbSymbolTableRecord
100
AcDbBlockTableRecord
  2
A$C51E2538E
340
0
  0
BLOCK_RECORD
  5
69CB
102
{ACAD_XDICTIONARY
360
69CC
102
}
330
1
100
AcDbSymbolTableRecord
100
AcDbBlockTableRecord
  2
A$C3310154B
340
0
  0
ENDTAB
  0
ENDSEC
  0
SECTION
  2
BLOCKS
  0
BLOCK
  5
254
330
1E
100
AcDbEntity
  8
0
100
AcDbBlockBegin
  2
*Model_Space
 70
     0
 10
0.0
 20
0.0
 30
0.0
  3
*Model_Space
  1

  0
ENDBLK
  5
255
330
1E
100
AcDbEntity
  8
0
100
AcDbBlockEnd
  0
BLOCK
  5
252
330
1A
100
AcDbEntity
 67
     1
  8
0
100
AcDbBlockBegin
  2
*Paper_Space
 70
     0
 10
0.0
 20
0.0
 30
0.0
  3
*Paper_Space
  1

  0
ENDBLK
  5
253
330
1A
100
AcDbEntity
 67
     1
  8
0
100
AcDbBlockEnd
  0
BLOCK
  5
69BA
330
69B7
100
AcDbEntity
  8
0
 62
     1
 48
0.27
100
AcDbBlockBegin
  2
A$C51E2538E
 70
     0
 10
0.0
 20
0.0
 30
0.0
  3
A$C51E2538E
  1

  0
LINE
  5
69BB
330
69B7
100
AcDbEntity
  8
虛線
 48
0.25
100
AcDbLine
 10
9.230939415452212
 20
1.99838789798423
 30
0.0
 11
2.230939415459943
 21
1.998387897983548
 31
0.0
  0
LINE
  5
69BC
330
69B7
100
AcDbEntity
  8
虛線
 48
0.25
100
AcDbLine
 10
9.230939415453576
 20
15.79841841556197
 30
0.0
 11
9.230939415452212
 21
1.99838789798423
 31
0.0
  0
LINE
  5
69BD
330
69B7
100
AcDbEntity
  8
虛線
 48
0.25
100
AcDbLine
 10
0.2309394154581241
 20
24.698418415562
 30
0.0
 11
0.2309394154590336
 21
16.09842604495623
 31
0.0
  0
LINE
  5
69BE
330
69B7
100
AcDbEntity
  8
虛線
 48
0.25
100
AcDbLine
 10
2.230939415453576
 20
15.79841841556191
 30
0.0
 11
2.230939415459943
 21
1.998387897983576
 31
0.0
  0
LINE
  5
69BF
330
69B7
100
AcDbEntity
  8
虛線
 48
0.25
100
AcDbLine
 10
0.2309394154590336
 20
16.09835738040544
 30
0.0
 11
11.23093941545221
 21
16.09835738040573
 31
0.0
  0
LINE
  5
69C0
330
69B7
100
AcDbEntity
  8
中心線
 48
0.25
100
AcDbLine
 10
5.730939415455679
 20
27.09841841556201
 30
0.0
 11
5.730939415449938
 21
0.0
 31
0.0
  0
LINE
  5
69C1
330
69B7
100
AcDbEntity
  8
虛線
 48
0.25
100
AcDbLine
 10
2.230939415459943
 20
1.998387897983548
 30
0.0
 11
1.730939415460852
 21
1.498387897984002
 31
0.0
  0
LINE
  5
69C2
330
69B7
100
AcDbEntity
  8
虛線
 48
0.25
100
AcDbLine
 10
9.230939415452212
 20
1.99838789798423
 30
0.0
 11
9.730939415451302
 21
1.498387897984287
 31
0.0
  0
LINE
  5
69C3
330
69B7
100
AcDbEntity
  8
虛線
 48
0.25
100
AcDbLine
 10
11.23093941545358
 20
24.698418415562
 30
0.0
 11
11.23093941545221
 21
16.09835738040573
 31
0.0
  0
LINE
  5
69C4
330
69B7
100
AcDbEntity
  8
虛線
 48
0.25
100
AcDbLine
 10
0.2309394154535767
 20
24.698418415562
 30
0.0
 11
11.23093941545358
 21
24.698418415562
 31
0.0
  0
LINE
  5
69C5
330
69B7
100
AcDbEntity
  8
虛線
 48
0.25
100
AcDbLine
 10
2.230939415453576
 20
15.79841841556197
 30
0.0
 11
9.230939415453576
 21
15.79841841556197
 31
0.0
  0
LINE
  5
69C6
330
69B7
100
AcDbEntity
  8
虛線
 48
0.25
100
AcDbLine
 10
1.930939415453394
 20
16.09841841556192
 30
0.0
 11
2.230939415453576
 21
15.79841841556191
 31
0.0
  0
LINE
  5
69C7
330
69B7
100
AcDbEntity
  8
虛線
 48
0.25
100
AcDbLine
 10
0.2309394154535767
 20
24.698418415562
 30
0.0
 11
-0.0000006922223292
 21
25.09841841556204
 31
0.0
  0
LINE
  5
69C8
330
69B7
100
AcDbEntity
  8
虛線
 48
0.25
100
AcDbLine
 10
9.230939415453576
 20
15.79841841556197
 30
0.0
 11
9.530939415453758
 21
16.09841841556198
 31
0.0
  0
LINE
  5
69C9
330
69B7
100
AcDbEntity
  8
虛線
 48
0.25
100
AcDbLine
 10
11.23093941545358
 20
24.698418415562
 30
0.0
 11
11.46187952312948
 21
25.09841841556204
 31
0.0
  0
ENDBLK
  5
69CA
330
69B7
100
AcDbEntity
  8
0
 62
     1
 48
0.27
100
AcDbBlockEnd
  0
BLOCK
  5
69CE
330
69CB
100
AcDbEntity
  8
0
 62
     1
 48
0.27
100
AcDbBlockBegin
  2
A$C3310154B
 70
     0
 10
0.0
 20
0.0
 30
0.0
  3
A$C3310154B
  1

  0
LINE
  5
69CF
330
69CB
100
AcDbEntity
  8
虛線
 48
0.2
100
AcDbLine
 10
0.4999707651827521
 20
12.80115016654724
 30
0.0
 11
0.4999707651836616
 21
5.30113016654775
 31
0.0
  0
LINE
  5
69D0
330
69CB
100
AcDbEntity
  8
虛線
 48
0.2
100
AcDbLine
 10
6.499970765181842
 20
12.80111016654831
 30
0.0
 11
6.499970765183661
 21
5.301130166548432
 31
0.0
  0
LINE
  5
69D1
330
69CB
100
AcDbEntity
  8
虛線
 48
0.2
100
AcDbLine
 10
6.499970765183661
 20
5.301130166548432
 30
0.0
 11
0.4999707651836616
 21
5.30113016654775
 31
0.0
  0
LINE
  5
69D2
330
69CB
100
AcDbEntity
  8
中心線
 48
0.25
100
AcDbLine
 10
3.49999076518344
 20
15.30112016654811
 30
0.0
 11
3.499990765177699
 21
0.000000166540076
 31
0.0
  0
LINE
  5
69D3
330
69CB
100
AcDbEntity
  8
虛線
 48
0.2
100
AcDbLine
 10
5.999980765182044
 20
12.30112016654846
 30
0.0
 11
5.999980765187501
 21
2.30113016655747
 31
0.0
  0
LINE
  5
69D4
330
69CB
100
AcDbEntity
  8
虛線
 48
0.2
100
AcDbLine
 10
1.000000765181994
 20
12.30112016654812
 30
0.0
 11
1.000000765187905
 21
2.301130166554685
 31
0.0
  0
LINE
  5
69D5
330
69CB
100
AcDbEntity
  8
虛線
 48
0.2
100
AcDbLine
 10
5.999980765187501
 20
2.30113016655747
 30
0.0
 11
1.000000765187905
 21
2.301130166554685
 31
0.0
  0
LINE
  5
69D6
330
69CB
100
AcDbEntity
  8
虛線
 48
0.2
100
AcDbLine
 10
5.999980765182499
 20
12.3011201665484
 30
0.0
 11
1.000000765181994
 21
12.30112016654817
 31
0.0
  0
LINE
  5
69D7
330
69CB
100
AcDbEntity
  8
虛線
 48
0.2
100
AcDbLine
 10
5.999980765182044
 20
12.3011201665484
 30
0.0
 11
6.999980765182499
 21
13.30112016654863
 31
0.0
  0
LINE
  5
69D8
330
69CB
100
AcDbEntity
  8
虛線
 48
0.2
100
AcDbLine
 10
5.999980765187956
 20
2.301130166557413
 30
0.0
 11
3.499990765183611
 21
0.801130166544965
 31
0.0
  0
LINE
  5
69D9
330
69CB
100
AcDbEntity
  8
虛線
 48
0.2
100
AcDbLine
 10
1.000000765187905
 20
2.30113016657259
 30
0.0
 11
3.499990765178154
 21
0.801130166544965
 31
0.0
  0
LINE
  5
69DA
330
69CB
100
AcDbEntity
  8
虛線
 48
0.2
100
AcDbLine
 10
1.00000076518495
 20
12.30112016654834
 30
0.0
 11
0.0000007651844385
 21
13.30112016654854
 31
0.0
  0
ENDBLK
  5
69DB
330
69CB
100
AcDbEntity
  8
0
 62
     1
 48
0.27
100
AcDbBlockEnd
  0
ENDSEC
  0
SECTION
  2
ENTITIES
  0
LINE
  5
A28D
330
1E
100
AcDbEntity
  8
0
  6
Continuous
 62
     7
100
AcDbLine
 10
2440.885021583137
 20
740.2723532885695
 30
0.0
 11
2460.885021583136
 21
740.2723532885693
 31
0.0
  0
LINE
  5
A28E
330
1E
100
AcDbEntity
  8
0
  6
Continuous
 62
     7
100
AcDbLine
 10
2314.385021583136
 20
740.2723532890695
 30
0.0
 11
2334.385021583136
 21
740.2723532890693
 31
0.0
  0
LINE
  5
B52D
330
1E
100
AcDbEntity
  8
0
 48
0.27
100
AcDbLine
 10
2311.885021583136
 20
739.8223532890114
 30
0.0
 11
2311.885021583136
 21
699.1223532890801
 31
0.0
  0
LINE
  5
B52E
330
1E
100
AcDbEntity
  8
0
 48
0.27
100
AcDbLine
 10
2463.385021583136
 20
699.1223532884433
 30
0.0
 11
2463.385021583136
 21
739.8223532885118
 31
0.0
  0
LINE
  5
B52F
330
1E
100
AcDbEntity
  8
0
  6
Continuous
 62
     7
100
AcDbLine
 10
2349.635021576836
 20
702.5837558885457
 30
0.0
 11
2349.635021582894
 21
727.6223532888457
 31
0.0
  0
SPLINE
  5
B530
330
1E
100
AcDbEntity
  8
0
  6
Continuous
 62
     7
100
AcDbSpline
210
0.0
220
0.0
230
1.0
 70
     8
 71
     3
 72
    10
 73
     6
 74
     4
 42
0.0000000001
 43
0.0000000001
 44
0.0000000001
 12
-0.4944860456749705
 22
0.8691855674323701
 32
0.0
 13
0.0
 23
1.0
 33
0.0
 40
0.0
 40
0.0
 40
0.0
 40
0.0
 40
1.175827532424803
 40
2.382252441129304
 40
3.616216036101189
 40
3.616216036101189
 40
3.616216036101189
 40
3.616216036101189
 10
2350.550722611136
 20
699.1223532888457
 30
0.0
 10
2350.356912508834
 20
699.4630240625034
 30
0.0
 10
2350.021697092842
 20
700.1878182092456
 30
0.0
 10
2349.707130594113
 20
701.3570727379431
 30
0.0
 10
2349.635021576836
 20
702.1724346902217
 30
0.0
 10
2349.635021576836
 20
702.5837558885457
 30
0.0
 11
2350.550722611136
 21
699.1223532888457
 31
0.0
 11
2350.057183062536
 21
700.1895876117457
 31
0.0
 11
2349.743783402036
 21
701.3545947847456
 31
0.0
 11
2349.635021576836
 21
702.5837558885457
 31
0.0
  0
LINE
  5
B531
330
1E
100
AcDbEntity
  8
0
  6
Continuous
 62
     7
100
AcDbLine
 10
2425.635021583136
 20
702.5837556086457
 30
0.0
 11
2425.635021583136
 21
727.6223532888457
 31
0.0
  0
SPLINE
  5
B532
330
1E
100
AcDbEntity
  8
0
  6
Continuous
 62
     7
100
AcDbSpline
210
0.0
220
0.0
230
1.0
 70
     8
 71
     3
 72
    10
 73
     6
 74
     4
 42
0.0000000001
 43
0.0000000001
 44
0.0000000001
 12
0.0
 22
-1.0
 32
0.0
 13
-0.4944860456808042
 23
-0.8691855674290511
 33
0.0
 40
0.0
 40
0.0
 40
0.0
 40
0.0
 40
1.23411223745029
 40
2.440360681808842
 40
3.616215736002969
 40
3.616215736002969
 40
3.616215736002969
 40
3.616215736002969
 10
2425.635021583136
 20
702.5837556086457
 30
0.0
 10
2425.635021583136
 20
702.172384862829
 30
0.0
 10
2425.562904444956
 20
701.3570314396234
 30
0.0
 10
2425.248328345436
 20
700.1877819673258
 30
0.0
 10
2424.913135193817
 20
699.4630320363437
 30
0.0
 10
2424.719320555136
 20
699.1223532888457
 30
0.0
 11
2425.635021583136
 21
702.5837556086457
 31
0.0
 11
2425.526233510737
 21
701.3544476041456
 31
0.0
 11
2425.212869550136
 21
700.1896135654456
 31
0.0
 11
2424.719320555136
 21
699.1223532888457
 31
0.0
  0
LINE
  5
B533
330
1E
100
AcDbEntity
  8
0
 48
0.27
100
AcDbLine
 10
2411.635021583137
 20
727.6223532888457
 30
0.0
 11
2425.635021583136
 21
727.6223532888457
 31
0.0
  0
LINE
  5
B534
330
1E
100
AcDbEntity
  8
0
 48
0.27
100
AcDbLine
 10
2363.635021583379
 20
727.6223532888457
 30
0.0
 11
2349.635021582894
 21
727.6223532888457
 31
0.0
  0
LINE
  5
B535
330
1E
100
AcDbEntity
  8
中心線
 48
0.3
100
AcDbLine
 10
2413.635021583136
 20
721.8282416137119
 30
0.0
 11
2413.635021583136
 21
742.6223532904262
 31
0.0
  0
LINE
  5
B536
330
1E
100
AcDbEntity
  8
中心線
 48
0.3
100
AcDbLine
 10
2418.635021583137
 20
699.1223532888457
 30
0.0
 11
2418.635021583137
 21
742.6223532904262
 31
0.0
  0
LINE
  5
B540
330
1E
100
AcDbEntity
  8
虛線
 48
0.25
100
AcDbLine
 10
2440.885021583137
 20
724.8223532888458
 30
0.0
 11
2334.385021583136
 21
724.8223532888458
 31
0.0
  0
LINE
  5
B54B
330
1E
100
AcDbEntity
  8
中心線
 48
0.3
100
AcDbLine
 10
2361.635021583136
 20
721.8282416137119
 30
0.0
 11
2361.635021583136
 21
742.6223532904262
 31
0.0
  0
LINE
  5
B54C
330
1E
100
AcDbEntity
  8
中心線
 48
0.3
100
AcDbLine
 10
2356.635021583136
 20
699.1223532888457
 30
0.0
 11
2356.635021583136
 21
742.6223532904262
 31
0.0
  0
LINE
  5
B54D
330
1E
100
AcDbEntity
  8
0
  6
Continuous
 62
     7
100
AcDbLine
 10
2334.385021583136
 20
740.6223532888457
 30
0.0
 11
2440.885021583137
 21
740.6223532888457
 31
0.0
  0
LINE
  5
B55C
330
1E
100
AcDbEntity
  8
0
  6
Continuous
 62
     7
100
AcDbLine
 10
2363.635021589436
 20
702.5837558885457
 30
0.0
 11
2363.635021583379
 21
727.6223532888457
 31
0.0
  0
LINE
  5
B55D
330
1E
100
AcDbEntity
  8
0
  6
Continuous
 62
     7
100
AcDbLine
 10
2411.635021583137
 20
711.5837556086457
 30
0.0
 11
2363.635021583136
 21
711.5837556086457
 31
0.0
  0
LINE
  5
B55E
330
1E
100
AcDbEntity
  8
0
  6
Continuous
 62
     7
100
AcDbLine
 10
2411.635021583137
 20
702.5837556086457
 30
0.0
 11
2411.635021583137
 21
727.6223532888457
 31
0.0
  0
LINE
  5
B55F
330
1E
100
AcDbEntity
  8
0
  6
Continuous
 62
     7
100
AcDbLine
 10
2334.385021583136
 20
739.1223532888457
 30
0.0
 11
2440.885021583137
 21
739.1223532888457
 31
0.0
  0
SPLINE
  5
B560
330
1E
100
AcDbEntity
  8
0
  6
Continuous
 62
     7
100
AcDbSpline
210
0.0
220
0.0
230
1.0
 70
     8
 71
     3
 72
    10
 73
     6
 74
     4
 42
0.0000000001
 43
0.0000000001
 44
0.0000000001
 12
0.0
 22
-1.0
 32
0.0
 13
0.4944860456808043
 23
-0.8691855674290511
 33
0.0
 40
0.0
 40
0.0
 40
0.0
 40
0.0
 40
1.23411223745029
 40
2.440360681808606
 40
3.616215736002732
 40
3.616215736002732
 40
3.616215736002732
 40
3.616215736002732
 10
2411.635021583137
 20
702.5837556086457
 30
0.0
 10
2411.635021583137
 20
702.172384862829
 30
0.0
 10
2411.707138721317
 20
701.3570314396235
 30
0.0
 10
2412.021714820836
 20
700.1877819673254
 30
0.0
 10
2412.356907972455
 20
699.4630320363437
 30
0.0
 10
2412.550722611136
 20
699.1223532888457
 30
0.0
 11
2411.635021583137
 21
702.5837556086457
 31
0.0
 11
2411.743809655536
 21
701.3544476041456
 31
0.0
 11
2412.057173616136
 21
700.1896135654456
 31
0.0
 11
2412.550722611136
 21
699.1223532888457
 31
0.0
  0
SPLINE
  5
B561
330
1E
100
AcDbEntity
  8
0
  6
Continuous
 62
     7
100
AcDbSpline
210
0.0
220
0.0
230
1.0
 70
     8
 71
     3
 72
    10
 73
     6
 74
     4
 42
0.0000000001
 43
0.0000000001
 44
0.0000000001
 12
0.4944860456749705
 22
0.8691855674323701
 32
0.0
 13
0.0
 23
1.0
 33
0.0
 40
0.0
 40
0.0
 40
0.0
 40
0.0
 40
1.175827532424803
 40
2.382252441129304
 40
3.616216036101269
 40
3.616216036101269
 40
3.616216036101269
 40
3.616216036101269
 10
2362.719320555136
 20
699.1223532888457
 30
0.0
 10
2362.913130657437
 20
699.4630240625034
 30
0.0
 10
2363.248346073431
 20
700.1878182092456
 30
0.0
 10
2363.562912572159
 20
701.3570727379433
 30
0.0
 10
2363.635021589436
 20
702.1724346902217
 30
0.0
 10
2363.635021589436
 20
702.5837558885457
 30
0.0
 11
2362.719320555136
 21
699.1223532888457
 31
0.0
 11
2363.212860103736
 21
700.1895876117457
 31
0.0
 11
2363.526259764236
 21
701.3545947847456
 31
0.0
 11
2363.635021589436
 21
702.5837558885457
 31
0.0
  0
LINE
  5
B562
330
1E
100
AcDbEntity
  8
0
  6
Continuous
 62
     7
100
AcDbLine
 10
2314.385021583136
 20
699.1223532890694
 30
0.0
 11
2314.385021583136
 21
740.2723532890695
 31
0.0
  0
LINE
  5
B563
330
1E
100
AcDbEntity
  8
0
  6
Continuous
 62
     7
100
AcDbLine
 10
2314.885021583136
 20
708.3223549315116
 30
0.0
 11
2314.885021583136
 21
712.8223516456118
 31
0.0
  0
LINE
  5
B564
330
1E
100
AcDbEntity
  8
0
  6
Continuous
 62
     7
100
AcDbLine
 10
2317.885021583137
 20
713.5723532890115
 30
0.0
 11
2317.885021583137
 21
707.5723532890115
 31
0.0
  0
LINE
  5
B565
330
1E
100
AcDbEntity
  8
0
  6
Continuous
 62
     7
100
AcDbLine
 10
2334.385021583136
 20
699.1223532889855
 30
0.0
 11
2334.385021583136
 21
740.6223532888457
 31
0.0
  0
LINE
  5
B566
330
1E
100
AcDbEntity
  8
0
  6
Continuous
 62
     7
100
AcDbLine
 10
2311.885021583136
 20
699.1223532890801
 30
0.0
 11
2463.385021583136
 21
699.1223532884433
 31
0.0
  0
LINE
  5
B567
330
1E
100
AcDbEntity
  8
0
  6
Continuous
 62
     7
100
AcDbLine
 10
2334.385021583136
 20
700.1223532890117
 30
0.0
 11
2311.885021583136
 21
700.1223532890117
 31
0.0
  0
LINE
  5
B568
330
1E
100
AcDbEntity
  8
0
  6
Continuous
 62
     7
100
AcDbLine
 10
2440.885021583137
 20
700.1223532885115
 30
0.0
 11
2463.385021583136
 21
700.1223532885115
 31
0.0
  0
LINE
  5
B569
330
1E
100
AcDbEntity
  8
0
  6
Continuous
 62
     7
100
AcDbLine
 10
2317.885021583137
 20
707.5723532890115
 30
0.0
 11
2314.385021583136
 21
707.5723532890115
 31
0.0
  0
LINE
  5
B56A
330
1E
100
AcDbEntity
  8
0
  6
Continuous
 62
     7
100
AcDbLine
 10
2457.385021583136
 20
707.5723532885117
 30
0.0
 11
2460.885021583136
 21
707.5723532885117
 31
0.0
  0
LINE
  5
B56B
330
1E
100
AcDbEntity
  8
0
  6
Continuous
 62
     7
100
AcDbLine
 10
2315.385021583136
 20
707.8223532885117
 30
0.0
 11
2317.885021583137
 21
707.8223532885117
 31
0.0
  0
LINE
  5
B56C
330
1E
100
AcDbEntity
  8
0
  6
Continuous
 62
     7
100
AcDbLine
 10
2457.385021583136
 20
707.8223532885117
 30
0.0
 11
2459.885021583136
 21
707.8223532885117
 31
0.0
  0
LINE
  5
B56D
330
1E
100
AcDbEntity
  8
0
  6
Continuous
 62
     7
100
AcDbLine
 10
2315.385021583136
 20
713.3223532885117
 30
0.0
 11
2317.885021583137
 21
713.3223532885117
 31
0.0
  0
LINE
  5
B56E
330
1E
100
AcDbEntity
  8
0
  6
Continuous
 62
     7
100
AcDbLine
 10
2457.385021583136
 20
713.3223532885117
 30
0.0
 11
2459.885021583136
 21
713.3223532885117
 31
0.0
  0
LINE
  5
B56F
330
1E
100
AcDbEntity
  8
0
  6
Continuous
 62
     7
100
AcDbLine
 10
2317.885021583137
 20
713.5723532890115
 30
0.0
 11
2314.385021583136
 21
713.5723532890115
 31
0.0
  0
LINE
  5
B570
330
1E
100
AcDbEntity
  8
0
  6
Continuous
 62
     7
100
AcDbLine
 10
2457.385021583136
 20
713.5723532885117
 30
0.0
 11
2460.885021583136
 21
713.5723532885117
 31
0.0
  0
LINE
  5
B571
330
1E
100
AcDbEntity
  8
0
  6
Continuous
 62
     7
100
AcDbLine
 10
2311.885021583136
 20
738.3223532890115
 30
0.0
 11
2334.385021583136
 21
738.3223532890115
 31
0.0
  0
LINE
  5
B572
330
1E
100
AcDbEntity
  8
0
  6
Continuous
 62
     7
100
AcDbLine
 10
2440.885021583137
 20
738.3223532885117
 30
0.0
 11
2463.385021583136
 21
738.3223532885117
 31
0.0
  0
LINE
  5
B573
330
1E
100
AcDbEntity
  8
0
  6
Continuous
 62
     7
100
AcDbLine
 10
2311.885021583136
 20
739.8223532890114
 30
0.0
 11
2334.385021583136
 21
739.8223532890114
 31
0.0
  0
LINE
  5
B574
330
1E
100
AcDbEntity
  8
0
  6
Continuous
 62
     7
100
AcDbLine
 10
2440.885021583137
 20
739.8223532885118
 30
0.0
 11
2463.385021583136
 21
739.8223532885118
 31
0.0
  0
LINE
  5
B575
330
1E
100
AcDbEntity
  8
0
  6
Continuous
 62
     7
100
AcDbLine
 10
2440.885021583137
 20
699.1223532885378
 30
0.0
 11
2440.885021583137
 21
740.6223532888457
 31
0.0
  0
LINE
  5
B576
330
1E
100
AcDbEntity
  8
0
  6
Continuous
 62
     7
100
AcDbLine
 10
2457.385021583136
 20
713.5723532885117
 30
0.0
 11
2457.385021583136
 21
707.5723532885117
 31
0.0
  0
LINE
  5
B577
330
1E
100
AcDbEntity
  8
0
  6
Continuous
 62
     7
100
AcDbLine
 10
2460.385021583136
 20
712.8222464232116
 30
0.0
 11
2460.385021583136
 21
708.3224601539114
 31
0.0
  0
LINE
  5
B578
330
1E
100
AcDbEntity
  8
0
  6
Continuous
 62
     7
100
AcDbLine
 10
2460.885021583135
 20
699.1223532884537
 30
0.0
 11
2460.885021583136
 21
740.2723532885693
 31
0.0
  0
ARC
  5
B579
330
1E
100
AcDbEntity
  8
0
  6
Continuous
 62
     7
100
AcDbCircle
 10
2459.885021583136
 20
712.8223532885117
 30
0.0
 40
0.5
100
AcDbArc
 50
0.0
 51
90.0
  0
ARC
  5
B57A
330
1E
100
AcDbEntity
  8
0
  6
Continuous
 62
     7
100
AcDbCircle
 10
2459.885021583136
 20
708.3223532885117
 30
0.0
 40
0.5
100
AcDbArc
 50
270.0
 51
0.0
  0
ARC
  5
B57B
330
1E
100
AcDbEntity
  8
0
  6
Continuous
 62
     7
100
AcDbCircle
 10
2315.385021583136
 20
712.8223532885117
 30
0.0
 40
0.5
100
AcDbArc
 50
90.0
 51
180.0
  0
ARC
  5
B57C
330
1E
100
AcDbEntity
  8
0
  6
Continuous
 62
     7
100
AcDbCircle
 10
2315.385021583136
 20
708.3223532885117
 30
0.0
 40
0.5
100
AcDbArc
 50
180.0
 51
270.0
  0
CIRCLE
  5
B57D
330
1E
100
AcDbEntity
  8
0
  6
Continuous
 62
     7
100
AcDbCircle
 10
2450.885021583137
 20
728.022353288512
 30
0.0
 40
2.5
  0
CIRCLE
  5
B57E
330
1E
100
AcDbEntity
  8
0
  6
Continuous
 62
     7
100
AcDbCircle
 10
2450.885021583137
 20
728.022353288512
 30
0.0
 40
1.25
  0
CIRCLE
  5
B57F
330
1E
100
AcDbEntity
  8
0
  6
Continuous
 62
     7
100
AcDbCircle
 10
2450.885021583137
 20
728.022353288512
 30
0.0
 40
3.0
  0
CIRCLE
  5
B580
330
1E
100
AcDbEntity
  8
0
  6
Continuous
 62
     7
100
AcDbCircle
 10
2324.385021583136
 20
728.0223532890113
 30
0.0
 40
1.25
  0
CIRCLE
  5
B581
330
1E
100
AcDbEntity
  8
0
  6
Continuous
 62
     7
100
AcDbCircle
 10
2324.385021583136
 20
728.0223532890113
 30
0.0
 40
2.5
  0
CIRCLE
  5
B582
330
1E
100
AcDbEntity
  8
0
  6
Continuous
 62
     7
100
AcDbCircle
 10
2324.385021583136
 20
728.0223532890113
 30
0.0
 40
3.0
  0
ARC
  5
B599
330
1E
100
AcDbEntity
  8
0
  6
Continuous
 62
     7
100
AcDbCircle
 10
2458.88085491647
 20
881.2287483719037
 30
0.0
 40
5.704166666666643
100
AcDbArc
 50
322.1507111678919
 51
37.84928883210811
  0
LINE
  5
B59A
330
1E
100
AcDbEntity
  8
中心線
 48
0.3
100
AcDbLine
 10
2467.548748281514
 20
881.2287483719542
 30
0.0
 11
2460.385021583136
 21
881.2287483719542
 31
0.0
  0
ARC
  5
B59B
330
1E
100
AcDbEntity
  8
0
  6
Continuous
 62
     7
100
AcDbCircle
 10
2458.88085491647
 20
828.8287483714993
 30
0.0
 40
5.704166666666643
100
AcDbArc
 50
322.1507111678919
 51
37.84928883210811
  0
LINE
  5
B59C
330
1E
100
AcDbEntity
  8
中心線
 48
0.3
100
AcDbLine
 10
2467.548748281514
 20
828.8287483715498
 30
0.0
 11
2460.385021583136
 21
828.8287483715498
 31
0.0
  0
ARC
  5
B59D
330
1E
100
AcDbEntity
  8
0
  6
Continuous
 62
     7
100
AcDbCircle
 10
2316.389188249803
 20
881.2287483719037
 30
0.0
 40
5.704166666666643
100
AcDbArc
 50
142.1507111678919
 51
217.8492888321081
  0
LINE
  5
B59E
330
1E
100
AcDbEntity
  8
中心線
 48
0.3
100
AcDbLine
 10
2307.721294884757
 20
881.2287483719542
 30
0.0
 11
2314.885021583136
 21
881.2287483719542
 31
0.0
  0
ARC
  5
B59F
330
1E
100
AcDbEntity
  8
0
  6
Continuous
 62
     7
100
AcDbCircle
 10
2316.389188249803
 20
828.8287483714993
 30
0.0
 40
5.704166666666643
100
AcDbArc
 50
142.1507111678919
 51
217.8492888321081
  0
LINE
  5
B5A0
330
1E
100
AcDbEntity
  8
中心線
 48
0.3
100
AcDbLine
 10
2307.721294884757
 20
828.8287483715498
 30
0.0
 11
2314.885021583136
 21
828.8287483715498
 31
0.0
  0
LINE
  5
B5A1
330
1E
100
AcDbEntity
  8
0
 48
0.27
100
AcDbLine
 10
2463.385021583136
 20
889.5287483749489
 30
0.0
 11
2463.385021583136
 21
820.5287483749488
 31
0.0
  0
LINE
  5
B5A2
330
1E
100
AcDbEntity
  8
0
 48
0.27
100
AcDbLine
 10
2311.885021583136
 20
889.5287483749489
 30
0.0
 11
2311.885021583136
 21
820.5287483749488
 31
0.0
  0
CIRCLE
  5
B5A5
330
1E
100
AcDbEntity
  8
0
  6
Continuous
 62
     7
100
AcDbCircle
 10
2448.885021583136
 20
855.0287483749489
 30
0.0
 40
5.15
  0
CIRCLE
  5
B5A6
330
1E
100
AcDbEntity
  8
0
  6
Continuous
 62
     7
100
AcDbCircle
 10
2448.885021583136
 20
855.0287483749489
 30
0.0
 40
0.75
  0
LINE
  5
B5A7
330
1E
100
AcDbEntity
  8
0
  6
Continuous
 62
     7
100
AcDbLine
 10
2463.385021583136
 20
889.5287483749489
 30
0.0
 11
2440.885021583137
 21
889.5287483749489
 31
0.0
  0
LINE
  5
B5A8
330
1E
100
AcDbEntity
  8
0
  6
Continuous
 62
     7
100
AcDbLine
 10
2463.385021583136
 20
888.0287483749489
 30
0.0
 11
2440.885021583137
 21
888.0287483749489
 31
0.0
  0
LINE
  5
B5A9
330
1E
100
AcDbEntity
  8
0
  6
Continuous
 62
     7
100
AcDbLine
 10
2460.885021583136
 20
820.5287483749488
 30
0.0
 11
2460.885021583136
 21
889.5287483749489
 31
0.0
  0
LINE
  5
B5AA
330
1E
100
AcDbEntity
  8
0
  6
Continuous
 62
     7
100
AcDbLine
 10
2440.885021583137
 20
862.9787483749487
 30
0.0
 11
2460.885021583136
 21
862.9787483749487
 31
0.0
  0
LINE
  5
B5AB
330
1E
100
AcDbEntity
  8
0
  6
Continuous
 62
     7
100
AcDbLine
 10
2440.885021583137
 20
862.5287483749488
 30
0.0
 11
2460.885021583136
 21
862.5287483749488
 31
0.0
  0
LINE
  5
B5AC
330
1E
100
AcDbEntity
  8
0
  6
Continuous
 62
     7
100
AcDbLine
 10
2460.885021583136
 20
847.528748374949
 30
0.0
 11
2440.885021583137
 21
847.528748374949
 31
0.0
  0
LINE
  5
B5AD
330
1E
100
AcDbEntity
  8
0
  6
Continuous
 62
     7
100
AcDbLine
 10
2460.885021583136
 20
847.0787483749486
 30
0.0
 11
2440.885021583137
 21
847.0787483749486
 31
0.0
  0
LINE
  5
B5AE
330
1E
100
AcDbEntity
  8
0
  6
Continuous
 62
     7
100
AcDbLine
 10
2463.385021583136
 20
822.0287483749489
 30
0.0
 11
2440.885021583137
 21
822.0287483749489
 31
0.0
  0
LINE
  5
B5AF
330
1E
100
AcDbEntity
  8
0
  6
Continuous
 62
     7
100
AcDbLine
 10
2463.385021583136
 20
820.5287483749488
 30
0.0
 11
2440.885021583137
 21
820.5287483749488
 31
0.0
  0
CIRCLE
  5
B5B2
330
1E
100
AcDbEntity
  8
0
  6
Continuous
 62
     7
100
AcDbCircle
 10
2326.385021583136
 20
855.0287483749489
 30
0.0
 40
5.15
  0
CIRCLE
  5
B5B3
330
1E
100
AcDbEntity
  8
0
  6
Continuous
 62
     7
100
AcDbCircle
 10
2326.385021583136
 20
855.0287483749489
 30
0.0
 40
0.75
  0
LINE
  5
B5B4
330
1E
100
AcDbEntity
  8
0
  6
Continuous
 62
     7
100
AcDbLine
 10
2311.885021583136
 20
889.5287483749489
 30
0.0
 11
2334.385021583136
 21
889.5287483749489
 31
0.0
  0
LINE
  5
B5B5
330
1E
100
AcDbEntity
  8
0
  6
Continuous
 62
     7
100
AcDbLine
 10
2311.885021583136
 20
888.0287483749489
 30
0.0
 11
2334.385021583136
 21
888.0287483749489
 31
0.0
  0
LINE
  5
B5B6
330
1E
100
AcDbEntity
  8
0
  6
Continuous
 62
     7
100
AcDbLine
 10
2314.385021583136
 20
820.5287483749488
 30
0.0
 11
2314.385021583136
 21
889.5287483749489
 31
0.0
  0
LINE
  5
B5B7
330
1E
100
AcDbEntity
  8
0
  6
Continuous
 62
     7
100
AcDbLine
 10
2334.385021583136
 20
862.9787483749487
 30
0.0
 11
2314.385021583136
 21
862.9787483749487
 31
0.0
  0
LINE
  5
B5B8
330
1E
100
AcDbEntity
  8
0
  6
Continuous
 62
     7
100
AcDbLine
 10
2334.385021583136
 20
862.5287483749488
 30
0.0
 11
2314.385021583136
 21
862.5287483749488
 31
0.0
  0
LINE
  5
B5B9
330
1E
100
AcDbEntity
  8
0
  6
Continuous
 62
     7
100
AcDbLine
 10
2314.385021583136
 20
847.528748374949
 30
0.0
 11
2334.385021583136
 21
847.528748374949
 31
0.0
  0
LINE
  5
B5BA
330
1E
100
AcDbEntity
  8
0
  6
Continuous
 62
     7
100
AcDbLine
 10
2314.385021583136
 20
847.0787483749486
 30
0.0
 11
2334.385021583136
 21
847.0787483749486
 31
0.0
  0
LINE
  5
B5BB
330
1E
100
AcDbEntity
  8
0
  6
Continuous
 62
     7
100
AcDbLine
 10
2334.385021583136
 20
820.5287483749488
 30
0.0
 11
2334.385021583136
 21
889.5287483749489
 31
0.0
  0
LINE
  5
B5BC
330
1E
100
AcDbEntity
  8
0
  6
Continuous
 62
     7
100
AcDbLine
 10
2311.885021583136
 20
822.0287483749489
 30
0.0
 11
2334.385021583136
 21
822.0287483749489
 31
0.0
  0
LINE
  5
B5BD
330
1E
100
AcDbEntity
  8
0
  6
Continuous
 62
     7
100
AcDbLine
 10
2311.885021583136
 20
820.5287483749488
 30
0.0
 11
2334.385021583136
 21
820.5287483749488
 31
0.0
  0
LINE
  5
B5BE
330
1E
100
AcDbEntity
  8
0
100
AcDbLine
 10
2334.385021583136
 20
890.0287483749478
 30
0.0
 11
2334.385021583136
 21
820.0287483749498
 31
0.0
  0
LINE
  5
B5BF
330
1E
100
AcDbEntity
  8
0
100
AcDbLine
 10
2440.885021583137
 20
890.0287483749478
 30
0.0
 11
2440.885021583137
 21
820.028748374948
 31
0.0
  0
LINE
  5
B5C2
330
1E
100
AcDbEntity
  8
0
100
AcDbLine
 10
2440.885021583137
 20
905.028748374948
 30
0.0
 11
2334.385021583136
 21
905.028748374948
 31
0.0
  0
LINE
  5
B5C8
330
1E
100
AcDbEntity
  8
0
100
AcDbLine
 10
2440.885021583137
 20
806.82874837495
 30
0.0
 11
2334.385021583136
 21
806.82874837495
 31
0.0
  0
LINE
  5
B5C9
330
1E
100
AcDbEntity
  8
0
100
AcDbLine
 10
2440.885021583137
 20
825.0287483749479
 30
0.0
 11
2334.385021583136
 21
825.0287483749499
 31
0.0
  0
LINE
  5
B5CA
330
1E
100
AcDbEntity
  8
0
100
AcDbLine
 10
2440.885021583137
 20
825.5287483749507
 30
0.0
 11
2334.385021583136
 21
825.5287483749507
 31
0.0
  0
LINE
  5
B5CB
330
1E
100
AcDbEntity
  8
0
100
AcDbLine
 10
2440.885021583137
 20
844.5287483749488
 30
0.0
 11
2334.385021583136
 21
844.528748374948
 31
0.0
  0
LINE
  5
B5CC
330
1E
100
AcDbEntity
  8
0
100
AcDbLine
 10
2440.885021583137
 20
845.0287483749498
 30
0.0
 11
2334.385021583136
 21
845.028748374948
 31
0.0
  0
LINE
  5
B5CD
330
1E
100
AcDbEntity
  8
0
100
AcDbLine
 10
2440.885021583137
 20
865.5287483749498
 30
0.0
 11
2334.385021583136
 21
865.5287483749489
 31
0.0
  0
LINE
  5
B5CE
330
1E
100
AcDbEntity
  8
0
100
AcDbLine
 10
2440.885021583137
 20
865.0287483749488
 30
0.0
 11
2334.385021583136
 21
865.0287483749497
 31
0.0
  0
LINE
  5
B5CF
330
1E
100
AcDbEntity
  8
0
100
AcDbLine
 10
2440.885021583137
 20
884.528748374948
 30
0.0
 11
2334.385021583136
 21
884.5287483749489
 31
0.0
  0
LINE
  5
B5D0
330
1E
100
AcDbEntity
  8
0
100
AcDbLine
 10
2440.885021583137
 20
885.028748374949
 30
0.0
 11
2334.385021583136
 21
885.0287483749481
 31
0.0
  0
LINE
  5
B5D1
330
1E
100
AcDbEntity
  8
0
100
AcDbLine
 10
2440.885021583137
 20
903.2287483749486
 30
0.0
 11
2334.385021583136
 21
903.2287483749477
 31
0.0
  0
LINE
  5
B5F1
330
1E
100
AcDbEntity
  8
0
100
AcDbLine
 10
2440.885021583137
 20
805.0287483749498
 30
0.0
 11
2334.385021583136
 21
805.0287483749498
 31
0.0
  0
LINE
  5
B5F2
330
1E
100
AcDbEntity
  8
0
100
AcDbLine
 10
2334.385021583136
 20
905.028748374948
 30
0.0
 11
2334.385021583136
 21
805.0287483749498
 31
0.0
  0
LINE
  5
B5F3
330
1E
100
AcDbEntity
  8
0
100
AcDbLine
 10
2440.885021583137
 20
905.028748374948
 30
0.0
 11
2440.885021583137
 21
805.0287483749498
 31
0.0
  0
LWPOLYLINE
  5
D7F0
330
1E
100
AcDbEntity
  8
0
 48
0.3
100
AcDbPolyline
 90
        2
 70
     0
 43
0.0
 10
2097.335396941591
 20
728.6223532885685
 10
2097.335396941591
 20
728.6223532885685
  0
LWPOLYLINE
  5
D7F1
330
1E
100
AcDbEntity
  8
0
 48
0.3
100
AcDbPolyline
 90
        2
 70
     0
 43
0.0
 10
2097.335396941591
 20
728.6223532885685
 10
2097.335396941591
 20
728.6223532885685
  0
LINE
  5
D7F2
330
1E
100
AcDbEntity
  8
0
 48
0.3
100
AcDbLine
 10
2097.335396941592
 20
728.6223532885673
 30
0.0
 11
2097.83539694159
 21
728.1223532885694
 31
0.0
  0
LINE
  5
D7F3
330
1E
100
AcDbEntity
  8
0
100
AcDbLine
 10
2097.83539694159
 20
728.1223532885694
 30
0.0
 11
2097.835396941586
 21
711.0837556083508
 31
0.0
  0
LINE
  5
D7F4
330
1E
100
AcDbEntity
  8
0
 48
0.27
100
AcDbLine
 10
2184.873994621817
 20
699.1223532885685
 30
0.0
 11
2197.335396941596
 21
711.5837556083473
 31
0.0
  0
LINE
  5
D7F5
330
1E
100
AcDbEntity
  8
0
 48
0.27
100
AcDbLine
 10
2109.796799261478
 20
699.122353288459
 30
0.0
 11
2097.835396941586
 21
711.0837556083508
 31
0.0
  0
LINE
  5
D7F6
330
1E
100
AcDbEntity
  8
虛線
 48
0.25
100
AcDbLine
 10
2110.585396941591
 20
739.3223532885683
 30
0.0
 11
2111.885396941592
 21
740.6223532885682
 31
0.0
  0
LINE
  5
D7F7
330
1E
100
AcDbEntity
  8
虛線
 48
0.25
100
AcDbLine
 10
2102.085396941591
 20
739.3223532885683
 30
0.0
 11
2100.785396941592
 21
740.6223532885682
 31
0.0
  0
LINE
  5
D7F8
330
1E
100
AcDbEntity
  8
虛線
 48
0.25
100
AcDbLine
 10
2110.585396941591
 20
739.3223532885683
 30
0.0
 11
2102.085396941591
 21
739.3223532885683
 31
0.0
  0
LINE
  5
D7F9
330
1E
100
AcDbEntity
  8
虛線
 48
0.25
100
AcDbLine
 10
2110.585396941591
 20
727.6223532885681
 30
0.0
 11
2110.585396941591
 21
739.3223532885683
 31
0.0
  0
LINE
  5
D7FA
330
1E
100
AcDbEntity
  8
虛線
 48
0.25
100
AcDbLine
 10
2111.335396941591
 20
727.6223532885681
 30
0.0
 11
2111.335396941591
 21
740.0723532885681
 31
0.0
  0
LINE
  5
D7FB
330
1E
100
AcDbEntity
  8
虛線
 48
0.25
100
AcDbLine
 10
2101.335396941591
 20
727.6223532885681
 30
0.0
 11
2101.335396941591
 21
740.0723532885678
 31
0.0
  0
LINE
  5
D7FC
330
1E
100
AcDbEntity
  8
虛線
 48
0.25
100
AcDbLine
 10
2102.085396941591
 20
727.6223532885681
 30
0.0
 11
2102.085396941591
 21
739.3223532885683
 31
0.0
  0
LINE
  5
D7FD
330
1E
100
AcDbEntity
  8
虛線
 48
0.25
100
AcDbLine
 10
2151.585396941591
 20
739.3223532885683
 30
0.0
 11
2152.885396941592
 21
740.6223532885681
 31
0.0
  0
LINE
  5
D7FE
330
1E
100
AcDbEntity
  8
虛線
 48
0.25
100
AcDbLine
 10
2143.085396941591
 20
739.3223532885683
 30
0.0
 11
2141.78539694159
 21
740.6223532885682
 31
0.0
  0
LINE
  5
D7FF
330
1E
100
AcDbEntity
  8
0
100
AcDbLine
 10
2197.335396941591
 20
738.8223532885679
 30
0.0
 11
2195.53539694159
 21
740.6223532885681
 31
0.0
  0
LINE
  5
D800
330
1E
100
AcDbEntity
  8
0
100
AcDbLine
 10
2177.335396941591
 20
740.6223532885682
 30
0.0
 11
2176.835396941591
 21
740.1223532885683
 31
0.0
  0
LINE
  5
D801
330
1E
100
AcDbEntity
  8
0
100
AcDbLine
 10
2177.335396941591
 20
740.6223532885682
 30
0.0
 11
2195.53539694159
 21
740.6223532885681
 31
0.0
  0
LINE
  5
D802
330
1E
100
AcDbEntity
  8
0
100
AcDbLine
 10
2197.335396941591
 20
738.8223532885679
 30
0.0
 11
2197.335396941596
 21
711.5837556083473
 31
0.0
  0
LINE
  5
D803
330
1E
100
AcDbEntity
  8
0
100
AcDbLine
 10
2157.835396941591
 20
740.1223532885683
 30
0.0
 11
2157.335396941591
 21
740.6223532885682
 31
0.0
  0
LINE
  5
D804
330
1E
100
AcDbEntity
  8
0
100
AcDbLine
 10
2136.835396941592
 20
740.1223532885683
 30
0.0
 11
2137.335396941591
 21
740.6223532885682
 31
0.0
  0
LINE
  5
D805
330
1E
100
AcDbEntity
  8
0
100
AcDbLine
 10
2137.335396941591
 20
740.6223532885682
 30
0.0
 11
2157.335396941591
 21
740.6223532885682
 31
0.0
  0
LINE
  5
D806
330
1E
100
AcDbEntity
  8
0
100
AcDbLine
 10
2176.835396941591
 20
740.1223532885683
 30
0.0
 11
2157.835396941591
 21
740.1223532885683
 31
0.0
  0
LINE
  5
D807
330
1E
100
AcDbEntity
  8
0
100
AcDbLine
 10
2117.335396941591
 20
740.6223532885682
 30
0.0
 11
2117.835396941593
 21
740.1223532885681
 31
0.0
  0
LINE
  5
D808
330
1E
100
AcDbEntity
  8
0
100
AcDbLine
 10
2099.135396941592
 20
740.6223532885681
 30
0.0
 11
2097.335396941593
 21
738.8223532885688
 31
0.0
  0
LINE
  5
D809
330
1E
100
AcDbEntity
  8
0
100
AcDbLine
 10
2117.335396941591
 20
740.6223532885682
 30
0.0
 11
2099.135396941592
 21
740.6223532885681
 31
0.0
  0
LINE
  5
D80A
330
1E
100
AcDbEntity
  8
0
100
AcDbLine
 10
2117.835396941593
 20
740.1223532885681
 30
0.0
 11
2136.835396941592
 21
740.1223532885683
 31
0.0
  0
LINE
  5
D80B
330
1E
100
AcDbEntity
  8
0
100
AcDbLine
 10
2097.335396941593
 20
738.8223532885688
 30
0.0
 11
2097.335396941592
 21
728.6223532885673
 31
0.0
  0
LINE
  5
D80E
330
1E
100
AcDbEntity
  8
虛線
 48
0.3
100
AcDbLine
 10
2113.335396941593
 20
727.6223532885682
 30
0.0
 11
2097.83539694159
 21
727.622353288568
 31
0.0
  0
LINE
  5
D80F
330
1E
100
AcDbEntity
  8
虛線
 48
0.25
100
AcDbLine
 10
2113.335396941593
 20
699.1223532885683
 30
0.0
 11
2113.335396941593
 21
727.6223532885682
 31
0.0
  0
LINE
  5
D812
330
1E
100
AcDbEntity
  8
虛線
 48
0.25
100
AcDbLine
 10
2151.585396941591
 20
732.8223532885683
 30
0.0
 11
2151.585396941591
 21
739.3223532885683
 31
0.0
  0
LINE
  5
D813
330
1E
100
AcDbEntity
  8
虛線
 48
0.25
100
AcDbLine
 10
2152.335396941592
 20
732.8223532885683
 30
0.0
 11
2152.335396941589
 21
740.0723532885674
 31
0.0
  0
LINE
  5
D814
330
1E
100
AcDbEntity
  8
虛線
 48
0.25
100
AcDbLine
 10
2143.085396941591
 20
739.3223532885683
 30
0.0
 11
2151.585396941591
 21
739.3223532885683
 31
0.0
  0
LINE
  5
D815
330
1E
100
AcDbEntity
  8
虛線
 48
0.25
100
AcDbLine
 10
2142.335396941591
 20
732.8223532885683
 30
0.0
 11
2142.335396941591
 21
740.0723532885681
 31
0.0
  0
LINE
  5
D816
330
1E
100
AcDbEntity
  8
虛線
 48
0.25
100
AcDbLine
 10
2143.085396941591
 20
732.8223532885683
 30
0.0
 11
2143.085396941591
 21
739.3223532885683
 31
0.0
  0
LINE
  5
D817
330
1E
100
AcDbEntity
  8
虛線
 48
0.25
100
AcDbLine
 10
2154.335396941591
 20
732.8223532885683
 30
0.0
 11
2140.335396941591
 21
732.8223532885683
 31
0.0
  0
LINE
  5
D818
330
1E
100
AcDbEntity
  8
虛線
 48
0.25
100
AcDbLine
 10
2184.085396941592
 20
739.3223532885683
 30
0.0
 11
2182.785396941592
 21
740.6223532885682
 31
0.0
  0
LINE
  5
D819
330
1E
100
AcDbEntity
  8
虛線
 48
0.25
100
AcDbLine
 10
2192.585396941591
 20
739.3223532885683
 30
0.0
 11
2193.885396941591
 21
740.6223532885681
 31
0.0
  0
LINE
  5
D81A
330
1E
100
AcDbEntity
  8
虛線
 48
0.25
100
AcDbLine
 10
2184.085396941592
 20
739.3223532885683
 30
0.0
 11
2192.585396941591
 21
739.3223532885683
 31
0.0
  0
LINE
  5
D81B
330
1E
100
AcDbEntity
  8
虛線
 48
0.25
100
AcDbLine
 10
2184.085396941592
 20
727.6223532885681
 30
0.0
 11
2184.085396941592
 21
739.3223532885683
 31
0.0
  0
LINE
  5
D81C
330
1E
100
AcDbEntity
  8
虛線
 48
0.25
100
AcDbLine
 10
2183.335396941592
 20
727.6223532885681
 30
0.0
 11
2183.335396941592
 21
740.0723532885681
 31
0.0
  0
LINE
  5
D81D
330
1E
100
AcDbEntity
  8
虛線
 48
0.25
100
AcDbLine
 10
2193.335396941591
 20
727.6223532885681
 30
0.0
 11
2193.335396941591
 21
740.0723532885678
 31
0.0
  0
LINE
  5
D81E
330
1E
100
AcDbEntity
  8
虛線
 48
0.25
100
AcDbLine
 10
2192.585396941591
 20
727.6223532885681
 30
0.0
 11
2192.585396941591
 21
739.3223532885683
 31
0.0
  0
LINE
  5
D81F
330
1E
100
AcDbEntity
  8
虛線
 48
0.3
100
AcDbLine
 10
2181.335396941592
 20
727.6223532885681
 30
0.0
 11
2197.335396941593
 21
727.6223532885681
 31
0.0
  0
LINE
  5
D820
330
1E
100
AcDbEntity
  8
虛線
 48
0.25
100
AcDbLine
 10
2181.335396941591
 20
699.1223532885683
 30
0.0
 11
2181.335396941592
 21
727.6223532885681
 31
0.0
  0
LINE
  5
D821
330
1E
100
AcDbEntity
  8
中心線
 48
0.27
100
AcDbLine
 10
2188.335396941591
 20
701.0341299351398
 30
0.0
 11
2188.335396941591
 21
742.6223532885683
 31
0.0
  0
LINE
  5
D822
330
1E
100
AcDbEntity
  8
虛線
 48
0.25
100
AcDbLine
 10
2140.335396941591
 20
724.8223532888456
 30
0.0
 11
2140.335396941591
 21
732.8223532885683
 31
0.0
  0
LINE
  5
D823
330
1E
100
AcDbEntity
  8
虛線
 48
0.25
100
AcDbLine
 10
2154.335396941592
 20
724.8223532888456
 30
0.0
 11
2154.335396941591
 21
732.8223532885683
 31
0.0
  0
LINE
  5
D824
330
1E
100
AcDbEntity
  8
中心線
 48
0.27
100
AcDbLine
 10
2106.335396941591
 20
701.0341299351398
 30
0.0
 11
2106.335396941591
 21
742.6223532885683
 31
0.0
  0
LINE
  5
D826
330
1E
100
AcDbEntity
  8
0
 48
0.3
100
AcDbLine
 10
2184.873994621817
 20
699.1223532885685
 30
0.0
 11
2169.835396941591
 21
699.1223532885685
 31
0.0
  0
LINE
  5
D827
330
1E
100
AcDbEntity
  8
中心線
 48
0.25
100
AcDbLine
 10
2158.06995191008
 20
731.622353289068
 30
0.0
 11
2141.702411609624
 21
731.622353289068
 31
0.0
  0
LINE
  5
D828
330
1E
100
AcDbEntity
  8
0
 48
0.27
100
AcDbLine
 10
2150.222190837845
 20
734.6223962318977
 30
0.0
 11
2149.644831256983
 21
735.6224109915138
 31
0.0
  0
LINE
  5
D829
330
1E
100
AcDbEntity
  8
0
 48
0.27
100
AcDbLine
 10
2151.212174761488
 20
734.5647509895152
 30
0.0
 11
2153.214010579379
 21
733.6589229473092
 31
0.0
  0
LINE
  5
D82A
330
1E
100
AcDbEntity
  8
0
 48
0.27
100
AcDbLine
 10
2151.212174761488
 20
728.6799542526019
 30
0.0
 11
2153.214010579379
 21
729.5857822948078
 31
0.0
  0
LINE
  5
D82B
330
1E
100
AcDbEntity
  8
0
 48
0.27
100
AcDbLine
 10
2149.840130617969
 20
731.622353289068
 30
0.0
 11
2149.862190975383
 21
732.2076327947016
 31
0.0
  0
LINE
  5
D82C
330
1E
100
AcDbEntity
  8
0
 48
0.27
100
AcDbLine
 10
2149.862190975383
 20
731.0370737833355
 30
0.0
 11
2149.840130617969
 21
731.622353289068
 31
0.0
  0
LINE
  5
D82D
330
1E
100
AcDbEntity
  8
0
 48
0.27
100
AcDbLine
 10
2149.862190975383
 20
732.2076327947016
 30
0.0
 11
2149.927522339125
 21
732.770420408624
 31
0.0
  0
LINE
  5
D82E
330
1E
100
AcDbEntity
  8
0
 48
0.27
100
AcDbLine
 10
2149.927522339125
 20
730.4742861695126
 30
0.0
 11
2149.862190975383
 21
731.0370737833355
 31
0.0
  0
LINE
  5
D82F
330
1E
100
AcDbEntity
  8
0
 48
0.27
100
AcDbLine
 10
2149.927522339125
 20
732.770420408624
 30
0.0
 11
2150.033614328061
 21
733.2890873077194
 31
0.0
  0
LINE
  5
D830
330
1E
100
AcDbEntity
  8
0
 48
0.27
100
AcDbLine
 10
2150.033614328061
 20
729.9556179343981
 30
0.0
 11
2149.927522339125
 21
730.4742861695126
 31
0.0
  0
LINE
  5
D831
330
1E
100
AcDbEntity
  8
0
 48
0.27
100
AcDbLine
 10
2150.033614328061
 20
733.2890873077194
 30
0.0
 11
2150.176392082231
 21
733.7437040859695
 31
0.0
  0
LINE
  5
D832
330
1E
100
AcDbEntity
  8
0
 48
0.27
100
AcDbLine
 10
2150.176392082231
 20
729.5010011561475
 30
0.0
 11
2150.033614328061
 21
729.9556179343981
 31
0.0
  0
LINE
  5
D833
330
1E
100
AcDbEntity
  8
0
 48
0.27
100
AcDbLine
 10
2149.662524165965
 20
731.622353289068
 30
0.0
 11
2150.325360951745
 21
734.6223962318977
 31
0.0
  0
LINE
  5
D834
330
1E
100
AcDbEntity
  8
0
 48
0.27
100
AcDbLine
 10
2150.325360951745
 20
728.6223090102193
 30
0.0
 11
2149.662524165965
 21
731.622353289068
 31
0.0
  0
LINE
  5
D835
330
1E
100
AcDbEntity
  8
0
 48
0.27
100
AcDbLine
 10
2150.176392082231
 20
733.7437040859695
 30
0.0
 11
2150.350365896628
 21
734.1167982776096
 31
0.0
  0
LINE
  5
D836
330
1E
100
AcDbEntity
  8
0
 48
0.27
100
AcDbLine
 10
2150.350365896628
 20
729.1279069645074
 30
0.0
 11
2150.176392082231
 21
729.5010011561475
 31
0.0
  0
LINE
  5
D837
330
1E
100
AcDbEntity
  8
0
 48
0.27
100
AcDbLine
 10
2150.350365896628
 20
734.1167982776096
 30
0.0
 11
2150.548851664511
 21
734.3940317192109
 31
0.0
  0
LINE
  5
D838
330
1E
100
AcDbEntity
  8
0
 48
0.27
100
AcDbLine
 10
2150.548851664511
 20
728.8506735229057
 30
0.0
 11
2150.350365896628
 21
729.1279069645074
 31
0.0
  0
LINE
  5
D839
330
1E
100
AcDbEntity
  8
0
 48
0.27
100
AcDbLine
 10
2148.636921956966
 20
728.6223090102193
 30
0.0
 11
2147.974085171187
 21
731.622353289068
 31
0.0
  0
LINE
  5
D83A
330
1E
100
AcDbEntity
  8
0
 48
0.27
100
AcDbLine
 10
2147.974085171187
 20
731.622353289068
 30
0.0
 11
2149.662524165965
 21
731.622353289068
 31
0.0
  0
LINE
  5
D83B
330
1E
100
AcDbEntity
  8
0
 48
0.27
100
AcDbLine
 10
2147.974085171187
 20
731.622353289068
 30
0.0
 11
2148.636921956966
 21
734.6223962318977
 31
0.0
  0
LINE
  5
D83C
330
1E
100
AcDbEntity
  8
0
 48
0.27
100
AcDbLine
 10
2150.548851664511
 20
734.3940317192109
 30
0.0
 11
2150.764220713563
 21
734.5647509895152
 31
0.0
  0
LINE
  5
D83D
330
1E
100
AcDbEntity
  8
0
 48
0.27
100
AcDbLine
 10
2150.548851664511
 20
728.8506735229057
 30
0.0
 11
2150.764220713563
 21
728.6799542526019
 31
0.0
  0
LINE
  5
D83E
330
1E
100
AcDbEntity
  8
0
 48
0.27
100
AcDbLine
 10
2150.764220713563
 20
734.5647509895152
 30
0.0
 11
2150.988197737525
 21
734.6223962318977
 31
0.0
  0
LINE
  5
D83F
330
1E
100
AcDbEntity
  8
0
 48
0.27
100
AcDbLine
 10
2150.764220713563
 20
728.6799542526019
 30
0.0
 11
2150.988197737525
 21
728.6223090102193
 31
0.0
  0
LINE
  5
D840
330
1E
100
AcDbEntity
  8
0
 48
0.27
100
AcDbLine
 10
2150.988197737525
 20
734.6223962318977
 30
0.0
 11
2151.212174761488
 21
734.5647509895152
 31
0.0
  0
LINE
  5
D841
330
1E
100
AcDbEntity
  8
0
 48
0.27
100
AcDbLine
 10
2150.988197737525
 20
728.6223090102193
 30
0.0
 11
2151.212174761488
 21
728.6799542526019
 31
0.0
  0
LINE
  5
D842
330
1E
100
AcDbEntity
  8
0
 48
0.27
100
AcDbLine
 10
2148.636921956966
 20
734.6223962318977
 30
0.0
 11
2151.651034523306
 21
734.6223962318977
 31
0.0
  0
LINE
  5
D843
330
1E
100
AcDbEntity
  8
0
 48
0.27
100
AcDbLine
 10
2151.651034523306
 20
728.6223090102193
 30
0.0
 11
2151.713934331165
 21
728.9070001138461
 31
0.0
  0
LINE
  5
D844
330
1E
100
AcDbEntity
  8
0
 48
0.27
100
AcDbLine
 10
2151.713934331165
 20
734.3377051282709
 30
0.0
 11
2151.651034523306
 21
734.6223962318977
 31
0.0
  0
LINE
  5
D845
330
1E
100
AcDbEntity
  8
0
 48
0.27
100
AcDbLine
 10
2148.636921956966
 20
728.6223090102193
 30
0.0
 11
2151.651034523306
 21
728.6223090102193
 31
0.0
  0
LINE
  5
D846
330
1E
100
AcDbEntity
  8
0
 48
0.27
100
AcDbLine
 10
2150.222190837845
 20
728.6223090102193
 30
0.0
 11
2149.644832593002
 21
727.6222942506028
 31
0.0
  0
LINE
  5
D847
330
1E
100
AcDbEntity
  8
0
 48
0.27
100
AcDbLine
 10
2153.619308190044
 20
733.5361828167361
 30
0.0
 11
2153.670063578787
 21
733.5696461023453
 31
0.0
  0
LINE
  5
D848
330
1E
100
AcDbEntity
  8
0
 48
0.27
100
AcDbLine
 10
2153.40678219108
 20
729.6862402887309
 30
0.0
 11
2153.455136752288
 21
729.6841868263664
 31
0.0
  0
LINE
  5
D849
330
1E
100
AcDbEntity
  8
0
 48
0.27
100
AcDbLine
 10
2153.619308190044
 20
729.708522425381
 30
0.0
 11
2153.670063578787
 21
729.6750591397713
 31
0.0
  0
LINE
  5
D84A
330
1E
100
AcDbEntity
  8
0
 48
0.27
100
AcDbLine
 10
2154.122288881739
 20
731.622353289068
 30
0.0
 11
2154.141065302733
 21
732.1205015974483
 31
0.0
  0
LINE
  5
D84B
330
1E
100
AcDbEntity
  8
0
 48
0.27
100
AcDbLine
 10
2155.721155771246
 20
731.622353289068
 30
0.0
 11
2155.734330261594
 21
731.9718947893179
 31
0.0
  0
LINE
  5
D84C
330
1E
100
AcDbEntity
  8
0
 48
0.27
100
AcDbLine
 10
2155.734330261594
 20
731.2728117888187
 30
0.0
 11
2155.721155771246
 21
731.622353289068
 31
0.0
  0
LINE
  5
D84D
330
1E
100
AcDbEntity
  8
0
 48
0.27
100
AcDbLine
 10
2154.141065302733
 20
731.1242036446692
 30
0.0
 11
2154.122288881739
 21
731.622353289068
 31
0.0
  0
LINE
  5
D84E
330
1E
100
AcDbEntity
  8
0
 48
0.27
100
AcDbLine
 10
2155.734330261594
 20
731.9718947893179
 30
0.0
 11
2155.773348717167
 21
732.3080026113379
 31
0.0
  0
LINE
  5
D84F
330
1E
100
AcDbEntity
  8
0
 48
0.27
100
AcDbLine
 10
2154.141065302733
 20
732.1205015974483
 30
0.0
 11
2154.196670442945
 21
732.599507415493
 31
0.0
  0
LINE
  5
D850
330
1E
100
AcDbEntity
  8
0
 48
0.27
100
AcDbLine
 10
2155.773348717167
 20
730.9367026307791
 30
0.0
 11
2155.734330261594
 21
731.2728117888187
 31
0.0
  0
LINE
  5
D851
330
1E
100
AcDbEntity
  8
0
 48
0.27
100
AcDbLine
 10
2154.196670442945
 20
730.6451978266241
 30
0.0
 11
2154.141065302733
 21
731.1242036446692
 31
0.0
  0
LINE
  5
D852
330
1E
100
AcDbEntity
  8
0
 48
0.27
100
AcDbLine
 10
2155.773348717167
 20
732.3080026113379
 30
0.0
 11
2155.836709451852
 21
732.6177627887828
 31
0.0
  0
LINE
  5
D853
330
1E
100
AcDbEntity
  8
0
 48
0.27
100
AcDbLine
 10
2154.196670442945
 20
732.599507415493
 30
0.0
 11
2154.286969343023
 21
733.0409617274713
 31
0.0
  0
LINE
  5
D854
330
1E
100
AcDbEntity
  8
0
 48
0.27
100
AcDbLine
 10
2155.836709451852
 20
730.6269437893538
 30
0.0
 11
2155.773348717167
 21
730.9367026307791
 31
0.0
  0
LINE
  5
D855
330
1E
100
AcDbEntity
  8
0
 48
0.27
100
AcDbLine
 10
2154.286969343023
 20
730.2037435145457
 30
0.0
 11
2154.196670442945
 21
730.6451978266241
 31
0.0
  0
LINE
  5
D856
330
1E
100
AcDbEntity
  8
0
 48
0.27
100
AcDbLine
 10
2155.836709451852
 20
732.6177627887828
 30
0.0
 11
2155.921978237729
 21
732.8892687138059
 31
0.0
  0
LINE
  5
D857
330
1E
100
AcDbEntity
  8
0
 48
0.27
100
AcDbLine
 10
2154.286969343023
 20
733.0409617274713
 30
0.0
 11
2154.408491023616
 21
733.4278997554265
 31
0.0
  0
LINE
  5
D858
330
1E
100
AcDbEntity
  8
0
 48
0.27
100
AcDbLine
 10
2155.921978237729
 20
730.3554365283107
 30
0.0
 11
2155.836709451852
 21
730.6269437893538
 31
0.0
  0
LINE
  5
D859
330
1E
100
AcDbEntity
  8
0
 48
0.27
100
AcDbLine
 10
2154.408491023616
 20
729.8168068227105
 30
0.0
 11
2154.286969343023
 21
730.2037435145457
 31
0.0
  0
LINE
  5
D85A
330
1E
100
AcDbEntity
  8
0
 48
0.27
100
AcDbLine
 10
2155.921978237729
 20
732.8892687138059
 30
0.0
 11
2156.025879154392
 21
733.112088744785
 31
0.0
  0
LINE
  5
D85B
330
1E
100
AcDbEntity
  8
0
 48
0.27
100
AcDbLine
 10
2154.408491023616
 20
733.4278997554265
 30
0.0
 11
2154.556566095987
 21
733.7454502637501
 31
0.0
  0
LINE
  5
D85C
330
1E
100
AcDbEntity
  8
0
 48
0.27
100
AcDbLine
 10
2156.025879154392
 20
730.1326164973316
 30
0.0
 11
2155.921978237729
 21
730.3554365283107
 31
0.0
  0
LINE
  5
D85D
330
1E
100
AcDbEntity
  8
0
 48
0.27
100
AcDbLine
 10
2156.025879154392
 20
733.112088744785
 30
0.0
 11
2156.144418838971
 21
733.2776576591331
 31
0.0
  0
LINE
  5
D85E
330
1E
100
AcDbEntity
  8
0
 48
0.27
100
AcDbLine
 10
2154.556566095987
 20
729.4992549783664
 30
0.0
 11
2154.408491023616
 21
729.8168068227105
 31
0.0
  0
LINE
  5
D85F
330
1E
100
AcDbEntity
  8
0
 48
0.27
100
AcDbLine
 10
2153.018250291666
 20
731.622353289068
 30
0.0
 11
2153.032597807331
 21
732.0030374086636
 31
0.0
  0
LINE
  5
D860
330
1E
100
AcDbEntity
  8
0
 48
0.27
100
AcDbLine
 10
2153.032597807331
 20
731.2416678334535
 30
0.0
 11
2153.018250291666
 21
731.622353289068
 31
0.0
  0
LINE
  5
D861
330
1E
100
AcDbEntity
  8
0
 48
0.27
100
AcDbLine
 10
2153.032597807331
 20
732.0030374086636
 30
0.0
 11
2153.075092586131
 21
732.3690921124807
 31
0.0
  0
LINE
  5
D862
330
1E
100
AcDbEntity
  8
0
 48
0.27
100
AcDbLine
 10
2153.075092586131
 20
730.8756131296368
 30
0.0
 11
2153.032597807331
 21
731.2416678334535
 31
0.0
  0
LINE
  5
D863
330
1E
100
AcDbEntity
  8
0
 48
0.27
100
AcDbLine
 10
2153.075092586131
 20
732.3690921124807
 30
0.0
 11
2153.144098004086
 21
732.7064504490485
 31
0.0
  0
LINE
  5
D864
330
1E
100
AcDbEntity
  8
0
 48
0.27
100
AcDbLine
 10
2154.556566095987
 20
733.7454502637501
 30
0.0
 11
2154.725503115984
 21
733.981412720509
 31
0.0
  0
LINE
  5
D865
330
1E
100
AcDbEntity
  8
0
 48
0.27
100
AcDbLine
 10
2156.144418838971
 20
729.9670475829834
 30
0.0
 11
2156.025879154392
 21
730.1326164973316
 31
0.0
  0
LINE
  5
D866
330
1E
100
AcDbEntity
  8
0
 48
0.27
100
AcDbLine
 10
2156.144418838971
 20
733.2776576591331
 30
0.0
 11
2156.273042800403
 21
733.3796160031506
 31
0.0
  0
LINE
  5
D867
330
1E
100
AcDbEntity
  8
0
 48
0.27
100
AcDbLine
 10
2153.144098004086
 20
730.5382547930685
 30
0.0
 11
2153.075092586131
 21
730.8756131296368
 31
0.0
  0
LINE
  5
D868
330
1E
100
AcDbEntity
  8
0
 48
0.27
100
AcDbLine
 10
2154.725503115984
 20
729.2632925216075
 30
0.0
 11
2154.556566095987
 21
729.4992549783664
 31
0.0
  0
LINE
  5
D869
330
1E
100
AcDbEntity
  8
0
 48
0.27
100
AcDbLine
 10
2153.144098004086
 20
732.7064504490485
 30
0.0
 11
2153.236964734035
 21
733.0021476829815
 31
0.0
  0
LINE
  5
D86A
330
1E
100
AcDbEntity
  8
0
 48
0.27
100
AcDbLine
 10
2153.236964734035
 20
730.2425575591359
 30
0.0
 11
2153.144098004086
 21
730.5382547930685
 31
0.0
  0
LINE
  5
D86B
330
1E
100
AcDbEntity
  8
0
 48
0.27
100
AcDbLine
 10
2156.273042800403
 20
733.3796160031506
 30
0.0
 11
2156.406806429535
 21
733.4140425590167
 31
0.0
  0
LINE
  5
D86C
330
1E
100
AcDbEntity
  8
0
 48
0.27
100
AcDbLine
 10
2154.725503115984
 20
733.981412720509
 30
0.0
 11
2154.908810364076
 21
734.1267182239653
 31
0.0
  0
LINE
  5
D86D
330
1E
100
AcDbEntity
  8
0
 48
0.27
100
AcDbLine
 10
2156.144418838971
 20
729.9670475829834
 30
0.0
 11
2156.273042800403
 21
729.8650892389669
 31
0.0
  0
LINE
  5
D86E
330
1E
100
AcDbEntity
  8
0
 48
0.27
100
AcDbLine
 10
2153.236964734035
 20
733.0021476829815
 30
0.0
 11
2153.350122931185
 21
733.2448196307478
 31
0.0
  0
LINE
  5
D86F
330
1E
100
AcDbEntity
  8
0
 48
0.27
100
AcDbLine
 10
2154.725503115984
 20
729.2632925216075
 30
0.0
 11
2154.908810364076
 21
729.1179883541708
 31
0.0
  0
LINE
  5
D870
330
1E
100
AcDbEntity
  8
0
 48
0.27
100
AcDbLine
 10
2153.350122931185
 20
729.9998856113697
 30
0.0
 11
2153.236964734035
 21
730.2425575591359
 31
0.0
  0
LINE
  5
D871
330
1E
100
AcDbEntity
  8
0
 48
0.27
100
AcDbLine
 10
2153.350122931185
 20
733.2448196307478
 30
0.0
 11
2153.479225187696
 21
733.4251408746677
 31
0.0
  0
LINE
  5
D872
330
1E
100
AcDbEntity
  8
0
 48
0.27
100
AcDbLine
 10
2154.05475308553
 20
733.800694678599
 30
0.0
 11
2154.224018766423
 21
733.9348684659171
 31
0.0
  0
LINE
  5
D873
330
1E
100
AcDbEntity
  8
0
 48
0.27
100
AcDbLine
 10
2154.908810364076
 20
734.1267182239653
 30
0.0
 11
2155.099444344184
 21
734.1757808757074
 31
0.0
  0
LINE
  5
D874
330
1E
100
AcDbEntity
  8
0
 48
0.27
100
AcDbLine
 10
2156.406806429535
 20
733.4140425590167
 30
0.0
 11
2156.540570058768
 21
733.3796160031506
 31
0.0
  0
LINE
  5
D875
330
1E
100
AcDbEntity
  8
0
 48
0.27
100
AcDbLine
 10
2156.273042800403
 20
729.8650892389669
 30
0.0
 11
2156.406806429535
 21
729.8306626831008
 31
0.0
  0
LINE
  5
D876
330
1E
100
AcDbEntity
  8
0
 48
0.27
100
AcDbLine
 10
2153.479225187696
 20
729.8195643674498
 30
0.0
 11
2153.350122931185
 21
729.9998856113697
 31
0.0
  0
LINE
  5
D877
330
1E
100
AcDbEntity
  8
0
 48
0.27
100
AcDbLine
 10
2154.224018766423
 20
733.9348684659171
 30
0.0
 11
2154.550055671885
 21
734.0993699004875
 31
0.0
  0
LINE
  5
D878
330
1E
100
AcDbEntity
  8
0
 48
0.27
100
AcDbLine
 10
2154.550055671885
 20
734.0993699004875
 30
0.0
 11
2154.738606797298
 21
734.1478981443315
 31
0.0
  0
LINE
  5
D879
330
1E
100
AcDbEntity
  8
0
 48
0.27
100
AcDbLine
 10
2154.908810364076
 20
729.1179883541708
 30
0.0
 11
2155.099444344184
 21
729.06892436641
 31
0.0
  0
LINE
  5
D87A
330
1E
100
AcDbEntity
  8
0
 48
0.27
100
AcDbLine
 10
2153.479225187696
 20
733.4251408746677
 30
0.0
 11
2153.619308190044
 21
733.5361828167361
 31
0.0
  0
LINE
  5
D87B
330
1E
100
AcDbEntity
  8
0
 48
0.27
100
AcDbLine
 10
2153.670063578787
 20
733.5696461023453
 30
0.0
 11
2154.224018766423
 21
733.9348684659171
 31
0.0
  0
LINE
  5
D87C
330
1E
100
AcDbEntity
  8
0
 48
0.27
100
AcDbLine
 10
2154.550055671885
 20
729.1453353416291
 30
0.0
 11
2154.738606797298
 21
729.0968084337055
 31
0.0
  0
LINE
  5
D87D
330
1E
100
AcDbEntity
  8
0
 48
0.27
100
AcDbLine
 10
2154.224018766423
 20
729.3098367762004
 30
0.0
 11
2154.550055671885
 21
729.1453353416291
 31
0.0
  0
LINE
  5
D87E
330
1E
100
AcDbEntity
  8
0
 48
0.27
100
AcDbLine
 10
2153.479225187696
 20
729.8195643674498
 30
0.0
 11
2153.619308190044
 21
729.708522425381
 31
0.0
  0
LINE
  5
D87F
330
1E
100
AcDbEntity
  8
0
 48
0.27
100
AcDbLine
 10
2154.738606797298
 20
734.1478981443315
 30
0.0
 11
2155.099444344184
 21
734.1757808757074
 31
0.0
  0
LINE
  5
D880
330
1E
100
AcDbEntity
  8
0
 48
0.27
100
AcDbLine
 10
2155.099444344184
 20
734.1757808757074
 30
0.0
 11
2155.290076988272
 21
734.1267182239653
 31
0.0
  0
LINE
  5
D881
330
1E
100
AcDbEntity
  8
0
 48
0.27
100
AcDbLine
 10
2156.540570058768
 20
733.3796160031506
 30
0.0
 11
2156.669192684181
 21
733.2776576591331
 31
0.0
  0
LINE
  5
D882
330
1E
100
AcDbEntity
  8
0
 48
0.27
100
AcDbLine
 10
2155.290076988272
 20
734.1267182239653
 30
0.0
 11
2156.540570058768
 21
733.3796160031506
 31
0.0
  0
LINE
  5
D883
330
1E
100
AcDbEntity
  8
0
 48
0.27
100
AcDbLine
 10
2156.406806429535
 20
729.8306626831008
 30
0.0
 11
2156.540570058768
 21
729.8650892389669
 31
0.0
  0
LINE
  5
D884
330
1E
100
AcDbEntity
  8
0
 48
0.27
100
AcDbLine
 10
2153.670063578787
 20
729.6750591397713
 30
0.0
 11
2154.224018766423
 21
729.3098367762004
 31
0.0
  0
LINE
  5
D885
330
1E
100
AcDbEntity
  8
0
 48
0.27
100
AcDbLine
 10
2154.738606797298
 20
729.0968084337055
 30
0.0
 11
2155.099444344184
 21
729.06892436641
 31
0.0
  0
LINE
  5
D886
330
1E
100
AcDbEntity
  8
0
 48
0.27
100
AcDbLine
 10
2155.099444344184
 20
729.06892436641
 30
0.0
 11
2155.290076988272
 21
729.1179883541708
 31
0.0
  0
LINE
  5
D887
330
1E
100
AcDbEntity
  8
0
 48
0.27
100
AcDbLine
 10
2156.78773236876
 20
733.112088744785
 30
0.0
 11
2156.669192684181
 21
733.2776576591331
 31
0.0
  0
LINE
  5
D888
330
1E
100
AcDbEntity
  8
0
 48
0.27
100
AcDbLine
 10
2156.540570058768
 20
729.8650892389669
 30
0.0
 11
2156.669192684181
 21
729.9670475829834
 31
0.0
  0
LINE
  5
D889
330
1E
100
AcDbEntity
  8
0
 48
0.27
100
AcDbLine
 10
2155.290076988272
 20
729.1179883541708
 30
0.0
 11
2156.540570058768
 21
729.8650892389669
 31
0.0
  0
LINE
  5
D88A
330
1E
100
AcDbEntity
  8
0
 48
0.27
100
AcDbLine
 10
2153.455136752288
 20
733.5605197517707
 30
0.0
 11
2153.670063578787
 21
733.5696461023453
 31
0.0
  0
LINE
  5
D88B
330
1E
100
AcDbEntity
  8
0
 48
0.27
100
AcDbLine
 10
2153.455136752288
 20
729.6841868263664
 30
0.0
 11
2153.670063578787
 21
729.6750591397713
 31
0.0
  0
LINE
  5
D88C
330
1E
100
AcDbEntity
  8
0
 48
0.27
100
AcDbLine
 10
2156.891633285423
 20
732.8892687138059
 30
0.0
 11
2156.78773236876
 21
733.112088744785
 31
0.0
  0
LINE
  5
D88D
330
1E
100
AcDbEntity
  8
0
 48
0.27
100
AcDbLine
 10
2156.669192684181
 20
729.9670475829834
 30
0.0
 11
2156.78773236876
 21
730.1326164973316
 31
0.0
  0
LINE
  5
D88E
330
1E
100
AcDbEntity
  8
0
 48
0.27
100
AcDbLine
 10
2153.214010579379
 20
733.6589229473092
 30
0.0
 11
2153.455136752288
 21
733.5605197517707
 31
0.0
  0
LINE
  5
D88F
330
1E
100
AcDbEntity
  8
0
 48
0.27
100
AcDbLine
 10
2153.214010579379
 20
729.5857822948078
 30
0.0
 11
2153.455136752288
 21
729.6841868263664
 31
0.0
  0
LINE
  5
D890
330
1E
100
AcDbEntity
  8
0
 48
0.27
100
AcDbLine
 10
2156.97690340732
 20
732.6177627887828
 30
0.0
 11
2156.891633285423
 21
732.8892687138059
 31
0.0
  0
LINE
  5
D891
330
1E
100
AcDbEntity
  8
0
 48
0.27
100
AcDbLine
 10
2156.78773236876
 20
730.1326164973316
 30
0.0
 11
2156.891633285423
 21
730.3554365283107
 31
0.0
  0
LINE
  5
D892
330
1E
100
AcDbEntity
  8
0
 48
0.27
100
AcDbLine
 10
2157.040264142004
 20
732.3080026113379
 30
0.0
 11
2156.97690340732
 21
732.6177627887828
 31
0.0
  0
LINE
  5
D893
330
1E
100
AcDbEntity
  8
0
 48
0.27
100
AcDbLine
 10
2156.132267739756
 20
729.9840203773574
 30
0.0
 11
2156.13416622376
 21
729.9849489110074
 31
0.0
  0
LINE
  5
D894
330
1E
100
AcDbEntity
  8
0
 48
0.27
100
AcDbLine
 10
2156.891633285423
 20
730.3554365283107
 30
0.0
 11
2156.97690340732
 21
730.6269437893538
 31
0.0
  0
LINE
  5
D895
330
1E
100
AcDbEntity
  8
0
 48
0.27
100
AcDbLine
 10
2157.079281261558
 20
731.9718947893179
 30
0.0
 11
2157.040264142004
 21
732.3080026113379
 31
0.0
  0
LINE
  5
D896
330
1E
100
AcDbEntity
  8
0
 48
0.27
100
AcDbLine
 10
2156.97690340732
 20
730.6269437893538
 30
0.0
 11
2157.040264142004
 21
730.9367026307791
 31
0.0
  0
LINE
  5
D897
330
1E
100
AcDbEntity
  8
0
 48
0.27
100
AcDbLine
 10
2157.092455751906
 20
731.622353289068
 30
0.0
 11
2157.079281261558
 21
731.9718947893179
 31
0.0
  0
LINE
  5
D898
330
1E
100
AcDbEntity
  8
0
 48
0.27
100
AcDbLine
 10
2157.040264142004
 20
730.9367026307791
 30
0.0
 11
2157.079281261558
 21
731.2728117888187
 31
0.0
  0
LINE
  5
D899
330
1E
100
AcDbEntity
  8
0
 48
0.27
100
AcDbLine
 10
2157.079281261558
 20
731.2728117888187
 30
0.0
 11
2157.092455751906
 21
731.622353289068
 31
0.0
  0
LWPOLYLINE
  5
D89A
330
1E
100
AcDbEntity
  8
0
 48
0.27
100
AcDbPolyline
 90
       17
 70
     0
 43
0.0
 10
2156.287215297414
 20
731.622353289068
 10
2156.320764088371
 20
731.4053128794276
 10
2156.353655557536
 20
731.3424077274903
 10
2156.390226424994
 20
731.3128656597009
 10
2156.424204078209
 20
731.3131729441847
 10
2156.460697456535
 20
731.3433776777446
 10
2156.492041814925
 20
731.4031485274445
 10
2156.521428904452
 20
731.5332234062493
 10
2156.526396225737
 20
731.622353289068
 10
2156.4928487708
 20
731.8393923626895
 10
2156.459955965615
 20
731.9022975146268
 10
2156.423385098158
 20
731.9318395824166
 10
2156.389408780962
 20
731.9315322978322
 10
2156.352914066617
 20
731.9013275642728
 10
2156.321571044246
 20
731.8415567145725
 10
2156.292182618699
 20
731.7114818358677
 10
2156.287215297414
 20
731.622353289068
  0
LINE
  5
D89B
330
1E
100
AcDbEntity
  8
0
 48
0.27
100
AcDbLine
 10
2142.716528310809
 20
731.622353289068
 30
0.0
 11
2145.025962626201
 21
727.6222942506028
 31
0.0
  0
LINE
  5
D89C
330
1E
100
AcDbEntity
  8
0
 48
0.27
100
AcDbLine
 10
2145.025962626201
 20
735.6224109915138
 30
0.0
 11
2142.716528310809
 21
731.622353289068
 31
0.0
  0
ARC
  5
D89D
330
1E
100
AcDbEntity
  8
0
 48
0.27
100
AcDbCircle
 10
2147.335396941591
 20
731.622353289068
 30
0.0
 40
4.000057702445608
100
AcDbArc
 50
48.59037799889628
 51
311.4096220031896
  0
LINE
  5
D89E
330
1E
100
AcDbEntity
  8
0
 48
0.27
100
AcDbLine
 10
2149.644832593002
 20
727.6222942506028
 30
0.0
 11
2145.025962626201
 21
727.6222942506028
 31
0.0
  0
LINE
  5
D89F
330
1E
100
AcDbEntity
  8
0
 48
0.27
100
AcDbLine
 10
2145.025962626201
 20
735.6224109915138
 30
0.0
 11
2149.644831256983
 21
735.6224109915138
 31
0.0
  0
LINE
  5
D8A0
330
1E
100
AcDbEntity
  8
虛線
 48
0.7
100
AcDbLine
 10
2154.335396941591
 20
722.422353288568
 30
0.0
 11
2154.566337049267
 21
722.8223532885676
 31
0.0
  0
LINE
  5
D8A1
330
1E
100
AcDbEntity
  8
虛線
 48
0.7
100
AcDbLine
 10
2140.335396941591
 20
722.422353288568
 30
0.0
 11
2140.104456833915
 21
722.8223532885676
 31
0.0
  0
LINE
  5
D8A2
330
1E
100
AcDbEntity
  8
虛線
 48
0.3
100
AcDbLine
 10
2142.835396941591
 20
710.522353288568
 30
0.0
 11
2151.835396941591
 21
710.522353288568
 31
0.0
  0
LINE
  5
D8A3
330
1E
100
AcDbEntity
  8
虛線
 48
0.3
100
AcDbLine
 10
2142.535396941591
 20
710.8223532885676
 30
0.0
 11
2142.835396941591
 21
710.522353288568
 31
0.0
  0
LINE
  5
D8A4
330
1E
100
AcDbEntity
  8
虛線
 48
0.3
100
AcDbLine
 10
2152.135396941591
 20
710.8223532885676
 30
0.0
 11
2151.835396941591
 21
710.522353288568
 31
0.0
  0
LINE
  5
D8A5
330
1E
100
AcDbEntity
  8
虛線
 48
0.7
100
AcDbLine
 10
2151.835396941591
 20
693.1223532885678
 30
0.0
 11
2152.335397655877
 21
692.6223532885687
 31
0.0
  0
LINE
  5
D8A6
330
1E
100
AcDbEntity
  8
虛線
 48
0.7
100
AcDbLine
 10
2142.335396227304
 20
692.6223532885687
 30
0.0
 11
2142.835396941591
 21
693.1223532885678
 31
0.0
  0
LINE
  5
D8A7
330
1E
100
AcDbEntity
  8
虛線
 48
0.3
100
AcDbLine
 10
2151.835396941591
 20
693.1223532885678
 30
0.0
 11
2142.835396941591
 21
693.1223532885678
 31
0.0
  0
LINE
  5
D8A8
330
1E
100
AcDbEntity
  8
虛線
 48
0.3
100
AcDbLine
 10
2154.335396941591
 20
722.422353288568
 30
0.0
 11
2140.335396941591
 21
722.422353288568
 31
0.0
  0
LINE
  5
D8A9
330
1E
100
AcDbEntity
  8
0
  6
ByBlock
100
AcDbLine
 10
2157.835396941591
 20
693.1223532885674
 30
0.0
 11
2153.835396941591
 21
693.1223532885678
 31
0.0
  0
LINE
  5
D8AA
330
1E
100
AcDbEntity
  8
0
  6
ByBlock
100
AcDbLine
 10
2158.33539694159
 20
692.6223532885678
 30
0.0
 11
2157.835396941591
 21
693.1223532885674
 31
0.0
  0
LINE
  5
D8AB
330
1E
100
AcDbEntity
  8
0
  6
ByBlock
100
AcDbLine
 10
2153.835396941591
 20
693.1223532885678
 30
0.0
 11
2153.335396941591
 21
692.6223532885687
 31
0.0
  0
LINE
  5
D8AC
330
1E
100
AcDbEntity
  8
0
  6
ByBlock
100
AcDbLine
 10
2158.33539694159
 20
692.6223532885678
 30
0.0
 11
2162.835396941591
 21
692.6223532885683
 31
0.0
  0
LINE
  5
D8AD
330
1E
100
AcDbEntity
  8
0
  6
ByBlock
100
AcDbLine
 10
2136.83539694159
 20
693.1223532885683
 30
0.0
 11
2140.835396941591
 21
693.1223532885683
 31
0.0
  0
LINE
  5
D8AE
330
1E
100
AcDbEntity
  8
0
  6
ByBlock
100
AcDbLine
 10
2130.335396941591
 20
694.1223532885683
 30
0.0
 11
2131.835396941591
 21
692.6223532885683
 31
0.0
  0
LINE
  5
D8AF
330
1E
100
AcDbEntity
  8
0
  6
ByBlock
100
AcDbLine
 10
2131.835396941591
 20
692.6223532885683
 30
0.0
 11
2136.335396941591
 21
692.6223532885683
 31
0.0
  0
LINE
  5
D8B0
330
1E
100
AcDbEntity
  8
0
  6
ByBlock
100
AcDbLine
 10
2136.335396941591
 20
692.6223532885683
 30
0.0
 11
2136.83539694159
 21
693.1223532885683
 31
0.0
  0
LINE
  5
D8B1
330
1E
100
AcDbEntity
  8
0
  6
ByBlock
100
AcDbLine
 10
2141.33539694159
 20
692.6223532885683
 30
0.0
 11
2153.335396941591
 21
692.6223532885687
 31
0.0
  0
LINE
  5
D8B2
330
1E
100
AcDbEntity
  8
0
  6
ByBlock
100
AcDbLine
 10
2140.835396941591
 20
693.1223532885683
 30
0.0
 11
2141.33539694159
 21
692.6223532885683
 31
0.0
  0
LINE
  5
D8B3
330
1E
100
AcDbEntity
  8
0
  6
ByBlock
100
AcDbLine
 10
2162.835396941591
 20
692.6223532885683
 30
0.0
 11
2164.335396941591
 21
694.1223532885683
 31
0.0
  0
LINE
  5
D8B4
330
1E
100
AcDbEntity
  8
虛線
 48
0.3
100
AcDbLine
 10
2140.335396941591
 20
710.8223532885681
 30
0.0
 11
2154.335396941591
 21
710.8223532885681
 31
0.0
  0
LINE
  5
D8B5
330
1E
100
AcDbEntity
  8
虛線
 48
0.3
100
AcDbLine
 10
2142.835396941591
 20
710.5223532885674
 30
0.0
 11
2142.835396941591
 21
693.1223532885678
 31
0.0
  0
LINE
  5
D8B6
330
1E
100
AcDbEntity
  8
虛線
 48
0.3
100
AcDbLine
 10
2151.835396941591
 20
710.5223532885684
 30
0.0
 11
2151.835396941591
 21
693.1223532885678
 31
0.0
  0
LINE
  5
D8B7
330
1E
100
AcDbEntity
  8
虛線
 48
0.3
100
AcDbLine
 10
2140.335396941591
 20
722.422353288568
 30
0.0
 11
2140.335396941591
 21
710.8223532885681
 31
0.0
  0
LINE
  5
D8B8
330
1E
100
AcDbEntity
  8
虛線
 48
0.3
100
AcDbLine
 10
2154.335396941591
 20
722.4223532885671
 30
0.0
 11
2154.335396941591
 21
710.8223532885681
 31
0.0
  0
LINE
  5
D8B9
330
1E
100
AcDbEntity
  8
0
  6
ByBlock
100
AcDbLine
 10
2164.835396945091
 20
699.7223532890679
 30
0.0
 11
2166.36611876309
 21
699.7223532890679
 31
0.0
  0
LINE
  5
D8BA
330
1E
100
AcDbEntity
  8
0
  6
ByBlock
100
AcDbLine
 10
2166.36611876309
 20
699.7223532890679
 30
0.0
 11
2166.36611876309
 21
701.7735058074682
 31
0.0
  0
LINE
  5
D8BB
330
1E
100
AcDbEntity
  8
0
  6
ByBlock
100
AcDbLine
 10
2166.36611876309
 20
722.663505807468
 30
0.0
 11
2163.776549463491
 21
725.253075107068
 31
0.0
  0
LINE
  5
D8BC
330
1E
100
AcDbEntity
  8
0
  6
ByBlock
100
AcDbLine
 10
2166.36611876309
 20
719.3812007706683
 30
0.0
 11
2166.36611876309
 21
722.663505807468
 31
0.0
  0
LINE
  5
D8BD
330
1E
100
AcDbEntity
  8
0
  6
ByBlock
100
AcDbLine
 10
2160.366118763091
 20
707.7735058074681
 30
0.0
 11
2160.366118763091
 21
713.3812007706683
 31
0.0
  0
LINE
  5
D8BE
330
1E
100
AcDbEntity
  8
0
  6
ByBlock
100
AcDbLine
 10
2166.36611876309
 20
701.7735058074682
 30
0.0
 11
2160.366118763091
 21
707.7735058074681
 31
0.0
  0
LINE
  5
D8BF
330
1E
100
AcDbEntity
  8
0
  6
ByBlock
100
AcDbLine
 10
2160.366118763091
 20
713.3812007706683
 30
0.0
 11
2166.36611876309
 21
719.3812007706683
 31
0.0
  0
LINE
  5
D8C0
330
1E
100
AcDbEntity
  8
0
  6
ByBlock
100
AcDbLine
 10
2134.30467512709
 20
707.7735058074681
 30
0.0
 11
2134.30467512709
 21
713.3812007706683
 31
0.0
  0
LINE
  5
D8C1
330
1E
100
AcDbEntity
  8
0
  6
ByBlock
100
AcDbLine
 10
2128.304675127091
 20
699.7223532890679
 30
0.0
 11
2129.835396945091
 21
699.7223532890679
 31
0.0
  0
LINE
  5
D8C2
330
1E
100
AcDbEntity
  8
0
  6
ByBlock
100
AcDbLine
 10
2128.304675127091
 20
699.7223532890679
 30
0.0
 11
2128.304675127091
 21
701.7735058074682
 31
0.0
  0
LINE
  5
D8C3
330
1E
100
AcDbEntity
  8
0
  6
ByBlock
100
AcDbLine
 10
2128.304675127091
 20
719.3812007706683
 30
0.0
 11
2128.304675127091
 21
722.663505807468
 31
0.0
  0
LINE
  5
D8C4
330
1E
100
AcDbEntity
  8
0
  6
ByBlock
100
AcDbLine
 10
2128.304675127091
 20
722.663505807468
 30
0.0
 11
2130.89424442669
 21
725.253075107068
 31
0.0
  0
LINE
  5
D8C5
330
1E
100
AcDbEntity
  8
0
  6
ByBlock
100
AcDbLine
 10
2128.304675127091
 20
701.7735058074682
 30
0.0
 11
2134.30467512709
 21
707.7735058074681
 31
0.0
  0
LINE
  5
D8C6
330
1E
100
AcDbEntity
  8
0
  6
ByBlock
100
AcDbLine
 10
2134.30467512709
 20
713.3812007706683
 30
0.0
 11
2128.304675127091
 21
719.3812007706683
 31
0.0
  0
LINE
  5
D8C7
330
1E
100
AcDbEntity
  8
0
  6
ByBlock
100
AcDbLine
 10
2130.89424442669
 20
725.253075107068
 30
0.0
 11
2163.776549463491
 21
725.253075107068
 31
0.0
  0
LINE
  5
D8C8
330
1E
100
AcDbEntity
  8
指線
 48
0.27
100
AcDbLine
 10
2172.47473677321
 20
722.0545863354227
 30
0.0
 11
2171.767629992023
 21
722.7616931166089
 31
0.0
  0
LINE
  5
D8C9
330
1E
100
AcDbEntity
  8
指線
 48
0.27
100
AcDbLine
 10
2171.767629992023
 20
724.8830134601685
 30
0.0
 11
2172.47473677321
 21
725.5901202413552
 31
0.0
  0
LINE
  5
D8CA
330
1E
100
AcDbEntity
  8
指線
 48
0.27
100
AcDbLine
 10
2175.303163897956
 20
724.8830134601685
 30
0.0
 11
2174.242503726176
 21
723.8223532883885
 31
0.0
  0
LINE
  5
D8CB
330
1E
100
AcDbEntity
  8
指線
 48
0.27
100
AcDbLine
 10
2174.596057116769
 20
725.5901202413552
 30
0.0
 11
2173.53539694499
 21
724.5294600695752
 31
0.0
  0
LINE
  5
D8CC
330
1E
100
AcDbEntity
  8
指線
 48
0.27
100
AcDbLine
 10
2174.596057116769
 20
725.5901202413552
 30
0.0
 11
2175.303163897956
 21
724.8830134601685
 31
0.0
  0
LINE
  5
D8CD
330
1E
100
AcDbEntity
  8
指線
 48
0.27
100
AcDbLine
 10
2172.828290163803
 20
723.8223532883885
 30
0.0
 11
2171.767629992023
 21
724.8830134601685
 31
0.0
  0
LINE
  5
D8CE
330
1E
100
AcDbEntity
  8
指線
 48
0.27
100
AcDbLine
 10
2172.47473677321
 20
725.5901202413552
 30
0.0
 11
2173.53539694499
 21
724.5294600695752
 31
0.0
  0
LINE
  5
D8CF
330
1E
100
AcDbEntity
  8
指線
 48
0.27
100
AcDbLine
 10
2173.53539694499
 20
723.1152465072023
 30
0.0
 11
2172.47473677321
 21
722.0545863354227
 31
0.0
  0
LINE
  5
D8D0
330
1E
100
AcDbEntity
  8
指線
 48
0.27
100
AcDbLine
 10
2172.828290163803
 20
723.8223532883885
 30
0.0
 11
2171.767629992023
 21
722.7616931166089
 31
0.0
  0
LINE
  5
D8D1
330
1E
100
AcDbEntity
  8
指線
 48
0.27
100
AcDbLine
 10
2175.303163897956
 20
722.7616931166094
 30
0.0
 11
2174.596057116769
 21
722.0545863354227
 31
0.0
  0
CIRCLE
  5
D8D2
330
1E
100
AcDbEntity
  8
指線
 48
0.27
100
AcDbCircle
 10
2173.53539694499
 20
723.8223532883885
 30
0.0
 40
3.5
  0
LINE
  5
D8D3
330
1E
100
AcDbEntity
  8
指線
 48
0.27
100
AcDbLine
 10
2175.303163897956
 20
722.7616931166094
 30
0.0
 11
2174.242503726176
 21
723.8223532883885
 31
0.0
  0
LINE
  5
D8D4
330
1E
100
AcDbEntity
  8
指線
 48
0.27
100
AcDbLine
 10
2174.596057116769
 20
722.0545863354227
 30
0.0
 11
2173.53539694499
 21
723.1152465072023
 31
0.0
  0
LINE
  5
D8D5
330
1E
100
AcDbEntity
  8
指線
 48
0.27
100
AcDbLine
 10
2121.135396944586
 20
724.5294600695752
 30
0.0
 11
2122.196057116366
 21
725.5901202413552
 31
0.0
  0
LINE
  5
D8D6
330
1E
100
AcDbEntity
  8
指線
 48
0.27
100
AcDbLine
 10
2121.842503725772
 20
723.8223532883885
 30
0.0
 11
2122.903163897552
 21
724.8830134601685
 31
0.0
  0
LINE
  5
D8D7
330
1E
100
AcDbEntity
  8
指線
 48
0.27
100
AcDbLine
 10
2119.36762999162
 20
724.8830134601685
 30
0.0
 11
2120.428290163399
 21
723.8223532883885
 31
0.0
  0
LINE
  5
D8D8
330
1E
100
AcDbEntity
  8
指線
 48
0.27
100
AcDbLine
 10
2121.135396944586
 20
724.5294600695752
 30
0.0
 11
2120.074736772807
 21
725.5901202413552
 31
0.0
  0
LINE
  5
D8D9
330
1E
100
AcDbEntity
  8
指線
 48
0.27
100
AcDbLine
 10
2119.36762999162
 20
722.7616931166084
 30
0.0
 11
2120.074736772806
 21
722.0545863354223
 31
0.0
  0
LINE
  5
D8DA
330
1E
100
AcDbEntity
  8
指線
 48
0.27
100
AcDbLine
 10
2122.196057116366
 20
722.0545863354223
 30
0.0
 11
2122.903163897552
 21
722.7616931166084
 31
0.0
  0
LINE
  5
D8DB
330
1E
100
AcDbEntity
  8
指線
 48
0.27
100
AcDbLine
 10
2122.903163897552
 20
722.7616931166084
 30
0.0
 11
2121.842503725772
 21
723.8223532883885
 31
0.0
  0
LINE
  5
D8DC
330
1E
100
AcDbEntity
  8
指線
 48
0.27
100
AcDbLine
 10
2119.36762999162
 20
722.7616931166084
 30
0.0
 11
2120.428290163399
 21
723.8223532883885
 31
0.0
  0
LINE
  5
D8DD
330
1E
100
AcDbEntity
  8
指線
 48
0.27
100
AcDbLine
 10
2120.074736772806
 20
722.0545863354223
 30
0.0
 11
2121.135396944586
 21
723.1152465072018
 31
0.0
  0
LINE
  5
D8DE
330
1E
100
AcDbEntity
  8
指線
 48
0.27
100
AcDbLine
 10
2122.196057116366
 20
722.0545863354223
 30
0.0
 11
2121.135396944586
 21
723.1152465072018
 31
0.0
  0
LINE
  5
D8DF
330
1E
100
AcDbEntity
  8
指線
 48
0.27
100
AcDbLine
 10
2120.074736772807
 20
725.5901202413552
 30
0.0
 11
2119.36762999162
 21
724.8830134601685
 31
0.0
  0
LINE
  5
D8E0
330
1E
100
AcDbEntity
  8
指線
 48
0.27
100
AcDbLine
 10
2122.903163897552
 20
724.8830134601685
 30
0.0
 11
2122.196057116366
 21
725.5901202413552
 31
0.0
  0
CIRCLE
  5
D8E1
330
1E
100
AcDbEntity
  8
指線
 48
0.27
100
AcDbCircle
 10
2121.135396944586
 20
723.8223532883885
 30
0.0
 40
3.5
  0
LINE
  5
D8E2
330
1E
100
AcDbEntity
  8
0
  6
ByBlock
100
AcDbLine
 10
2163.335396941591
 20
722.8223532885685
 30
0.0
 11
2131.335396941591
 21
722.8223532885685
 31
0.0
  0
LINE
  5
D8E3
330
1E
100
AcDbEntity
  8
0
  6
ByBlock
100
AcDbLine
 10
2163.142503726291
 20
723.7223532890684
 30
0.0
 11
2131.528290163891
 21
723.7223532890684
 31
0.0
  0
LINE
  5
D8E4
330
1E
100
AcDbEntity
  8
0
  6
ByBlock
100
AcDbLine
 10
2180.335396945091
 20
739.8223532890683
 30
0.0
 11
2114.335396945091
 21
739.8223532890683
 31
0.0
  0
LINE
  5
D8E5
330
1E
100
AcDbEntity
  8
0
  6
ByBlock
100
AcDbLine
 10
2109.796799261478
 20
699.122353288459
 30
0.0
 11
2130.335396941591
 21
699.1223532890935
 31
0.0
  0
LINE
  5
D8E6
330
1E
100
AcDbEntity
  8
0
  6
ByBlock
100
AcDbLine
 10
2112.835396945091
 20
700.1223532885529
 30
0.0
 11
2112.835396945091
 21
738.3223532890683
 31
0.0
  0
LINE
  5
D8E8
330
1E
100
AcDbEntity
  8
0
  6
ByBlock
100
AcDbLine
 10
2114.335396945091
 20
739.8223532890683
 30
0.0
 11
2112.835396945091
 21
738.3223532890683
 31
0.0
  0
LINE
  5
D8E9
330
1E
100
AcDbEntity
  8
0
  6
ByBlock
100
AcDbLine
 10
2129.835396945091
 20
701.1394600702683
 30
0.0
 11
2135.835396945091
 21
707.1394600702683
 31
0.0
  0
LINE
  5
D8EA
330
1E
100
AcDbEntity
  8
0
  6
ByBlock
100
AcDbLine
 10
2136.335396941591
 20
706.932353282457
 30
0.0
 11
2130.335396941591
 21
700.932353290067
 31
0.0
  0
LINE
  5
D8EB
330
1E
100
AcDbEntity
  8
0
  6
ByBlock
100
AcDbLine
 10
2130.335396941591
 20
700.932353290067
 30
0.0
 11
2130.335396941591
 21
694.1223532885683
 31
0.0
  0
LINE
  5
D8EC
330
1E
100
AcDbEntity
  8
0
  6
ByBlock
100
AcDbLine
 10
2129.835396945091
 20
699.7223532890679
 30
0.0
 11
2129.835396945091
 21
701.1394600702683
 31
0.0
  0
LINE
  5
D8ED
330
1E
100
AcDbEntity
  8
0
  6
ByBlock
100
AcDbLine
 10
2129.835396945091
 20
722.0294600702682
 30
0.0
 11
2131.528290163891
 21
723.7223532890684
 31
0.0
  0
LINE
  5
D8EE
330
1E
100
AcDbEntity
  8
0
  6
ByBlock
100
AcDbLine
 10
2131.335396941591
 20
722.8223532885685
 30
0.0
 11
2130.335396941591
 21
721.8223532885685
 31
0.0
  0
LINE
  5
D8EF
330
1E
100
AcDbEntity
  8
0
  6
ByBlock
100
AcDbLine
 10
2135.835396945091
 20
714.0152465078681
 30
0.0
 11
2129.835396945091
 21
720.0152465078681
 31
0.0
  0
LINE
  5
D8F0
330
1E
100
AcDbEntity
  8
0
  6
ByBlock
100
AcDbLine
 10
2129.835396945091
 20
720.0152465078681
 30
0.0
 11
2129.835396945091
 21
722.0294600702682
 31
0.0
  0
LINE
  5
D8F1
330
1E
100
AcDbEntity
  8
0
  6
ByBlock
100
AcDbLine
 10
2130.335396941591
 20
721.8223532885685
 30
0.0
 11
2130.335396941591
 21
720.222353288985
 31
0.0
  0
LINE
  5
D8F2
330
1E
100
AcDbEntity
  8
0
  6
ByBlock
100
AcDbLine
 10
2130.335396941591
 20
720.222353288985
 30
0.0
 11
2136.335396941591
 21
714.222353287952
 31
0.0
  0
LINE
  5
D8F3
330
1E
100
AcDbEntity
  8
0
  6
ByBlock
100
AcDbLine
 10
2135.835396945091
 20
707.1394600702683
 30
0.0
 11
2135.835396945091
 21
714.0152465078681
 31
0.0
  0
LINE
  5
D8F4
330
1E
100
AcDbEntity
  8
0
  6
ByBlock
100
AcDbLine
 10
2136.335396941591
 20
714.222353287952
 30
0.0
 11
2136.335396941591
 21
706.932353282457
 31
0.0
  0
LINE
  5
D8F7
330
1E
100
AcDbEntity
  8
0
  6
ByBlock
100
AcDbLine
 10
2181.835396945091
 20
700.1223532890681
 30
0.0
 11
2181.835396945091
 21
738.3223532890683
 31
0.0
  0
LINE
  5
D8F8
330
1E
100
AcDbEntity
  8
0
  6
ByBlock
100
AcDbLine
 10
2164.335396941591
 20
699.1223532885688
 30
0.0
 11
2181.335396941591
 21
699.1223532885683
 31
0.0
  0
LINE
  5
D8F9
330
1E
100
AcDbEntity
  8
0
  6
ByBlock
100
AcDbLine
 10
2164.335396941591
 20
700.9323532899655
 30
0.0
 11
2158.335396941591
 21
706.9323532823566
 31
0.0
  0
LINE
  5
D8FA
330
1E
100
AcDbEntity
  8
0
  6
ByBlock
100
AcDbLine
 10
2164.835396945091
 20
701.1394600702683
 30
0.0
 11
2158.835396945091
 21
707.1394600702683
 31
0.0
  0
LINE
  5
D8FB
330
1E
100
AcDbEntity
  8
0
  6
ByBlock
100
AcDbLine
 10
2164.335396941591
 20
694.1223532885683
 30
0.0
 11
2164.335396941591
 21
700.9323532899655
 31
0.0
  0
LINE
  5
D8FC
330
1E
100
AcDbEntity
  8
0
  6
ByBlock
100
AcDbLine
 10
2164.835396945091
 20
699.7223532890679
 30
0.0
 11
2164.835396945091
 21
701.1394600702683
 31
0.0
  0
LINE
  5
D8FD
330
1E
100
AcDbEntity
  8
0
  6
ByBlock
100
AcDbLine
 10
2158.335396941591
 20
714.2223532880533
 30
0.0
 11
2164.335396941591
 21
720.2223532890862
 31
0.0
  0
LINE
  5
D8FE
330
1E
100
AcDbEntity
  8
0
  6
ByBlock
100
AcDbLine
 10
2158.835396945091
 20
714.0152465078681
 30
0.0
 11
2164.835396945091
 21
720.0152465078681
 31
0.0
  0
LINE
  5
D8FF
330
1E
100
AcDbEntity
  8
0
  6
ByBlock
100
AcDbLine
 10
2158.335396941591
 20
706.9323532823566
 30
0.0
 11
2158.335396941591
 21
714.2223532880533
 31
0.0
  0
LINE
  5
D900
330
1E
100
AcDbEntity
  8
0
  6
ByBlock
100
AcDbLine
 10
2158.835396945091
 20
707.1394600702683
 30
0.0
 11
2158.835396945091
 21
714.0152465078681
 31
0.0
  0
LINE
  5
D903
330
1E
100
AcDbEntity
  8
0
  6
ByBlock
100
AcDbLine
 10
2164.335396941591
 20
721.8223532885685
 30
0.0
 11
2163.335396941591
 21
722.8223532885685
 31
0.0
  0
LINE
  5
D904
330
1E
100
AcDbEntity
  8
0
  6
ByBlock
100
AcDbLine
 10
2164.835396945091
 20
722.0294600702682
 30
0.0
 11
2163.142503726291
 21
723.7223532890684
 31
0.0
  0
LINE
  5
D905
330
1E
100
AcDbEntity
  8
0
  6
ByBlock
100
AcDbLine
 10
2164.335396941591
 20
720.2223532890862
 30
0.0
 11
2164.335396941591
 21
721.8223532885685
 31
0.0
  0
LINE
  5
D906
330
1E
100
AcDbEntity
  8
0
  6
ByBlock
100
AcDbLine
 10
2164.835396945091
 20
720.0152465078681
 30
0.0
 11
2164.835396945091
 21
722.0294600702682
 31
0.0
  0
LINE
  5
D907
330
1E
100
AcDbEntity
  8
0
  6
ByBlock
100
AcDbLine
 10
2180.835396945091
 20
699.122353289068
 30
0.0
 11
2181.835396945091
 21
700.1223532890681
 31
0.0
  0
LINE
  5
D908
330
1E
100
AcDbEntity
  8
0
  6
ByBlock
100
AcDbLine
 10
2181.835396945091
 20
738.3223532890683
 30
0.0
 11
2180.335396945091
 21
739.8223532890683
 31
0.0
  0
LINE
  5
D909
330
1E
100
AcDbEntity
  8
中心線
 48
0.3
100
AcDbLine
 10
2147.335396941591
 20
742.6223532885683
 30
0.0
 11
2147.335396941591
 21
690.814415064487
 31
0.0
  0
LINE
  5
D90A
330
1E
100
AcDbEntity
  8
0
  6
Continuous
 62
     7
100
AcDbLine
 10
2155.285396945091
 20
739.8147267067684
 30
0.0
 11
2154.835396945091
 21
740.2647267067682
 31
0.0
  0
LINE
  5
D90B
330
1E
100
AcDbEntity
  8
0
  6
Continuous
 62
     7
100
AcDbLine
 10
2139.835396945091
 20
740.2647267067682
 30
0.0
 11
2154.835396945091
 21
740.2647267067682
 31
0.0
  0
LINE
  5
D90C
330
1E
100
AcDbEntity
  8
0
  6
Continuous
 62
     7
100
AcDbLine
 10
2139.835396945091
 20
740.2647267067682
 30
0.0
 11
2139.385396945091
 21
739.8147267067684
 31
0.0
  0
LINE
  5
D90D
330
1E
100
AcDbEntity
  8
0
100
AcDbLine
 10
2282.413051249671
 20
698.2022811001825
 30
0.0
 11
2280.484592607095
 21
692.6223532885686
 31
0.0
  0
LINE
  5
D90E
330
1E
100
AcDbEntity
  8
0
100
AcDbLine
 10
2279.770356475397
 20
704.6276311560277
 30
0.0
 11
2282.413051249671
 21
698.2022811001825
 31
0.0
  0
LINE
  5
D90F
330
1E
100
AcDbEntity
  8
0
100
AcDbLine
 10
2282.69874081432
 20
711.052981211872
 30
0.0
 11
2279.770356475397
 21
704.6276311560277
 31
0.0
  0
LINE
  5
D910
330
1E
100
AcDbEntity
  8
0
100
AcDbLine
 10
2279.770356475397
 20
717.8352982403285
 30
0.0
 11
2282.69874081432
 21
711.052981211872
 31
0.0
  0
LINE
  5
D911
330
1E
100
AcDbEntity
  8
0
100
AcDbLine
 10
2282.110441915718
 20
722.8223532885698
 30
0.0
 11
2279.770356475397
 21
717.8352982403285
 31
0.0
  0
LINE
  5
D912
330
1E
100
AcDbEntity
  8
0
  6
Continuous
 62
     7
100
AcDbLine
 10
2247.635021583136
 20
692.6223532885696
 30
0.0
 11
2247.635021583136
 21
722.8223532885699
 31
0.0
  0
LINE
  5
D913
330
1E
100
AcDbEntity
  8
中心線
 48
0.25
100
AcDbLine
 10
2267.635021583136
 20
690.6223532885704
 30
0.0
 11
2267.635021583136
 21
724.8223532885697
 31
0.0
  0
LINE
  5
D914
330
1E
100
AcDbEntity
  8
0
100
AcDbLine
 10
2260.635021583136
 20
722.4223532885698
 30
0.0
 11
2260.40408147546
 21
722.8223532885699
 31
0.0
  0
LINE
  5
D915
330
1E
100
AcDbEntity
  8
0
100
AcDbLine
 10
2274.635021583137
 20
722.4223532885698
 30
0.0
 11
2274.865961690812
 21
722.8223532885699
 31
0.0
  0
LINE
  5
D916
330
1E
100
AcDbEntity
  8
0
100
AcDbLine
 10
2272.135021583136
 20
710.52235328857
 30
0.0
 11
2263.135021583136
 21
710.52235328857
 31
0.0
  0
LINE
  5
D917
330
1E
100
AcDbEntity
  8
0
100
AcDbLine
 10
2272.435021583136
 20
710.8223532885699
 30
0.0
 11
2272.135021583136
 21
710.52235328857
 31
0.0
  0
LINE
  5
D918
330
1E
100
AcDbEntity
  8
0
100
AcDbLine
 10
2262.835021583136
 20
710.8223532885699
 30
0.0
 11
2263.135021583136
 21
710.52235328857
 31
0.0
  0
LINE
  5
D919
330
1E
100
AcDbEntity
  8
0
100
AcDbLine
 10
2263.135021583136
 20
693.1223532885699
 30
0.0
 11
2262.63502086885
 21
692.6223532885706
 31
0.0
  0
LINE
  5
D91A
330
1E
100
AcDbEntity
  8
0
100
AcDbLine
 10
2272.635022297423
 20
692.6223532885706
 30
0.0
 11
2272.135021583136
 21
693.1223532885699
 31
0.0
  0
LINE
  5
D91B
330
1E
100
AcDbEntity
  8
0
100
AcDbLine
 10
2263.135021583136
 20
693.1223532885696
 30
0.0
 11
2272.135021583136
 21
693.1223532885696
 31
0.0
  0
LINE
  5
D91C
330
1E
100
AcDbEntity
  8
0
100
AcDbLine
 10
2260.635021583136
 20
722.4223532885698
 30
0.0
 11
2274.635021583137
 21
722.4223532885698
 31
0.0
  0
LINE
  5
D91D
330
1E
100
AcDbEntity
  8
0
100
AcDbLine
 10
2274.635021583137
 20
710.8223532885702
 30
0.0
 11
2260.635021583136
 21
710.8223532885702
 31
0.0
  0
LINE
  5
D91E
330
1E
100
AcDbEntity
  8
0
100
AcDbLine
 10
2272.135021583136
 20
710.5223532885697
 30
0.0
 11
2272.135021583136
 21
693.1223532885699
 31
0.0
  0
LINE
  5
D91F
330
1E
100
AcDbEntity
  8
0
100
AcDbLine
 10
2263.135021583136
 20
710.5223532885706
 30
0.0
 11
2263.135021583136
 21
693.1223532885696
 31
0.0
  0
LINE
  5
D920
330
1E
100
AcDbEntity
  8
0
100
AcDbLine
 10
2274.635021583137
 20
722.4223532885698
 30
0.0
 11
2274.635021583137
 21
710.8223532885702
 31
0.0
  0
LINE
  5
D921
330
1E
100
AcDbEntity
  8
0
100
AcDbLine
 10
2260.635021583136
 20
722.4223532885694
 30
0.0
 11
2260.635021583136
 21
710.8223532885702
 31
0.0
  0
LINE
  5
D922
330
1E
100
AcDbEntity
  8
中心線
 48
0.25
100
AcDbLine
 10
2307.635021583136
 20
690.6223532885704
 30
0.0
 11
2307.635021583136
 21
724.8223532885697
 31
0.0
  0
LINE
  5
D923
330
1E
100
AcDbEntity
  8
虛線
 48
0.7
100
AcDbLine
 10
2300.635021583136
 20
722.4223532885698
 30
0.0
 11
2300.40408147546
 21
722.8223532885699
 31
0.0
  0
LINE
  5
D925
330
1E
100
AcDbEntity
  8
虛線
 48
0.3
100
AcDbLine
 10
2311.885021583136
 20
710.52235328857
 30
0.0
 11
2303.135021583136
 21
710.52235328857
 31
0.0
  0
LINE
  5
D927
330
1E
100
AcDbEntity
  8
虛線
 48
0.3
100
AcDbLine
 10
2302.835021583136
 20
710.8223532885699
 30
0.0
 11
2303.135021583136
 21
710.52235328857
 31
0.0
  0
LINE
  5
D928
330
1E
100
AcDbEntity
  8
虛線
 48
0.7
100
AcDbLine
 10
2303.135021583136
 20
693.1223532885699
 30
0.0
 11
2302.63502086885
 21
692.6223532885706
 31
0.0
  0
LINE
  5
D929
330
1E
100
AcDbEntity
  8
虛線
 48
0.7
100
AcDbLine
 10
2312.635022297424
 20
692.6223532885706
 30
0.0
 11
2312.135021583136
 21
693.1223532885699
 31
0.0
  0
LINE
  5
D92A
330
1E
100
AcDbEntity
  8
虛線
 48
0.3
100
AcDbLine
 10
2303.135021583136
 20
693.1223532885696
 30
0.0
 11
2312.135021583136
 21
693.1223532885696
 31
0.0
  0
LINE
  5
D92B
330
1E
100
AcDbEntity
  8
虛線
 48
0.3
100
AcDbLine
 10
2300.635021583136
 20
722.4223532885698
 30
0.0
 11
2310.859494102585
 21
722.4223532885698
 31
0.0
  0
LINE
  5
D92C
330
1E
100
AcDbEntity
  8
虛線
 48
0.3
100
AcDbLine
 10
2311.885021583136
 20
710.8223532885702
 30
0.0
 11
2300.635021583136
 21
710.8223532885702
 31
0.0
  0
LINE
  5
D92D
330
1E
100
AcDbEntity
  8
虛線
 48
0.3
100
AcDbLine
 10
2312.135021583136
 20
699.1223532890791
 30
0.0
 11
2312.135021583136
 21
693.1223532885699
 31
0.0
  0
LINE
  5
D92E
330
1E
100
AcDbEntity
  8
虛線
 48
0.3
100
AcDbLine
 10
2303.135021583136
 20
710.5223532885706
 30
0.0
 11
2303.135021583136
 21
693.1223532885696
 31
0.0
  0
LINE
  5
D930
330
1E
100
AcDbEntity
  8
虛線
 48
0.3
100
AcDbLine
 10
2300.635021583136
 20
722.4223532885694
 30
0.0
 11
2300.635021583136
 21
710.8223532885702
 31
0.0
  0
LINE
  5
D931
330
1E
100
AcDbEntity
  8
0
  6
Continuous
 62
     7
100
AcDbLine
 10
2527.635021583137
 20
692.6223532885696
 30
0.0
 11
2247.635021583136
 21
692.6223532885683
 31
0.0
  0
LINE
  5
D942
330
1E
100
AcDbEntity
  8
0
  6
Continuous
 62
     7
100
AcDbLine
 10
2310.773360852029
 20
722.8223532885697
 30
0.0
 11
2247.635021583136
 21
722.8223532885699
 31
0.0
  0
LINE
  5
D943
330
1E
100
AcDbEntity
  8
中心線
 48
0.25
100
AcDbLine
 10
2347.635021583136
 20
690.6223532885706
 30
0.0
 11
2347.635021583136
 21
699.1223532889973
 31
0.0
  0
LINE
  5
D944
330
1E
100
AcDbEntity
  8
虛線
 48
0.7
100
AcDbLine
 10
2352.135021583136
 20
693.1223532885701
 30
0.0
 11
2352.635022297421
 21
692.6223532885708
 31
0.0
  0
LINE
  5
D945
330
1E
100
AcDbEntity
  8
虛線
 48
0.7
100
AcDbLine
 10
2342.635020868849
 20
692.6223532885708
 30
0.0
 11
2343.135021583136
 21
693.1223532885701
 31
0.0
  0
LINE
  5
D946
330
1E
100
AcDbEntity
  8
虛線
 48
0.3
100
AcDbLine
 10
2352.135021583136
 20
693.1223532885699
 30
0.0
 11
2343.135021583136
 21
693.1223532885699
 31
0.0
  0
LINE
  5
D947
330
1E
100
AcDbEntity
  8
虛線
 48
0.3
100
AcDbLine
 10
2343.135021583136
 20
699.1223532888479
 30
0.0
 11
2343.135021583136
 21
693.1223532885701
 31
0.0
  0
LINE
  5
D948
330
1E
100
AcDbEntity
  8
虛線
 48
0.3
100
AcDbLine
 10
2352.135021583136
 20
699.1223532888102
 30
0.0
 11
2352.135021583136
 21
693.1223532885699
 31
0.0
  0
LINE
  5
D949
330
1E
100
AcDbEntity
  8
中心線
 48
0.25
100
AcDbLine
 10
2387.635021583136
 20
690.6223532885706
 30
0.0
 11
2387.635021583136
 21
699.1223532889973
 31
0.0
  0
LINE
  5
D94A
330
1E
100
AcDbEntity
  8
虛線
 48
0.7
100
AcDbLine
 10
2392.135021583136
 20
693.1223532885701
 30
0.0
 11
2392.635022297421
 21
692.6223532885708
 31
0.0
  0
LINE
  5
D94B
330
1E
100
AcDbEntity
  8
虛線
 48
0.7
100
AcDbLine
 10
2382.635020868849
 20
692.6223532885708
 30
0.0
 11
2383.135021583136
 21
693.1223532885701
 31
0.0
  0
LINE
  5
D94C
330
1E
100
AcDbEntity
  8
虛線
 48
0.3
100
AcDbLine
 10
2392.135021583136
 20
693.1223532885699
 30
0.0
 11
2383.135021583136
 21
693.1223532885699
 31
0.0
  0
LINE
  5
D94D
330
1E
100
AcDbEntity
  8
虛線
 48
0.3
100
AcDbLine
 10
2383.135021583136
 20
699.1223532888479
 30
0.0
 11
2383.135021583136
 21
693.1223532885701
 31
0.0
  0
LINE
  5
D94E
330
1E
100
AcDbEntity
  8
虛線
 48
0.3
100
AcDbLine
 10
2392.135021583136
 20
699.1223532888102
 30
0.0
 11
2392.135021583136
 21
693.1223532885699
 31
0.0
  0
LINE
  5
D94F
330
1E
100
AcDbEntity
  8
中心線
 48
0.25
100
AcDbLine
 10
2427.635021583137
 20
690.6223532885706
 30
0.0
 11
2427.635021583137
 21
699.1223532889973
 31
0.0
  0
LINE
  5
D950
330
1E
100
AcDbEntity
  8
虛線
 48
0.7
100
AcDbLine
 10
2432.135021583136
 20
693.1223532885701
 30
0.0
 11
2432.635022297422
 21
692.6223532885708
 31
0.0
  0
LINE
  5
D951
330
1E
100
AcDbEntity
  8
虛線
 48
0.7
100
AcDbLine
 10
2422.635020868849
 20
692.6223532885708
 30
0.0
 11
2423.135021583136
 21
693.1223532885701
 31
0.0
  0
LINE
  5
D952
330
1E
100
AcDbEntity
  8
虛線
 48
0.3
100
AcDbLine
 10
2432.135021583136
 20
693.1223532885699
 30
0.0
 11
2423.135021583136
 21
693.1223532885699
 31
0.0
  0
LINE
  5
D953
330
1E
100
AcDbEntity
  8
虛線
 48
0.3
100
AcDbLine
 10
2423.135021583136
 20
699.1223532888479
 30
0.0
 11
2423.135021583136
 21
693.1223532885701
 31
0.0
  0
LINE
  5
D954
330
1E
100
AcDbEntity
  8
虛線
 48
0.3
100
AcDbLine
 10
2432.135021583136
 20
699.1223532888102
 30
0.0
 11
2432.135021583136
 21
693.1223532885699
 31
0.0
  0
LINE
  5
D955
330
1E
100
AcDbEntity
  8
中心線
 48
0.25
100
AcDbLine
 10
2467.635021583137
 20
690.6223532885704
 30
0.0
 11
2467.635021583136
 21
724.8223532885697
 31
0.0
  0
LINE
  5
D956
330
1E
100
AcDbEntity
  8
虛線
 48
0.7
100
AcDbLine
 10
2474.635021583136
 20
722.4223532885698
 30
0.0
 11
2474.865961690812
 21
722.8223532885699
 31
0.0
  0
LINE
  5
D958
330
1E
100
AcDbEntity
  8
虛線
 48
0.3
100
AcDbLine
 10
2463.385021583136
 20
710.52235328857
 30
0.0
 11
2472.135021583136
 21
710.52235328857
 31
0.0
  0
LINE
  5
D95A
330
1E
100
AcDbEntity
  8
虛線
 48
0.3
100
AcDbLine
 10
2472.435021583136
 20
710.8223532885699
 30
0.0
 11
2472.135021583136
 21
710.52235328857
 31
0.0
  0
LINE
  5
D95B
330
1E
100
AcDbEntity
  8
虛線
 48
0.7
100
AcDbLine
 10
2472.135021583136
 20
693.1223532885699
 30
0.0
 11
2472.635022297422
 21
692.6223532885706
 31
0.0
  0
LINE
  5
D95C
330
1E
100
AcDbEntity
  8
虛線
 48
0.7
100
AcDbLine
 10
2462.635020868849
 20
692.6223532885706
 30
0.0
 11
2463.135021583136
 21
693.1223532885699
 31
0.0
  0
LINE
  5
D95D
330
1E
100
AcDbEntity
  8
虛線
 48
0.3
100
AcDbLine
 10
2472.135021583136
 20
693.1223532885696
 30
0.0
 11
2463.135021583136
 21
693.1223532885696
 31
0.0
  0
LINE
  5
D95E
330
1E
100
AcDbEntity
  8
虛線
 48
0.3
100
AcDbLine
 10
2474.635021583136
 20
722.4223532885698
 30
0.0
 11
2464.410549063658
 21
722.4223532885698
 31
0.0
  0
LINE
  5
D95F
330
1E
100
AcDbEntity
  8
虛線
 48
0.3
100
AcDbLine
 10
2463.385021583136
 20
710.8223532885702
 30
0.0
 11
2474.635021583136
 21
710.8223532885702
 31
0.0
  0
LINE
  5
D960
330
1E
100
AcDbEntity
  8
虛線
 48
0.3
100
AcDbLine
 10
2463.135021583136
 20
699.1223532884443
 30
0.0
 11
2463.135021583136
 21
693.1223532885699
 31
0.0
  0
LINE
  5
D961
330
1E
100
AcDbEntity
  8
虛線
 48
0.3
100
AcDbLine
 10
2472.135021583136
 20
710.5223532885706
 30
0.0
 11
2472.135021583136
 21
693.1223532885696
 31
0.0
  0
LINE
  5
D963
330
1E
100
AcDbEntity
  8
虛線
 48
0.3
100
AcDbLine
 10
2474.635021583136
 20
722.4223532885694
 30
0.0
 11
2474.635021583136
 21
710.8223532885702
 31
0.0
  0
LINE
  5
D964
330
1E
100
AcDbEntity
  8
中心線
 48
0.25
100
AcDbLine
 10
2507.635021583136
 20
690.6223532885704
 30
0.0
 11
2507.635021583136
 21
724.8223532885697
 31
0.0
  0
LINE
  5
D965
330
1E
100
AcDbEntity
  8
虛線
 48
0.7
100
AcDbLine
 10
2514.635021583136
 20
722.4223532885698
 30
0.0
 11
2514.865961690812
 21
722.8223532885699
 31
0.0
  0
LINE
  5
D966
330
1E
100
AcDbEntity
  8
虛線
 48
0.7
100
AcDbLine
 10
2500.635021583136
 20
722.4223532885698
 30
0.0
 11
2500.40408147546
 21
722.8223532885699
 31
0.0
  0
LINE
  5
D967
330
1E
100
AcDbEntity
  8
虛線
 48
0.3
100
AcDbLine
 10
2503.135021583136
 20
710.52235328857
 30
0.0
 11
2512.135021583136
 21
710.52235328857
 31
0.0
  0
LINE
  5
D968
330
1E
100
AcDbEntity
  8
虛線
 48
0.3
100
AcDbLine
 10
2502.835021583136
 20
710.8223532885699
 30
0.0
 11
2503.135021583136
 21
710.52235328857
 31
0.0
  0
LINE
  5
D969
330
1E
100
AcDbEntity
  8
虛線
 48
0.3
100
AcDbLine
 10
2512.435021583136
 20
710.8223532885699
 30
0.0
 11
2512.135021583136
 21
710.52235328857
 31
0.0
  0
LINE
  5
D96A
330
1E
100
AcDbEntity
  8
虛線
 48
0.7
100
AcDbLine
 10
2512.135021583136
 20
693.1223532885699
 30
0.0
 11
2512.635022297422
 21
692.6223532885706
 31
0.0
  0
LINE
  5
D96B
330
1E
100
AcDbEntity
  8
虛線
 48
0.7
100
AcDbLine
 10
2502.635020868849
 20
692.6223532885706
 30
0.0
 11
2503.135021583136
 21
693.1223532885699
 31
0.0
  0
LINE
  5
D96C
330
1E
100
AcDbEntity
  8
虛線
 48
0.3
100
AcDbLine
 10
2512.135021583136
 20
693.1223532885696
 30
0.0
 11
2503.135021583136
 21
693.1223532885696
 31
0.0
  0
LINE
  5
D96D
330
1E
100
AcDbEntity
  8
虛線
 48
0.3
100
AcDbLine
 10
2514.635021583136
 20
722.4223532885698
 30
0.0
 11
2500.635021583136
 21
722.4223532885698
 31
0.0
  0
LINE
  5
D96E
330
1E
100
AcDbEntity
  8
虛線
 48
0.3
100
AcDbLine
 10
2500.635021583136
 20
710.8223532885702
 30
0.0
 11
2514.635021583136
 21
710.8223532885702
 31
0.0
  0
LINE
  5
D96F
330
1E
100
AcDbEntity
  8
虛線
 48
0.3
100
AcDbLine
 10
2503.135021583136
 20
710.5223532885697
 30
0.0
 11
2503.135021583136
 21
693.1223532885699
 31
0.0
  0
LINE
  5
D970
330
1E
100
AcDbEntity
  8
虛線
 48
0.3
100
AcDbLine
 10
2512.135021583136
 20
710.5223532885706
 30
0.0
 11
2512.135021583136
 21
693.1223532885696
 31
0.0
  0
LINE
  5
D971
330
1E
100
AcDbEntity
  8
虛線
 48
0.3
100
AcDbLine
 10
2500.635021583136
 20
722.4223532885698
 30
0.0
 11
2500.635021583136
 21
710.8223532885702
 31
0.0
  0
LINE
  5
D972
330
1E
100
AcDbEntity
  8
虛線
 48
0.3
100
AcDbLine
 10
2514.635021583136
 20
722.4223532885694
 30
0.0
 11
2514.635021583136
 21
710.8223532885702
 31
0.0
  0
LINE
  5
D973
330
1E
100
AcDbEntity
  8
0
  6
Continuous
 62
     7
100
AcDbLine
 10
2527.635021583137
 20
692.6223532885696
 30
0.0
 11
2527.635021583137
 21
722.8223532885699
 31
0.0
  0
LINE
  5
D974
330
1E
100
AcDbEntity
  8
0
  6
Continuous
 62
     7
100
AcDbLine
 10
2527.635021583137
 20
722.8223532885699
 30
0.0
 11
2464.496682314223
 21
722.8223532885701
 31
0.0
  0
LINE
  5
D983
330
1E
100
AcDbEntity
  8
中心線
 48
0.3
100
AcDbLine
 10
2267.635021583136
 20
845.7818308692225
 30
0.0
 11
2267.635021583136
 21
864.2756658806751
 31
0.0
  0
LINE
  5
D984
330
1E
100
AcDbEntity
  8
中心線
 48
0.3
100
AcDbLine
 10
2258.388104077411
 20
855.0287483749487
 30
0.0
 11
2276.881939088863
 21
855.0287483749487
 31
0.0
  0
CIRCLE
  5
D985
330
1E
100
AcDbEntity
  8
0
 48
0.27
100
AcDbCircle
 10
2267.635021583136
 20
855.0287483749487
 30
0.0
 40
6.999999999999772
  0
CIRCLE
  5
D986
330
1E
100
AcDbEntity
  8
0
 48
0.27
100
AcDbCircle
 10
2267.635021583136
 20
855.0287483749487
 30
0.0
 40
4.499999999999772
  0
LINE
  5
D987
330
1E
100
AcDbEntity
  8
0
 48
0.27
100
AcDbLine
 10
2247.635021583136
 20
872.0287483749487
 30
0.0
 11
2247.635021583136
 21
838.0287483749487
 31
0.0
  0
LINE
  5
D988
330
1E
100
AcDbEntity
  8
0
 48
0.27
100
AcDbLine
 10
2247.635021583136
 20
838.0287483749487
 30
0.0
 11
2311.885021583136
 21
838.0287483749489
 31
0.0
  0
LINE
  5
D989
330
1E
100
AcDbEntity
  8
0
 48
0.27
100
AcDbLine
 10
2247.635021583136
 20
872.0287483749487
 30
0.0
 11
2311.885021583136
 21
872.0287483749487
 31
0.0
  0
LINE
  5
D98A
330
1E
100
AcDbEntity
  8
中心線
 48
0.3
100
AcDbLine
 10
2507.635021583136
 20
845.7818308692225
 30
0.0
 11
2507.635021583136
 21
864.2756658806751
 31
0.0
  0
LINE
  5
D98B
330
1E
100
AcDbEntity
  8
中心線
 48
0.3
100
AcDbLine
 10
2498.38810407741
 20
855.0287483749487
 30
0.0
 11
2516.881939088862
 21
855.0287483749487
 31
0.0
  0
LINE
  5
D98C
330
1E
100
AcDbEntity
  8
中心線
 48
0.3
100
AcDbLine
 10
2467.635021583137
 20
845.7818308692225
 30
0.0
 11
2467.635021583137
 21
864.2756658806751
 31
0.0
  0
LINE
  5
D98D
330
1E
100
AcDbEntity
  8
中心線
 48
0.3
100
AcDbLine
 10
2463.385021583136
 20
855.0287483749489
 30
0.0
 11
2476.881939088862
 21
855.0287483749487
 31
0.0
  0
CIRCLE
  5
D98E
330
1E
100
AcDbEntity
  8
0
 48
0.27
100
AcDbCircle
 10
2507.635021583136
 20
855.0287483749487
 30
0.0
 40
6.999999999999772
  0
CIRCLE
  5
D98F
330
1E
100
AcDbEntity
  8
0
 48
0.27
100
AcDbCircle
 10
2507.635021583136
 20
855.0287483749487
 30
0.0
 40
4.499999999999772
  0
ARC
  5
D990
330
1E
100
AcDbEntity
  8
0
 48
0.27
100
AcDbCircle
 10
2467.635021583137
 20
855.0287483749487
 30
0.0
 40
6.999999999999772
100
AcDbArc
 50
232.6168015821335
 51
127.3831984178664
  0
ARC
  5
D991
330
1E
100
AcDbEntity
  8
0
 48
0.27
100
AcDbCircle
 10
2467.635021583137
 20
855.0287483749487
 30
0.0
 40
4.499999999999772
100
AcDbArc
 50
199.1881364537126
 51
160.8118635462874
  0
LINE
  5
D992
330
1E
100
AcDbEntity
  8
0
 48
0.27
100
AcDbLine
 10
2463.385021583136
 20
872.0287483749487
 30
0.0
 11
2527.635021583137
 21
872.0287483749487
 31
0.0
  0
LINE
  5
D993
330
1E
100
AcDbEntity
  8
0
 48
0.27
100
AcDbLine
 10
2463.385021583136
 20
838.0287483749489
 30
0.0
 11
2527.635021583137
 21
838.0287483749487
 31
0.0
  0
LINE
  5
D994
330
1E
100
AcDbEntity
  8
0
 48
0.27
100
AcDbLine
 10
2527.635021583137
 20
838.0287483749487
 30
0.0
 11
2527.635021583137
 21
872.0287483749487
 31
0.0
  0
ARC
  5
D995
330
1E
100
AcDbEntity
  8
0
  6
Continuous
100
AcDbCircle
 10
2304.523968760651
 20
855.0287483749492
 30
0.0
 40
4.0
100
AcDbArc
 50
90.0
 51
210.8352048940846
  0
ARC
  5
D996
330
1E
100
AcDbEntity
  8
0
  6
Continuous
100
AcDbCircle
 10
2310.241537560182
 20
858.4787484745421
 30
0.0
 40
2.119009977045996
100
AcDbArc
 50
147.1327799989424
 51
212.8672200010575
  0
LINE
  5
D997
330
1E
100
AcDbEntity
  8
0
  6
Continuous
100
AcDbLine
 10
2304.523968760651
 20
859.0287483749492
 30
0.0
 11
2308.195149671151
 21
859.0287483749492
 31
0.0
  0
LINE
  5
D998
330
1E
100
AcDbEntity
  8
0
  6
Continuous
100
AcDbLine
 10
2308.461780125245
 20
857.3287481757633
 30
0.0
 11
2311.885021583136
 21
857.3287481757633
 31
0.0
  0
LINE
  5
D999
330
1E
100
AcDbEntity
  8
0
  6
Continuous
100
AcDbLine
 10
2308.461780125245
 20
859.6287483749492
 30
0.0
 11
2311.885021583136
 21
859.6287483749492
 31
0.0
  0
LINE
  5
D99A
330
1E
100
AcDbEntity
  8
0
  6
Continuous
100
AcDbLine
 10
2306.328999437741
 20
848.8687052750172
 30
0.0
 11
2306.901119331107
 21
850.2499248808845
 31
0.0
  0
ARC
  5
D99B
330
1E
100
AcDbEntity
  8
0
  6
Continuous
100
AcDbCircle
 10
2305.99533621419
 20
850.6925695083578
 30
0.0
 40
1.854133729915247
100
AcDbArc
 50
214.6327799989322
 51
280.3672200010575
  0
LINE
  5
D99C
330
1E
100
AcDbEntity
  8
0
  6
Continuous
100
AcDbLine
 10
2304.469733969588
 20
849.6388985286195
 30
0.0
 11
2305.041811238103
 21
851.0200152289954
 31
0.0
  0
LINE
  5
D99D
330
1E
100
AcDbEntity
  8
0
  6
Continuous
100
AcDbLine
 10
2305.796423471405
 20
851.0287483749491
 30
0.0
 11
2308.195149671151
 21
851.0287483749491
 31
0.0
  0
ARC
  5
D99E
330
1E
100
AcDbEntity
  8
0
  6
Continuous
100
AcDbCircle
 10
2305.375517035743
 20
849.1961936415314
 30
0.0
 40
1.854133729915247
100
AcDbArc
 50
34.63277999893215
 51
100.3672200010575
  0
ARC
  5
D99F
330
1E
100
AcDbEntity
  8
0
  6
Continuous
100
AcDbCircle
 10
2310.241537560182
 20
851.5787482753562
 30
0.0
 40
2.119009977045996
100
AcDbArc
 50
147.1327799989424
 51
212.8672200010575
  0
LINE
  5
D9A0
330
1E
100
AcDbEntity
  8
0
  6
Continuous
100
AcDbLine
 10
2308.461780125245
 20
850.4287483749491
 30
0.0
 11
2311.885021583136
 21
850.4287483749491
 31
0.0
  0
LINE
  5
D9A1
330
1E
100
AcDbEntity
  8
0
  6
Continuous
100
AcDbLine
 10
2308.461780125245
 20
852.728748574135
 30
0.0
 11
2311.885021583136
 21
852.728748574135
 31
0.0
  0
LINE
  5
D9A2
330
1E
100
AcDbEntity
  8
0
  6
Continuous
100
AcDbLine
 10
2308.122527583136
 20
851.5787482753562
 30
0.0
 11
2308.122527583136
 21
858.4787484745421
 31
0.0
  0
ARC
  5
D9A3
330
1E
100
AcDbEntity
  8
0
  6
Continuous
100
AcDbCircle
 10
2316.08996156277
 20
855.0287483749492
 30
0.0
 40
7.96743397963368
100
AcDbArc
 50
163.2213499979083
 51
196.7786500020917
  0
LINE
  5
D9A4
330
1E
100
AcDbEntity
  8
0
  6
Continuous
100
AcDbLine
 10
2300.751119173271
 20
851.1791992104951
 30
0.0
 11
2301.323196441787
 21
852.5603159108708
 31
0.0
  0
LINE
  5
D9A5
330
1E
100
AcDbEntity
  8
0
  6
Continuous
100
AcDbLine
 10
2298.891811453072
 20
851.9493496848268
 30
0.0
 11
2299.463888721587
 21
853.3304663852026
 31
0.0
  0
ARC
  5
D9A6
330
1E
100
AcDbEntity
  8
0
  6
Continuous
100
AcDbCircle
 10
2299.797594197185
 20
851.5066449311326
 30
0.0
 40
1.854133729915247
100
AcDbArc
 50
34.63277999893215
 51
100.3672200010575
  0
ARC
  5
D9A7
330
1E
100
AcDbEntity
  8
0
  6
Continuous
100
AcDbCircle
 10
2300.417413375632
 20
853.003020797959
 30
0.0
 40
1.854133729915247
100
AcDbArc
 50
214.6327799989322
 51
280.3672200010575
  0
ARC
  5
D9A8
330
1E
100
AcDbEntity
  8
0
  6
Continuous
100
AcDbCircle
 10
2297.618301456992
 20
850.2697567479593
 30
0.0
 40
2.059673609817605
100
AcDbArc
 50
335.8479011650642
 51
45.8479011650646
  0
LINE
  5
D9A9
330
1E
100
AcDbEntity
  8
0
  6
Continuous
100
AcDbLine
 10
2298.122527583136
 20
847.7236016882867
 30
0.0
 11
2303.884952466937
 21
845.33672714926
 31
0.0
  0
LINE
  5
D9AA
330
1E
100
AcDbEntity
  8
0
  6
Continuous
100
AcDbLine
 10
2298.122527583136
 20
844.6916057259008
 30
0.0
 11
2301.741007561403
 21
843.1927822437268
 31
0.0
  0
LINE
  5
D9AB
330
1E
100
AcDbEntity
  8
0
  6
Continuous
100
AcDbLine
 10
2298.122527583136
 20
844.6916057259008
 30
0.0
 11
2298.122527583136
 21
847.7236016882867
 31
0.0
  0
LINE
  5
D9AC
330
1E
100
AcDbEntity
  8
0
  6
Continuous
100
AcDbLine
 10
2301.741007561403
 20
843.1927822437268
 30
0.0
 11
2303.884952466937
 21
845.33672714926
 31
0.0
  0
ARC
  5
D9AD
330
1E
100
AcDbEntity
  8
0
  6
Continuous
100
AcDbCircle
 10
2300.866309809377
 20
846.9153593890638
 30
0.0
 40
2.860349020536762
100
AcDbArc
 50
118.5864858262542
 51
163.5864858262599
  0
LINE
  5
D9AE
330
1E
100
AcDbEntity
  8
0
  6
Continuous
100
AcDbLine
 10
2299.682452308227
 20
849.3504833314867
 30
0.0
 11
2303.932298157779
 21
847.5901395426072
 31
0.0
  0
ARC
  5
D9AF
330
1E
100
AcDbEntity
  8
0
  6
Continuous
100
AcDbCircle
 10
2306.041897688632
 20
846.7805889448595
 30
0.0
 40
2.059673609817604
100
AcDbArc
 50
89.15209883494572
 51
159.1520988349398
  0
ARC
  5
D9B0
330
1E
100
AcDbEntity
  8
0
  6
Continuous
100
AcDbCircle
 10
2301.373291838041
 20
846.7053605569116
 30
0.0
 40
2.860349020536762
100
AcDbArc
 50
331.4135141737281
 51
16.41351417374012
  0
LINE
  5
D9B1
330
1E
100
AcDbEntity
  8
0
  6
Continuous
100
AcDbLine
 10
2299.707867115804
 20
851.2900245943516
 30
0.0
 11
2305.285789954362
 21
848.9795733047502
 31
0.0
  0
LINE
  5
D9B2
330
1E
100
AcDbEntity
  8
0
  6
Continuous
100
AcDbLine
 10
2300.507140457013
 20
853.2196411347401
 30
0.0
 11
2306.08506329557
 21
850.9091898451389
 31
0.0
  0
ARC
  5
D9B3
330
1E
100
AcDbEntity
  8
0
  6
Continuous
100
AcDbCircle
 10
2300.628222516632
 20
845.6235849570733
 30
0.0
 40
6.971504732179473
100
AcDbArc
 50
50.72134999791451
 51
84.27865000208308
  0
ARC
  5
D9B4
330
1E
100
AcDbEntity
  8
0
  6
Continuous
100
AcDbCircle
 10
2305.164707894743
 20
856.5756294824172
 30
0.0
 40
6.971504732179473
100
AcDbArc
 50
230.7213499979145
 51
264.2786500020961
  0
ARC
  5
D9B7
330
1E
100
AcDbEntity
  8
0
 48
0.27
100
AcDbCircle
 10
2307.635021583136
 20
855.0287483749489
 30
0.0
 40
4.499999999999772
100
AcDbArc
 50
255.2895278042575
 51
279.3738587297919
  0
ARC
  5
D9B8
330
1E
100
AcDbEntity
  8
0
 48
0.27
100
AcDbCircle
 10
2307.635021583136
 20
855.0287483749489
 30
0.0
 40
6.999999999999772
100
AcDbArc
 50
247.7663088126418
 51
307.3831984178665
  0
LINE
  5
D9B9
330
1E
100
AcDbEntity
  8
中心線
 48
0.3
100
AcDbLine
 10
2298.38810407741
 20
855.0287483749489
 30
0.0
 11
2300.523968760651
 21
855.0287483749489
 31
0.0
  0
LINE
  5
D9BA
330
1E
100
AcDbEntity
  8
中心線
 48
0.3
100
AcDbLine
 10
2307.635021583136
 20
845.7818308692226
 30
0.0
 11
2307.635021583136
 21
850.5287483749491
 31
0.0
  0
ARC
  5
D9BB
330
1E
100
AcDbEntity
  8
0
 48
0.27
100
AcDbCircle
 10
2307.635021583136
 20
855.0287483749489
 30
0.0
 40
4.499999999999772
100
AcDbArc
 50
80.62614127020806
 51
117.2660444507199
  0
ARC
  5
D9BD
330
1E
100
AcDbEntity
  8
0
 48
0.27
100
AcDbCircle
 10
2307.635021583136
 20
855.0287483749489
 30
0.0
 40
6.999999999999772
100
AcDbArc
 50
52.61680158213356
 51
168.4886855202643
  0
LINE
  5
D9BE
330
1E
100
AcDbEntity
  8
中心線
 48
0.3
100
AcDbLine
 10
2307.635021583136
 20
859.5287483749487
 30
0.0
 11
2307.635021583136
 21
864.2756658806751
 31
0.0
  0
POINT
  5
D9BF
330
1E
100
AcDbEntity
  8
0
100
AcDbPoint
 10
2298.385021583136
 20
731.622372620168
 30
0.0
1001
pntflag
1000
endpoint
  0
LINE
  5
D9C0
330
1E
100
AcDbEntity
  8
0
 48
0.27
100
AcDbLine
 10
2301.857809583136
 20
731.622372620168
 30
0.0
 11
2301.826003583137
 21
731.2728366201682
 31
0.0
  0
LINE
  5
D9C1
330
1E
100
AcDbEntity
  8
0
 48
0.27
100
AcDbLine
 10
2301.826003583137
 20
731.2728366201682
 30
0.0
 11
2301.731808583136
 21
730.9367326201681
 31
0.0
  0
LINE
  5
D9C2
330
1E
100
AcDbEntity
  8
0
 48
0.27
100
AcDbLine
 10
2301.826003583137
 20
731.971908620168
 30
0.0
 11
2301.857809583136
 21
731.622372620168
 31
0.0
  0
LINE
  5
D9C3
330
1E
100
AcDbEntity
  8
0
 48
0.27
100
AcDbLine
 10
2301.731808583136
 20
730.9367326201681
 30
0.0
 11
2301.578844583136
 21
730.6269776201681
 31
0.0
  0
LINE
  5
D9C4
330
1E
100
AcDbEntity
  8
0
 48
0.27
100
AcDbLine
 10
2301.731808583136
 20
732.308012620168
 30
0.0
 11
2301.826003583137
 21
731.971908620168
 31
0.0
  0
LINE
  5
D9C5
330
1E
100
AcDbEntity
  8
0
 48
0.27
100
AcDbLine
 10
2301.578844583136
 20
730.6269776201681
 30
0.0
 11
2301.372988583136
 21
730.3554746201682
 31
0.0
  0
LINE
  5
D9C6
330
1E
100
AcDbEntity
  8
0
 48
0.27
100
AcDbLine
 10
2301.578844583136
 20
732.617767620168
 30
0.0
 11
2301.731808583136
 21
732.308012620168
 31
0.0
  0
LINE
  5
D9C7
330
1E
100
AcDbEntity
  8
0
 48
0.27
100
AcDbLine
 10
2301.122153583136
 20
730.132658620168
 30
0.0
 11
2301.372988583136
 21
730.3554746201682
 31
0.0
  0
LINE
  5
D9C8
330
1E
100
AcDbEntity
  8
0
 48
0.27
100
AcDbLine
 10
2301.372988583136
 20
732.889269620168
 30
0.0
 11
2301.578844583136
 21
732.617767620168
 31
0.0
  0
LINE
  5
D9C9
330
1E
100
AcDbEntity
  8
0
 48
0.27
100
AcDbLine
 10
2303.103073583137
 20
731.622372620168
 30
0.0
 11
2303.057745583136
 21
731.1242306201681
 31
0.0
  0
LINE
  5
D9CA
330
1E
100
AcDbEntity
  8
0
 48
0.27
100
AcDbLine
 10
2303.057745583136
 20
731.1242306201681
 30
0.0
 11
2302.923502583136
 21
730.645231620168
 31
0.0
  0
LINE
  5
D9CB
330
1E
100
AcDbEntity
  8
0
 48
0.27
100
AcDbLine
 10
2303.057745583136
 20
732.120514620168
 30
0.0
 11
2303.103073583137
 21
731.622372620168
 31
0.0
  0
LINE
  5
D9CC
330
1E
100
AcDbEntity
  8
0
 48
0.27
100
AcDbLine
 10
2300.835976583137
 20
729.9670906201681
 30
0.0
 11
2301.122153583136
 21
730.132658620168
 31
0.0
  0
LINE
  5
D9CD
330
1E
100
AcDbEntity
  8
0
 48
0.27
100
AcDbLine
 10
2301.122153583136
 20
733.1120866201681
 30
0.0
 11
2301.372988583136
 21
732.889269620168
 31
0.0
  0
LINE
  5
D9CE
330
1E
100
AcDbEntity
  8
0
 48
0.27
100
AcDbLine
 10
2302.923502583136
 20
730.645231620168
 30
0.0
 11
2302.705505583136
 21
730.2037846201681
 31
0.0
  0
LINE
  5
D9CF
330
1E
100
AcDbEntity
  8
0
 48
0.27
100
AcDbLine
 10
2302.923502583136
 20
732.599512620168
 30
0.0
 11
2303.057745583136
 21
732.120514620168
 31
0.0
  0
LINE
  5
D9D0
330
1E
100
AcDbEntity
  8
0
 48
0.27
100
AcDbLine
 10
2302.705505583136
 20
730.2037846201681
 30
0.0
 11
2302.412130583136
 21
729.8168526201679
 31
0.0
  0
LINE
  5
D9D1
330
1E
100
AcDbEntity
  8
0
 48
0.27
100
AcDbLine
 10
2302.705505583136
 20
733.0409606201681
 30
0.0
 11
2302.923502583136
 21
732.599512620168
 31
0.0
  0
LINE
  5
D9D2
330
1E
100
AcDbEntity
  8
0
 48
0.27
100
AcDbLine
 10
2300.525457583136
 20
729.8651346201681
 30
0.0
 11
2300.835976583137
 21
729.9670906201681
 31
0.0
  0
LINE
  5
D9D3
330
1E
100
AcDbEntity
  8
0
 48
0.27
100
AcDbLine
 10
2300.835976583137
 20
733.2776536201682
 30
0.0
 11
2301.122153583136
 21
733.1120866201681
 31
0.0
  0
LINE
  5
D9D4
330
1E
100
AcDbEntity
  8
0
 48
0.27
100
AcDbLine
 10
2302.054651583136
 20
729.4993056201681
 30
0.0
 11
2302.412130583136
 21
729.8168526201679
 31
0.0
  0
LINE
  5
D9D5
330
1E
100
AcDbEntity
  8
0
 48
0.27
100
AcDbLine
 10
2302.412130583136
 20
733.4278926201682
 30
0.0
 11
2302.705505583136
 21
733.0409606201681
 31
0.0
  0
LINE
  5
D9D6
330
1E
100
AcDbEntity
  8
0
 48
0.27
100
AcDbLine
 10
2303.226773583137
 20
731.622372620168
 30
0.0
 11
2303.181940583136
 21
731.129670620168
 31
0.0
  0
LINE
  5
D9D7
330
1E
100
AcDbEntity
  8
0
 48
0.27
100
AcDbLine
 10
2300.202528583136
 20
729.8307086201682
 30
0.0
 11
2300.525457583136
 21
729.8651346201681
 31
0.0
  0
LINE
  5
D9D8
330
1E
100
AcDbEntity
  8
0
 48
0.27
100
AcDbLine
 10
2300.525457583136
 20
733.3796096201681
 30
0.0
 11
2300.835976583137
 21
733.2776536201682
 31
0.0
  0
LINE
  5
D9D9
330
1E
100
AcDbEntity
  8
0
 48
0.27
100
AcDbLine
 10
2303.181940583136
 20
731.129670620168
 30
0.0
 11
2303.049164583136
 21
730.655902620168
 31
0.0
  0
LINE
  5
D9DA
330
1E
100
AcDbEntity
  8
0
 48
0.27
100
AcDbLine
 10
2303.181940583136
 20
732.1150746201681
 30
0.0
 11
2303.226773583137
 21
731.622372620168
 31
0.0
  0
LINE
  5
D9DB
330
1E
100
AcDbEntity
  8
0
 48
0.27
100
AcDbLine
 10
2301.646807583136
 20
729.263346620168
 30
0.0
 11
2302.054651583136
 21
729.4993056201681
 31
0.0
  0
LINE
  5
D9DC
330
1E
100
AcDbEntity
  8
0
 48
0.27
100
AcDbLine
 10
2302.054651583136
 20
733.7454396201681
 30
0.0
 11
2302.412130583136
 21
733.4278926201682
 31
0.0
  0
LINE
  5
D9DD
330
1E
100
AcDbEntity
  8
0
 48
0.27
100
AcDbLine
 10
2303.049164583136
 20
730.655902620168
 30
0.0
 11
2302.833547583137
 21
730.2192756201682
 31
0.0
  0
LINE
  5
D9DE
330
1E
100
AcDbEntity
  8
0
 48
0.27
100
AcDbLine
 10
2303.049164583136
 20
732.5888426201681
 30
0.0
 11
2303.181940583136
 21
732.1150746201681
 31
0.0
  0
LINE
  5
D9DF
330
1E
100
AcDbEntity
  8
0
 48
0.27
100
AcDbLine
 10
2302.833547583137
 20
730.2192756201682
 30
0.0
 11
2302.543376583136
 21
729.8365686201679
 31
0.0
  0
LINE
  5
D9E0
330
1E
100
AcDbEntity
  8
0
 48
0.27
100
AcDbLine
 10
2302.833547583137
 20
733.025469620168
 30
0.0
 11
2303.049164583136
 21
732.5888426201681
 31
0.0
  0
LINE
  5
D9E1
330
1E
100
AcDbEntity
  8
0
 48
0.27
100
AcDbLine
 10
2301.204270583136
 20
729.1180436201679
 30
0.0
 11
2301.646807583136
 21
729.263346620168
 31
0.0
  0
LINE
  5
D9E2
330
1E
100
AcDbEntity
  8
0
 48
0.27
100
AcDbLine
 10
2301.646807583136
 20
733.9813986201682
 30
0.0
 11
2302.054651583136
 21
733.7454396201681
 31
0.0
  0
LINE
  5
D9E3
330
1E
100
AcDbEntity
  8
0
 48
0.27
100
AcDbLine
 10
2299.879598583136
 20
729.8651346201681
 30
0.0
 11
2300.202528583136
 21
729.8307086201682
 31
0.0
  0
LINE
  5
D9E4
330
1E
100
AcDbEntity
  8
0
 48
0.27
100
AcDbLine
 10
2300.202528583136
 20
733.4140356201681
 30
0.0
 11
2300.525457583136
 21
733.3796096201681
 31
0.0
  0
LINE
  5
D9E5
330
1E
100
AcDbEntity
  8
0
 48
0.27
100
AcDbLine
 10
2302.189801583136
 20
729.5224896201682
 30
0.0
 11
2302.543376583136
 21
729.8365686201679
 31
0.0
  0
LINE
  5
D9E6
330
1E
100
AcDbEntity
  8
0
 48
0.27
100
AcDbLine
 10
2302.543376583136
 20
733.4081766201681
 30
0.0
 11
2302.833547583137
 21
733.025469620168
 31
0.0
  0
LINE
  5
D9E7
330
1E
100
AcDbEntity
  8
0
 48
0.27
100
AcDbLine
 10
2300.744047583136
 20
729.0689816201681
 30
0.0
 11
2301.204270583136
 21
729.1180436201679
 31
0.0
  0
LINE
  5
D9E8
330
1E
100
AcDbEntity
  8
0
 48
0.27
100
AcDbLine
 10
2301.204270583136
 20
729.1180436201679
 30
0.0
 11
2301.348706583136
 21
729.1453916201681
 31
0.0
  0
LINE
  5
D9E9
330
1E
100
AcDbEntity
  8
0
 48
0.27
100
AcDbLine
 10
2301.204270583136
 20
734.1267006201681
 30
0.0
 11
2301.646807583136
 21
733.9813986201682
 31
0.0
  0
LINE
  5
D9EA
330
1E
100
AcDbEntity
  8
0
 48
0.27
100
AcDbLine
 10
2299.569079583136
 20
729.9670906201681
 30
0.0
 11
2299.879598583136
 21
729.8651346201681
 31
0.0
  0
LINE
  5
D9EB
330
1E
100
AcDbEntity
  8
0
 48
0.27
100
AcDbLine
 10
2299.879598583136
 20
733.3796096201681
 30
0.0
 11
2300.202528583136
 21
733.4140356201681
 31
0.0
  0
LINE
  5
D9EC
330
1E
100
AcDbEntity
  8
0
 48
0.27
100
AcDbLine
 10
2301.786410583136
 20
729.2891076201681
 30
0.0
 11
2302.189801583136
 21
729.5224896201682
 31
0.0
  0
LINE
  5
D9ED
330
1E
100
AcDbEntity
  8
0
 48
0.27
100
AcDbLine
 10
2302.189801583136
 20
733.7222556201681
 30
0.0
 11
2302.543376583136
 21
733.4081766201681
 31
0.0
  0
LINE
  5
D9EE
330
1E
100
AcDbEntity
  8
0
 48
0.27
100
AcDbLine
 10
2301.348706583136
 20
729.1453916201681
 30
0.0
 11
2301.786410583136
 21
729.2891076201681
 31
0.0
  0
LINE
  5
D9EF
330
1E
100
AcDbEntity
  8
0
 48
0.27
100
AcDbLine
 10
2301.786410583136
 20
733.9556376201681
 30
0.0
 11
2302.189801583136
 21
733.7222556201681
 31
0.0
  0
LINE
  5
D9F0
330
1E
100
AcDbEntity
  8
0
 48
0.27
100
AcDbLine
 10
2300.283824583136
 20
729.1180436201679
 30
0.0
 11
2300.744047583136
 21
729.0689816201681
 31
0.0
  0
LINE
  5
D9F1
330
1E
100
AcDbEntity
  8
0
 48
0.27
100
AcDbLine
 10
2300.744047583136
 20
734.175763620168
 30
0.0
 11
2301.204270583136
 21
734.1267006201681
 31
0.0
  0
LINE
  5
D9F2
330
1E
100
AcDbEntity
  8
0
 48
0.27
100
AcDbLine
 10
2301.204270583136
 20
734.1267006201681
 30
0.0
 11
2301.348706583136
 21
734.0993536201681
 31
0.0
  0
LINE
  5
D9F3
330
1E
100
AcDbEntity
  8
0
 48
0.27
100
AcDbLine
 10
2299.282902583136
 20
730.132658620168
 30
0.0
 11
2299.569079583136
 21
729.9670906201681
 31
0.0
  0
LINE
  5
D9F4
330
1E
100
AcDbEntity
  8
0
 48
0.27
100
AcDbLine
 10
2299.569079583136
 20
733.2776536201682
 30
0.0
 11
2299.879598583136
 21
733.3796096201681
 31
0.0
  0
LINE
  5
D9F5
330
1E
100
AcDbEntity
  8
0
 48
0.27
100
AcDbLine
 10
2301.348706583136
 20
734.0993536201681
 30
0.0
 11
2301.786410583136
 21
733.9556376201681
 31
0.0
  0
LINE
  5
D9F6
330
1E
100
AcDbEntity
  8
0
 48
0.27
100
AcDbLine
 10
2299.032067583136
 20
730.3554746201682
 30
0.0
 11
2299.282902583136
 21
730.132658620168
 31
0.0
  0
LINE
  5
D9F7
330
1E
100
AcDbEntity
  8
0
 48
0.27
100
AcDbLine
 10
2299.282902583136
 20
733.1120866201681
 30
0.0
 11
2299.569079583136
 21
733.2776536201682
 31
0.0
  0
LINE
  5
D9F8
330
1E
100
AcDbEntity
  8
0
 48
0.27
100
AcDbLine
 10
2299.841287583136
 20
729.263346620168
 30
0.0
 11
2300.283824583136
 21
729.1180436201679
 31
0.0
  0
LINE
  5
D9F9
330
1E
100
AcDbEntity
  8
0
 48
0.27
100
AcDbLine
 10
2300.283824583136
 20
734.1267006201681
 30
0.0
 11
2300.744047583136
 21
734.175763620168
 31
0.0
  0
LINE
  5
D9FA
330
1E
100
AcDbEntity
  8
0
 48
0.27
100
AcDbLine
 10
2298.826211583136
 20
730.6269776201681
 30
0.0
 11
2299.032067583136
 21
730.3554746201682
 31
0.0
  0
LINE
  5
D9FB
330
1E
100
AcDbEntity
  8
0
 48
0.27
100
AcDbLine
 10
2299.032067583136
 20
732.889269620168
 30
0.0
 11
2299.282902583136
 21
733.1120866201681
 31
0.0
  0
LINE
  5
D9FC
330
1E
100
AcDbEntity
  8
0
 48
0.27
100
AcDbLine
 10
2299.433442583136
 20
729.4993056201681
 30
0.0
 11
2299.841287583136
 21
729.263346620168
 31
0.0
  0
LINE
  5
D9FD
330
1E
100
AcDbEntity
  8
0
 48
0.27
100
AcDbLine
 10
2299.841287583136
 20
733.9813986201682
 30
0.0
 11
2300.283824583136
 21
734.1267006201681
 31
0.0
  0
LINE
  5
D9FE
330
1E
100
AcDbEntity
  8
0
 48
0.27
100
AcDbLine
 10
2298.673247583136
 20
730.9367326201681
 30
0.0
 11
2298.826211583136
 21
730.6269776201681
 31
0.0
  0
LINE
  5
D9FF
330
1E
100
AcDbEntity
  8
0
 48
0.27
100
AcDbLine
 10
2299.032067583136
 20
732.889269620168
 30
0.0
 11
2298.826211583136
 21
732.617767620168
 31
0.0
  0
LINE
  5
DA00
330
1E
100
AcDbEntity
  8
0
 48
0.27
100
AcDbLine
 10
2299.075964583136
 20
729.8168526201679
 30
0.0
 11
2299.433442583136
 21
729.4993056201681
 31
0.0
  0
LINE
  5
DA01
330
1E
100
AcDbEntity
  8
0
 48
0.27
100
AcDbLine
 10
2299.433442583136
 20
733.7454396201681
 30
0.0
 11
2299.841287583136
 21
733.9813986201682
 31
0.0
  0
LINE
  5
DA02
330
1E
100
AcDbEntity
  8
0
 48
0.27
100
AcDbLine
 10
2298.579052583136
 20
731.2728366201682
 30
0.0
 11
2298.673247583136
 21
730.9367326201681
 31
0.0
  0
LINE
  5
DA03
330
1E
100
AcDbEntity
  8
0
 48
0.27
100
AcDbLine
 10
2298.826211583136
 20
732.617767620168
 30
0.0
 11
2298.673247583136
 21
732.308012620168
 31
0.0
  0
LINE
  5
DA04
330
1E
100
AcDbEntity
  8
0
 48
0.27
100
AcDbLine
 10
2298.547246583137
 20
731.622372620168
 30
0.0
 11
2298.579052583136
 21
731.2728366201682
 31
0.0
  0
LINE
  5
DA05
330
1E
100
AcDbEntity
  8
0
 48
0.27
100
AcDbLine
 10
2298.673247583136
 20
732.308012620168
 30
0.0
 11
2298.579052583136
 21
731.971908620168
 31
0.0
  0
LINE
  5
DA06
330
1E
100
AcDbEntity
  8
0
 48
0.27
100
AcDbLine
 10
2298.579052583136
 20
731.971908620168
 30
0.0
 11
2298.547246583137
 21
731.622372620168
 31
0.0
  0
LINE
  5
DA07
330
1E
100
AcDbEntity
  8
0
 48
0.27
100
AcDbLine
 10
2298.782588583136
 20
730.2037846201681
 30
0.0
 11
2299.075964583136
 21
729.8168526201679
 31
0.0
  0
LINE
  5
DA08
330
1E
100
AcDbEntity
  8
0
 48
0.27
100
AcDbLine
 10
2299.075964583136
 20
733.4278926201682
 30
0.0
 11
2299.433442583136
 21
733.7454396201681
 31
0.0
  0
LINE
  5
DA09
330
1E
100
AcDbEntity
  8
0
 48
0.27
100
AcDbLine
 10
2298.564591583136
 20
730.645231620168
 30
0.0
 11
2298.782588583136
 21
730.2037846201681
 31
0.0
  0
LINE
  5
DA0A
330
1E
100
AcDbEntity
  8
0
 48
0.27
100
AcDbLine
 10
2299.075964583136
 20
733.4278926201682
 30
0.0
 11
2298.782588583136
 21
733.0409606201681
 31
0.0
  0
LINE
  5
DA0B
330
1E
100
AcDbEntity
  8
0
 48
0.27
100
AcDbLine
 10
2298.430349583137
 20
731.1242306201681
 30
0.0
 11
2298.564591583136
 21
730.645231620168
 31
0.0
  0
LINE
  5
DA0C
330
1E
100
AcDbEntity
  8
0
 48
0.27
100
AcDbLine
 10
2298.782588583136
 20
733.0409606201681
 30
0.0
 11
2298.564591583136
 21
732.599512620168
 31
0.0
  0
LINE
  5
DA0D
330
1E
100
AcDbEntity
  8
0
 48
0.27
100
AcDbLine
 10
2298.385021583136
 20
731.622372620168
 30
0.0
 11
2298.430349583137
 21
731.1242306201681
 31
0.0
  0
LINE
  5
DA0E
330
1E
100
AcDbEntity
  8
0
 48
0.27
100
AcDbLine
 10
2298.564591583136
 20
732.599512620168
 30
0.0
 11
2298.430349583137
 21
732.120514620168
 31
0.0
  0
LINE
  5
DA0F
330
1E
100
AcDbEntity
  8
0
 48
0.27
100
AcDbLine
 10
2298.430349583137
 20
732.120514620168
 30
0.0
 11
2298.385021583136
 21
731.622372620168
 31
0.0
  0
LINE
  5
DA10
330
1E
100
AcDbEntity
  8
0
 48
0.27
100
AcDbLine
 10
2299.543059583136
 20
729.9821446201681
 30
0.0
 11
2299.546030583136
 21
729.9837606201681
 31
0.0
  0
LINE
  5
DA11
330
1E
100
AcDbEntity
  8
0
 48
0.27
100
AcDbLine
 10
2299.543059583136
 20
733.2625996201679
 30
0.0
 11
2299.546030583136
 21
733.260984620168
 31
0.0
  0
LINE
  5
DA12
330
1E
100
AcDbEntity
  8
0
 48
0.27
100
AcDbLine
 10
2305.218594583136
 20
731.622372620168
 30
0.0
 11
2305.165338583136
 21
731.0371016201681
 31
0.0
  0
LINE
  5
DA13
330
1E
100
AcDbEntity
  8
0
 48
0.27
100
AcDbLine
 10
2305.165338583136
 20
732.2076436201682
 30
0.0
 11
2305.218594583136
 21
731.622372620168
 31
0.0
  0
LINE
  5
DA14
330
1E
100
AcDbEntity
  8
0
 48
0.27
100
AcDbLine
 10
2305.165338583136
 20
731.0371016201681
 30
0.0
 11
2305.007616583136
 21
730.4743216201682
 31
0.0
  0
LINE
  5
DA15
330
1E
100
AcDbEntity
  8
0
 48
0.27
100
AcDbLine
 10
2305.007616583136
 20
732.7704226201681
 30
0.0
 11
2305.165338583136
 21
732.2076436201682
 31
0.0
  0
LINE
  5
DA16
330
1E
100
AcDbEntity
  8
0
 48
0.27
100
AcDbLine
 10
2305.007616583136
 20
730.4743216201682
 30
0.0
 11
2304.751489583137
 21
729.955661620168
 31
0.0
  0
LINE
  5
DA17
330
1E
100
AcDbEntity
  8
0
 48
0.27
100
AcDbLine
 10
2304.751489583137
 20
733.2890826201681
 30
0.0
 11
2305.007616583136
 21
732.7704226201681
 31
0.0
  0
LINE
  5
DA18
330
1E
100
AcDbEntity
  8
0
 48
0.27
100
AcDbLine
 10
2304.751489583137
 20
729.955661620168
 30
0.0
 11
2304.406800583136
 21
729.501051620168
 31
0.0
  0
LINE
  5
DA19
330
1E
100
AcDbEntity
  8
0
 48
0.27
100
AcDbLine
 10
2304.406800583136
 20
733.743692620168
 30
0.0
 11
2304.751489583137
 21
733.2890826201681
 31
0.0
  0
LINE
  5
DA1A
330
1E
100
AcDbEntity
  8
0
 48
0.27
100
AcDbLine
 10
2305.647368583136
 20
731.622372620168
 30
0.0
 11
2304.047162583136
 21
728.6223726201681
 31
0.0
  0
LINE
  5
DA1B
330
1E
100
AcDbEntity
  8
0
 48
0.27
100
AcDbLine
 10
2304.047162583136
 20
734.6223726201681
 30
0.0
 11
2305.647368583136
 21
731.622372620168
 31
0.0
  0
LINE
  5
DA1C
330
1E
100
AcDbEntity
  8
0
 48
0.27
100
AcDbLine
 10
2303.986796583136
 20
729.1279636201681
 30
0.0
 11
2304.406800583136
 21
729.501051620168
 31
0.0
  0
LINE
  5
DA1D
330
1E
100
AcDbEntity
  8
0
 48
0.27
100
AcDbLine
 10
2303.986796583136
 20
734.116781620168
 30
0.0
 11
2304.406800583136
 21
733.743692620168
 31
0.0
  0
LINE
  5
DA1E
330
1E
100
AcDbEntity
  8
0
 48
0.27
100
AcDbLine
 10
2303.507616583136
 20
728.850733620168
 30
0.0
 11
2303.986796583136
 21
729.1279636201681
 31
0.0
  0
LINE
  5
DA1F
330
1E
100
AcDbEntity
  8
0
 48
0.27
100
AcDbLine
 10
2303.507616583136
 20
734.394010620168
 30
0.0
 11
2303.986796583136
 21
734.116781620168
 31
0.0
  0
LINE
  5
DA20
330
1E
100
AcDbEntity
  8
0
 48
0.27
100
AcDbLine
 10
2302.987676583136
 20
728.6800166201681
 30
0.0
 11
2303.507616583136
 21
728.850733620168
 31
0.0
  0
LINE
  5
DA21
330
1E
100
AcDbEntity
  8
0
 48
0.27
100
AcDbLine
 10
2302.987676583136
 20
734.5647286201681
 30
0.0
 11
2303.507616583136
 21
734.394010620168
 31
0.0
  0
LINE
  5
DA22
330
1E
100
AcDbEntity
  8
0
 48
0.27
100
AcDbLine
 10
2302.446956583136
 20
728.6223726201681
 30
0.0
 11
2302.987676583136
 21
728.6800166201681
 31
0.0
  0
LINE
  5
DA23
330
1E
100
AcDbEntity
  8
0
 48
0.27
100
AcDbLine
 10
2302.446956583136
 20
734.6223726201681
 30
0.0
 11
2302.987676583136
 21
734.5647286201681
 31
0.0
  0
LINE
  5
DA24
330
1E
100
AcDbEntity
  8
0
 48
0.27
100
AcDbLine
 10
2301.906236583136
 20
728.6800166201681
 30
0.0
 11
2302.446956583136
 21
728.6223726201681
 31
0.0
  0
LINE
  5
DA25
330
1E
100
AcDbEntity
  8
0
 48
0.27
100
AcDbLine
 10
2301.906236583136
 20
734.5647286201681
 30
0.0
 11
2302.446956583136
 21
734.6223726201681
 31
0.0
  0
LINE
  5
DA26
330
1E
100
AcDbEntity
  8
0
 48
0.27
100
AcDbLine
 10
2301.386296583136
 20
728.850733620168
 30
0.0
 11
2301.906236583136
 21
728.6800166201681
 31
0.0
  0
LINE
  5
DA27
330
1E
100
AcDbEntity
  8
0
 48
0.27
100
AcDbLine
 10
2301.386296583136
 20
734.394010620168
 30
0.0
 11
2301.906236583136
 21
734.5647286201681
 31
0.0
  0
LINE
  5
DA28
330
1E
100
AcDbEntity
  8
0
 48
0.27
100
AcDbLine
 10
2300.967829583136
 20
729.0928376201682
 30
0.0
 11
2301.386296583136
 21
728.850733620168
 31
0.0
  0
LINE
  5
DA29
330
1E
100
AcDbEntity
  8
0
 48
0.27
100
AcDbLine
 10
2300.967829583136
 20
734.1519066201681
 30
0.0
 11
2301.386296583136
 21
734.394010620168
 31
0.0
  0
LINE
  5
DA2A
330
1E
100
AcDbEntity
  8
0
 48
0.27
100
AcDbLine
 10
2306.346732583136
 20
731.622372620168
 30
0.0
 11
2304.746526583136
 21
728.6223726201681
 31
0.0
  0
LINE
  5
DA2B
330
1E
100
AcDbEntity
  8
0
 48
0.27
100
AcDbLine
 10
2304.746526583136
 20
728.6223726201681
 30
0.0
 11
2300.846750583136
 21
728.6223726201681
 31
0.0
  0
LINE
  5
DA2C
330
1E
100
AcDbEntity
  8
0
 48
0.27
100
AcDbLine
 10
2304.746526583136
 20
734.6223726201681
 30
0.0
 11
2306.346732583136
 21
731.622372620168
 31
0.0
  0
LINE
  5
DA2D
330
1E
100
AcDbEntity
  8
0
 48
0.27
100
AcDbLine
 10
2305.647368583136
 20
731.622372620168
 30
0.0
 11
2306.346732583136
 21
731.622372620168
 31
0.0
  0
LINE
  5
DA2E
330
1E
100
AcDbEntity
  8
0
 48
0.27
100
AcDbLine
 10
2300.846750583136
 20
734.6223726201681
 30
0.0
 11
2300.600357583137
 21
734.160445620168
 31
0.0
  0
LINE
  5
DA2F
330
1E
100
AcDbEntity
  8
0
 48
0.27
100
AcDbLine
 10
2300.600357583137
 20
729.0842996201681
 30
0.0
 11
2300.846750583136
 21
728.6223726201681
 31
0.0
  0
LINE
  5
DA30
330
1E
100
AcDbEntity
  8
0
 48
0.27
100
AcDbLine
 10
2300.846750583136
 20
734.6223726201681
 30
0.0
 11
2304.746526583136
 21
734.6223726201681
 31
0.0
  0
LINE
  5
DA31
330
1E
100
AcDbEntity
  8
0
 48
0.27
100
AcDbLine
 10
2308.122527583136
 20
735.622372620168
 30
0.0
 11
2308.122527583136
 21
727.622372620168
 31
0.0
  0
LINE
  5
DA32
330
1E
100
AcDbEntity
  8
0
 48
0.27
100
AcDbLine
 10
2304.374187583136
 20
727.622372620168
 30
0.0
 11
2311.885021583136
 21
727.6223726201679
 31
0.0
  0
LINE
  5
DA33
330
1E
100
AcDbEntity
  8
0
 48
0.27
100
AcDbLine
 10
2308.902523583136
 20
731.622372620168
 30
0.0
 11
2311.885021583136
 21
731.622372620168
 31
0.0
  0
LINE
  5
DA34
330
1E
100
AcDbEntity
  8
0
 48
0.27
100
AcDbLine
 10
2311.885021583136
 20
735.622372620168
 30
0.0
 11
2304.374187583136
 21
735.622372620168
 31
0.0
  0
ARC
  5
DA35
330
1E
100
AcDbEntity
  8
0
 48
0.27
100
AcDbCircle
 10
2304.374187583136
 20
731.622372620168
 30
0.0
 40
3.999999999999968
100
AcDbArc
 50
228.5903779972994
 51
270.0
  0
ARC
  5
DA36
330
1E
100
AcDbEntity
  8
0
 48
0.27
100
AcDbCircle
 10
2304.374187583136
 20
731.622372620168
 30
0.0
 40
3.999999999999968
100
AcDbArc
 50
90.0
 51
131.4096219995944
  0
LWPOLYLINE
  5
DA37
330
1E
100
AcDbEntity
  8
0
 48
0.27
100
AcDbPolyline
 90
       31
 70
     0
 43
0.0
 10
2300.793810583137
 20
731.622372620168
 10
2300.760992583136
 20
731.832627620168
 10
2300.716845583136
 20
731.938114620168
 10
2300.653812583136
 20
732.035893620168
 10
2300.574336583136
 20
732.1200066201681
 10
2300.482845583136
 20
732.1858796201682
 10
2300.384925583137
 20
732.231160620168
 10
2300.252289583136
 20
732.2601016201681
 10
2300.129280583136
 20
732.2574426201681
 10
2300.022356583136
 20
732.2319366201679
 10
2299.906151583137
 20
732.176168620168
 10
2299.795581583136
 20
732.0866796201681
 10
2299.707351583136
 20
731.972129620168
 10
2299.650717583136
 20
731.8522906201681
 10
2299.622866583136
 20
731.7486346201681
 10
2299.611245583136
 20
731.622372620168
 10
2299.644063583136
 20
731.4121176201681
 10
2299.688211583136
 20
731.306629620168
 10
2299.751243583136
 20
731.2088516201681
 10
2299.830719583136
 20
731.124738620168
 10
2299.922210583136
 20
731.058865620168
 10
2300.020130583136
 20
731.013584620168
 10
2300.152766583137
 20
730.9846426201679
 10
2300.275775583136
 20
730.987302620168
 10
2300.382699583136
 20
731.0128076201681
 10
2300.498904583136
 20
731.0685756201681
 10
2300.609474583136
 20
731.1580656201681
 10
2300.697704583136
 20
731.272614620168
 10
2300.754338583136
 20
731.392453620168
 10
2300.782190583136
 20
731.4961106201681
 10
2300.793810583137
 20
731.622372620168
  0
ARC
  5
DA38
330
1E
100
AcDbEntity
  8
0
 48
0.27
100
AcDbCircle
 10
2311.076639583136
 20
733.6223726201681
 30
0.0
 40
2.954111999999976
100
AcDbArc
 50
137.3885980021923
 51
222.6114019999052
  0
ARC
  5
DA39
330
1E
100
AcDbEntity
  8
0
 48
0.27
100
AcDbCircle
 10
2311.076638583136
 20
729.6223726201681
 30
0.0
 40
2.954110999999976
100
AcDbArc
 50
137.3885930045096
 51
222.6114069976016
  0
LINE
  5
DA3A
330
1E
100
AcDbEntity
  8
中心線
 48
0.27
100
AcDbLine
 10
2296.885023342153
 20
731.622353289068
 30
0.0
 11
2312.18949145669
 21
731.622353289068
 31
0.0
  0
LINE
  5
DA3C
330
1E
100
AcDbEntity
  8
虛線
 48
0.25
100
AcDbLine
 10
2361.635021583136
 20
727.622353290426
 30
0.0
 11
2361.635021583136
 21
740.0723532904257
 31
0.0
  0
LINE
  5
DA3D
330
1E
100
AcDbEntity
  8
虛線
 48
0.25
100
AcDbLine
 10
2357.385021583136
 20
739.3223532888457
 30
0.0
 11
2356.085021583135
 21
740.6223532888454
 31
0.0
  0
LINE
  5
DA3E
330
1E
100
AcDbEntity
  8
虛線
 48
0.25
100
AcDbLine
 10
2365.885021583136
 20
739.3223532888457
 30
0.0
 11
2367.185021583138
 21
740.6223532888454
 31
0.0
  0
LINE
  5
DA3F
330
1E
100
AcDbEntity
  8
虛線
 48
0.25
100
AcDbLine
 10
2365.885021583136
 20
732.8223532888458
 30
0.0
 11
2365.885021583136
 21
739.3223532888457
 31
0.0
  0
LINE
  5
DA40
330
1E
100
AcDbEntity
  8
虛線
 48
0.25
100
AcDbLine
 10
2366.635021583136
 20
732.8223532888458
 30
0.0
 11
2366.635021583134
 21
740.0723532888449
 31
0.0
  0
LINE
  5
DA41
330
1E
100
AcDbEntity
  8
虛線
 48
0.25
100
AcDbLine
 10
2357.385021583136
 20
739.3223532888457
 30
0.0
 11
2365.885021583136
 21
739.3223532888457
 31
0.0
  0
LINE
  5
DA42
330
1E
100
AcDbEntity
  8
虛線
 48
0.25
100
AcDbLine
 10
2356.635021583136
 20
732.8223532888458
 30
0.0
 11
2356.635021583136
 21
740.0723532888455
 31
0.0
  0
LINE
  5
DA43
330
1E
100
AcDbEntity
  8
虛線
 48
0.25
100
AcDbLine
 10
2357.385021583136
 20
732.8223532888458
 30
0.0
 11
2357.385021583136
 21
739.3223532888457
 31
0.0
  0
LINE
  5
DA44
330
1E
100
AcDbEntity
  8
虛線
 48
0.25
100
AcDbLine
 10
2368.635021583136
 20
732.8223532888458
 30
0.0
 11
2354.635021583137
 21
732.8223532888458
 31
0.0
  0
LINE
  5
DA45
330
1E
100
AcDbEntity
  8
虛線
 48
0.25
100
AcDbLine
 10
2360.885021583136
 20
739.3223532904262
 30
0.0
 11
2362.185021583137
 21
740.6223532904261
 31
0.0
  0
LINE
  5
DA46
330
1E
100
AcDbEntity
  8
虛線
 48
0.25
100
AcDbLine
 10
2352.385021583137
 20
739.3223532904262
 30
0.0
 11
2351.085021583137
 21
740.6223532904261
 31
0.0
  0
LINE
  5
DA47
330
1E
100
AcDbEntity
  8
虛線
 48
0.25
100
AcDbLine
 10
2360.885021583136
 20
739.3223532904262
 30
0.0
 11
2352.385021583137
 21
739.3223532904262
 31
0.0
  0
LINE
  5
DA48
330
1E
100
AcDbEntity
  8
虛線
 48
0.25
100
AcDbLine
 10
2360.885021583136
 20
727.622353290426
 30
0.0
 11
2360.885021583136
 21
739.3223532904262
 31
0.0
  0
LINE
  5
DA49
330
1E
100
AcDbEntity
  8
虛線
 48
0.3
100
AcDbLine
 10
2361.635021583136
 20
727.622353290426
 30
0.0
 11
2361.635021583136
 21
740.072353290426
 31
0.0
  0
LINE
  5
DA4A
330
1E
100
AcDbEntity
  8
虛線
 48
0.25
100
AcDbLine
 10
2351.635021583136
 20
727.622353290426
 30
0.0
 11
2351.635021583136
 21
740.0723532904257
 31
0.0
  0
LINE
  5
DA4B
330
1E
100
AcDbEntity
  8
虛線
 48
0.25
100
AcDbLine
 10
2352.385021583137
 20
727.622353290426
 30
0.0
 11
2352.385021583137
 21
739.3223532904262
 31
0.0
  0
LINE
  5
DA4C
330
1E
100
AcDbEntity
  8
虛線
 48
0.25
100
AcDbLine
 10
2368.635021583136
 20
724.8223532888458
 30
0.0
 11
2368.635021583136
 21
732.8223532888458
 31
0.0
  0
LINE
  5
DA4D
330
1E
100
AcDbEntity
  8
虛線
 48
0.25
100
AcDbLine
 10
2354.635021583137
 20
724.8223532888458
 30
0.0
 11
2354.635021583137
 21
732.8223532888458
 31
0.0
  0
LINE
  5
DA4E
330
1E
100
AcDbEntity
  8
虛線
 48
0.25
100
AcDbLine
 10
2413.635021583136
 20
727.622353290426
 30
0.0
 11
2413.635021583136
 21
740.0723532904257
 31
0.0
  0
LINE
  5
DA4F
330
1E
100
AcDbEntity
  8
虛線
 48
0.25
100
AcDbLine
 10
2408.635021583136
 20
732.8223532888458
 30
0.0
 11
2408.635021583136
 21
740.072353288845
 31
0.0
  0
LINE
  5
DA50
330
1E
100
AcDbEntity
  8
虛線
 48
0.25
100
AcDbLine
 10
2418.635021583137
 20
732.8223532888458
 30
0.0
 11
2418.635021583137
 21
740.0723532888449
 31
0.0
  0
LINE
  5
DA51
330
1E
100
AcDbEntity
  8
虛線
 48
0.25
100
AcDbLine
 10
2409.385021583136
 20
739.3223532888457
 30
0.0
 11
2408.085021583135
 21
740.6223532888454
 31
0.0
  0
LINE
  5
DA52
330
1E
100
AcDbEntity
  8
虛線
 48
0.25
100
AcDbLine
 10
2417.885021583137
 20
739.3223532888457
 30
0.0
 11
2419.185021583138
 21
740.6223532888454
 31
0.0
  0
LINE
  5
DA53
330
1E
100
AcDbEntity
  8
虛線
 48
0.25
100
AcDbLine
 10
2417.885021583137
 20
732.8223532888458
 30
0.0
 11
2417.885021583137
 21
739.3223532888457
 31
0.0
  0
LINE
  5
DA54
330
1E
100
AcDbEntity
  8
虛線
 48
0.25
100
AcDbLine
 10
2418.635021583137
 20
732.8223532888458
 30
0.0
 11
2418.635021583134
 21
740.0723532888449
 31
0.0
  0
LINE
  5
DA55
330
1E
100
AcDbEntity
  8
虛線
 48
0.25
100
AcDbLine
 10
2409.385021583136
 20
739.3223532888457
 30
0.0
 11
2417.885021583137
 21
739.3223532888457
 31
0.0
  0
LINE
  5
DA56
330
1E
100
AcDbEntity
  8
虛線
 48
0.25
100
AcDbLine
 10
2409.385021583136
 20
732.8223532888458
 30
0.0
 11
2409.385021583136
 21
739.3223532888457
 31
0.0
  0
LINE
  5
DA57
330
1E
100
AcDbEntity
  8
虛線
 48
0.25
100
AcDbLine
 10
2420.635021583136
 20
732.8223532888458
 30
0.0
 11
2406.635021583137
 21
732.8223532888458
 31
0.0
  0
LINE
  5
DA58
330
1E
100
AcDbEntity
  8
虛線
 48
0.25
100
AcDbLine
 10
2414.385021583136
 20
739.3223532904262
 30
0.0
 11
2413.085021583135
 21
740.6223532904261
 31
0.0
  0
LINE
  5
DA59
330
1E
100
AcDbEntity
  8
虛線
 48
0.25
100
AcDbLine
 10
2422.885021583136
 20
739.3223532904262
 30
0.0
 11
2424.185021583136
 21
740.6223532904261
 31
0.0
  0
LINE
  5
DA5A
330
1E
100
AcDbEntity
  8
虛線
 48
0.25
100
AcDbLine
 10
2414.385021583136
 20
739.3223532904262
 30
0.0
 11
2422.885021583136
 21
739.3223532904262
 31
0.0
  0
LINE
  5
DA5B
330
1E
100
AcDbEntity
  8
虛線
 48
0.25
100
AcDbLine
 10
2414.385021583136
 20
727.622353290426
 30
0.0
 11
2414.385021583136
 21
739.3223532904262
 31
0.0
  0
LINE
  5
DA5C
330
1E
100
AcDbEntity
  8
虛線
 48
0.3
100
AcDbLine
 10
2413.635021583136
 20
727.622353290426
 30
0.0
 11
2413.635021583136
 21
740.072353290426
 31
0.0
  0
LINE
  5
DA5D
330
1E
100
AcDbEntity
  8
虛線
 48
0.25
100
AcDbLine
 10
2423.635021583136
 20
727.622353290426
 30
0.0
 11
2423.635021583136
 21
740.0723532904257
 31
0.0
  0
LINE
  5
DA5E
330
1E
100
AcDbEntity
  8
虛線
 48
0.25
100
AcDbLine
 10
2422.885021583136
 20
727.622353290426
 30
0.0
 11
2422.885021583136
 21
739.3223532904262
 31
0.0
  0
LINE
  5
DA5F
330
1E
100
AcDbEntity
  8
虛線
 48
0.25
100
AcDbLine
 10
2420.635021583136
 20
724.8223532888458
 30
0.0
 11
2420.635021583136
 21
732.8223532888458
 31
0.0
  0
LINE
  5
DA60
330
1E
100
AcDbEntity
  8
虛線
 48
0.25
100
AcDbLine
 10
2406.635021583137
 20
724.8223532888458
 30
0.0
 11
2406.635021583137
 21
732.8223532888458
 31
0.0
  0
LINE
  5
DA61
330
1E
100
AcDbEntity
  8
0
100
AcDbLine
 10
2334.385021583136
 20
711.5837556083473
 30
0.0
 11
2349.635021579014
 21
711.5837556083472
 31
0.0
  0
LINE
  5
DA62
330
1E
100
AcDbEntity
  8
0
100
AcDbLine
 10
2425.635021583136
 20
711.5837556083473
 30
0.0
 11
2440.885021583137
 21
711.5837556083473
 31
0.0
  0
ARC
  5
DA63
330
1E
100
AcDbEntity
  8
標註線
 62
     1
100
AcDbCircle
 10
2418.635021583137
 20
896.0287483749478
 30
0.0
 40
5.0
100
AcDbArc
 50
169.9999999988309
 51
100.0000000011691
  0
ARC
  5
DA64
330
1E
100
AcDbEntity
  8
標註線
 62
     1
100
AcDbCircle
 10
2413.635021583136
 20
855.0287483749478
 30
0.0
 40
5.0
100
AcDbArc
 50
169.9999999988309
 51
100.0000000011691
  0
ARC
  5
DA65
330
1E
100
AcDbEntity
  8
標註線
 62
     1
100
AcDbCircle
 10
2418.635021583137
 20
814.028748374948
 30
0.0
 40
5.0
100
AcDbArc
 50
169.9999999988309
 51
100.0000000011691
  0
ARC
  5
DA66
330
1E
100
AcDbEntity
  8
標註線
 62
     1
100
AcDbCircle
 10
2356.635021583136
 20
814.0287483749482
 30
0.0
 40
5.0
100
AcDbArc
 50
169.9999999988309
 51
100.0000000011691
  0
ARC
  5
DA67
330
1E
100
AcDbEntity
  8
標註線
 62
     1
100
AcDbCircle
 10
2361.635021583136
 20
855.0287483749478
 30
0.0
 40
5.0
100
AcDbArc
 50
169.9999999988309
 51
100.0000000011691
  0
ARC
  5
DA68
330
1E
100
AcDbEntity
  8
標註線
 62
     1
100
AcDbCircle
 10
2356.635021583136
 20
896.028748374948
 30
0.0
 40
5.0
100
AcDbArc
 50
169.9999999988309
 51
100.0000000011691
  0
LINE
  5
DA69
330
1E
100
AcDbEntity
  8
中心線
 48
0.5
100
AcDbLine
 10
2413.635021583136
 20
864.2940228078824
 30
0.0
 11
2413.635021583136
 21
845.7634739420145
 31
0.0
  0
LINE
  5
DA6A
330
1E
100
AcDbEntity
  8
中心線
 48
0.5
100
AcDbLine
 10
2361.635021583136
 20
864.2940228078824
 30
0.0
 11
2361.635021583136
 21
845.7634739420145
 31
0.0
  0
LINE
  5
DA6B
330
1E
100
AcDbEntity
  8
中心線
 48
0.5
100
AcDbLine
 10
2356.635021583136
 20
904.0415260934796
 30
0.0
 11
2356.635021583136
 21
888.0159706564164
 31
0.0
  0
CIRCLE
  5
DA6C
330
1E
100
AcDbEntity
  8
0
100
AcDbCircle
 10
2356.635021583136
 20
896.028748374948
 30
0.0
 40
4.25
  0
CIRCLE
  5
DA6D
330
1E
100
AcDbEntity
  8
0
100
AcDbCircle
 10
2361.635021583136
 20
855.0287483749478
 30
0.0
 40
4.25
  0
LINE
  5
DA6E
330
1E
100
AcDbEntity
  8
中心線
 48
0.5
100
AcDbLine
 10
2356.635021583136
 20
822.0415260934796
 30
0.0
 11
2356.635021583136
 21
806.0159706564164
 31
0.0
  0
CIRCLE
  5
DA6F
330
1E
100
AcDbEntity
  8
0
100
AcDbCircle
 10
2356.635021583136
 20
814.028748374948
 30
0.0
 40
4.25
  0
LINE
  5
DA70
330
1E
100
AcDbEntity
  8
中心線
 48
0.5
100
AcDbLine
 10
2418.635021583137
 20
822.0415260934796
 30
0.0
 11
2418.635021583137
 21
806.0159706564164
 31
0.0
  0
CIRCLE
  5
DA71
330
1E
100
AcDbEntity
  8
0
100
AcDbCircle
 10
2418.635021583137
 20
814.028748374948
 30
0.0
 40
4.25
  0
CIRCLE
  5
DA72
330
1E
100
AcDbEntity
  8
0
100
AcDbCircle
 10
2413.635021583136
 20
855.0287483749478
 30
0.0
 40
4.25
  0
LINE
  5
DA73
330
1E
100
AcDbEntity
  8
中心線
 48
0.5
100
AcDbLine
 10
2418.635021583137
 20
904.0415260934796
 30
0.0
 11
2418.635021583137
 21
888.0159706564164
 31
0.0
  0
CIRCLE
  5
DA74
330
1E
100
AcDbEntity
  8
0
100
AcDbCircle
 10
2418.635021583137
 20
896.0287483749478
 30
0.0
 40
4.25
  0
LINE
  5
DA75
330
1E
100
AcDbEntity
  8
中心線
 48
0.8
100
AcDbLine
 10
2387.635021583136
 20
909.0287483749479
 30
0.0
 11
2387.635021583136
 21
801.02874837495
 31
0.0
  0
LINE
  5
DA76
330
1E
100
AcDbEntity
  8
中心線
 48
0.5
100
AcDbLine
 10
2410.622243864605
 20
814.028748374948
 30
0.0
 11
2426.647799301668
 21
814.028748374948
 31
0.0
  0
LINE
  5
DA77
330
1E
100
AcDbEntity
  8
中心線
 48
0.5
100
AcDbLine
 10
2348.622243864605
 20
814.028748374948
 30
0.0
 11
2364.647799301668
 21
814.028748374948
 31
0.0
  0
LINE
  5
DA78
330
1E
100
AcDbEntity
  8
中心線
 48
0.8
100
AcDbLine
 10
2444.885021583137
 20
855.0287483749478
 30
0.0
 11
2330.385021583136
 21
855.0287483749491
 31
0.0
  0
LINE
  5
DA79
330
1E
100
AcDbEntity
  8
中心線
 48
0.5
100
AcDbLine
 10
2348.622243864605
 20
896.028748374948
 30
0.0
 11
2364.647799301668
 21
896.028748374948
 31
0.0
  0
LINE
  5
DA7A
330
1E
100
AcDbEntity
  8
中心線
 48
0.5
100
AcDbLine
 10
2410.622243864605
 20
896.028748374948
 30
0.0
 11
2426.647799301668
 21
896.028748374948
 31
0.0
  0
LINE
  5
DA87
330
1E
100
AcDbEntity
  8
中心線
 48
0.27
100
AcDbLine
 10
2320.785021583136
 20
728.0223532890113
 30
0.0
 11
2327.985021583137
 21
728.0223532890113
 31
0.0
  0
LINE
  5
DA88
330
1E
100
AcDbEntity
  8
中心線
 48
0.27
100
AcDbLine
 10
2324.385021583136
 20
724.4223532890114
 30
0.0
 11
2324.385021583136
 21
731.6223532890112
 31
0.0
  0
LINE
  5
DA90
330
1E
100
AcDbEntity
  8
中心線
 48
0.27
100
AcDbLine
 10
2447.285021583136
 20
728.022353288512
 30
0.0
 11
2454.485021583136
 21
728.022353288512
 31
0.0
  0
LINE
  5
DA91
330
1E
100
AcDbEntity
  8
中心線
 48
0.27
100
AcDbLine
 10
2450.885021583137
 20
724.4223532885121
 30
0.0
 11
2450.885021583137
 21
731.6223532885119
 31
0.0
  0
LINE
  5
DCEF
330
1E
100
AcDbEntity
  8
中心線
 48
0.3
100
AcDbLine
 10
2467.548748281515
 20
723.8223532884973
 30
0.0
 11
2460.385021583136
 21
723.8223532884973
 31
0.0
  0
ARC
  5
DCF0
330
1E
100
AcDbEntity
  8
0
  6
Continuous
 62
     7
100
AcDbCircle
 10
2458.88085491647
 20
723.8223532884472
 30
0.0
 40
5.704166666666643
100
AcDbArc
 50
322.1507111678919
 51
37.84928883210811
  0
LINE
  5
DCF1
330
1E
100
AcDbEntity
  8
中心線
 48
0.3
100
AcDbLine
 10
2307.721294884758
 20
723.8223532883819
 30
0.0
 11
2314.885021583136
 21
723.8223532883819
 31
0.0
  0
ARC
  5
DCF2
330
1E
100
AcDbEntity
  8
0
  6
Continuous
 62
     7
100
AcDbCircle
 10
2316.389188249803
 20
723.8223532883316
 30
0.0
 40
5.704166666666643
100
AcDbArc
 50
142.1507111678919
 51
217.8492888321081
  0
MTEXT
  5
DD8E
330
1E
100
AcDbEntity
  8
0
100
AcDbMText
 10
2122.599866442443
 20
675.181152761198
 30
0.0
 40
7.800000159341863
 41
100.6095
 71
     1
 72
     5
  1
\A1;{\fTimes New Roman|b0|i0|c0|p18;RGW35HC\PC : 7440 kgf\PC\fProxy 1|b0|i0|c0|p0;\H0.7x;\S^ 0;\fTimes New Roman|b0|i0|c0|p18;\H1.429x;: 14470 kgf}
 73
     1
 44
1.0
1001
ACAD
1000
MTEXTBEGIN
1070
    73
1070
     1
1070
    44
1040
1.0
1070
    74
1070
     0
1000
MTEXTEND
  0
LINE
  5
DEB0
330
1E
100
AcDbEntity
  8
0
  6
ByBlock
100
AcDbLine
 10
2112.835396945091
 20
700.1223532885529
 30
0.0
 11
2113.83539694509
 21
699.1223532885838
 31
0.0
  0
LINE
  5
DECA
330
1E
100
AcDbEntity
  8
虛線
 48
0.25
100
AcDbLine
 10
2154.835396941591
 20
724.8223532888458
 30
0.0
 11
2139.835396941591
 21
724.8223532888456
 31
0.0
  0
LINE
  5
EAA1
330
1E
100
AcDbEntity
  8
0
  6
Continuous
 62
     7
100
AcDbLine
 10
2527.635021583137
 20
721.8223532885685
 30
0.0
 11
2464.222906709704
 21
721.8223532885685
 31
0.0
  0
LINE
  5
EAA2
330
1E
100
AcDbEntity
  8
0
  6
Continuous
 62
     7
100
AcDbLine
 10
2527.635021583137
 20
720.2223532890862
 30
0.0
 11
2463.385021583136
 21
720.2223532890862
 31
0.0
  0
LINE
  5
EAA3
330
1E
100
AcDbEntity
  8
0
  6
Continuous
 62
     7
100
AcDbLine
 10
2527.635021583137
 20
714.2223532880533
 30
0.0
 11
2463.385021583136
 21
714.2223532880533
 31
0.0
  0
LINE
  5
EAA4
330
1E
100
AcDbEntity
  8
0
  6
Continuous
 62
     7
100
AcDbLine
 10
2527.635021583137
 20
706.9323532823566
 30
0.0
 11
2463.385021583136
 21
706.9323532823566
 31
0.0
  0
LINE
  5
EAA5
330
1E
100
AcDbEntity
  8
0
  6
Continuous
 62
     7
100
AcDbLine
 10
2527.635021583137
 20
700.9323532899655
 30
0.0
 11
2463.385021583136
 21
700.9323532899655
 31
0.0
  0
LINE
  5
EAA6
330
1E
100
AcDbEntity
  8
0
  6
Continuous
 62
     7
100
AcDbLine
 10
2527.635021583137
 20
694.1223532885683
 30
0.0
 11
2281.00300217466
 21
694.1223532885683
 31
0.0
  0
LINE
  5
EAA7
330
1E
100
AcDbEntity
  8
0
  6
Continuous
 62
     7
100
AcDbLine
 10
2311.047136456526
 20
721.8223532885685
 30
0.0
 11
2281.641209990727
 21
721.8223532885685
 31
0.0
  0
LINE
  5
EAA9
330
1E
100
AcDbEntity
  8
0
  6
Continuous
 62
     7
100
AcDbLine
 10
2311.885021583136
 20
720.2223532890862
 30
0.0
 11
2280.890438910985
 21
720.2223532890862
 31
0.0
  0
LINE
  5
EAAA
330
1E
100
AcDbEntity
  8
0
  6
Continuous
 62
     7
100
AcDbLine
 10
2311.885021583136
 20
714.2223532880533
 30
0.0
 11
2281.330308829621
 21
714.2223532880533
 31
0.0
  0
LINE
  5
EAAB
330
1E
100
AcDbEntity
  8
0
  6
Continuous
 62
     7
100
AcDbLine
 10
2311.885021583136
 20
706.9323532823566
 30
0.0
 11
2280.820744722209
 21
706.9323532823566
 31
0.0
  0
LINE
  5
EAAC
330
1E
100
AcDbEntity
  8
0
  6
Continuous
 62
     7
100
AcDbLine
 10
2311.885021583136
 20
700.9323532899655
 30
0.0
 11
2281.290194526438
 21
700.9323532899655
 31
0.0
  0
ENDSEC
  0
SECTION
  2
OBJECTS
  0
DICTIONARY
  5
C
330
0
100
AcDbDictionary
281
     1
  3
ACAD_COLOR
350
3D97
  3
ACAD_GROUP
350
D
  3
ACAD_LAYOUT
350
19
  3
ACAD_MATERIAL
350
3D96
  3
ACAD_MLINESTYLE
350
16
  3
ACAD_PLOTSETTINGS
350
18
  3
ACAD_PLOTSTYLENAME
350
E
  3
ACAD_TABLESTYLE
350
E7A3
  3
ACDBHEADERROUNDTRIPXREC
350
EAD3
  3
AcDbVariableDictionary
350
3E63
  0
DICTIONARY
  5
43C2
330
2
100
AcDbDictionary
280
     1
281
     1
  3
ACAD_LAYERSTATES
360
43C3
  0
DICTIONARY
  5
3D1E
330
1E
100
AcDbDictionary
280
     1
281
     1
  3
ACAD_LAYOUTSELFREF
360
3D92
  3
ACAD_SORTENTS
360
EAA8
  0
DICTIONARY
  5
3D20
330
1A
100
AcDbDictionary
280
     1
281
     1
  3
ACAD_LAYOUTSELFREF
360
3D91
  0
DICTIONARY
  5
69B8
330
69B7
100
AcDbDictionary
280
     1
281
     1
  3
ACAD_SORTENTS
360
69B9
  0
DICTIONARY
  5
69CC
330
69CB
100
AcDbDictionary
280
     1
281
     1
  3
ACAD_SORTENTS
360
69CD
  0
DICTIONARY
  5
3D97
102
{ACAD_REACTORS
330
C
102
}
330
C
100
AcDbDictionary
281
     1
  0
DICTIONARY
  5
D
102
{ACAD_REACTORS
330
C
102
}
330
C
100
AcDbDictionary
281
     1
  3
*A1
350
4143
  3
*A10
350
4378
  3
*A11
350
43BF
  3
*A12
350
423A
  3
*A13
350
414C
  3
*A14
350
579E
  3
*A15
350
4235
  3
*A16
350
437C
  3
*A17
350
414F
  3
*A18
350
437E
  3
*A19
350
4149
  3
*A2
350
4241
  3
*A20
350
4239
  3
*A21
350
4237
  3
*A22
350
423C
  3
*A23
350
43B6
  3
*A24
350
423B
  3
*A25
350
43B8
  3
*A26
350
576A
  3
*A27
350
4240
  3
*A28
350
423E
  3
*A29
350
4374
  3
*A3
350
43BB
  3
*A30
350
4373
  3
*A31
350
43BD
  3
*A32
350
4236
  3
*A33
350
4377
  3
*A34
350
4145
  3
*A35
350
437A
  3
*A36
350
4379
  3
*A37
350
43C1
  3
*A38
350
423D
  3
*A39
350
437D
  3
*A4
350
414D
  3
*A40
350
4146
  3
*A41
350
437F
  3
*A42
350
414B
  3
*A43
350
4375
  3
*A44
350
43B7
  3
*A45
350
414E
  3
*A46
350
43B9
  3
*A47
350
57D9
  3
*A48
350
437B
  3
*A49
350
43BC
  3
*A5
350
4144
  3
*A50
350
43BE
  3
*A51
350
4238
  3
*A52
350
43B5
  3
*A53
350
43C0
  3
*A54
350
4148
  3
*A55
350
423F
  3
*A56
350
43BA
  3
*A6
350
414A
  3
*A7
350
5691
  3
*A8
350
4376
  3
*A9
350
4147
  0
DICTIONARY
  5
19
102
{ACAD_REACTORS
330
C
102
}
330
C
100
AcDbDictionary
281
     1
  3
Model
350
21
  3
配置1
350
1D
  0
DICTIONARY
  5
3D96
102
{ACAD_REACTORS
330
C
102
}
330
C
100
AcDbDictionary
281
     1
  0
DICTIONARY
  5
16
102
{ACAD_REACTORS
330
C
102
}
330
C
100
AcDbDictionary
281
     1
  3
Standard
350
17
  0
DICTIONARY
  5
18
102
{ACAD_REACTORS
330
C
102
}
330
C
100
AcDbDictionary
281
     1
  3
LANSRO
350
4150
  0
ACDBDICTIONARYWDFLT
  5
E
102
{ACAD_REACTORS
330
C
102
}
330
C
100
AcDbDictionary
281
     1
  3
Normal
350
F
100
AcDbDictionaryWithDefault
340
F
  0
DICTIONARY
  5
E7A3
102
{ACAD_REACTORS
330
C
102
}
330
C
100
AcDbDictionary
281
     1
  3
Standard
350
E7A4
  0
DICTIONARY
  5
EAD3
102
{ACAD_REACTORS
330
C
102
}
330
C
100
AcDbDictionary
281
     1
  3
COLORDICT
350
EAD5
  3
MATERIALDICT
350
EAD4
  0
DICTIONARY
  5
3E63
102
{ACAD_REACTORS
330
C
102
}
330
C
100
AcDbDictionary
281
     1
  3
CTABLESTYLE
350
E8F8
  3
DIMASSOC
350
3E64
  3
PROJECTNAME
350
3E65
  0
DICTIONARY
  5
43C3
102
{ACAD_REACTORS
330
43C2
102
}
330
43C2
100
AcDbDictionary
281
     1
  0
XRECORD
  5
3D92
102
{ACAD_REACTORS
330
3D1E
102
}
330
3D1E
100
AcDbXrecord
280
     1
340
1E
  0
SORTENTSTABLE
  5
EAA8
102
{ACAD_REACTORS
330
3D1E
102
}
330
3D1E
100
AcDbSortentsTable
330
1E
331
D8A0
  5
D8A0
331
DA1A
  5
DA1A
331
DA59
  5
DA59
331
D965
  5
D965
331
D91E
  5
D91E
331
D9A4
  5
D9A4
331
EAA3
  5
EAA7
331
D8A8
  5
D8A8
331
D9E3
  5
D9E3
331
DA61
  5
DA61
331
D9EB
  5
D9EB
331
DA22
  5
DA22
331
D96D
  5
D96D
331
D8EF
  5
D8EF
331
D9AC
  5
D9AC
331
EAAB
  5
EAAC
331
D8B0
  5
D8B0
331
DA69
  5
DA69
331
D9B4
  5
D9B4
331
D9F3
  5
D9F3
331
DA2A
  5
DA2A
331
D8B8
  5
D8B8
331
D8F7
  5
D8F7
331
D92E
  5
D92E
331
DA32
  5
DA32
331
D7F3
  5
D7F3
331
D82A
  5
D82A
331
B565
  5
B565
331
B5AC
  5
B5AC
331
D869
  5
D869
331
D871
  5
D871
331
B5B4
  5
B5B4
331
D7FB
  5
D7FB
331
B56D
  5
B56D
331
D832
  5
D832
331
D83A
  5
D83A
331
D879
  5
D879
331
B575
  5
B575
331
B5BC
  5
B5BC
331
A28E
  5
A28E
331
D803
  5
D803
331
D842
  5
D842
331
B52E
  5
B52E
331
DA75
  5
DA75
331
D881
  5
D881
331
D8C0
  5
D8C0
331
DA3A
  5
DA3A
331
D985
  5
D985
331
D9C4
  5
D9C4
331
D8FF
  5
D8FF
331
D946
  5
D946
331
D889
  5
D889
331
D8C8
  5
D8C8
331
D9FB
  5
D9FB
331
DA03
  5
DA03
331
DA42
  5
DA42
331
D98D
  5
D98D
331
D9CC
  5
D9CC
331
D907
  5
D907
331
D94E
  5
D94E
331
D891
  5
D891
331
D8D0
  5
D8D0
331
D9D4
  5
D9D4
331
DA0B
  5
DA0B
331
D956
  5
D956
331
D8D8
  5
D8D8
331
D90F
  5
D90F
331
D995
  5
D995
331
DA4A
  5
DA4A
331
D899
  5
D899
331
D9DC
  5
D9DC
331
DA13
  5
DA13
331
D95E
  5
D95E
331
D917
  5
D917
331
D99D
  5
D99D
331
DA52
  5
DA52
331
D80B
  5
D80B
331
D84A
  5
D84A
331
B536
  5
B536
331
B57D
  5
B57D
331
B5CC
  5
B5CC
331
D813
  5
D813
331
D852
  5
D852
331
D85A
  5
D85A
331
D81B
  5
D81B
331
B59D
  5
B59D
331
D862
  5
D862
331
B5A5
  5
B5A5
331
B55E
  5
B55E
331
D823
  5
D823
331
D8A1
  5
D8A1
331
D8E0
  5
D8E0
331
DA5A
  5
DA5A
331
D9A5
  5
D9A5
331
D9E4
  5
D9E4
331
D966
  5
D966
331
DA1B
  5
DA1B
331
EAA4
  5
EAAB
331
D8A9
  5
D8A9
331
D8E8
  5
D8E8
331
D91F
  5
D91F
331
DA62
  5
DA62
331
DA23
  5
DA23
331
D9AD
  5
D9AD
331
D927
  5
D927
331
D96E
  5
D96E
331
EAAC
  5
EAAF
331
D8B1
  5
D8B1
331
D8F0
  5
D8F0
331
D9EC
  5
D9EC
331
DA6A
  5
DA6A
331
D9F4
  5
D9F4
331
DA2B
  5
DA2B
331
D8B9
  5
D8B9
331
DA33
  5
DA33
331
D9BD
  5
D9BD
331
D82B
  5
D82B
331
D86A
  5
D86A
331
B566
  5
B566
331
B5AD
  5
B5AD
331
D7F4
  5
D7F4
331
D7FC
  5
D7FC
331
D833
  5
D833
331
B56E
  5
B56E
331
B5B5
  5
B5B5
331
D872
  5
D872
331
D804
  5
D804
331
D83B
  5
D83B
331
B576
  5
B576
331
B5BD
  5
B5BD
331
D87A
  5
D87A
331
B52F
  5
B52F
331
D843
  5
D843
331
D8F8
  5
D8F8
331
DA76
  5
DA76
331
D882
  5
D882
331
D8C1
  5
D8C1
331
D9C5
  5
D9C5
331
D9FC
  5
D9FC
331
D947
  5
D947
331
D8C9
  5
D8C9
331
D900
  5
D900
331
D986
  5
D986
331
D88A
  5
D88A
331
DA43
  5
DA43
331
D9CD
  5
D9CD
331
DA04
  5
DA04
331
D94F
  5
D94F
331
D892
  5
D892
331
D8D1
  5
D8D1
331
D908
  5
D908
331
D98E
  5
D98E
331
DA4B
  5
DA4B
331
D910
  5
D910
331
D996
  5
D996
331
D9D5
  5
D9D5
331
D89A
  5
D89A
331
D8D9
  5
D8D9
331
DA0C
  5
DA0C
331
DA14
  5
DA14
331
DA53
  5
DA53
331
D99E
  5
D99E
331
D9DD
  5
D9DD
331
D95F
  5
D95F
331
D84B
  5
D84B
331
B57E
  5
B57E
331
B5CD
  5
B5CD
331
D853
  5
D853
331
D814
  5
D814
331
D81C
  5
D81C
331
B59E
  5
B59E
331
D85B
  5
D85B
331
D824
  5
D824
331
B55F
  5
B55F
331
B5A6
  5
B5A6
331
D863
  5
D863
331
D918
  5
D918
331
D8A2
  5
D8A2
331
D8E1
  5
D8E1
331
D9E5
  5
D9E5
331
DA1C
  5
DA1C
331
D967
  5
D967
331
D8E9
  5
D8E9
331
D920
  5
D920
331
D9A6
  5
D9A6
331
DA5B
  5
DA5B
331
EAA5
  5
EAAE
331
D8AA
  5
D8AA
331
DA63
  5
DA63
331
D9ED
  5
D9ED
331
DA24
  5
DA24
331
D96F
  5
D96F
331
D8B2
  5
D8B2
331
D8F1
  5
D8F1
331
D928
  5
D928
331
D9AE
  5
D9AE
331
DA6B
  5
DA6B
331
D9F5
  5
D9F5
331
DA2C
  5
DA2C
331
D8BA
  5
D8BA
331
DD8E
  5
DD8E
331
D930
  5
D930
331
DA34
  5
DA34
331
D9BE
  5
D9BE
331
D86B
  5
D86B
331
D7F5
  5
D7F5
331
D82C
  5
D82C
331
B567
  5
B567
331
B5AE
  5
B5AE
331
D873
  5
D873
331
B5B6
  5
B5B6
331
D7FD
  5
D7FD
331
B56F
  5
B56F
331
D834
  5
D834
331
D83C
  5
D83C
331
D87B
  5
D87B
331
B577
  5
B577
331
B5BE
  5
B5BE
331
D805
  5
D805
331
D844
  5
D844
331
DA77
  5
DA77
331
D883
  5
D883
331
D8C2
  5
D8C2
331
D8F9
  5
D8F9
331
DA3C
  5
DA3C
331
D987
  5
D987
331
D9C6
  5
D9C6
331
D948
  5
D948
331
D88B
  5
D88B
331
D8CA
  5
D8CA
331
D9FD
  5
D9FD
331
DA05
  5
DA05
331
DA44
  5
DA44
331
D98F
  5
D98F
331
D9CE
  5
D9CE
331
D909
  5
D909
331
D950
  5
D950
331
D893
  5
D893
331
DA87
  5
DA87
331
D8D2
  5
D8D2
331
D9D6
  5
D9D6
331
DA0D
  5
DA0D
331
D958
  5
D958
331
D8DA
  5
D8DA
331
D911
  5
D911
331
D997
  5
D997
331
DA4C
  5
DA4C
331
D89B
  5
D89B
331
DA54
  5
DA54
331
D9DE
  5
D9DE
331
DA15
  5
DA15
331
D99F
  5
D99F
331
B530
  5
B530
331
D84C
  5
D84C
331
B540
  5
B540
331
B57F
  5
B57F
331
B5CE
  5
B5CE
331
D815
  5
D815
331
D854
  5
D854
331
D85C
  5
D85C
331
B59F
  5
B59F
331
D81D
  5
D81D
331
B5A7
  5
B5A7
331
D864
  5
D864
331
D960
  5
D960
331
D8A3
  5
D8A3
331
D8E2
  5
D8E2
331
D919
  5
D919
331
DA5C
  5
DA5C
331
D9A7
  5
D9A7
331
D9E6
  5
D9E6
331
D921
  5
D921
331
D968
  5
D968
331
EAA6
  5
EAB1
331
DCEF
  5
DCEF
331
D8AB
  5
D8AB
331
D8EA
  5
D8EA
331
DA1D
  5
DA1D
331
DA64
  5
DA64
331
D9EE
  5
D9EE
331
DA25
  5
DA25
331
D970
  5
D970
331
D929
  5
D929
331
D9AF
  5
D9AF
331
D8B3
  5
D8B3
331
D8F2
  5
D8F2
331
DA6C
  5
DA6C
331
D9F6
  5
D9F6
331
DA2D
  5
DA2D
331
D931
  5
D931
331
D9B7
  5
D9B7
331
D8BB
  5
D8BB
331
DA35
  5
DA35
331
D9BF
  5
D9BF
331
B560
  5
B560
331
D82D
  5
D82D
331
D86C
  5
D86C
331
B568
  5
B568
331
B5AF
  5
B5AF
331
D7F6
  5
D7F6
331
D7FE
  5
D7FE
331
D835
  5
D835
331
B570
  5
B570
331
B5B7
  5
B5B7
331
D874
  5
D874
331
D87C
  5
D87C
331
D806
  5
D806
331
D83D
  5
D83D
331
B5BF
  5
B5BF
331
D845
  5
D845
331
DA70
  5
DA70
331
D8C3
  5
D8C3
331
D8FA
  5
D8FA
331
DA78
  5
DA78
331
D884
  5
D884
331
D9C7
  5
D9C7
331
D9FE
  5
D9FE
331
D949
  5
D949
331
D8CB
  5
D8CB
331
D988
  5
D988
331
DA3D
  5
DA3D
331
D88C
  5
D88C
331
DA45
  5
DA45
331
D990
  5
D990
331
D9CF
  5
D9CF
331
D951
  5
D951
331
DA06
  5
DA06
331
D894
  5
D894
331
DA88
  5
DA88
331
D8D3
  5
D8D3
331
D90A
  5
D90A
331
DA4D
  5
DA4D
331
D912
  5
D912
331
D998
  5
D998
331
D9D7
  5
D9D7
331
D89C
  5
D89C
331
D8DB
  5
D8DB
331
DA0E
  5
DA0E
331
DA16
  5
DA16
331
DA55
  5
DA55
331
D9DF
  5
D9DF
331
B531
  5
B531
331
B578
  5
B578
331
D84D
  5
D84D
331
B580
  5
B580
331
B5CF
  5
B5CF
331
D80E
  5
D80E
331
D816
  5
D816
331
D855
  5
D855
331
D81E
  5
D81E
331
B5A0
  5
B5A0
331
D85D
  5
D85D
331
D826
  5
D826
331
D865
  5
D865
331
DA90
  5
DA90
331
D9A0
  5
D9A0
331
D91A
  5
D91A
331
D961
  5
D961
331
D8A4
  5
D8A4
331
D8E3
  5
D8E3
331
D9E7
  5
D9E7
331
DA1E
  5
DA1E
331
D969
  5
D969
331
D8EB
  5
D8EB
331
D922
  5
D922
331
D9A8
  5
D9A8
331
DA5D
  5
DA5D
331
EAA7
  5
EAA2
331
D8AC
  5
D8AC
331
DCF0
  5
DCF0
331
DA65
  5
DA65
331
D9EF
  5
D9EF
331
DA26
  5
DA26
331
D971
  5
D971
331
D8B4
  5
D8B4
331
D8F3
  5
D8F3
331
D92A
  5
D92A
331
D9B0
  5
D9B0
331
DA6D
  5
DA6D
331
D9B8
  5
D9B8
331
D8BC
  5
D8BC
331
D9F7
  5
D9F7
331
DA2E
  5
DA2E
331
DA36
  5
DA36
331
B561
  5
B561
331
B5A8
  5
B5A8
331
D86D
  5
D86D
331
D7F7
  5
D7F7
331
B569
  5
B569
331
D82E
  5
D82E
331
D875
  5
D875
331
B5B8
  5
B5B8
331
D7FF
  5
D7FF
331
B571
  5
B571
331
D836
  5
D836
331
D83E
  5
D83E
331
D87D
  5
D87D
331
D807
  5
D807
331
D846
  5
D846
331
DEB0
  5
DEB0
331
DA71
  5
DA71
331
D9C0
  5
D9C0
331
D942
  5
D942
331
DA79
  5
DA79
331
D885
  5
D885
331
D8C4
  5
D8C4
331
D8FB
  5
D8FB
331
D9FF
  5
D9FF
331
DA3E
  5
DA3E
331
D989
  5
D989
331
D9C8
  5
D9C8
331
D903
  5
D903
331
D94A
  5
D94A
331
D88D
  5
D88D
331
D8CC
  5
D8CC
331
DA07
  5
DA07
331
DA46
  5
DA46
331
D991
  5
D991
331
D9D0
  5
D9D0
331
D8D4
  5
D8D4
331
D90B
  5
D90B
331
D895
  5
D895
331
D952
  5
D952
331
D9D8
  5
D9D8
331
DA0F
  5
DA0F
331
D95A
  5
D95A
331
D8DC
  5
D8DC
331
D913
  5
D913
331
D999
  5
D999
331
DA4E
  5
DA4E
331
D89D
  5
D89D
331
DA56
  5
DA56
331
DA17
  5
DA17
331
B532
  5
B532
331
B579
  5
B579
331
B5C8
  5
B5C8
331
D80F
  5
D80F
331
D84E
  5
D84E
331
B581
  5
B581
331
B5D0
  5
B5D0
331
D817
  5
D817
331
B599
  5
B599
331
D856
  5
D856
331
D85E
  5
D85E
331
B5A1
  5
B5A1
331
D81F
  5
D81F
331
D827
  5
D827
331
D866
  5
D866
331
DA91
  5
DA91
331
D9A1
  5
D9A1
331
D9E0
  5
D9E0
331
D8A5
  5
D8A5
331
D8E4
  5
D8E4
331
D91B
  5
D91B
331
DA5E
  5
DA5E
331
D9A9
  5
D9A9
331
D923
  5
D923
331
D96A
  5
D96A
331
D8AD
  5
D8AD
331
DCF1
  5
DCF1
331
D8EC
  5
D8EC
331
D9E8
  5
D9E8
331
DA1F
  5
DA1F
331
DA66
  5
DA66
331
D9F0
  5
D9F0
331
DA27
  5
DA27
331
D972
  5
D972
331
D92B
  5
D92B
331
D9B1
  5
D9B1
331
D8B5
  5
D8B5
331
D8F4
  5
D8F4
331
DA6E
  5
DA6E
331
DA2F
  5
DA2F
331
D9B9
  5
D9B9
331
D8BD
  5
D8BD
331
DA37
  5
DA37
331
B5A9
  5
B5A9
331
D7F0
  5
D7F0
331
B562
  5
B562
331
D82F
  5
D82F
331
D86E
  5
D86E
331
B56A
  5
B56A
331
D7F8
  5
D7F8
331
D800
  5
D800
331
D837
  5
D837
331
B572
  5
B572
331
B5B9
  5
B5B9
331
D876
  5
D876
331
D87E
  5
D87E
331
D83F
  5
D83F
331
D847
  5
D847
331
DA72
  5
DA72
331
D9F8
  5
D9F8
331
D943
  5
D943
331
D8C5
  5
D8C5
331
D8FC
  5
D8FC
331
DA7A
  5
DA7A
331
D886
  5
D886
331
D9C1
  5
D9C1
331
D9C9
  5
D9C9
331
DA00
  5
DA00
331
D94B
  5
D94B
331
D8CD
  5
D8CD
331
D904
  5
D904
331
D98A
  5
D98A
331
DA3F
  5
DA3F
331
D88E
  5
D88E
331
DA47
  5
DA47
331
D992
  5
D992
331
D9D1
  5
D9D1
331
D953
  5
D953
331
DA08
  5
DA08
331
D896
  5
D896
331
D8D5
  5
D8D5
331
D90C
  5
D90C
331
DA10
  5
DA10
331
DA4F
  5
DA4F
331
D99A
  5
D99A
331
D9D9
  5
D9D9
331
D914
  5
D914
331
D95B
  5
D95B
331
D89E
  5
D89E
331
D8DD
  5
D8DD
331
DA57
  5
DA57
331
B5C9
  5
B5C9
331
D808
  5
D808
331
B533
  5
B533
331
B57A
  5
B57A
331
D84F
  5
D84F
331
B582
  5
B582
331
B5D1
  5
B5D1
331
D818
  5
D818
331
D857
  5
D857
331
B54B
  5
B54B
331
B59A
  5
B59A
331
B5F1
  5
B5F1
331
D820
  5
D820
331
B5A2
  5
B5A2
331
D85F
  5
D85F
331
D867
  5
D867
331
DA18
  5
DA18
331
D9A2
  5
D9A2
331
D9E1
  5
D9E1
331
D8E5
  5
D8E5
331
D91C
  5
D91C
331
EAA1
  5
EAA1
331
D8A6
  5
D8A6
331
D963
  5
D963
331
D9E9
  5
D9E9
331
DA20
  5
DA20
331
D96B
  5
D96B
331
D8ED
  5
D8ED
331
D9AA
  5
D9AA
331
DA5F
  5
DA5F
331
EAA9
  5
EAA5
331
D8AE
  5
D8AE
331
DCF2
  5
DCF2
331
DA67
  5
DA67
331
D9B2
  5
D9B2
331
D9F1
  5
D9F1
331
D973
  5
D973
331
DA28
  5
DA28
331
D8B6
  5
D8B6
331
D92C
  5
D92C
331
DA6F
  5
DA6F
331
D9BA
  5
D9BA
331
D8BE
  5
D8BE
331
DA30
  5
DA30
331
D7F1
  5
D7F1
331
D828
  5
D828
331
B563
  5
B563
331
B5AA
  5
B5AA
331
D86F
  5
D86F
331
B5B2
  5
B5B2
331
D7F9
  5
D7F9
331
B56B
  5
B56B
331
D830
  5
D830
331
D838
  5
D838
331
D877
  5
D877
331
B5BA
  5
B5BA
331
D801
  5
D801
331
B573
  5
B573
331
D840
  5
D840
331
B5C2
  5
B5C2
331
D87F
  5
D87F
331
DA73
  5
DA73
331
DA38
  5
DA38
331
D983
  5
D983
331
D9C2
  5
D9C2
331
D944
  5
D944
331
D9F9
  5
D9F9
331
D887
  5
D887
331
DECA
  5
DECA
331
D8C6
  5
D8C6
331
D8FD
  5
D8FD
331
DA01
  5
DA01
331
DA40
  5
DA40
331
D98B
  5
D98B
331
D9CA
  5
D9CA
331
D905
  5
D905
331
D94C
  5
D94C
331
D88F
  5
D88F
331
D8CE
  5
D8CE
331
DA09
  5
DA09
331
DA48
  5
DA48
331
D954
  5
D954
331
D8D6
  5
D8D6
331
D90D
  5
D90D
331
D993
  5
D993
331
D897
  5
D897
331
D9D2
  5
D9D2
331
D9DA
  5
D9DA
331
DA11
  5
DA11
331
D95C
  5
D95C
331
D8DE
  5
D8DE
331
D915
  5
D915
331
D99B
  5
D99B
331
DA50
  5
DA50
331
D89F
  5
D89F
331
D809
  5
D809
331
D848
  5
D848
331
B534
  5
B534
331
B57B
  5
B57B
331
B5CA
  5
B5CA
331
D850
  5
D850
331
B5F2
  5
B5F2
331
D819
  5
D819
331
B54C
  5
B54C
331
B59B
  5
B59B
331
D858
  5
D858
331
D860
  5
D860
331
B55C
  5
B55C
331
D821
  5
D821
331
DA58
  5
DA58
331
D9A3
  5
D9A3
331
D9E2
  5
D9E2
331
D964
  5
D964
331
DA19
  5
DA19
331
EAA2
  5
EAA4
331
D8A7
  5
D8A7
331
D8E6
  5
D8E6
331
D91D
  5
D91D
331
DA21
  5
DA21
331
D9AB
  5
D9AB
331
D925
  5
D925
331
D96C
  5
D96C
331
EAAA
  5
EAA9
331
D8AF
  5
D8AF
331
D8EE
  5
D8EE
331
D9EA
  5
D9EA
331
DA60
  5
DA60
331
DA68
  5
DA68
331
D9F2
  5
D9F2
331
DA29
  5
DA29
331
D974
  5
D974
331
D92D
  5
D92D
331
D9B3
  5
D9B3
331
D8B7
  5
D8B7
331
DA31
  5
DA31
331
D9BB
  5
D9BB
331
D8BF
  5
D8BF
331
D829
  5
D829
331
D868
  5
D868
331
B564
  5
B564
331
B5AB
  5
B5AB
331
D7F2
  5
D7F2
331
D831
  5
D831
331
D870
  5
D870
331
B56C
  5
B56C
331
B5B3
  5
B5B3
331
D7FA
  5
D7FA
331
D802
  5
D802
331
D839
  5
D839
331
A28D
  5
A28D
331
B574
  5
B574
331
B5BB
  5
B5BB
331
D878
  5
D878
331
B52D
  5
B52D
331
D841
  5
D841
331
DA74
  5
DA74
331
D880
  5
D880
331
D9C3
  5
D9C3
331
D9FA
  5
D9FA
331
D945
  5
D945
331
D8C7
  5
D8C7
331
D8FE
  5
D8FE
331
D984
  5
D984
331
DA39
  5
DA39
331
D888
  5
D888
331
D9CB
  5
D9CB
331
DA02
  5
DA02
331
D94D
  5
D94D
331
D890
  5
D890
331
D8CF
  5
D8CF
331
D906
  5
D906
331
D98C
  5
D98C
331
DA41
  5
DA41
331
DA49
  5
DA49
331
D994
  5
D994
331
D9D3
  5
D9D3
331
D955
  5
D955
331
DA0A
  5
DA0A
331
D898
  5
D898
331
D8D7
  5
D8D7
331
D90E
  5
D90E
331
DA12
  5
DA12
331
DA51
  5
DA51
331
D99C
  5
D99C
331
D9DB
  5
D9DB
331
D916
  5
D916
331
D95D
  5
D95D
331
D8DF
  5
D8DF
331
D849
  5
D849
331
B5CB
  5
B5CB
331
D80A
  5
D80A
331
B535
  5
B535
331
B57C
  5
B57C
331
D851
  5
D851
331
D812
  5
D812
331
D81A
  5
D81A
331
D859
  5
D859
331
B54D
  5
B54D
331
B59C
  5
B59C
331
B5F3
  5
B5F3
331
B55D
  5
B55D
331
D822
  5
D822
331
D861
  5
D861
  0
XRECORD
  5
3D91
102
{ACAD_REACTORS
330
3D20
102
}
330
3D20
100
AcDbXrecord
280
     1
340
1A
  0
SORTENTSTABLE
  5
69B9
102
{ACAD_REACTORS
330
69B8
102
}
330
69B8
100
AcDbSortentsTable
330
69B7
  0
SORTENTSTABLE
  5
69CD
102
{ACAD_REACTORS
330
69CC
102
}
330
69CC
100
AcDbSortentsTable
330
69CB
  0
GROUP
  5
4143
102
{ACAD_REACTORS
330
D
102
}
330
D
100
AcDbGroup
300

 70
     1
 71
     1
  0
GROUP
  5
4378
102
{ACAD_REACTORS
330
D
102
}
330
D
100
AcDbGroup
300

 70
     1
 71
     1
  0
GROUP
  5
43BF
102
{ACAD_REACTORS
330
D
102
}
330
D
100
AcDbGroup
300

 70
     1
 71
     1
  0
GROUP
  5
423A
102
{ACAD_REACTORS
330
D
102
}
330
D
100
AcDbGroup
300

 70
     1
 71
     1
  0
GROUP
  5
414C
102
{ACAD_REACTORS
330
D
102
}
330
D
100
AcDbGroup
300

 70
     1
 71
     1
  0
GROUP
  5
579E
102
{ACAD_REACTORS
330
D
102
}
330
D
100
AcDbGroup
300

 70
     1
 71
     1
  0
GROUP
  5
4235
102
{ACAD_REACTORS
330
D
102
}
330
D
100
AcDbGroup
300

 70
     1
 71
     1
  0
GROUP
  5
437C
102
{ACAD_REACTORS
330
D
102
}
330
D
100
AcDbGroup
300

 70
     1
 71
     1
  0
GROUP
  5
414F
102
{ACAD_REACTORS
330
D
102
}
330
D
100
AcDbGroup
300

 70
     1
 71
     1
  0
GROUP
  5
437E
102
{ACAD_REACTORS
330
D
102
}
330
D
100
AcDbGroup
300

 70
     1
 71
     1
  0
GROUP
  5
4149
102
{ACAD_REACTORS
330
D
102
}
330
D
100
AcDbGroup
300

 70
     1
 71
     1
  0
GROUP
  5
4241
102
{ACAD_REACTORS
330
D
102
}
330
D
100
AcDbGroup
300

 70
     1
 71
     1
  0
GROUP
  5
4239
102
{ACAD_REACTORS
330
D
102
}
330
D
100
AcDbGroup
300

 70
     1
 71
     1
  0
GROUP
  5
4237
102
{ACAD_REACTORS
330
D
102
}
330
D
100
AcDbGroup
300

 70
     1
 71
     1
  0
GROUP
  5
423C
102
{ACAD_REACTORS
330
D
102
}
330
D
100
AcDbGroup
300

 70
     1
 71
     1
  0
GROUP
  5
43B6
102
{ACAD_REACTORS
330
D
102
}
330
D
100
AcDbGroup
300

 70
     1
 71
     1
  0
GROUP
  5
423B
102
{ACAD_REACTORS
330
D
102
}
330
D
100
AcDbGroup
300

 70
     1
 71
     1
  0
GROUP
  5
43B8
102
{ACAD_REACTORS
330
D
102
}
330
D
100
AcDbGroup
300

 70
     1
 71
     1
  0
GROUP
  5
576A
102
{ACAD_REACTORS
330
D
102
}
330
D
100
AcDbGroup
300

 70
     1
 71
     1
  0
GROUP
  5
4240
102
{ACAD_REACTORS
330
D
102
}
330
D
100
AcDbGroup
300

 70
     1
 71
     1
  0
GROUP
  5
423E
102
{ACAD_REACTORS
330
D
102
}
330
D
100
AcDbGroup
300

 70
     1
 71
     1
  0
GROUP
  5
4374
102
{ACAD_REACTORS
330
D
102
}
330
D
100
AcDbGroup
300

 70
     1
 71
     1
  0
GROUP
  5
43BB
102
{ACAD_REACTORS
330
D
102
}
330
D
100
AcDbGroup
300

 70
     1
 71
     1
  0
GROUP
  5
4373
102
{ACAD_REACTORS
330
D
102
}
330
D
100
AcDbGroup
300

 70
     1
 71
     1
  0
GROUP
  5
43BD
102
{ACAD_REACTORS
330
D
102
}
330
D
100
AcDbGroup
300

 70
     1
 71
     1
  0
GROUP
  5
4236
102
{ACAD_REACTORS
330
D
102
}
330
D
100
AcDbGroup
300

 70
     1
 71
     1
  0
GROUP
  5
4377
102
{ACAD_REACTORS
330
D
102
}
330
D
100
AcDbGroup
300

 70
     1
 71
     1
  0
GROUP
  5
4145
102
{ACAD_REACTORS
330
D
102
}
330
D
100
AcDbGroup
300

 70
     1
 71
     1
  0
GROUP
  5
437A
102
{ACAD_REACTORS
330
D
102
}
330
D
100
AcDbGroup
300

 70
     1
 71
     1
  0
GROUP
  5
4379
102
{ACAD_REACTORS
330
D
102
}
330
D
100
AcDbGroup
300

 70
     1
 71
     1
  0
GROUP
  5
43C1
102
{ACAD_REACTORS
330
D
102
}
330
D
100
AcDbGroup
300

 70
     1
 71
     1
  0
GROUP
  5
423D
102
{ACAD_REACTORS
330
D
102
}
330
D
100
AcDbGroup
300

 70
     1
 71
     1
  0
GROUP
  5
437D
102
{ACAD_REACTORS
330
D
102
}
330
D
100
AcDbGroup
300

 70
     1
 71
     1
  0
GROUP
  5
414D
102
{ACAD_REACTORS
330
D
102
}
330
D
100
AcDbGroup
300

 70
     1
 71
     1
  0
GROUP
  5
4146
102
{ACAD_REACTORS
330
D
102
}
330
D
100
AcDbGroup
300

 70
     1
 71
     1
  0
GROUP
  5
437F
102
{ACAD_REACTORS
330
D
102
}
330
D
100
AcDbGroup
300

 70
     1
 71
     1
  0
GROUP
  5
414B
102
{ACAD_REACTORS
330
D
102
}
330
D
100
AcDbGroup
300

 70
     1
 71
     1
  0
GROUP
  5
4375
102
{ACAD_REACTORS
330
D
102
}
330
D
100
AcDbGroup
300

 70
     1
 71
     1
  0
GROUP
  5
43B7
102
{ACAD_REACTORS
330
D
102
}
330
D
100
AcDbGroup
300

 70
     1
 71
     1
  0
GROUP
  5
414E
102
{ACAD_REACTORS
330
D
102
}
330
D
100
AcDbGroup
300

 70
     1
 71
     1
  0
GROUP
  5
43B9
102
{ACAD_REACTORS
330
D
102
}
330
D
100
AcDbGroup
300

 70
     1
 71
     1
  0
GROUP
  5
57D9
102
{ACAD_REACTORS
330
D
102
}
330
D
100
AcDbGroup
300

 70
     1
 71
     1
  0
GROUP
  5
437B
102
{ACAD_REACTORS
330
D
102
}
330
D
100
AcDbGroup
300

 70
     1
 71
     1
  0
GROUP
  5
43BC
102
{ACAD_REACTORS
330
D
102
}
330
D
100
AcDbGroup
300

 70
     1
 71
     1
  0
GROUP
  5
4144
102
{ACAD_REACTORS
330
D
102
}
330
D
100
AcDbGroup
300

 70
     1
 71
     1
  0
GROUP
  5
43BE
102
{ACAD_REACTORS
330
D
102
}
330
D
100
AcDbGroup
300

 70
     1
 71
     1
  0
GROUP
  5
4238
102
{ACAD_REACTORS
330
D
102
}
330
D
100
AcDbGroup
300

 70
     1
 71
     1
  0
GROUP
  5
43B5
102
{ACAD_REACTORS
330
D
102
}
330
D
100
AcDbGroup
300

 70
     1
 71
     1
  0
GROUP
  5
43C0
102
{ACAD_REACTORS
330
D
102
}
330
D
100
AcDbGroup
300

 70
     1
 71
     1
  0
GROUP
  5
4148
102
{ACAD_REACTORS
330
D
102
}
330
D
100
AcDbGroup
300

 70
     1
 71
     1
  0
GROUP
  5
423F
102
{ACAD_REACTORS
330
D
102
}
330
D
100
AcDbGroup
300

 70
     1
 71
     1
  0
GROUP
  5
43BA
102
{ACAD_REACTORS
330
D
102
}
330
D
100
AcDbGroup
300

 70
     1
 71
     1
  0
GROUP
  5
414A
102
{ACAD_REACTORS
330
D
102
}
330
D
100
AcDbGroup
300

 70
     1
 71
     1
  0
GROUP
  5
5691
102
{ACAD_REACTORS
330
D
102
}
330
D
100
AcDbGroup
300

 70
     1
 71
     1
  0
GROUP
  5
4376
102
{ACAD_REACTORS
330
D
102
}
330
D
100
AcDbGroup
300

 70
     1
 71
     1
  0
GROUP
  5
4147
102
{ACAD_REACTORS
330
D
102
}
330
D
100
AcDbGroup
300

 70
     1
 71
     1
  0
LAYOUT
  5
21
102
{ACAD_XDICTIONARY
360
EAD8
102
}
102
{ACAD_REACTORS
330
19
102
}
330
19
100
AcDbPlotSettings
  1

  2
HP 2200
  4

  6

 40
0.0
 41
0.0
 42
0.0
 43
0.0
 44
0.0
 45
0.0
 46
0.0
 47
0.0
 48
0.0
 49
0.0
140
0.0
141
0.0
142
1.0
143
1.0
 70
  1712
 72
     0
 73
     0
 74
     0
  7
AAA.ctb
 75
     0
147
1.0
148
0.0
149
0.0
100
AcDbLayout
  1
Model
 70
     1
 71
     0
 10
0.0
 20
0.0
 11
12.0
 21
9.0
 12
0.0
 22
0.0
 32
0.0
 14
0.0
 24
0.0
 34
0.0
 15
0.0
 25
0.0
 35
0.0
146
0.0
 13
0.0
 23
0.0
 33
0.0
 16
1.0
 26
0.0
 36
0.0
 17
0.0
 27
1.0
 37
0.0
 76
     0
330
1E
  0
LAYOUT
  5
1D
102
{ACAD_XDICTIONARY
360
EAD6
102
}
102
{ACAD_REACTORS
330
19
102
}
330
19
100
AcDbPlotSettings
  1

  2
HP 2200
  4

  6

 40
0.0
 41
0.0
 42
0.0
 43
0.0
 44
0.0
 45
0.0
 46
0.0
 47
0.0
 48
0.0
 49
0.0
140
0.0
141
0.0
142
1.0
143
1.0
 70
   688
 72
     0
 73
     0
 74
     5
  7
AAA.ctb
 75
    16
147
1.0
148
0.0
149
0.0
100
AcDbLayout
  1
配置1
 70
     0
 71
     1
 10
0.0
 20
0.0
 11
12.0
 21
9.0
 12
0.0
 22
0.0
 32
0.0
 14
1.000000000000000E+20
 24
1.000000000000000E+20
 34
1.000000000000000E+20
 15
-1.000000000000000E+20
 25
-1.000000000000000E+20
 35
-1.000000000000000E+20
146
0.0
 13
0.0
 23
0.0
 33
0.0
 16
1.0
 26
0.0
 36
0.0
 17
0.0
 27
1.0
 37
0.0
 76
     0
330
1A
  0
MLINESTYLE
  5
17
102
{ACAD_REACTORS
330
16
102
}
330
16
100
AcDbMlineStyle
  2
STANDARD
 70
     0
  3

 62
   256
 51
90.0
 52
90.0
 71
     2
 49
0.5
 62
   256
  6
BYLAYER
 49
-0.5
 62
   256
  6
BYLAYER
  0
PLOTSETTINGS
  5
4150
102
{ACAD_XDICTIONARY
360
EADA
102
}
102
{ACAD_REACTORS
330
18
102
}
330
18
100
AcDbPlotSettings
  1
LANSRO
  2
\\1260\HP2200
  4
A4
  6

 40
6.043083190917968
 41
6.762742042541503
 42
7.736419677734375
 43
5.027069091796875
 44
209.9733276367187
 45
296.9683227539062
 46
5.15
 47
0.0
 48
0.0
 49
0.0
140
0.0
141
0.0
142
1.0
143
0.8829829263240881
 70
  1716
 72
     1
 73
     1
 74
     0
  7
AAA.ctb
 75
     0
147
1.132524729739748
148
-132.297014905803
149
-71.78507365635891
  0
ACDBPLACEHOLDER
  5
F
102
{ACAD_REACTORS
330
E
102
}
330
E
  0
ACAD_PROXY_OBJECT
  5
E7A4
102
{ACAD_REACTORS
330
E7A3
102
}
330
E7A3
100
AcDbProxyObject
 90
      499
 91
      514
 95
   983063
 70
     0
 93
     1841
310
4214DD185B99185C9928B81E85EB51B8AE3F2E07A17AD46E2B8FC02B5E8DC0F42B1CFD028000000C1008070000C3001FDFF8000000C1003FBFF000000182007F7FE00000030400FEFFC00000060801FDFF8000000C1003FBFF00000018200000000000000681FA0B0000001820100E000186003FBFF000000182007F7FE000
310
00030400FEFFC00000060801FDFF8000000C1003FBFF000000182007F7FE000000304000AD7A3703D0AC73F4160000003040201C00030C007F7FE00000030400FEFFC00000060801FDFF8000000C1003FBFF000000182007F7FE00000030400FEFFC00000060805A
340
11
340
11
340
11
 94
        0
1001
ACAD
1000
AcRTDxfName
1000
TABLESTYLE
  0
XRECORD
  5
EAD5
102
{ACAD_REACTORS
330
EAD3
102
}
330
EAD3
100
AcDbXrecord
280
     1
340
3D97
  0
XRECORD
  5
EAD4
102
{ACAD_REACTORS
330
EAD3
102
}
330
EAD3
100
AcDbXrecord
280
     1
340
3D96
  0
DICTIONARYVAR
  5
E8F8
102
{ACAD_REACTORS
330
3E63
102
}
330
3E63
100
DictionaryVariables
280
     0
  1
STANDARD
  0
DICTIONARYVAR
  5
3E64
102
{ACAD_REACTORS
330
3E63
102
}
330
3E63
100
DictionaryVariables
280
     0
  1
1
  0
DICTIONARYVAR
  5
3E65
102
{ACAD_REACTORS
330
3E63
102
}
330
3E63
100
DictionaryVariables
280
     0
  1

  0
DICTIONARY
  5
EAD8
330
21
100
AcDbDictionary
280
     1
281
     1
  3
ACAD_XREC_ROUNDTRIP
360
EAD9
  0
DICTIONARY
  5
EAD6
330
1D
100
AcDbDictionary
280
     1
281
     1
  3
ACAD_XREC_ROUNDTRIP
360
EAD7
  0
DICTIONARY
  5
EADA
330
4150
100
AcDbDictionary
280
     1
281
     1
  3
ACAD_XREC_ROUNDTRIP
360
EADB
  0
XRECORD
  5
EAD9
102
{ACAD_REACTORS
330
EAD8
102
}
330
EAD8
100
AcDbXrecord
280
     1
102
SHADEPLOT
 70
     0
102
SHADEPLOTRESLEVEL
 70
     2
102
SHADEPLOTCUSTOMDPI
 70
   300
  0
XRECORD
  5
EAD7
102
{ACAD_REACTORS
330
EAD6
102
}
330
EAD6
100
AcDbXrecord
280
     1
102
SHADEPLOT
 70
     0
102
SHADEPLOTRESLEVEL
 70
     2
102
SHADEPLOTCUSTOMDPI
 70
   300
  0
XRECORD
  5
EADB
102
{ACAD_REACTORS
330
EADA
102
}
330
EADA
100
AcDbXrecord
280
     1
102
SHADEPLOT
 70
     0
102
SHADEPLOTRESLEVEL
 70
     2
102
SHADEPLOTCUSTOMDPI
 70
   300
  0
ENDSEC
  0
EOF
