  0
SECTION
  2
HEADER
  9
$ACADVER
  1
AC1015
  9
$ACADMAINTVER
 70
    20
  9
$DWGCODEPAGE
  3
ANSI_950
  9
$INSBASE
 10
0.0
 20
0.0
 30
0.0
  9
$EXTMIN
 10
-240.4625339584609
 20
-2007.279225524895
 30
0.0
  9
$EXTMAX
 10
1240.204545962636
 20
-1403.696215262503
 30
0.0
  9
$LIMMIN
 10
0.0
 20
0.0
  9
$LIMMAX
 10
420.0
 20
297.0
  9
$ORTHOMODE
 70
     1
  9
$REGENMODE
 70
     1
  9
$FILLMODE
 70
     1
  9
$QTEXTMODE
 70
     0
  9
$MIRRTEXT
 70
     0
  9
$LTSCALE
 40
2.0
  9
$ATTMODE
 70
     1
  9
$TEXTSIZE
 40
5.0
  9
$TRACEWID
 40
1.0
  9
$TEXTSTYLE
  7
型式2
  9
$CLAYER
  8
0
  9
$CELTYPE
  6
ByLayer
  9
$CECOLOR
 62
   256
  9
$CELTSCALE
 40
0.27
  9
$DISPSILH
 70
     0
  9
$DIMSCALE
 40
2.0
  9
$DIMASZ
 40
2.399999999999999
  9
$DIMEXO
 40
0.7
  9
$DIMDLI
 40
3.2
  9
$DIMRND
 40
0.0
  9
$DIMDLE
 40
0.0
  9
$DIMEXE
 40
0.7
  9
$DIMTP
 40
0.0
  9
$DIMTM
 40
0.0
  9
$DIMTXT
 40
2.5
  9
$DIMCEN
 40
2.5
  9
$DIMTSZ
 40
0.0
  9
$DIMTOL
 70
     0
  9
$DIMLIM
 70
     0
  9
$DIMTIH
 70
     0
  9
$DIMTOH
 70
     0
  9
$DIMSE1
 70
     0
  9
$DIMSE2
 70
     0
  9
$DIMTAD
 70
     1
  9
$DIMZIN
 70
     8
  9
$DIMBLK
  1

  9
$DIMASO
 70
     1
  9
$DIMSHO
 70
     1
  9
$DIMPOST
  1

  9
$DIMAPOST
  1

  9
$DIMALT
 70
     0
  9
$DIMALTD
 70
     3
  9
$DIMALTF
 40
0.03937007874016
  9
$DIMLFAC
 40
1.0
  9
$DIMTOFL
 70
     1
  9
$DIMTVP
 40
0.0
  9
$DIMTIX
 70
     0
  9
$DIMSOXD
 70
     0
  9
$DIMSAH
 70
     0
  9
$DIMBLK1
  1

  9
$DIMBLK2
  1

  9
$DIMSTYLE
  2
ISO-25
  9
$DIMCLRD
 70
   256
  9
$DIMCLRE
 70
   256
  9
$DIMCLRT
 70
   256
  9
$DIMTFAC
 40
1.0
  9
$DIMGAP
 40
0.7
  9
$DIMJUST
 70
     0
  9
$DIMSD1
 70
     0
  9
$DIMSD2
 70
     0
  9
$DIMTOLJ
 70
     0
  9
$DIMTZIN
 70
     8
  9
$DIMALTZ
 70
     0
  9
$DIMALTTZ
 70
     0
  9
$DIMUPT
 70
     0
  9
$DIMDEC
 70
     2
  9
$DIMTDEC
 70
     8
  9
$DIMALTU
 70
     2
  9
$DIMALTTD
 70
     3
  9
$DIMTXSTY
  7
Standard
  9
$DIMAUNIT
 70
     0
  9
$DIMADEC
 70
     0
  9
$DIMALTRND
 40
0.0
  9
$DIMAZIN
 70
     0
  9
$DIMDSEP
 70
    46
  9
$DIMATFIT
 70
     3
  9
$DIMFRAC
 70
     0
  9
$DIMLDRBLK
  1

  9
$DIMLUNIT
 70
     2
  9
$DIMLWD
 70
    -2
  9
$DIMLWE
 70
    -2
  9
$DIMTMOVE
 70
     0
  9
$LUNITS
 70
     2
  9
$LUPREC
 70
     4
  9
$SKETCHINC
 40
1.0
  9
$FILLETRAD
 40
0.5
  9
$AUNITS
 70
     0
  9
$AUPREC
 70
     0
  9
$MENU
  1
.
  9
$ELEVATION
 40
0.0
  9
$PELEVATION
 40
0.0
  9
$THICKNESS
 40
0.0
  9
$LIMCHECK
 70
     0
  9
$CHAMFERA
 40
0.0
  9
$CHAMFERB
 40
0.0
  9
$CHAMFERC
 40
20.0
  9
$CHAMFERD
 40
0.0
  9
$SKPOLY
 70
     0
  9
$TDCREATE
 40
2453634.789869607
  9
$TDUCREATE
 40
2453634.456536273
  9
$TDUPDATE
 40
2454042.473971366
  9
$TDUUPDATE
 40
2454042.140638033
  9
$TDINDWG
 40
0.6123195833
  9
$TDUSRTIMER
 40
0.6123193981
  9
$USRTIMER
 70
     1
  9
$ANGBASE
 50
0.0
  9
$ANGDIR
 70
     0
  9
$PDMODE
 70
     0
  9
$PDSIZE
 40
0.0
  9
$PLINEWID
 40
0.0
  9
$SPLFRAME
 70
     0
  9
$SPLINETYPE
 70
     6
  9
$SPLINESEGS
 70
    30
  9
$HANDSEED
  5
20F2D
  9
$SURFTAB1
 70
     6
  9
$SURFTAB2
 70
     6
  9
$SURFTYPE
 70
     6
  9
$SURFU
 70
     6
  9
$SURFV
 70
     6
  9
$UCSBASE
  2

  9
$UCSNAME
  2

  9
$UCSORG
 10
0.0
 20
0.0
 30
0.0
  9
$UCSXDIR
 10
1.0
 20
0.0
 30
0.0
  9
$UCSYDIR
 10
0.0
 20
1.0
 30
0.0
  9
$UCSORTHOREF
  2

  9
$UCSORTHOVIEW
 70
     0
  9
$UCSORGTOP
 10
0.0
 20
0.0
 30
0.0
  9
$UCSORGBOTTOM
 10
0.0
 20
0.0
 30
0.0
  9
$UCSORGLEFT
 10
0.0
 20
0.0
 30
0.0
  9
$UCSORGRIGHT
 10
0.0
 20
0.0
 30
0.0
  9
$UCSORGFRONT
 10
0.0
 20
0.0
 30
0.0
  9
$UCSORGBACK
 10
0.0
 20
0.0
 30
0.0
  9
$PUCSBASE
  2

  9
$PUCSNAME
  2

  9
$PUCSORG
 10
0.0
 20
0.0
 30
0.0
  9
$PUCSXDIR
 10
1.0
 20
0.0
 30
0.0
  9
$PUCSYDIR
 10
0.0
 20
1.0
 30
0.0
  9
$PUCSORTHOREF
  2

  9
$PUCSORTHOVIEW
 70
     0
  9
$PUCSORGTOP
 10
0.0
 20
0.0
 30
0.0
  9
$PUCSORGBOTTOM
 10
0.0
 20
0.0
 30
0.0
  9
$PUCSORGLEFT
 10
0.0
 20
0.0
 30
0.0
  9
$PUCSORGRIGHT
 10
0.0
 20
0.0
 30
0.0
  9
$PUCSORGFRONT
 10
0.0
 20
0.0
 30
0.0
  9
$PUCSORGBACK
 10
0.0
 20
0.0
 30
0.0
  9
$USERI1
 70
     0
  9
$USERI2
 70
     0
  9
$USERI3
 70
     0
  9
$USERI4
 70
     0
  9
$USERI5
 70
     0
  9
$USERR1
 40
0.0
  9
$USERR2
 40
0.0
  9
$USERR3
 40
0.0
  9
$USERR4
 40
0.0
  9
$USERR5
 40
0.0
  9
$WORLDVIEW
 70
     1
  9
$SHADEDGE
 70
     3
  9
$SHADEDIF
 70
    70
  9
$TILEMODE
 70
     1
  9
$MAXACTVP
 70
    64
  9
$PINSBASE
 10
0.0
 20
0.0
 30
0.0
  9
$PLIMCHECK
 70
     0
  9
$PEXTMIN
 10
1.000000000000000E+20
 20
1.000000000000000E+20
 30
1.000000000000000E+20
  9
$PEXTMAX
 10
-1.000000000000000E+20
 20
-1.000000000000000E+20
 30
-1.000000000000000E+20
  9
$PLIMMIN
 10
0.0
 20
0.0
  9
$PLIMMAX
 10
420.0
 20
297.0
  9
$UNITMODE
 70
     0
  9
$VISRETAIN
 70
     1
  9
$PLINEGEN
 70
     0
  9
$PSLTSCALE
 70
     1
  9
$TREEDEPTH
 70
  3020
  9
$CMLSTYLE
  2
Standard
  9
$CMLJUST
 70
     0
  9
$CMLSCALE
 40
20.0
  9
$PROXYGRAPHICS
 70
     1
  9
$MEASUREMENT
 70
     1
  9
$CELWEIGHT
370
    -1
  9
$ENDCAPS
280
     0
  9
$JOINSTYLE
280
     0
  9
$LWDISPLAY
290
     0
  9
$INSUNITS
 70
     4
  9
$HYPERLINKBASE
  1

  9
$STYLESHEET
  1
aclt.ctb
  9
$XEDIT
290
     1
  9
$CEPSNTYPE
380
     0
  9
$PSTYLEMODE
290
     1
  9
$FINGERPRINTGUID
  2
{39E6D4C8-9137-4BAE-85E5-615910EF8948}
  9
$VERSIONGUID
  2
{A2FAF843-0F6C-42F8-A551-255EC36E7B3E}
  9
$EXTNAMES
290
     1
  9
$PSVPSCALE
 40
0.0
  9
$OLESTARTUP
290
     0
  0
ENDSEC
  0
SECTION
  2
CLASSES
  0
CLASS
  1
ACDBDICTIONARYWDFLT
  2
AcDbDictionaryWithDefault
  3
ObjectDBX Classes
 90
        0
280
     0
281
     0
  0
CLASS
  1
ACDBPLACEHOLDER
  2
AcDbPlaceHolder
  3
ObjectDBX Classes
 90
        0
280
     0
281
     0
  0
CLASS
  1
LAYOUT
  2
AcDbLayout
  3
ObjectDBX Classes
 90
        0
280
     0
281
     0
  0
CLASS
  1
DICTIONARYVAR
  2
AcDbDictionaryVar
  3
ObjectDBX Classes
 90
        0
280
     0
281
     0
  0
CLASS
  1
PLOTSETTINGS
  2
AcDbPlotSettings
  3
ObjectDBX Classes
 90
        0
280
     0
281
     0
  0
CLASS
  1
TABLESTYLE
  2
AcDbTableStyle
  3
ObjectDBX Classes
 90
     2047
280
     0
281
     0
  0
CLASS
  1
SORTENTSTABLE
  2
AcDbSortentsTable
  3
ObjectDBX Classes
 90
        0
280
     0
281
     0
  0
ENDSEC
  0
SECTION
  2
TABLES
  0
TABLE
  2
VPORT
  5
8
330
0
100
AcDbSymbolTable
 70
     6
  0
VPORT
  5
20F21
330
8
100
AcDbSymbolTableRecord
100
AcDbViewportTableRecord
  2
*Active
 70
     0
 10
0.0
 20
0.0
 11
1.0
 21
1.0
 12
91.00724685144061
 22
-1511.702292343735
 13
0.0
 23
0.0
 14
10.0
 24
10.0
 15
10.0
 25
10.0
 16
0.0
 26
0.0
 36
1.0
 17
0.0
 27
0.0
 37
0.0
 40
290.1440983306306
 41
1.530456852791878
 42
50.0
 43
0.0
 44
0.0
 50
0.0
 51
0.0
 71
     0
 72
 20000
 73
     1
 74
     0
 75
     0
 76
     1
 77
     0
 78
     0
281
     0
 65
     1
110
0.0
120
0.0
130
0.0
111
1.0
121
0.0
131
0.0
112
0.0
122
1.0
132
0.0
 79
     0
146
0.0
  0
ENDTAB
  0
TABLE
  2
LTYPE
  5
5
330
0
100
AcDbSymbolTable
 70
     4
  0
LTYPE
  5
14
330
5
100
AcDbSymbolTableRecord
100
AcDbLinetypeTableRecord
  2
ByBlock
 70
     0
  3

 72
    65
 73
     0
 40
0.0
  0
LTYPE
  5
15
330
5
100
AcDbSymbolTableRecord
100
AcDbLinetypeTableRecord
  2
ByLayer
 70
     0
  3

 72
    65
 73
     0
 40
0.0
  0
LTYPE
  5
16
330
5
100
AcDbSymbolTableRecord
100
AcDbLinetypeTableRecord
  2
Continuous
 70
     0
  3
連續線 ________________________
 72
    65
 73
     2
 40
200000.0
 49
200000.0
 74
     0
 49
0.0
 74
     0
  0
LTYPE
  5
AFD
330
5
100
AcDbSymbolTableRecord
100
AcDbLinetypeTableRecord
  2
CENTER2
 70
     0
  3
Center (.5x) ___ _ ___ _ ___ _ ___ _ ___ _ ___
 72
    65
 73
     4
 40
28.575
 49
19.05
 74
     0
 49
-3.174999999999999
 74
     0
 49
3.174999999999999
 74
     0
 49
-3.174999999999999
 74
     0
  0
LTYPE
  5
AFE
330
5
100
AcDbSymbolTableRecord
100
AcDbLinetypeTableRecord
  2
DASHED2
 70
     0
  3
Dashed (.5x) _ _ _ _ _ _ _ _ _ _ _ _ _ _ _ _ _
 72
    65
 73
     2
 40
9.524999999999998
 49
6.349999999999999
 74
     0
 49
-3.174999999999999
 74
     0
  0
LTYPE
  5
AFF
330
5
100
AcDbSymbolTableRecord
100
AcDbLinetypeTableRecord
  2
PHANTOM2
 70
     0
  3
Phantom (.5x) ___ _ _ ___ _ _ ___ _ _ ___ _ _
 72
    65
 73
     6
 40
31.75
 49
15.875
 74
     0
 49
-3.174999999999999
 74
     0
 49
3.174999999999999
 74
     0
 49
-3.174999999999999
 74
     0
 49
3.174999999999999
 74
     0
 49
-3.174999999999999
 74
     0
  0
ENDTAB
  0
TABLE
  2
LAYER
  5
2
102
{ACAD_XDICTIONARY
360
B56
102
}
330
0
100
AcDbSymbolTable
 70
    12
  0
LAYER
  5
10
330
2
100
AcDbSymbolTableRecord
100
AcDbLayerTableRecord
  2
0
 70
     0
 62
     7
  6
Continuous
370
    15
390
F
  0
LAYER
  5
30
330
2
100
AcDbSymbolTableRecord
100
AcDbLayerTableRecord
  2
虛線
 70
     0
 62
     6
  6
DASHED2
370
    13
390
F
  0
LAYER
  5
32
330
2
100
AcDbSymbolTableRecord
100
AcDbLayerTableRecord
  2
標註線
 70
     0
 62
     3
  6
Continuous
370
     9
390
F
  0
LAYER
  5
33
330
2
100
AcDbSymbolTableRecord
100
AcDbLayerTableRecord
  2
文字
 70
     0
 62
     2
  6
Continuous
370
    15
390
F
  0
LAYER
  5
34
330
2
100
AcDbSymbolTableRecord
100
AcDbLayerTableRecord
  2
中心線
 70
     0
 62
     4
  6
CENTER2
370
    15
390
F
  0
LAYER
  5
35
330
2
100
AcDbSymbolTableRecord
100
AcDbLayerTableRecord
  2
圖框
 70
     0
 62
     1
  6
Continuous
370
    35
390
F
  0
LAYER
  5
C67
330
2
100
AcDbSymbolTableRecord
100
AcDbLayerTableRecord
  2
Defpoints
 70
     0
 62
     7
  6
Continuous
290
     0
370
    -3
390
F
  0
LAYER
  5
2A16
330
2
100
AcDbSymbolTableRecord
100
AcDbLayerTableRecord
  2
AM11
 70
     0
 62
     1
  6
PHANTOM2
370
    13
390
F
  0
LAYER
  5
1E3A2
330
2
100
AcDbSymbolTableRecord
100
AcDbLayerTableRecord
  2
假想線
 70
     0
 62
     3
  6
PHANTOM2
370
    15
390
F
  0
LAYER
  5
1E3A3
330
2
100
AcDbSymbolTableRecord
100
AcDbLayerTableRecord
  2
建構線
 70
     0
 62
     1
  6
Continuous
370
    15
390
F
  0
LAYER
  5
1E3A4
330
2
100
AcDbSymbolTableRecord
100
AcDbLayerTableRecord
  2
指線
 70
     0
 62
     3
  6
Continuous
370
    15
390
F
  0
LAYER
  5
1E3A5
330
2
100
AcDbSymbolTableRecord
100
AcDbLayerTableRecord
  2
HIWIN
 70
     0
 62
     7
  6
Continuous
370
    -3
390
F
  0
ENDTAB
  0
TABLE
  2
STYLE
  5
3
330
0
100
AcDbSymbolTable
 70
     8
  0
STYLE
  5
11
330
3
100
AcDbSymbolTableRecord
100
AcDbTextStyleTableRecord
  2
Standard
 70
     0
 40
0.0
 41
1.0
 50
0.0
 71
     0
 42
5.0
  3
isocp.shx
  4
chineset.shx
  0
STYLE
  5
56
330
3
100
AcDbSymbolTableRecord
100
AcDbTextStyleTableRecord
  2
型式1
 70
     0
 40
0.0
 41
1.0
 50
0.0
 71
     0
 42
2.5
  3
PMingLiU.ttf
  4

1001
ACAD
1000
PMingLiU
1071
    34834
  0
STYLE
  5
58
330
3
100
AcDbSymbolTableRecord
100
AcDbTextStyleTableRecord
  2
型式2
 70
     0
 40
0.0
 41
1.0
 50
0.0
 71
     0
 42
5.0
  3
KAIU.TTF
  4

1001
ACAD
1000
DFKai-SB
1071
    34881
  0
STYLE
  5
11FF
330
3
100
AcDbSymbolTableRecord
100
AcDbTextStyleTableRecord
  2
SIMPLEX
 70
     0
 40
0.0
 41
1.0
 50
0.0
 71
     0
 42
2.3
  3
SIMPLEX
  4

  0
STYLE
  5
1200
330
3
100
AcDbSymbolTableRecord
100
AcDbTextStyleTableRecord
  2
COMPLEX
 70
     0
 40
0.0
 41
1.0
 50
0.0
 71
     0
 42
2.3
  3
PMINGLIU
  4
CHINESET
  0
STYLE
  5
1201
330
3
100
AcDbSymbolTableRecord
100
AcDbTextStyleTableRecord
  2
型式I
 70
     0
 40
0.0
 41
1.0
 50
5.0
 71
     0
 42
1.8
  3
KAIU.TTF
  4

1001
ACAD
1000
DFKai-SB
1071
    34881
  0
STYLE
  5
13FD
330
3
100
AcDbSymbolTableRecord
100
AcDbTextStyleTableRecord
  2
ROMANS
 70
     0
 40
0.0
 41
1.0
 50
0.0
 71
     0
 42
6.0
  3
romans
  4

  0
STYLE
  5
1E3A6
330
3
100
AcDbSymbolTableRecord
100
AcDbTextStyleTableRecord
  2
SIMPLEX1
 70
     0
 40
0.0
 41
1.0
 50
0.0
 71
     0
 42
2.5
  3
PMINGLIU
  4
CHINESET
  0
ENDTAB
  0
TABLE
  2
VIEW
  5
6
330
0
100
AcDbSymbolTable
 70
     0
  0
ENDTAB
  0
TABLE
  2
UCS
  5
7
330
0
100
AcDbSymbolTable
 70
     0
  0
ENDTAB
  0
TABLE
  2
APPID
  5
9
330
0
100
AcDbSymbolTable
 70
    38
  0
APPID
  5
12
330
9
100
AcDbSymbolTableRecord
100
AcDbRegAppTableRecord
  2
ACAD
 70
     0
  0
APPID
  5
B4F
330
9
100
AcDbSymbolTableRecord
100
AcDbRegAppTableRecord
  2
partlineartxt_1
 70
     0
  0
APPID
  5
B50
330
9
100
AcDbSymbolTableRecord
100
AcDbRegAppTableRecord
  2
partlineartxt_2
 70
     0
  0
APPID
  5
B51
330
9
100
AcDbSymbolTableRecord
100
AcDbRegAppTableRecord
  2
partlineartxt_3
 70
     0
  0
APPID
  5
B52
330
9
100
AcDbSymbolTableRecord
100
AcDbRegAppTableRecord
  2
partlineartxt_4
 70
     0
  0
APPID
  5
B53
330
9
100
AcDbSymbolTableRecord
100
AcDbRegAppTableRecord
  2
partlineartxt_5
 70
     0
  0
APPID
  5
B54
330
9
100
AcDbSymbolTableRecord
100
AcDbRegAppTableRecord
  2
partlineartxt_6
 70
     0
  0
APPID
  5
B55
330
9
100
AcDbSymbolTableRecord
100
AcDbRegAppTableRecord
  2
partleader2_1
 70
     0
  0
APPID
  5
BF9
330
9
100
AcDbSymbolTableRecord
100
AcDbRegAppTableRecord
  2
CONTENTBLOCKICON
 70
     0
  0
APPID
  5
CA3
330
9
100
AcDbSymbolTableRecord
100
AcDbRegAppTableRecord
  2
TCAD
 70
     0
  0
APPID
  5
CA4
330
9
100
AcDbSymbolTableRecord
100
AcDbRegAppTableRecord
  2
pntflag
 70
     0
  0
APPID
  5
1097
330
9
100
AcDbSymbolTableRecord
100
AcDbRegAppTableRecord
  2
partleader_1
 70
     0
  0
APPID
  5
109A
330
9
100
AcDbSymbolTableRecord
100
AcDbRegAppTableRecord
  2
partgeo_1
 70
     0
  0
APPID
  5
109B
330
9
100
AcDbSymbolTableRecord
100
AcDbRegAppTableRecord
  2
partgeo_2
 70
     0
  0
APPID
  5
109D
330
9
100
AcDbSymbolTableRecord
100
AcDbRegAppTableRecord
  2
boltgbase_1
 70
     0
  0
APPID
  5
109E
330
9
100
AcDbSymbolTableRecord
100
AcDbRegAppTableRecord
  2
boltgbase_2
 70
     0
  0
APPID
  5
109F
330
9
100
AcDbSymbolTableRecord
100
AcDbRegAppTableRecord
  2
boltgbase_3
 70
     0
  0
APPID
  5
12C3
330
9
100
AcDbSymbolTableRecord
100
AcDbRegAppTableRecord
  2
sheetflag
 70
     0
  0
APPID
  5
12C5
330
9
100
AcDbSymbolTableRecord
100
AcDbRegAppTableRecord
  2
sheettxtflag
 70
     0
  0
APPID
  5
12D5
330
9
100
AcDbSymbolTableRecord
100
AcDbRegAppTableRecord
  2
series
 70
     0
  0
APPID
  5
12D6
330
9
100
AcDbSymbolTableRecord
100
AcDbRegAppTableRecord
  2
msize
 70
     0
  0
APPID
  5
12D9
330
9
100
AcDbSymbolTableRecord
100
AcDbRegAppTableRecord
  2
savename
 70
     0
  0
APPID
  5
12DF
330
9
100
AcDbSymbolTableRecord
100
AcDbRegAppTableRecord
  2
sheetnoteflag
 70
     0
  0
APPID
  5
142E
330
9
100
AcDbSymbolTableRecord
100
AcDbRegAppTableRecord
  2
multi_txt
 70
     0
  0
APPID
  5
1454
330
9
100
AcDbSymbolTableRecord
100
AcDbRegAppTableRecord
  2
eview
 70
     0
  0
APPID
  5
1455
330
9
100
AcDbSymbolTableRecord
100
AcDbRegAppTableRecord
  2
handle
 70
     0
  0
APPID
  5
1456
330
9
100
AcDbSymbolTableRecord
100
AcDbRegAppTableRecord
  2
po
 70
     0
  0
APPID
  5
145C
330
9
100
AcDbSymbolTableRecord
100
AcDbRegAppTableRecord
  2
viewe
 70
     0
  0
APPID
  5
145D
330
9
100
AcDbSymbolTableRecord
100
AcDbRegAppTableRecord
  2
str_drawtype
 70
     0
  0
APPID
  5
1654
330
9
100
AcDbSymbolTableRecord
100
AcDbRegAppTableRecord
  2
BLKBOM
 70
     0
  0
APPID
  5
2108
330
9
100
AcDbSymbolTableRecord
100
AcDbRegAppTableRecord
  2
ACAD_PSEXT
 70
     0
  0
APPID
  5
EFB0
330
9
100
AcDbSymbolTableRecord
100
AcDbRegAppTableRecord
  2
ACAD_DSTYLE_DIMFLIPARROW_SYMBOL
 70
     0
  0
APPID
  5
EFB1
330
9
100
AcDbSymbolTableRecord
100
AcDbRegAppTableRecord
  2
ACAD_DSTYLE_DIMFLIPARROW_WHICH_SYMBOL
 70
     0
  0
APPID
  5
1E3A7
330
9
100
AcDbSymbolTableRecord
100
AcDbRegAppTableRecord
  2
partlineartxt_7
 70
     0
  0
APPID
  5
1E3A8
330
9
100
AcDbSymbolTableRecord
100
AcDbRegAppTableRecord
  2
partlineartxt_8
 70
     0
  0
APPID
  5
1E3A9
330
9
100
AcDbSymbolTableRecord
100
AcDbRegAppTableRecord
  2
partlineartxt_9
 70
     0
  0
APPID
  5
1E3AA
330
9
100
AcDbSymbolTableRecord
100
AcDbRegAppTableRecord
  2
partlineartxt_10
 70
     0
  0
APPID
  5
1E3AB
330
9
100
AcDbSymbolTableRecord
100
AcDbRegAppTableRecord
  2
partlineartxt_11
 70
     0
  0
ENDTAB
  0
TABLE
  2
DIMSTYLE
  5
A
330
0
100
AcDbSymbolTable
 70
     2
100
AcDbDimStyleTable
 71
     1
340
27
  0
DIMSTYLE
105
27
330
A
100
AcDbSymbolTableRecord
100
AcDbDimStyleTableRecord
  2
ISO-25
 70
     0
 40
2.0
 41
2.399999999999999
 42
0.7
 43
3.2
 44
0.7
 73
     0
 74
     0
 77
     1
 78
     8
140
2.5
141
2.5
143
0.03937007874016
147
0.7
171
     3
172
     1
176
   256
177
   256
178
   256
271
     2
272
     8
274
     3
283
     0
284
     8
340
11
  0
DIMSTYLE
105
CA2
330
A
100
AcDbSymbolTableRecord
100
AcDbDimStyleTableRecord
  2
Standard
 70
     0
 40
2.0
340
11
  0
ENDTAB
  0
TABLE
  2
BLOCK_RECORD
  5
1
330
0
100
AcDbSymbolTable
 70
    96
  0
BLOCK_RECORD
  5
1F
102
{ACAD_XDICTIONARY
360
37F6
102
}
330
1
100
AcDbSymbolTableRecord
100
AcDbBlockTableRecord
  2
*Model_Space
340
22
  0
BLOCK_RECORD
  5
1B
330
1
100
AcDbSymbolTableRecord
100
AcDbBlockTableRecord
  2
*Paper_Space
340
1E
  0
BLOCK_RECORD
  5
23
330
1
100
AcDbSymbolTableRecord
100
AcDbBlockTableRecord
  2
*Paper_Space0
340
26
  0
BLOCK_RECORD
  5
1202
330
1
100
AcDbSymbolTableRecord
100
AcDbBlockTableRecord
  2
a4hc_HG
340
0
  0
BLOCK_RECORD
  5
13FE
330
1
100
AcDbSymbolTableRecord
100
AcDbBlockTableRecord
  2
f04s
340
0
  0
BLOCK_RECORD
  5
140E
330
1
100
AcDbSymbolTableRecord
100
AcDbBlockTableRecord
  2
f04s1
340
0
  0
BLOCK_RECORD
  5
144C
330
1
100
AcDbSymbolTableRecord
100
AcDbBlockTableRecord
  2
eview
340
0
  0
BLOCK_RECORD
  5
1457
330
1
100
AcDbSymbolTableRecord
100
AcDbBlockTableRecord
  2
viewe
340
0
  0
BLOCK_RECORD
  5
1E1CC
102
{ACAD_XDICTIONARY
360
1E1CD
102
}
330
1
100
AcDbSymbolTableRecord
100
AcDbBlockTableRecord
  2
a4hc_RG
340
0
  0
BLOCK_RECORD
  5
1E382
330
1
100
AcDbSymbolTableRecord
100
AcDbBlockTableRecord
  2
_DotSmall
340
0
  0
BLOCK_RECORD
  5
1E386
330
1
100
AcDbSymbolTableRecord
100
AcDbBlockTableRecord
  2
4
340
0
102
{BLKREFS
331
1E3A0
102
}
  0
BLOCK_RECORD
  5
1E38A
330
1
100
AcDbSymbolTableRecord
100
AcDbBlockTableRecord
  2
blk_c
340
0
  0
BLOCK_RECORD
  5
1E38F
330
1
100
AcDbSymbolTableRecord
100
AcDbBlockTableRecord
  2
blk_a
340
0
  0
BLOCK_RECORD
  5
1E394
330
1
100
AcDbSymbolTableRecord
100
AcDbBlockTableRecord
  2
blk_d
340
0
  0
BLOCK_RECORD
  5
1E399
330
1
100
AcDbSymbolTableRecord
100
AcDbBlockTableRecord
  2
blk_b
340
0
  0
BLOCK_RECORD
  5
1E39E
330
1
100
AcDbSymbolTableRecord
100
AcDbBlockTableRecord
  2
2
340
0
1001
ACAD
1000
DesignCenter Data
1002
{
1070
     1
1070
     4
1002
}
  0
BLOCK_RECORD
  5
1EC49
102
{ACAD_XDICTIONARY
360
1ECC2
102
}
330
1
100
AcDbSymbolTableRecord
100
AcDbBlockTableRecord
  2
A$C2BEC5252
340
0
  0
BLOCK_RECORD
  5
20E8D
330
1
100
AcDbSymbolTableRecord
100
AcDbBlockTableRecord
  2
*D89
340
0
  0
BLOCK_RECORD
  5
20E9A
330
1
100
AcDbSymbolTableRecord
100
AcDbBlockTableRecord
  2
*D90
340
0
  0
ENDTAB
  0
ENDSEC
  0
SECTION
  2
BLOCKS
  0
BLOCK
  5
20
330
1F
100
AcDbEntity
  8
0
100
AcDbBlockBegin
  2
*Model_Space
 70
     0
 10
0.0
 20
0.0
 30
0.0
  3
*Model_Space
  1

  0
ENDBLK
  5
21
330
1F
100
AcDbEntity
  8
0
100
AcDbBlockEnd
  0
BLOCK
  5
1C
330
1B
100
AcDbEntity
 67
     1
  8
0
100
AcDbBlockBegin
  2
*Paper_Space
 70
     0
 10
0.0
 20
0.0
 30
0.0
  3
*Paper_Space
  1

  0
ENDBLK
  5
1D
330
1B
100
AcDbEntity
 67
     1
  8
0
100
AcDbBlockEnd
  0
BLOCK
  5
24
330
23
100
AcDbEntity
  8
0
100
AcDbBlockBegin
  2
*Paper_Space0
 70
     0
 10
0.0
 20
0.0
 30
0.0
  3
*Paper_Space0
  1

  0
ENDBLK
  5
25
330
23
100
AcDbEntity
  8
0
100
AcDbBlockEnd
  0
BLOCK
  5
12C0
330
1202
100
AcDbEntity
  8
0
 62
     7
 48
0.27
100
AcDbBlockBegin
  2
a4hc_HG
 70
     0
 10
0.0
 20
0.0
 30
0.0
  3
a4hc_HG
  1

  0
HATCH
  5
1203
330
1202
100
AcDbEntity
  8
文字
100
AcDbHatch
 10
0.0
 20
0.0
 30
0.0
210
0.0
220
0.0
230
1.0
  2
SOLID
 70
     1
 71
     0
 91
        5
 92
        7
 72
     1
 73
     1
 93
       25
 10
87.31284730300007
 20
-88.66045918365001
 42
0.0
 10
85.7376951546
 20
-88.66045918365001
 42
0.0
 10
85.60907954220002
 20
-89.14045918365001
 42
0.0
 10
85.7763054527
 20
-89.14045918365001
 42
-0.4931454259997348
 10
86.0081276509956
 20
-89.44257575446648
 42
0.0
 10
84.81011119419003
 20
-93.91363403988721
 42
-0.3394542588631269
 10
84.46237789672606
 20
-94.18045918365001
 42
0.0
 10
84.25861561239997
 20
-94.18045918365001
 42
0.0
 10
84.13000000000002
 20
-94.66045918365001
 42
0.0
 10
86.05000000000002
 20
-94.66045918365001
 42
0.0
 10
86.17861561239999
 20
-94.18045918365001
 42
0.0
 10
85.8827740895
 20
-94.18045918365001
 42
-0.4931454260042405
 10
85.65095189120532
 20
-93.87834261283016
 42
0.0
 10
86.6437023613
 20
-90.17334741915
 42
0.0
 10
88.93
 20
-94.66045918365001
 42
0.0
 10
89.77000000000002
 20
-94.66045918365001
 42
0.0
 10
91.17758396041134
 20
-89.40728432740771
 42
-0.33945425885905
 10
91.52531725787396
 20
-89.14045918365001
 42
0.0
 10
91.62423169070001
 20
-89.14045918365001
 42
0.0
 10
91.75284730299997
 20
-88.66045918365001
 42
0.0
 10
89.83284730299999
 20
-88.66045918365001
 42
0.0
 10
89.70423169069997
 20
-89.14045918365001
 42
0.0
 10
90.09630545270002
 20
-89.14045918365001
 42
-0.49314542600108
 10
90.32812765099533
 20
-89.4425757544675
 42
0.0
 10
89.42628221460003
 20
-92.80830874384998
 42
0.0
 97
        0
 92
        7
 72
     1
 73
     1
 93
       16
 10
84.48141582100573
 20
-89.31834261282872
 42
-0.3394542588673643
 10
84.71323801931598
 20
-89.14045918365001
 42
0.0
 10
85.12907954219997
 20
-89.14045918365001
 42
0.0
 10
85.25769515459996
 20
-88.66045918365001
 42
0.0
 10
82.85769515459998
 20
-88.66045918365001
 42
0.0
 10
82.72907954220002
 20
-89.14045918365001
 42
0.0
 10
83.17269249750001
 20
-89.14045918365001
 42
-0.4931454258380596
 10
83.28860359660103
 20
-89.29151746904622
 42
0.0
 10
82.02627933359531
 20
-94.00257575446746
 42
-0.3394542588719629
 10
81.79445713528403
 20
-94.18045918365001
 42
0.0
 10
81.37861561240004
 20
-94.18045918365001
 42
0.0
 10
81.25000000000003
 20
-94.66045918365001
 42
0.0
 10
83.65
 20
-94.66045918365001
 42
0.0
 10
83.77861561240004
 20
-94.18045918365001
 42
0.0
 10
83.49138970180002
 20
-94.18045918365001
 42
-0.4931454260061948
 10
83.2595675035057
 20
-93.87834261282872
 42
0.0
 97
        0
 92
        7
 72
     1
 73
     1
 93
       31
 10
81.84769145359755
 20
-89.26045918365428
 42
-0.2679491924366411
 10
82.05553755050829
 20
-89.14045918365001
 42
0.0
 10
82.36907954220001
 20
-89.14045918365001
 42
0.0
 10
82.4976951546
 20
-88.66045918365001
 42
0.0
 10
80.33769515459999
 20
-88.66045918365001
 42
0.0
 10
80.20907954220005
 20
-89.14045918365001
 42
0.0
 10
80.56289929950001
 20
-89.14045918365001
 42
-0.5628963153237844
 10
80.72256124950014
 20
-89.40357393404978
 42
0.0
 10
78.89163332860002
 20
-92.92075374574997
 42
0.0
 10
78.82777920529955
 20
-89.26255347242422
 42
-0.4193348017625921
 10
78.94776092871828
 20
-89.14045918365001
 42
0.0
 10
79.24907954219998
 20
-89.14045918365001
 42
0.0
 10
79.37769515459999
 20
-88.66045918365001
 42
0.0
 10
77.09769515460002
 20
-88.66045918365001
 42
0.0
 10
76.96907954220003
 20
-89.14045918365001
 42
0.0
 10
77.1255890983
 20
-89.14045918365001
 42
-0.5773502691742179
 10
77.54128129210283
 20
-89.8604591836451
 42
0.0
 10
75.77171508830002
 20
-92.92543775595001
 42
0.0
 10
75.70991036910072
 20
-89.38464776119046
 42
-0.4193348017528848
 10
75.94987381593833
 20
-89.14045918365001
 42
0.0
 10
76.24907954220003
 20
-89.14045918365001
 42
0.0
 10
76.37769515459999
 20
-88.66045918365001
 42
0.0
 10
73.97769515459998
 20
-88.66045918365001
 42
0.0
 10
73.8490795422
 20
-89.14045918365001
 42
0.0
 10
74.17924157699999
 20
-89.14045918365001
 42
-0.4014906669321768
 10
74.41901315020141
 20
-89.36999053068218
 42
0.0
 10
74.64999999999998
 20
-94.66045918365001
 42
0.0
 10
75.61000000000001
 20
-94.66045918365001
 42
0.0
 10
77.7149916749
 20
-91.50903434665009
 42
0.0
 10
77.77000000000001
 20
-94.66045918365001
 42
0.0
 10
78.73000000000001
 20
-94.66045918365001
 42
0.0
 97
        0
 92
        7
 72
     1
 73
     1
 93
       16
 10
72.84141582100571
 20
-89.31834261282872
 42
-0.3394542588673603
 10
73.07323801931596
 20
-89.14045918365001
 42
0.0
 10
73.48907954220002
 20
-89.14045918365001
 42
0.0
 10
73.6176951546
 20
-88.66045918365001
 42
0.0
 10
71.21769515459999
 20
-88.66045918365001
 42
0.0
 10
71.08907954220004
 20
-89.14045918365001
 42
0.0
 10
71.53269249749996
 20
-89.14045918365001
 42
-0.4931454258381302
 10
71.64860359660102
 20
-89.29151746904622
 42
0.0
 10
70.38627933359535
 20
-94.00257575446746
 42
-0.3394542588719971
 10
70.15445713528404
 20
-94.18045918365001
 42
0.0
 10
69.73861561239999
 20
-94.18045918365001
 42
0.0
 10
69.61000000000004
 20
-94.66045918365001
 42
0.0
 10
72.01000000000002
 20
-94.66045918365001
 42
0.0
 10
72.1386156124
 20
-94.18045918365001
 42
0.0
 10
71.8513897018
 20
-94.18045918365001
 42
-0.4931454260061438
 10
71.61956750350572
 20
-93.87834261282874
 42
0.0
 97
        0
 92
        7
 72
     1
 73
     1
 93
       40
 10
70.08141582100572
 20
-89.31834261282872
 42
-0.3394542588673941
 10
70.313238019316
 20
-89.14045918365001
 42
0.0
 10
70.72907954219999
 20
-89.14045918365001
 42
0.0
 10
70.8576951546
 20
-88.66045918365001
 42
0.0
 10
68.4576951546
 20
-88.66045918365001
 42
0.0
 10
68.32907954220002
 20
-89.14045918365001
 42
0.0
 10
68.77269249749997
 20
-89.14045918365001
 42
-0.4931454258321303
 10
68.88860359660163
 20
-89.291517469044
 42
0.0
 10
68.37414114719493
 20
-91.21151746906901
 42
-0.3394542588472685
 10
68.25823004804203
 20
-91.30045918365
 42
0.0
 10
66.10669633130001
 20
-91.30045918365
 42
-0.4931454258316102
 10
65.99078523219836
 20
-91.14940089825617
 42
0.0
 10
66.4814158210034
 20
-89.31834261283734
 42
-0.339454258877745
 10
66.71323801931598
 20
-89.14045918365001
 42
0.0
 10
67.1290795422
 20
-89.14045918365001
 42
0.0
 10
67.25769515459998
 20
-88.66045918365001
 42
0.0
 10
64.85769515460001
 20
-88.66045918365001
 42
0.0
 10
64.72907954219997
 20
-89.14045918365001
 42
0.0
 10
65.1726924975
 20
-89.14045918365001
 42
-0.4931454258380596
 10
65.28860359660104
 20
-89.29151746904622
 42
0.0
 10
64.02627933359531
 20
-94.00257575446746
 42
-0.3394542588719629
 10
63.79445713528403
 20
-94.18045918365001
 42
0.0
 10
63.37861561240003
 20
-94.18045918365001
 42
0.0
 10
63.25
 20
-94.66045918365001
 42
0.0
 10
65.65000000000003
 20
-94.66045918365001
 42
0.0
 10
65.77861561240005
 20
-94.18045918365001
 42
0.0
 10
65.64777674660001
 20
-94.18045918365001
 42
-0.4931454260592977
 10
65.30004344911154
 20
-93.72728432740695
 42
0.0
 10
65.73355400740609
 20
-92.10940089822733
 42
-0.339454258838397
 10
65.849465106558
 20
-92.02045918365
 42
0.0
 10
68.00099882329999
 20
-92.02045918365
 42
-0.4931454258316087
 10
68.11690992240165
 20
-92.17151746904383
 42
0.0
 10
67.62627933359661
 20
-94.00257575446266
 42
-0.3394542588777114
 10
67.39445713528406
 20
-94.18045918365001
 42
0.0
 10
66.97861561240003
 20
-94.18045918365001
 42
0.0
 10
66.85000000000002
 20
-94.66045918365001
 42
0.0
 10
69.25
 20
-94.66045918365001
 42
0.0
 10
69.37861561240001
 20
-94.18045918365001
 42
0.0
 10
69.09138970180001
 20
-94.18045918365001
 42
-0.4931454260061438
 10
68.85956750350572
 20
-93.87834261282874
 42
0.0
 97
        0
 75
     0
 76
     1
 47
0.0375180088224066
 98
        5
 10
88.20901055367233
 20
-91.69475157655403
 10
83.70319790931592
 20
-90.83183694378936
 10
80.21119388198883
 20
-91.16949944083188
 10
71.95053736733552
 20
-90.64424730510967
 10
69.05930767299003
 20
-90.90687337297078
  0
CIRCLE
  5
1204
330
1202
100
AcDbEntity
  8
文字
100
AcDbCircle
 10
92.35440421570002
 20
-93.78229363355
 30
0.0
 40
1.199999999999988
  0
LINE
  5
1205
330
1202
100
AcDbEntity
  8
文字
100
AcDbLine
 10
89.83284730299999
 20
-88.66045918365001
 30
0.0
 11
91.75284730300001
 21
-88.66045918365001
 31
0.0
  0
LINE
  5
1206
330
1202
100
AcDbEntity
  8
文字
100
AcDbLine
 10
87.31284730300002
 20
-88.66045918365001
 30
0.0
 11
85.7376951546
 21
-88.66045918365001
 31
0.0
  0
LINE
  5
1207
330
1202
100
AcDbEntity
  8
文字
100
AcDbLine
 10
89.7042316907
 20
-89.14045918365001
 30
0.0
 11
90.09630545270002
 21
-89.14045918365001
 31
0.0
  0
LINE
  5
1208
330
1202
100
AcDbEntity
  8
文字
100
AcDbLine
 10
91.52531725790002
 20
-89.14045918365001
 30
0.0
 11
91.62423169070001
 21
-89.14045918365001
 31
0.0
  0
ARC
  5
1209
330
1202
100
AcDbEntity
  8
文字
100
AcDbCircle
 10
90.09630545270002
 20
-89.38045918365
 30
0.0
 40
0.24
100
AcDbArc
 50
345.0000109816997
 51
90.0
  0
ARC
  5
120A
330
1202
100
AcDbEntity
  8
文字
100
AcDbCircle
 10
91.52531725790002
 20
-89.50045918365001
 30
0.0
 40
0.36
100
AcDbArc
 50
90.0
 51
165.0000052521
  0
TEXT
  5
120B
330
1202
100
AcDbEntity
  8
文字
100
AcDbText
 10
91.70403496470001
 20
-94.61179976495001
 30
0.0
 40
1.558055249599999
  1
R
 41
0.75
 51
5.000000159199999
  7
SIMPLEX
100
AcDbText
  0
LINE
  5
120C
330
1202
100
AcDbEntity
  8
文字
100
AcDbLine
 10
89.77000000000002
 20
-94.66045918365001
 30
0.0
 11
91.17758396040001
 21
-89.40728432745
 31
0.0
  0
LINE
  5
120D
330
1202
100
AcDbEntity
  8
文字
100
AcDbLine
 10
85.12907954220001
 20
-89.14045918365001
 30
0.0
 11
84.71323801930001
 21
-89.14045918365001
 31
0.0
  0
ARC
  5
120E
330
1202
100
AcDbEntity
  8
文字
100
AcDbCircle
 10
84.71323801930001
 20
-89.38045918365
 30
0.0
 40
0.24
100
AcDbArc
 50
90.0
 51
165.0000052521
  0
LINE
  5
120F
330
1202
100
AcDbEntity
  8
文字
100
AcDbLine
 10
85.7763054527
 20
-89.14045918365001
 30
0.0
 11
85.60907954220002
 21
-89.14045918365001
 31
0.0
  0
ARC
  5
1210
330
1202
100
AcDbEntity
  8
文字
100
AcDbCircle
 10
85.7763054527
 20
-89.38045918365
 30
0.0
 40
0.24
100
AcDbArc
 50
345.0000109816997
 51
90.0
  0
LINE
  5
1211
330
1202
100
AcDbEntity
  8
文字
100
AcDbLine
 10
86.05000000000002
 20
-94.66045918365001
 30
0.0
 11
84.13
 21
-94.66045918365001
 31
0.0
  0
LINE
  5
1212
330
1202
100
AcDbEntity
  8
文字
100
AcDbLine
 10
86.17861561239999
 20
-94.18045918365001
 30
0.0
 11
85.8827740895
 21
-94.18045918365001
 31
0.0
  0
LINE
  5
1213
330
1202
100
AcDbEntity
  8
文字
100
AcDbLine
 10
84.13
 20
-94.66045918365001
 30
0.0
 11
84.25861561240001
 21
-94.18045918365001
 31
0.0
  0
LINE
  5
1214
330
1202
100
AcDbEntity
  8
文字
100
AcDbLine
 10
86.05000000000002
 20
-94.66045918365001
 30
0.0
 11
86.17861561239999
 21
-94.18045918365001
 31
0.0
  0
LINE
  5
1215
330
1202
100
AcDbEntity
  8
文字
100
AcDbLine
 10
84.46237789670002
 20
-94.18045918365001
 30
0.0
 11
84.25861561240001
 21
-94.18045918365001
 31
0.0
  0
ARC
  5
1216
330
1202
100
AcDbEntity
  8
文字
100
AcDbCircle
 10
84.46237789670002
 20
-93.82045918364999
 30
0.0
 40
0.36
100
AcDbArc
 50
270.0
 51
345.0000109816995
  0
ARC
  5
1217
330
1202
100
AcDbEntity
  8
文字
100
AcDbCircle
 10
85.8827740895
 20
-93.94045918365
 30
0.0
 40
0.24
100
AcDbArc
 50
165.0000052521
 51
270.0
  0
LINE
  5
1218
330
1202
100
AcDbEntity
  8
文字
100
AcDbLine
 10
86.008127651
 20
-89.44257575445
 30
0.0
 11
84.81011119420001
 21
-93.91363403985002
 31
0.0
  0
LINE
  5
1219
330
1202
100
AcDbEntity
  8
文字
100
AcDbLine
 10
86.6437023613
 20
-90.17334741915
 30
0.0
 11
85.6509518912
 21
-93.87834261285
 31
0.0
  0
LINE
  5
121A
330
1202
100
AcDbEntity
  8
文字
100
AcDbLine
 10
88.93
 20
-94.66045918365001
 30
0.0
 11
86.6437023613
 21
-90.17334741915
 31
0.0
  0
LINE
  5
121B
330
1202
100
AcDbEntity
  8
文字
100
AcDbLine
 10
88.93
 20
-94.66045918365001
 30
0.0
 11
89.77000000000002
 21
-94.66045918365001
 31
0.0
  0
LINE
  5
121C
330
1202
100
AcDbEntity
  8
文字
100
AcDbLine
 10
89.42628221460001
 20
-92.80830874385001
 30
0.0
 11
90.32812765100002
 21
-89.44257575445
 31
0.0
  0
LINE
  5
121D
330
1202
100
AcDbEntity
  8
文字
100
AcDbLine
 10
85.12907954220001
 20
-89.14045918365001
 30
0.0
 11
85.25769515460002
 21
-88.66045918365001
 31
0.0
  0
LINE
  5
121E
330
1202
100
AcDbEntity
  8
文字
100
AcDbLine
 10
85.60907954220002
 20
-89.14045918365001
 30
0.0
 11
85.7376951546
 21
-88.66045918365001
 31
0.0
  0
LINE
  5
121F
330
1202
100
AcDbEntity
  8
文字
100
AcDbLine
 10
89.42628221460001
 20
-92.80830874385001
 30
0.0
 11
87.31284730300002
 21
-88.66045918365001
 31
0.0
  0
LINE
  5
1220
330
1202
100
AcDbEntity
  8
文字
100
AcDbLine
 10
89.7042316907
 20
-89.14045918365001
 30
0.0
 11
89.83284730299999
 21
-88.66045918365001
 31
0.0
  0
LINE
  5
1221
330
1202
100
AcDbEntity
  8
文字
100
AcDbLine
 10
91.62423169070001
 20
-89.14045918365001
 30
0.0
 11
91.75284730300001
 21
-88.66045918365001
 31
0.0
  0
LINE
  5
1222
330
1202
100
AcDbEntity
  8
文字
100
AcDbLine
 10
82.4976951546
 20
-88.66045918365001
 30
0.0
 11
80.33769515459999
 21
-88.66045918365001
 31
0.0
  0
LINE
  5
1223
330
1202
100
AcDbEntity
  8
文字
100
AcDbLine
 10
76.37769515460002
 20
-88.66045918365001
 30
0.0
 11
73.97769515460002
 21
-88.66045918365001
 31
0.0
  0
LINE
  5
1224
330
1202
100
AcDbEntity
  8
文字
100
AcDbLine
 10
79.37769515460002
 20
-88.66045918365001
 30
0.0
 11
77.09769515460002
 21
-88.66045918365001
 31
0.0
  0
LINE
  5
1225
330
1202
100
AcDbEntity
  8
文字
100
AcDbLine
 10
70.8576951546
 20
-88.66045918365001
 30
0.0
 11
68.4576951546
 21
-88.66045918365001
 31
0.0
  0
LINE
  5
1226
330
1202
100
AcDbEntity
  8
文字
100
AcDbLine
 10
67.25769515460001
 20
-88.66045918365001
 30
0.0
 11
64.85769515460001
 21
-88.66045918365001
 31
0.0
  0
LINE
  5
1227
330
1202
100
AcDbEntity
  8
文字
100
AcDbLine
 10
73.6176951546
 20
-88.66045918365001
 30
0.0
 11
71.21769515459999
 21
-88.66045918365001
 31
0.0
  0
LINE
  5
1228
330
1202
100
AcDbEntity
  8
文字
100
AcDbLine
 10
82.36907954220001
 20
-89.14045918365001
 30
0.0
 11
82.05553755050003
 21
-89.14045918365001
 31
0.0
  0
ARC
  5
1229
330
1202
100
AcDbEntity
  8
文字
100
AcDbCircle
 10
82.05553755050003
 20
-89.38045918365
 30
0.0
 40
0.24
100
AcDbArc
 50
90.0
 51
150.0000047745997
  0
ARC
  5
122A
330
1202
100
AcDbEntity
  8
文字
100
AcDbCircle
 10
83.17269249750001
 20
-89.26045918365
 30
0.0
 40
0.12
100
AcDbArc
 50
345.0000109816994
 51
90.0
  0
LINE
  5
122B
330
1202
100
AcDbEntity
  8
文字
100
AcDbLine
 10
83.17269249750001
 20
-89.14045918365001
 30
0.0
 11
82.7290795422
 21
-89.14045918365001
 31
0.0
  0
LINE
  5
122C
330
1202
100
AcDbEntity
  8
文字
100
AcDbLine
 10
79.2490795422
 20
-89.14045918365001
 30
0.0
 11
78.94776092879999
 21
-89.14045918365001
 31
0.0
  0
LINE
  5
122D
330
1202
100
AcDbEntity
  8
文字
100
AcDbLine
 10
80.56289929950001
 20
-89.14045918365001
 30
0.0
 11
80.20907954220001
 21
-89.14045918365001
 31
0.0
  0
LINE
  5
122E
330
1202
100
AcDbEntity
  8
文字
100
AcDbLine
 10
78.89163332859999
 20
-92.92075374575
 30
0.0
 11
78.8277792053
 21
-89.26255347245001
 31
0.0
  0
LINE
  5
122F
330
1202
100
AcDbEntity
  8
文字
100
AcDbLine
 10
78.89163332859999
 20
-92.92075374575
 30
0.0
 11
80.72256124950001
 21
-89.40357393404999
 31
0.0
  0
ARC
  5
1230
330
1202
100
AcDbEntity
  8
文字
100
AcDbCircle
 10
78.94776092879999
 20
-89.26045918365
 30
0.0
 40
0.12
100
AcDbArc
 50
90.0
 51
181.0000057614001
  0
ARC
  5
1231
330
1202
100
AcDbEntity
  8
文字
100
AcDbCircle
 10
80.56289929950001
 20
-89.32045918365
 30
0.0
 40
0.18
100
AcDbArc
 50
332.5000105837975
 51
90.0
  0
ARC
  5
1232
330
1202
100
AcDbEntity
  8
文字
100
AcDbCircle
 10
83.49138970180002
 20
-93.94045918365
 30
0.0
 40
0.24
100
AcDbArc
 50
165.0000052521
 51
270.0
  0
LINE
  5
1233
330
1202
100
AcDbEntity
  8
文字
100
AcDbLine
 10
83.77861561240001
 20
-94.18045918365001
 30
0.0
 11
83.49138970180002
 21
-94.18045918365001
 31
0.0
  0
LINE
  5
1234
330
1202
100
AcDbEntity
  8
文字
100
AcDbLine
 10
83.65
 20
-94.66045918365001
 30
0.0
 11
83.77861561240001
 21
-94.18045918365001
 31
0.0
  0
LINE
  5
1235
330
1202
100
AcDbEntity
  8
文字
100
AcDbLine
 10
81.7944571353
 20
-94.18045918365001
 30
0.0
 11
81.37861561240001
 21
-94.18045918365001
 31
0.0
  0
ARC
  5
1236
330
1202
100
AcDbEntity
  8
文字
100
AcDbCircle
 10
81.7944571353
 20
-93.94045918365
 30
0.0
 40
0.24
100
AcDbArc
 50
270.0
 51
345.0000109816997
  0
LINE
  5
1237
330
1202
100
AcDbEntity
  8
文字
100
AcDbLine
 10
83.65
 20
-94.66045918365001
 30
0.0
 11
81.25
 21
-94.66045918365001
 31
0.0
  0
LINE
  5
1238
330
1202
100
AcDbEntity
  8
文字
100
AcDbLine
 10
81.25
 20
-94.66045918365001
 30
0.0
 11
81.37861561240001
 21
-94.18045918365001
 31
0.0
  0
LINE
  5
1239
330
1202
100
AcDbEntity
  8
文字
100
AcDbLine
 10
78.73000000000001
 20
-94.66045918365001
 30
0.0
 11
81.84769145360002
 21
-89.26045918365
 31
0.0
  0
LINE
  5
123A
330
1202
100
AcDbEntity
  8
文字
100
AcDbLine
 10
82.0262793336
 20
-94.00257575445001
 30
0.0
 11
83.28860359660001
 21
-89.29151746905001
 31
0.0
  0
LINE
  5
123B
330
1202
100
AcDbEntity
  8
文字
100
AcDbLine
 10
76.24907954220001
 20
-89.14045918365001
 30
0.0
 11
75.94987381590001
 21
-89.14045918365001
 31
0.0
  0
LINE
  5
123C
330
1202
100
AcDbEntity
  8
文字
100
AcDbLine
 10
77.1255890983
 20
-89.14045918365001
 30
0.0
 11
76.96907954220001
 21
-89.14045918365001
 31
0.0
  0
LINE
  5
123D
330
1202
100
AcDbEntity
  8
文字
100
AcDbLine
 10
75.7717150883
 20
-92.92543775594999
 30
0.0
 11
77.54128129209999
 21
-89.86045918365
 31
0.0
  0
ARC
  5
123E
330
1202
100
AcDbEntity
  8
文字
100
AcDbCircle
 10
77.1255890983
 20
-89.62045918364999
 30
0.0
 40
0.4800000000000001
100
AcDbArc
 50
330.0000105041998
 51
90.0
  0
LINE
  5
123F
330
1202
100
AcDbEntity
  8
文字
100
AcDbLine
 10
73.48907954220002
 20
-89.14045918365001
 30
0.0
 11
73.07323801930002
 21
-89.14045918365001
 31
0.0
  0
LINE
  5
1240
330
1202
100
AcDbEntity
  8
文字
100
AcDbLine
 10
74.17924157699999
 20
-89.14045918365001
 30
0.0
 11
73.8490795422
 21
-89.14045918365001
 31
0.0
  0
ARC
  5
1241
330
1202
100
AcDbEntity
  8
文字
100
AcDbCircle
 10
74.17924157699999
 20
-89.38045918365
 30
0.0
 40
0.24
100
AcDbArc
 50
2.500000079599775
 51
90.0
  0
LINE
  5
1242
330
1202
100
AcDbEntity
  8
文字
100
AcDbLine
 10
75.7717150883
 20
-92.92543775594999
 30
0.0
 11
75.70991036910001
 21
-89.38464776115001
 31
0.0
  0
ARC
  5
1243
330
1202
100
AcDbEntity
  8
文字
100
AcDbCircle
 10
75.94987381590001
 20
-89.38045918365
 30
0.0
 40
0.24
100
AcDbArc
 50
90.0
 51
181.0000057613999
  0
LINE
  5
1244
330
1202
100
AcDbEntity
  8
文字
100
AcDbLine
 10
74.65
 20
-94.66045918365001
 30
0.0
 11
75.61000000000001
 21
-94.66045918365001
 31
0.0
  0
LINE
  5
1245
330
1202
100
AcDbEntity
  8
文字
100
AcDbLine
 10
74.65
 20
-94.66045918365001
 30
0.0
 11
74.41901315020001
 21
-89.36999053064999
 31
0.0
  0
LINE
  5
1246
330
1202
100
AcDbEntity
  8
文字
100
AcDbLine
 10
75.61000000000001
 20
-94.66045918365001
 30
0.0
 11
77.7149916749
 21
-91.50903434665002
 31
0.0
  0
LINE
  5
1247
330
1202
100
AcDbEntity
  8
文字
100
AcDbLine
 10
77.77000000000001
 20
-94.66045918365001
 30
0.0
 11
77.7149916749
 21
-91.50903434665002
 31
0.0
  0
LINE
  5
1248
330
1202
100
AcDbEntity
  8
文字
100
AcDbLine
 10
77.77000000000001
 20
-94.66045918365001
 30
0.0
 11
78.73000000000001
 21
-94.66045918365001
 31
0.0
  0
LINE
  5
1249
330
1202
100
AcDbEntity
  8
文字
100
AcDbLine
 10
70.72907954219999
 20
-89.14045918365001
 30
0.0
 11
70.3132380193
 21
-89.14045918365001
 31
0.0
  0
LINE
  5
124A
330
1202
100
AcDbEntity
  8
文字
100
AcDbLine
 10
71.5326924975
 20
-89.14045918365001
 30
0.0
 11
71.08907954220001
 21
-89.14045918365001
 31
0.0
  0
ARC
  5
124B
330
1202
100
AcDbEntity
  8
文字
100
AcDbCircle
 10
71.5326924975
 20
-89.26045918365
 30
0.0
 40
0.12
100
AcDbArc
 50
345.0000109816994
 51
90.0
  0
LINE
  5
124C
330
1202
100
AcDbEntity
  8
文字
100
AcDbLine
 10
68.7726924975
 20
-89.14045918365001
 30
0.0
 11
68.32907954220002
 21
-89.14045918365001
 31
0.0
  0
LINE
  5
124D
330
1202
100
AcDbEntity
  8
文字
100
AcDbLine
 10
68.37414114720002
 20
-91.21151746905001
 30
0.0
 11
68.8886035966
 21
-89.29151746905001
 31
0.0
  0
ARC
  5
124E
330
1202
100
AcDbEntity
  8
文字
100
AcDbCircle
 10
68.7726924975
 20
-89.26045918365
 30
0.0
 40
0.12
100
AcDbArc
 50
345.0000109816994
 51
90.0
  0
ARC
  5
124F
330
1202
100
AcDbEntity
  8
文字
100
AcDbCircle
 10
68.258230048
 20
-91.18045918365
 30
0.0
 40
0.12
100
AcDbArc
 50
270.0
 51
345.0000109816994
  0
ARC
  5
1250
330
1202
100
AcDbEntity
  8
文字
100
AcDbCircle
 10
68.00099882329999
 20
-92.14045918365
 30
0.0
 40
0.12
100
AcDbArc
 50
345.0000109816994
 51
90.0
  0
ARC
  5
1251
330
1202
100
AcDbEntity
  8
文字
100
AcDbCircle
 10
70.3132380193
 20
-89.38045918365
 30
0.0
 40
0.24
100
AcDbArc
 50
90.0
 51
165.0000052521
  0
ARC
  5
1252
330
1202
100
AcDbEntity
  8
文字
100
AcDbCircle
 10
70.15445713530002
 20
-93.94045918365
 30
0.0
 40
0.24
100
AcDbArc
 50
270.0
 51
345.0000109816997
  0
LINE
  5
1253
330
1202
100
AcDbEntity
  8
文字
100
AcDbLine
 10
72.01000000000002
 20
-94.66045918365001
 30
0.0
 11
72.1386156124
 21
-94.18045918365001
 31
0.0
  0
LINE
  5
1254
330
1202
100
AcDbEntity
  8
文字
100
AcDbLine
 10
72.1386156124
 20
-94.18045918365001
 30
0.0
 11
71.8513897018
 21
-94.18045918365001
 31
0.0
  0
ARC
  5
1255
330
1202
100
AcDbEntity
  8
文字
100
AcDbCircle
 10
71.8513897018
 20
-93.94045918365
 30
0.0
 40
0.24
100
AcDbArc
 50
165.0000052521
 51
270.0
  0
LINE
  5
1256
330
1202
100
AcDbEntity
  8
文字
100
AcDbLine
 10
69.25
 20
-94.66045918365001
 30
0.0
 11
69.37861561240001
 21
-94.18045918365001
 31
0.0
  0
LINE
  5
1257
330
1202
100
AcDbEntity
  8
文字
100
AcDbLine
 10
69.37861561240001
 20
-94.18045918365001
 30
0.0
 11
69.09138970180001
 21
-94.18045918365001
 31
0.0
  0
ARC
  5
1258
330
1202
100
AcDbEntity
  8
文字
100
AcDbCircle
 10
67.3944571353
 20
-93.94045918365
 30
0.0
 40
0.24
100
AcDbArc
 50
270.0
 51
345.0000109816997
  0
ARC
  5
1259
330
1202
100
AcDbEntity
  8
文字
100
AcDbCircle
 10
69.09138970180001
 20
-93.94045918365
 30
0.0
 40
0.24
100
AcDbArc
 50
165.0000052521
 51
270.0
  0
LINE
  5
125A
330
1202
100
AcDbEntity
  8
文字
100
AcDbLine
 10
69.61000000000002
 20
-94.66045918365001
 30
0.0
 11
69.73861561239999
 21
-94.18045918365001
 31
0.0
  0
LINE
  5
125B
330
1202
100
AcDbEntity
  8
文字
100
AcDbLine
 10
70.15445713530002
 20
-94.18045918365001
 30
0.0
 11
69.73861561239999
 21
-94.18045918365001
 31
0.0
  0
LINE
  5
125C
330
1202
100
AcDbEntity
  8
文字
100
AcDbLine
 10
72.01000000000002
 20
-94.66045918365001
 30
0.0
 11
69.61000000000002
 21
-94.66045918365001
 31
0.0
  0
LINE
  5
125D
330
1202
100
AcDbEntity
  8
文字
100
AcDbLine
 10
67.6262793336
 20
-94.00257575445001
 30
0.0
 11
68.11690992239999
 21
-92.17151746905001
 31
0.0
  0
LINE
  5
125E
330
1202
100
AcDbEntity
  8
文字
100
AcDbLine
 10
68.85956750350001
 20
-93.87834261285
 30
0.0
 11
70.08141582100001
 21
-89.31834261285001
 31
0.0
  0
LINE
  5
125F
330
1202
100
AcDbEntity
  8
文字
100
AcDbLine
 10
70.38627933360001
 20
-94.00257575445001
 30
0.0
 11
71.6486035966
 21
-89.29151746905001
 31
0.0
  0
LINE
  5
1260
330
1202
100
AcDbEntity
  8
文字
100
AcDbLine
 10
71.6195675035
 20
-93.87834261285
 30
0.0
 11
72.841415821
 21
-89.31834261285001
 31
0.0
  0
LINE
  5
1261
330
1202
100
AcDbEntity
  8
文字
100
AcDbLine
 10
67.1290795422
 20
-89.14045918365001
 30
0.0
 11
66.7132380193
 21
-89.14045918365001
 31
0.0
  0
LINE
  5
1262
330
1202
100
AcDbEntity
  8
文字
100
AcDbLine
 10
65.1726924975
 20
-89.14045918365001
 30
0.0
 11
64.7290795422
 21
-89.14045918365001
 31
0.0
  0
LINE
  5
1263
330
1202
100
AcDbEntity
  8
文字
100
AcDbLine
 10
65.99078523220001
 20
-91.14940089825001
 30
0.0
 11
66.48141582100001
 21
-89.31834261285001
 31
0.0
  0
ARC
  5
1264
330
1202
100
AcDbEntity
  8
文字
100
AcDbCircle
 10
65.1726924975
 20
-89.26045918365
 30
0.0
 40
0.12
100
AcDbArc
 50
345.0000109816994
 51
90.0
  0
ARC
  5
1265
330
1202
100
AcDbEntity
  8
文字
100
AcDbCircle
 10
66.7132380193
 20
-89.38045918365
 30
0.0
 40
0.24
100
AcDbArc
 50
90.0
 51
165.0000052521
  0
ARC
  5
1266
330
1202
100
AcDbEntity
  8
文字
100
AcDbCircle
 10
65.8494651066
 20
-92.14045918365
 30
0.0
 40
0.12
100
AcDbArc
 50
90.0
 51
165.0000052521
  0
ARC
  5
1267
330
1202
100
AcDbEntity
  8
文字
100
AcDbCircle
 10
66.10669633130001
 20
-91.18045918365
 30
0.0
 40
0.12
100
AcDbArc
 50
165.0000052521
 51
270.0
  0
LINE
  5
1268
330
1202
100
AcDbEntity
  8
文字
100
AcDbLine
 10
65.77861561240002
 20
-94.18045918365001
 30
0.0
 11
65.64777674660001
 21
-94.18045918365001
 31
0.0
  0
LINE
  5
1269
330
1202
100
AcDbEntity
  8
文字
100
AcDbLine
 10
65.65000000000001
 20
-94.66045918365001
 30
0.0
 11
65.77861561240002
 21
-94.18045918365001
 31
0.0
  0
LINE
  5
126A
330
1202
100
AcDbEntity
  8
文字
100
AcDbLine
 10
66.84999999999999
 20
-94.66045918365001
 30
0.0
 11
66.9786156124
 21
-94.18045918365001
 31
0.0
  0
ARC
  5
126B
330
1202
100
AcDbEntity
  8
文字
100
AcDbCircle
 10
65.64777674660001
 20
-93.82045918364999
 30
0.0
 40
0.36
100
AcDbArc
 50
165.0000052521
 51
270.0
  0
LINE
  5
126C
330
1202
100
AcDbEntity
  8
文字
100
AcDbLine
 10
63.7944571353
 20
-94.18045918365001
 30
0.0
 11
63.37861561240001
 21
-94.18045918365001
 31
0.0
  0
LINE
  5
126D
330
1202
100
AcDbEntity
  8
文字
100
AcDbLine
 10
63.25
 20
-94.66045918365001
 30
0.0
 11
63.37861561240001
 21
-94.18045918365001
 31
0.0
  0
ARC
  5
126E
330
1202
100
AcDbEntity
  8
文字
100
AcDbCircle
 10
63.7944571353
 20
-93.94045918365
 30
0.0
 40
0.24
100
AcDbArc
 50
270.0
 51
345.0000109816997
  0
LINE
  5
126F
330
1202
100
AcDbEntity
  8
文字
100
AcDbLine
 10
65.65000000000001
 20
-94.66045918365001
 30
0.0
 11
63.25
 21
-94.66045918365001
 31
0.0
  0
LINE
  5
1270
330
1202
100
AcDbEntity
  8
文字
100
AcDbLine
 10
64.0262793336
 20
-94.00257575445001
 30
0.0
 11
65.28860359660001
 21
-89.29151746905001
 31
0.0
  0
LINE
  5
1271
330
1202
100
AcDbEntity
  8
文字
100
AcDbLine
 10
65.3000434491
 20
-93.72728432745001
 30
0.0
 11
65.73355400740002
 21
-92.10940089824999
 31
0.0
  0
LINE
  5
1272
330
1202
100
AcDbEntity
  8
文字
100
AcDbLine
 10
67.3944571353
 20
-94.18045918365001
 30
0.0
 11
66.9786156124
 21
-94.18045918365001
 31
0.0
  0
LINE
  5
1273
330
1202
100
AcDbEntity
  8
文字
100
AcDbLine
 10
69.25
 20
-94.66045918365001
 30
0.0
 11
66.84999999999999
 21
-94.66045918365001
 31
0.0
  0
LINE
  5
1274
330
1202
100
AcDbEntity
  8
文字
100
AcDbLine
 10
66.10669633130001
 20
-91.30045918365
 30
0.0
 11
68.258230048
 21
-91.30045918365
 31
0.0
  0
LINE
  5
1275
330
1202
100
AcDbEntity
  8
文字
100
AcDbLine
 10
65.8494651066
 20
-92.02045918365
 30
0.0
 11
68.00099882329999
 21
-92.02045918365
 31
0.0
  0
ARC
  5
1276
330
1202
100
AcDbEntity
  8
文字
100
AcDbCircle
 10
73.07323801930002
 20
-89.38045918365
 30
0.0
 40
0.24
100
AcDbArc
 50
90.0
 51
165.0000052521
  0
LINE
  5
1277
330
1202
100
AcDbEntity
  8
文字
100
AcDbLine
 10
64.7290795422
 20
-89.14045918365001
 30
0.0
 11
64.85769515460001
 21
-88.66045918365001
 31
0.0
  0
LINE
  5
1278
330
1202
100
AcDbEntity
  8
文字
100
AcDbLine
 10
67.1290795422
 20
-89.14045918365001
 30
0.0
 11
67.25769515460001
 21
-88.66045918365001
 31
0.0
  0
LINE
  5
1279
330
1202
100
AcDbEntity
  8
文字
100
AcDbLine
 10
68.32907954220002
 20
-89.14045918365001
 30
0.0
 11
68.4576951546
 21
-88.66045918365001
 31
0.0
  0
LINE
  5
127A
330
1202
100
AcDbEntity
  8
文字
100
AcDbLine
 10
70.72907954219999
 20
-89.14045918365001
 30
0.0
 11
70.8576951546
 21
-88.66045918365001
 31
0.0
  0
LINE
  5
127B
330
1202
100
AcDbEntity
  8
文字
100
AcDbLine
 10
71.08907954220001
 20
-89.14045918365001
 30
0.0
 11
71.21769515459999
 21
-88.66045918365001
 31
0.0
  0
LINE
  5
127C
330
1202
100
AcDbEntity
  8
文字
100
AcDbLine
 10
73.48907954220002
 20
-89.14045918365001
 30
0.0
 11
73.6176951546
 21
-88.66045918365001
 31
0.0
  0
LINE
  5
127D
330
1202
100
AcDbEntity
  8
文字
100
AcDbLine
 10
73.8490795422
 20
-89.14045918365001
 30
0.0
 11
73.97769515460002
 21
-88.66045918365001
 31
0.0
  0
LINE
  5
127E
330
1202
100
AcDbEntity
  8
文字
100
AcDbLine
 10
76.24907954220001
 20
-89.14045918365001
 30
0.0
 11
76.37769515460002
 21
-88.66045918365001
 31
0.0
  0
LINE
  5
127F
330
1202
100
AcDbEntity
  8
文字
100
AcDbLine
 10
76.96907954220001
 20
-89.14045918365001
 30
0.0
 11
77.09769515460002
 21
-88.66045918365001
 31
0.0
  0
LINE
  5
1280
330
1202
100
AcDbEntity
  8
文字
100
AcDbLine
 10
79.2490795422
 20
-89.14045918365001
 30
0.0
 11
79.37769515460002
 21
-88.66045918365001
 31
0.0
  0
LINE
  5
1281
330
1202
100
AcDbEntity
  8
文字
100
AcDbLine
 10
80.20907954220001
 20
-89.14045918365001
 30
0.0
 11
80.33769515459999
 21
-88.66045918365001
 31
0.0
  0
LINE
  5
1282
330
1202
100
AcDbEntity
  8
文字
100
AcDbLine
 10
82.36907954220001
 20
-89.14045918365001
 30
0.0
 11
82.4976951546
 21
-88.66045918365001
 31
0.0
  0
LINE
  5
1283
330
1202
100
AcDbEntity
  8
文字
100
AcDbLine
 10
82.7290795422
 20
-89.14045918365001
 30
0.0
 11
82.85769515460001
 21
-88.66045918365001
 31
0.0
  0
LINE
  5
1284
330
1202
100
AcDbEntity
  8
文字
100
AcDbLine
 10
85.25769515460002
 20
-88.66045918365001
 30
0.0
 11
82.85769515460001
 21
-88.66045918365001
 31
0.0
  0
LINE
  5
1285
330
1202
100
AcDbEntity
  8
文字
100
AcDbLine
 10
83.2595675035
 20
-93.87834261285
 30
0.0
 11
84.48141582100001
 21
-89.31834261285001
 31
0.0
  0
LINE
  5
1286
330
1202
100
AcDbEntity
  8
圖框
100
AcDbLine
 10
137.5
 20
-45.56045918365
 30
0.0
 11
62.5
 21
-45.56045918365
 31
0.0
  0
TEXT
  5
1287
330
1202
100
AcDbEntity
  8
文字
100
AcDbText
 10
95.52649007453704
 20
-94.35242673930732
 30
0.0
 40
3.264802668514023
  1
TECHNOLOGIES CORP.
 51
5.0
  7
型式I
 72
     1
 11
116.3057866166815
 21
-95.27234351330852
 31
0.0
100
AcDbText
 73
     1
  0
TEXT
  5
1288
330
1202
100
AcDbEntity
  8
文字
100
AcDbText
 10
129.2516159000329
 20
93.68953067375702
 30
0.0
 40
2.0
  1
APP
  7
型式1
 72
     1
 11
131.815569388405
 21
93.09650741794307
 31
0.0
100
AcDbText
 73
     1
  0
TEXT
  5
1289
330
1202
100
AcDbEntity
  8
文字
100
AcDbText
 10
116.1171397230732
 20
93.68953067375702
 30
0.0
 40
2.0
  1
DATE
  7
型式1
 72
     1
 11
119.8438839091197
 21
93.09650741794307
 31
0.0
100
AcDbText
 73
     1
  0
TEXT
  5
128A
330
1202
100
AcDbEntity
  8
文字
100
AcDbText
 10
81.50767723018667
 20
93.68953067375702
 30
0.0
 40
2.0
  1
MODIFICATION
  7
型式1
 72
     1
 11
91.75913071855877
 21
93.09650741794307
 31
0.0
100
AcDbText
 73
     1
  0
LINE
  5
128B
330
1202
100
AcDbEntity
  8
圖框
100
AcDbLine
 10
70.5
 20
92.46045918365
 30
0.0
 11
137.5
 21
92.46045918365
 31
0.0
  0
LINE
  5
128C
330
1202
100
AcDbEntity
  8
圖框
100
AcDbLine
 10
113.5
 20
96.46045918365
 30
0.0
 11
113.5
 21
88.46045918365
 31
0.0
  0
LINE
  5
128D
330
1202
100
AcDbEntity
  8
圖框
100
AcDbLine
 10
125.5
 20
96.46045918365
 30
0.0
 11
125.5
 21
88.46045918365
 31
0.0
  0
LINE
  5
128E
330
1202
100
AcDbEntity
  8
圖框
100
AcDbLine
 10
70.5
 20
88.46045918365
 30
0.0
 11
70.5
 21
96.46045918365
 31
0.0
  0
TEXT
  5
128F
330
1202
100
AcDbEntity
  8
文字
 62
     2
100
AcDbText
 10
129.4000000000001
 20
93.46045918365
 30
0.0
 40
1.8
  1
APP
 41
0.85
  7
COMPLEX
100
AcDbText
  0
TEXT
  5
1290
330
1202
100
AcDbEntity
  8
文字
 62
     2
100
AcDbText
 10
116.7
 20
93.46045918365
 30
0.0
 40
1.8
  1
DATE
 41
0.85
  7
COMPLEX
100
AcDbText
  0
TEXT
  5
1291
330
1202
100
AcDbEntity
  8
文字
 62
     2
100
AcDbText
 10
84.29999999999996
 20
93.46045918365
 30
0.0
 40
1.8
  1
MODIFICATION
 41
0.85
  7
COMPLEX
100
AcDbText
  0
LINE
  5
1292
330
1202
100
AcDbEntity
  8
圖框
100
AcDbLine
 10
137.5
 20
-17.96045918365
 30
0.0
 11
62.5
 21
-17.96045918365
 31
0.0
  0
LINE
  5
1293
330
1202
100
AcDbEntity
  8
圖框
100
AcDbLine
 10
137.5
 20
-6.960459183650002
 30
0.0
 11
62.5
 21
-6.960459183650002
 31
0.0
  0
LINE
  5
1294
330
1202
100
AcDbEntity
  8
圖框
100
AcDbLine
 10
137.5
 20
-12.46045918365
 30
0.0
 11
62.5
 21
-12.46045918365
 31
0.0
  0
LINE
  5
1295
330
1202
100
AcDbEntity
  8
圖框
100
AcDbLine
 10
137.5
 20
-23.46045918365
 30
0.0
 11
62.5
 21
-23.46045918365
 31
0.0
  0
LINE
  5
1296
330
1202
100
AcDbEntity
  8
圖框
100
AcDbLine
 10
137.5
 20
-28.96045918365
 30
0.0
 11
62.5
 21
-28.96045918365
 31
0.0
  0
LINE
  5
1297
330
1202
100
AcDbEntity
  8
圖框
100
AcDbLine
 10
137.5
 20
-34.46045918365
 30
0.0
 11
62.5
 21
-34.46045918365
 31
0.0
  0
LINE
  5
1298
330
1202
100
AcDbEntity
  8
圖框
100
AcDbLine
 10
137.5
 20
-39.96045918365
 30
0.0
 11
62.5
 21
-39.96045918365
 31
0.0
  0
LINE
  5
1299
330
1202
100
AcDbEntity
  8
圖框
100
AcDbLine
 10
112.5
 20
-12.46045918365
 30
0.0
 11
112.5
 21
-45.56045918365001
 31
0.0
  0
LINE
  5
129A
330
1202
100
AcDbEntity
  8
圖框
100
AcDbLine
 10
62.5
 20
-6.960459183650002
 30
0.0
 11
62.5
 21
-45.56045918365001
 31
0.0
  0
TEXT
  5
129B
330
1202
100
AcDbEntity
  8
文字
 62
     2
100
AcDbText
 10
64.19520365879884
 20
-68.48550702672961
 30
0.0
 40
3.5
  1
LINEAR MOTION GUIDEWAY
 41
0.7000000000000001
  7
COMPLEX
100
AcDbText
  0
LINE
  5
129C
330
1202
100
AcDbEntity
  8
圖框
100
AcDbLine
 10
137.5
 20
-81.86045918365001
 30
0.0
 11
117.5
 21
-81.86045918365001
 31
0.0
  0
LINE
  5
129D
330
1202
100
AcDbEntity
  8
圖框
100
AcDbLine
 10
137.5
 20
-76.86045918365
 30
0.0
 11
117.5
 21
-76.86045918365
 31
0.0
  0
LINE
  5
129E
330
1202
100
AcDbEntity
  8
圖框
100
AcDbLine
 10
137.5
 20
-72.06045918364999
 30
0.0
 11
117.5
 21
-72.06045918364999
 31
0.0
  0
LINE
  5
129F
330
1202
100
AcDbEntity
  8
圖框
100
AcDbLine
 10
137.5
 20
-67.26045918365
 30
0.0
 11
117.5
 21
-67.26045918365
 31
0.0
  0
LINE
  5
12A0
330
1202
100
AcDbEntity
  8
圖框
100
AcDbLine
 10
137.5
 20
-46.36045918365
 30
0.0
 11
62.5
 21
-46.36045918365
 31
0.0
  0
LINE
  5
12A1
330
1202
100
AcDbEntity
  8
圖框
100
AcDbLine
 10
137.5
 20
-54.46045918365
 30
0.0
 11
62.5
 21
-54.46045918365
 31
0.0
  0
LINE
  5
12A2
330
1202
100
AcDbEntity
  8
圖框
100
AcDbLine
 10
137.5
 20
-62.76045918364999
 30
0.0
 11
62.5
 21
-62.76045918364999
 31
0.0
  0
LINE
  5
12A3
330
1202
100
AcDbEntity
  8
圖框
100
AcDbLine
 10
117.5
 20
-70.46045918365
 30
0.0
 11
62.5
 21
-70.46045918365
 31
0.0
  0
LINE
  5
12A4
330
1202
100
AcDbEntity
  8
圖框
100
AcDbLine
 10
117.5
 20
-78.46045918365
 30
0.0
 11
62.5
 21
-78.46045918365
 31
0.0
  0
LINE
  5
12A5
330
1202
100
AcDbEntity
  8
圖框
100
AcDbLine
 10
137.5
 20
-86.86045918365001
 30
0.0
 11
62.5
 21
-86.86045918365001
 31
0.0
  0
LINE
  5
12A6
330
1202
100
AcDbEntity
  8
圖框
100
AcDbLine
 10
62.5
 20
-46.36045918365
 30
0.0
 11
62.5
 21
-96.46045918365
 31
0.0
  0
LINE
  5
12A7
330
1202
100
AcDbEntity
  8
圖框
100
AcDbLine
 10
117.5
 20
-62.76045918364999
 30
0.0
 11
117.5
 21
-86.86045918365001
 31
0.0
  0
TEXT
  5
12A8
330
1202
100
AcDbEntity
  8
文字
 62
     2
100
AcDbText
 10
94.75440421570002
 20
-94.46045918364999
 30
0.0
 40
4.0
  1
TECHNOLOGIES CORP.
 41
0.6
 51
5.000000159199999
  7
COMPLEX
100
AcDbText
  0
LINE
  5
12A9
330
1202
100
AcDbEntity
  8
圖框
100
AcDbLine
 10
-137.5
 20
-96.46045918365
 30
0.0
 11
-137.5
 21
96.46045918365
 31
0.0
  0
LINE
  5
12AA
330
1202
100
AcDbEntity
  8
圖框
100
AcDbLine
 10
137.5
 20
-96.46045918365
 30
0.0
 11
-137.5
 21
-96.46045918365
 31
0.0
  0
LINE
  5
12AB
330
1202
100
AcDbEntity
  8
圖框
100
AcDbLine
 10
137.5
 20
96.46045918365
 30
0.0
 11
137.5
 21
-96.46045918365
 31
0.0
  0
LINE
  5
12AC
330
1202
100
AcDbEntity
  8
圖框
100
AcDbLine
 10
-137.5
 20
96.46045918365
 30
0.0
 11
137.5
 21
96.46045918365
 31
0.0
  0
TEXT
  5
12AD
330
1202
100
AcDbEntity
  8
文字
100
AcDbText
 10
93.21511627906977
 20
-10.94926101297211
 30
0.0
 40
3.0
  1
規    格
  7
型式1
 72
     1
 11
100.0
 21
-11.83879589669304
 31
0.0
100
AcDbText
 73
     1
  0
TEXT
  5
12AE
330
1202
100
AcDbEntity
  8
文字
100
AcDbText
 10
80.05813953488372
 20
-16.39060938413577
 30
0.0
 40
2.5
  1
滑塊型式
  7
型式1
 72
     1
 11
87.5
 21
-17.13188845390321
 31
0.0
100
AcDbText
 73
     1
  0
TEXT
  5
12AF
330
1202
100
AcDbEntity
  8
文字
100
AcDbText
 10
70.75581395348837
 20
-21.89060938413577
 30
0.0
 40
2.5
  1
單根滑軌上滑塊個數
  7
型式1
 72
     1
 11
87.5
 21
-22.63188845390322
 31
0.0
100
AcDbText
 73
     1
  0
TEXT
  5
12B0
330
1202
100
AcDbEntity
  8
文字
100
AcDbText
 10
80.05813953488372
 20
-27.39060938413578
 30
0.0
 40
2.5
  1
精度等級
  7
型式1
 72
     1
 11
87.5
 21
-28.13188845390321
 31
0.0
100
AcDbText
 73
     1
  0
TEXT
  5
12B1
330
1202
100
AcDbEntity
  8
文字
100
AcDbText
 10
80.05813953488372
 20
-32.89060938413577
 30
0.0
 40
2.5
  1
預壓等級
  7
型式1
 72
     1
 11
87.5
 21
-33.63188845390322
 31
0.0
100
AcDbText
 73
     1
  0
TEXT
  5
12B2
330
1202
100
AcDbEntity
  8
文字
100
AcDbText
 10
70.75581395348837
 20
-38.39060938413577
 30
0.0
 40
2.5
  1
同一軸使用之滑軌數
  7
型式1
 72
     1
 11
87.5
 21
-39.13188845390322
 31
0.0
100
AcDbText
 73
     1
  0
TEXT
  5
12B3
330
1202
100
AcDbEntity
  8
文字
100
AcDbText
 10
74.47674418604652
 20
-43.94060938413576
 30
0.0
 40
2.5
  1
滑塊內預封油脂
  7
型式1
 72
     1
 11
87.5
 21
-44.68188845390321
 31
0.0
100
AcDbText
 73
     1
  0
TEXT
  5
12B4
330
1202
100
AcDbEntity
  8
文字
100
AcDbText
 10
63.10000000000002
 20
-49.22348098820744
 30
0.0
 40
2.0
  1
客戶
  7
型式1
100
AcDbText
  0
TEXT
  5
12B5
330
1202
100
AcDbEntity
  8
文字
100
AcDbText
 10
63.10000000000002
 20
-57.22348098820745
 30
0.0
 40
2.0
  1
機型
  7
型式1
100
AcDbText
  0
TEXT
  5
12B6
330
1202
100
AcDbEntity
  8
文字
100
AcDbText
 10
70.67493132672578
 20
-68.12481386985424
 30
0.0
 40
3.731202987961495
  1
LINEAR GUIDEWAY
  7
型式2
 72
     1
 11
90.46473722972597
 21
-69.17614730845112
 31
0.0
100
AcDbText
 73
     1
  0
TEXT
  5
12B7
330
1202
100
AcDbEntity
  8
文字
100
AcDbText
 10
63.10000000000002
 20
-73.22348098820746
 30
0.0
 40
2.0
  1
型號
  7
型式1
100
AcDbText
  0
TEXT
  5
12B8
330
1202
100
AcDbEntity
  8
文字
100
AcDbText
 10
63.10000000000002
 20
-81.22348098820745
 30
0.0
 40
2.0
  1
圖號
  7
型式1
100
AcDbText
  0
TEXT
  5
12B9
330
1202
100
AcDbEntity
  8
文字
100
AcDbText
 10
118.0422826873949
 20
-69.09858188128906
 30
0.0
 40
1.399999999999999
  1
DATE
  7
型式1
100
AcDbText
  0
TEXT
  5
12BA
330
1202
100
AcDbEntity
  8
文字
100
AcDbText
 10
118.0422826873949
 20
-73.79398308954567
 30
0.0
 40
1.399999999999999
  1
DR
  7
型式1
100
AcDbText
  0
TEXT
  5
12BB
330
1202
100
AcDbEntity
  8
文字
100
AcDbText
 10
118.0422826873949
 20
-78.72376718588485
 30
0.0
 40
1.399999999999999
  1
CK
  7
型式1
100
AcDbText
  0
TEXT
  5
12BC
330
1202
100
AcDbEntity
  8
文字
100
AcDbText
 10
118.0422826873949
 20
-83.584745409562
 30
0.0
 40
1.399999999999999
  1
APP
  7
型式1
100
AcDbText
  0
LINE
  5
12BD
330
1202
100
AcDbEntity
  8
圖框
100
AcDbLine
 10
70.5
 20
88.46045918365
 30
0.0
 11
137.5
 21
88.46045918365
 31
0.0
  0
LINE
  5
12BE
330
1202
100
AcDbEntity
  8
圖框
100
AcDbLine
 10
137.5
 20
-61.96045918365
 30
0.0
 11
62.5
 21
-61.96045918365
 31
0.0
  0
TEXT
  5
12BF
330
1202
100
AcDbEntity
  8
文字
100
AcDbText
 10
118.0422826873949
 20
-64.59858188128906
 30
0.0
 40
1.399999999999999
  1
SCALE
  7
型式1
100
AcDbText
  0
ENDBLK
  5
12C1
330
1202
100
AcDbEntity
  8
0
 62
     7
 48
0.27
100
AcDbBlockEnd
  0
BLOCK
  5
1409
330
13FE
100
AcDbEntity
  8
0
 48
0.27
100
AcDbBlockBegin
  2
f04s
 70
     0
 10
0.0
 20
0.0
 30
0.0
  3
f04s
  1

  0
TEXT
  5
13FF
330
13FE
100
AcDbEntity
  8
標註線
100
AcDbText
 10
-0.9033659168728007
 20
2.483302084097783
 30
0.0
 40
1.729999999999999
  1
G
  7
ROMANS
100
AcDbText
  0
LINE
  5
1400
330
13FE
100
AcDbEntity
  8
標註線
100
AcDbLine
 10
-2.170837012152986
 20
0.0000000000000107
 30
0.0
 11
-3.25625551822948
 21
1.880000000000009
 31
0.0
  0
LINE
  5
1401
330
13FE
100
AcDbEntity
  8
標註線
100
AcDbLine
 10
-2.170837012152986
 20
0.0000000000000107
 30
0.0
 11
-1.085418506076493
 21
1.880000000000009
 31
0.0
  0
LINE
  5
1402
330
13FE
100
AcDbEntity
  8
標註線
100
AcDbLine
 10
-3.25625551822948
 20
1.880000000000009
 30
0.0
 11
-1.085418506076493
 21
1.880000000000009
 31
0.0
  0
LINE
  5
1403
330
13FE
100
AcDbEntity
  8
標註線
100
AcDbLine
 10
0.0
 20
0.0000000000000107
 30
0.0
 11
-1.085418506076493
 21
1.880000000000009
 31
0.0
  0
LINE
  5
1404
330
13FE
100
AcDbEntity
  8
標註線
100
AcDbLine
 10
0.0
 20
0.0000000000000107
 30
0.0
 11
1.085418506076493
 21
1.880000000000009
 31
0.0
  0
LINE
  5
1405
330
13FE
100
AcDbEntity
  8
標註線
100
AcDbLine
 10
-1.085418506076493
 20
1.880000000000009
 30
0.0
 11
1.085418506076493
 21
1.880000000000016
 31
0.0
  0
LINE
  5
1406
330
13FE
100
AcDbEntity
  8
標註線
100
AcDbLine
 10
2.170837012152986
 20
0.0000000000000142
 30
0.0
 11
1.085418506076493
 21
1.880000000000016
 31
0.0
  0
LINE
  5
1407
330
13FE
100
AcDbEntity
  8
標註線
100
AcDbLine
 10
2.170837012153015
 20
0.0000000000000142
 30
0.0
 11
3.256255518229508
 21
1.880000000000016
 31
0.0
  0
LINE
  5
1408
330
13FE
100
AcDbEntity
  8
標註線
100
AcDbLine
 10
1.085418506076493
 20
1.880000000000016
 30
0.0
 11
3.256255518229508
 21
1.880000000000016
 31
0.0
  0
ENDBLK
  5
140A
330
13FE
100
AcDbEntity
  8
0
 48
0.27
100
AcDbBlockEnd
  0
BLOCK
  5
1419
330
140E
100
AcDbEntity
  8
0
 48
0.27
100
AcDbBlockBegin
  2
f04s1
 70
     0
 10
0.0
 20
0.0
 30
0.0
  3
f04s1
  1

  0
TEXT
  5
140F
330
140E
100
AcDbEntity
  8
標註線
100
AcDbText
 10
0.7754438084131437
 20
4.163453471782446
 30
0.0
 40
1.727447620285638
  1
G
 50
180.0
  7
ROMANS
100
AcDbText
  0
LINE
  5
1410
330
140E
100
AcDbEntity
  8
標註線
100
AcDbLine
 10
-2.174660276251742
 20
0.0000000000000107
 30
0.0
 11
-3.261990414377606
 21
1.883311043834908
 31
0.0
  0
LINE
  5
1411
330
140E
100
AcDbEntity
  8
標註線
100
AcDbLine
 10
-2.174660276251742
 20
0.0000000000000107
 30
0.0
 11
-1.087330138125849
 21
1.883311043834908
 31
0.0
  0
LINE
  5
1412
330
140E
100
AcDbEntity
  8
標註線
100
AcDbLine
 10
-3.261990414377606
 20
1.883311043834908
 30
0.0
 11
-1.087330138125849
 21
1.883311043834908
 31
0.0
  0
LINE
  5
1413
330
140E
100
AcDbEntity
  8
標註線
100
AcDbLine
 10
0.0
 20
0.0000000000000107
 30
0.0
 11
-1.087330138125849
 21
1.883311043834908
 31
0.0
  0
LINE
  5
1414
330
140E
100
AcDbEntity
  8
標註線
100
AcDbLine
 10
0.0000000000000142
 20
0.0000000000000107
 30
0.0
 11
1.087330138125878
 21
1.883311043834908
 31
0.0
  0
LINE
  5
1415
330
140E
100
AcDbEntity
  8
標註線
100
AcDbLine
 10
-1.087330138125849
 20
1.883311043834908
 30
0.0
 11
1.087330138125878
 21
1.883311043834911
 31
0.0
  0
LINE
  5
1416
330
140E
100
AcDbEntity
  8
標註線
100
AcDbLine
 10
2.174660276251771
 20
0.0000000000000142
 30
0.0
 11
1.087330138125878
 21
1.883311043834911
 31
0.0
  0
LINE
  5
1417
330
140E
100
AcDbEntity
  8
標註線
100
AcDbLine
 10
2.174660276251771
 20
0.0000000000000142
 30
0.0
 11
3.261990414377635
 21
1.883311043834911
 31
0.0
  0
LINE
  5
1418
330
140E
100
AcDbEntity
  8
標註線
100
AcDbLine
 10
1.087330138125878
 20
1.883311043834911
 30
0.0
 11
3.261990414377635
 21
1.883311043834911
 31
0.0
  0
ENDBLK
  5
141A
330
140E
100
AcDbEntity
  8
0
 48
0.27
100
AcDbBlockEnd
  0
BLOCK
  5
1451
330
144C
100
AcDbEntity
  8
0
 48
0.27
100
AcDbBlockBegin
  2
eview
 70
     0
 10
0.0
 20
0.0
 30
0.0
  3
eview
  1

  0
TEXT
  5
144D
330
144C
100
AcDbEntity
  8
標註線
100
AcDbText
 10
-14.57901903109095
 20
1.030983075552512
 30
0.0
 40
3.5
  1
E
 72
     4
 11
-13.35401903109096
 21
2.780983075552512
 31
0.0
100
AcDbText
  0
LINE
  5
144E
330
144C
100
AcDbEntity
  8
標註線
100
AcDbLine
 10
-8.052285146048632
 20
-0.7968465076999678
 30
0.0
 11
-7.722792918948641
 21
1.071796769700029
 31
0.0
  0
LINE
  5
144F
330
144C
100
AcDbEntity
  8
標註線
100
AcDbLine
 10
-3.722792918948641
 20
0.0
 30
0.0
 11
-7.722792918948641
 21
1.071796769700029
 31
0.0
  0
LINE
  5
1450
330
144C
100
AcDbEntity
  8
標註線
100
AcDbLine
 10
-3.722792918948641
 20
0.0
 30
0.0
 11
-11.72279291894864
 21
0.0
 31
0.0
  0
ENDBLK
  5
1452
330
144C
100
AcDbEntity
  8
0
 48
0.27
100
AcDbBlockEnd
  0
BLOCK
  5
1459
330
1457
100
AcDbEntity
  8
0
 48
0.27
100
AcDbBlockBegin
  2
viewe
 70
     0
 10
0.0
 20
0.0
 30
0.0
  3
viewe
  1

  0
TEXT
  5
1458
330
1457
100
AcDbEntity
  8
標註線
100
AcDbText
 10
-6.677902407900195
 20
-4.794621995899788
 30
0.0
 40
3.5
  1
VIEW E
 72
     1
 11
0.4970975920998058
 21
-1.294621995899788
 31
0.0
100
AcDbText
 73
     3
  0
ENDBLK
  5
145A
330
1457
100
AcDbEntity
  8
0
 48
0.27
100
AcDbBlockEnd
  0
BLOCK
  5
1E1CE
330
1E1CC
100
AcDbEntity
  8
0
 62
     7
 48
0.27
100
AcDbBlockBegin
  2
a4hc_RG
 70
     0
 10
0.0
 20
0.0
 30
0.0
  3
a4hc_RG
  1

  0
HATCH
  5
1E1CF
330
1E1CC
100
AcDbEntity
  8
文字
100
AcDbHatch
 10
0.0
 20
0.0
 30
0.0
210
0.0
220
0.0
230
1.0
  2
SOLID
 70
     1
 71
     0
 91
        5
 92
        7
 72
     1
 73
     1
 93
       25
 10
87.31284730300007
 20
-88.66045918365001
 42
0.0
 10
85.7376951546
 20
-88.66045918365001
 42
0.0
 10
85.60907954220002
 20
-89.14045918365001
 42
0.0
 10
85.7763054527
 20
-89.14045918365001
 42
-0.4931454259997348
 10
86.0081276509956
 20
-89.44257575446648
 42
0.0
 10
84.81011119419003
 20
-93.91363403988721
 42
-0.3394542588631269
 10
84.46237789672606
 20
-94.18045918365001
 42
0.0
 10
84.25861561239997
 20
-94.18045918365001
 42
0.0
 10
84.13000000000002
 20
-94.66045918365001
 42
0.0
 10
86.05000000000002
 20
-94.66045918365001
 42
0.0
 10
86.17861561239999
 20
-94.18045918365001
 42
0.0
 10
85.8827740895
 20
-94.18045918365001
 42
-0.4931454260042405
 10
85.65095189120532
 20
-93.87834261283016
 42
0.0
 10
86.6437023613
 20
-90.17334741915
 42
0.0
 10
88.93
 20
-94.66045918365001
 42
0.0
 10
89.77000000000002
 20
-94.66045918365001
 42
0.0
 10
91.17758396041134
 20
-89.40728432740771
 42
-0.33945425885905
 10
91.52531725787396
 20
-89.14045918365001
 42
0.0
 10
91.62423169070001
 20
-89.14045918365001
 42
0.0
 10
91.75284730299997
 20
-88.66045918365001
 42
0.0
 10
89.83284730299999
 20
-88.66045918365001
 42
0.0
 10
89.70423169069997
 20
-89.14045918365001
 42
0.0
 10
90.09630545270002
 20
-89.14045918365001
 42
-0.49314542600108
 10
90.32812765099533
 20
-89.4425757544675
 42
0.0
 10
89.42628221460003
 20
-92.80830874384998
 42
0.0
 97
        0
 92
        7
 72
     1
 73
     1
 93
       16
 10
84.48141582100573
 20
-89.31834261282872
 42
-0.3394542588673643
 10
84.71323801931598
 20
-89.14045918365001
 42
0.0
 10
85.12907954219997
 20
-89.14045918365001
 42
0.0
 10
85.25769515459996
 20
-88.66045918365001
 42
0.0
 10
82.85769515459998
 20
-88.66045918365001
 42
0.0
 10
82.72907954220002
 20
-89.14045918365001
 42
0.0
 10
83.17269249750001
 20
-89.14045918365001
 42
-0.4931454258380596
 10
83.28860359660103
 20
-89.29151746904622
 42
0.0
 10
82.02627933359531
 20
-94.00257575446746
 42
-0.3394542588719629
 10
81.79445713528403
 20
-94.18045918365001
 42
0.0
 10
81.37861561240004
 20
-94.18045918365001
 42
0.0
 10
81.25000000000003
 20
-94.66045918365001
 42
0.0
 10
83.65
 20
-94.66045918365001
 42
0.0
 10
83.77861561240004
 20
-94.18045918365001
 42
0.0
 10
83.49138970180002
 20
-94.18045918365001
 42
-0.4931454260061948
 10
83.2595675035057
 20
-93.87834261282872
 42
0.0
 97
        0
 92
        7
 72
     1
 73
     1
 93
       31
 10
81.84769145359755
 20
-89.26045918365428
 42
-0.2679491924366411
 10
82.05553755050829
 20
-89.14045918365001
 42
0.0
 10
82.36907954220001
 20
-89.14045918365001
 42
0.0
 10
82.4976951546
 20
-88.66045918365001
 42
0.0
 10
80.33769515459999
 20
-88.66045918365001
 42
0.0
 10
80.20907954220005
 20
-89.14045918365001
 42
0.0
 10
80.56289929950001
 20
-89.14045918365001
 42
-0.5628963153237844
 10
80.72256124950014
 20
-89.40357393404978
 42
0.0
 10
78.89163332860002
 20
-92.92075374574997
 42
0.0
 10
78.82777920529955
 20
-89.26255347242422
 42
-0.4193348017625921
 10
78.94776092871828
 20
-89.14045918365001
 42
0.0
 10
79.24907954219998
 20
-89.14045918365001
 42
0.0
 10
79.37769515459999
 20
-88.66045918365001
 42
0.0
 10
77.09769515460002
 20
-88.66045918365001
 42
0.0
 10
76.96907954220003
 20
-89.14045918365001
 42
0.0
 10
77.1255890983
 20
-89.14045918365001
 42
-0.5773502691742179
 10
77.54128129210283
 20
-89.8604591836451
 42
0.0
 10
75.77171508830002
 20
-92.92543775595001
 42
0.0
 10
75.70991036910072
 20
-89.38464776119046
 42
-0.4193348017528848
 10
75.94987381593833
 20
-89.14045918365001
 42
0.0
 10
76.24907954220003
 20
-89.14045918365001
 42
0.0
 10
76.37769515459999
 20
-88.66045918365001
 42
0.0
 10
73.97769515459998
 20
-88.66045918365001
 42
0.0
 10
73.8490795422
 20
-89.14045918365001
 42
0.0
 10
74.17924157699999
 20
-89.14045918365001
 42
-0.4014906669321768
 10
74.41901315020141
 20
-89.36999053068218
 42
0.0
 10
74.64999999999998
 20
-94.66045918365001
 42
0.0
 10
75.61000000000001
 20
-94.66045918365001
 42
0.0
 10
77.7149916749
 20
-91.50903434665009
 42
0.0
 10
77.77000000000001
 20
-94.66045918365001
 42
0.0
 10
78.73000000000001
 20
-94.66045918365001
 42
0.0
 97
        0
 92
        7
 72
     1
 73
     1
 93
       16
 10
72.84141582100571
 20
-89.31834261282872
 42
-0.3394542588673603
 10
73.07323801931596
 20
-89.14045918365001
 42
0.0
 10
73.48907954220002
 20
-89.14045918365001
 42
0.0
 10
73.6176951546
 20
-88.66045918365001
 42
0.0
 10
71.21769515459999
 20
-88.66045918365001
 42
0.0
 10
71.08907954220004
 20
-89.14045918365001
 42
0.0
 10
71.53269249749996
 20
-89.14045918365001
 42
-0.4931454258381302
 10
71.64860359660102
 20
-89.29151746904622
 42
0.0
 10
70.38627933359535
 20
-94.00257575446746
 42
-0.3394542588719971
 10
70.15445713528404
 20
-94.18045918365001
 42
0.0
 10
69.73861561239999
 20
-94.18045918365001
 42
0.0
 10
69.61000000000004
 20
-94.66045918365001
 42
0.0
 10
72.01000000000002
 20
-94.66045918365001
 42
0.0
 10
72.1386156124
 20
-94.18045918365001
 42
0.0
 10
71.8513897018
 20
-94.18045918365001
 42
-0.4931454260061438
 10
71.61956750350572
 20
-93.87834261282874
 42
0.0
 97
        0
 92
        7
 72
     1
 73
     1
 93
       40
 10
70.08141582100572
 20
-89.31834261282872
 42
-0.3394542588673941
 10
70.313238019316
 20
-89.14045918365001
 42
0.0
 10
70.72907954219999
 20
-89.14045918365001
 42
0.0
 10
70.8576951546
 20
-88.66045918365001
 42
0.0
 10
68.4576951546
 20
-88.66045918365001
 42
0.0
 10
68.32907954220002
 20
-89.14045918365001
 42
0.0
 10
68.77269249749997
 20
-89.14045918365001
 42
-0.4931454258321303
 10
68.88860359660163
 20
-89.291517469044
 42
0.0
 10
68.37414114719493
 20
-91.21151746906901
 42
-0.3394542588472685
 10
68.25823004804203
 20
-91.30045918365
 42
0.0
 10
66.10669633130001
 20
-91.30045918365
 42
-0.4931454258316102
 10
65.99078523219836
 20
-91.14940089825617
 42
0.0
 10
66.4814158210034
 20
-89.31834261283734
 42
-0.339454258877745
 10
66.71323801931598
 20
-89.14045918365001
 42
0.0
 10
67.1290795422
 20
-89.14045918365001
 42
0.0
 10
67.25769515459998
 20
-88.66045918365001
 42
0.0
 10
64.85769515460001
 20
-88.66045918365001
 42
0.0
 10
64.72907954219997
 20
-89.14045918365001
 42
0.0
 10
65.1726924975
 20
-89.14045918365001
 42
-0.4931454258380596
 10
65.28860359660104
 20
-89.29151746904622
 42
0.0
 10
64.02627933359531
 20
-94.00257575446746
 42
-0.3394542588719629
 10
63.79445713528403
 20
-94.18045918365001
 42
0.0
 10
63.37861561240003
 20
-94.18045918365001
 42
0.0
 10
63.25
 20
-94.66045918365001
 42
0.0
 10
65.65000000000003
 20
-94.66045918365001
 42
0.0
 10
65.77861561240005
 20
-94.18045918365001
 42
0.0
 10
65.64777674660001
 20
-94.18045918365001
 42
-0.4931454260592977
 10
65.30004344911154
 20
-93.72728432740695
 42
0.0
 10
65.73355400740609
 20
-92.10940089822733
 42
-0.339454258838397
 10
65.849465106558
 20
-92.02045918365
 42
0.0
 10
68.00099882329999
 20
-92.02045918365
 42
-0.4931454258316087
 10
68.11690992240165
 20
-92.17151746904383
 42
0.0
 10
67.62627933359661
 20
-94.00257575446266
 42
-0.3394542588777114
 10
67.39445713528406
 20
-94.18045918365001
 42
0.0
 10
66.97861561240003
 20
-94.18045918365001
 42
0.0
 10
66.85000000000002
 20
-94.66045918365001
 42
0.0
 10
69.25
 20
-94.66045918365001
 42
0.0
 10
69.37861561240001
 20
-94.18045918365001
 42
0.0
 10
69.09138970180001
 20
-94.18045918365001
 42
-0.4931454260061438
 10
68.85956750350572
 20
-93.87834261282874
 42
0.0
 97
        0
 75
     0
 76
     1
 47
0.0375180088224066
 98
        5
 10
88.20901055367233
 20
-91.69475157655403
 10
83.70319790931592
 20
-90.83183694378936
 10
80.21119388198883
 20
-91.16949944083188
 10
71.95053736733552
 20
-90.64424730510967
 10
69.05930767299003
 20
-90.90687337297078
  0
CIRCLE
  5
1E1D0
330
1E1CC
100
AcDbEntity
  8
文字
100
AcDbCircle
 10
92.35440421570002
 20
-93.78229363355
 30
0.0
 40
1.199999999999988
  0
LINE
  5
1E1D1
330
1E1CC
100
AcDbEntity
  8
文字
100
AcDbLine
 10
89.83284730299999
 20
-88.66045918365001
 30
0.0
 11
91.75284730300001
 21
-88.66045918365001
 31
0.0
  0
LINE
  5
1E1D2
330
1E1CC
100
AcDbEntity
  8
文字
100
AcDbLine
 10
87.31284730300002
 20
-88.66045918365001
 30
0.0
 11
85.7376951546
 21
-88.66045918365001
 31
0.0
  0
LINE
  5
1E1D3
330
1E1CC
100
AcDbEntity
  8
文字
100
AcDbLine
 10
89.7042316907
 20
-89.14045918365001
 30
0.0
 11
90.09630545270002
 21
-89.14045918365001
 31
0.0
  0
LINE
  5
1E1D4
330
1E1CC
100
AcDbEntity
  8
文字
100
AcDbLine
 10
91.52531725790002
 20
-89.14045918365001
 30
0.0
 11
91.62423169070001
 21
-89.14045918365001
 31
0.0
  0
ARC
  5
1E1D5
330
1E1CC
100
AcDbEntity
  8
文字
100
AcDbCircle
 10
90.09630545270002
 20
-89.38045918365
 30
0.0
 40
0.24
100
AcDbArc
 50
345.0000109816997
 51
90.0
  0
ARC
  5
1E1D6
330
1E1CC
100
AcDbEntity
  8
文字
100
AcDbCircle
 10
91.52531725790002
 20
-89.50045918365001
 30
0.0
 40
0.36
100
AcDbArc
 50
90.0
 51
165.0000052521
  0
TEXT
  5
1E1D7
330
1E1CC
100
AcDbEntity
  8
文字
100
AcDbText
 10
91.70403496470001
 20
-94.61179976495001
 30
0.0
 40
1.558055249599999
  1
R
 41
0.75
 51
5.000000159199999
  7
SIMPLEX
100
AcDbText
  0
LINE
  5
1E1D8
330
1E1CC
100
AcDbEntity
  8
文字
100
AcDbLine
 10
89.77000000000002
 20
-94.66045918365001
 30
0.0
 11
91.17758396040001
 21
-89.40728432745
 31
0.0
  0
LINE
  5
1E1D9
330
1E1CC
100
AcDbEntity
  8
文字
100
AcDbLine
 10
85.12907954220001
 20
-89.14045918365001
 30
0.0
 11
84.71323801930001
 21
-89.14045918365001
 31
0.0
  0
ARC
  5
1E1DA
330
1E1CC
100
AcDbEntity
  8
文字
100
AcDbCircle
 10
84.71323801930001
 20
-89.38045918365
 30
0.0
 40
0.24
100
AcDbArc
 50
90.0
 51
165.0000052521
  0
LINE
  5
1E1DB
330
1E1CC
100
AcDbEntity
  8
文字
100
AcDbLine
 10
85.7763054527
 20
-89.14045918365001
 30
0.0
 11
85.60907954220002
 21
-89.14045918365001
 31
0.0
  0
ARC
  5
1E1DC
330
1E1CC
100
AcDbEntity
  8
文字
100
AcDbCircle
 10
85.7763054527
 20
-89.38045918365
 30
0.0
 40
0.24
100
AcDbArc
 50
345.0000109816997
 51
90.0
  0
LINE
  5
1E1DD
330
1E1CC
100
AcDbEntity
  8
文字
100
AcDbLine
 10
86.05000000000002
 20
-94.66045918365001
 30
0.0
 11
84.13
 21
-94.66045918365001
 31
0.0
  0
LINE
  5
1E1DE
330
1E1CC
100
AcDbEntity
  8
文字
100
AcDbLine
 10
86.17861561239999
 20
-94.18045918365001
 30
0.0
 11
85.8827740895
 21
-94.18045918365001
 31
0.0
  0
LINE
  5
1E1DF
330
1E1CC
100
AcDbEntity
  8
文字
100
AcDbLine
 10
84.13
 20
-94.66045918365001
 30
0.0
 11
84.25861561240001
 21
-94.18045918365001
 31
0.0
  0
LINE
  5
1E1E0
330
1E1CC
100
AcDbEntity
  8
文字
100
AcDbLine
 10
86.05000000000002
 20
-94.66045918365001
 30
0.0
 11
86.17861561239999
 21
-94.18045918365001
 31
0.0
  0
LINE
  5
1E1E1
330
1E1CC
100
AcDbEntity
  8
文字
100
AcDbLine
 10
84.46237789670002
 20
-94.18045918365001
 30
0.0
 11
84.25861561240001
 21
-94.18045918365001
 31
0.0
  0
ARC
  5
1E1E2
330
1E1CC
100
AcDbEntity
  8
文字
100
AcDbCircle
 10
84.46237789670002
 20
-93.82045918364999
 30
0.0
 40
0.36
100
AcDbArc
 50
270.0
 51
345.0000109816995
  0
ARC
  5
1E1E3
330
1E1CC
100
AcDbEntity
  8
文字
100
AcDbCircle
 10
85.8827740895
 20
-93.94045918365
 30
0.0
 40
0.24
100
AcDbArc
 50
165.0000052521
 51
270.0
  0
LINE
  5
1E1E4
330
1E1CC
100
AcDbEntity
  8
文字
100
AcDbLine
 10
86.008127651
 20
-89.44257575445
 30
0.0
 11
84.81011119420001
 21
-93.91363403985002
 31
0.0
  0
LINE
  5
1E1E5
330
1E1CC
100
AcDbEntity
  8
文字
100
AcDbLine
 10
86.6437023613
 20
-90.17334741915
 30
0.0
 11
85.6509518912
 21
-93.87834261285
 31
0.0
  0
LINE
  5
1E1E6
330
1E1CC
100
AcDbEntity
  8
文字
100
AcDbLine
 10
88.93
 20
-94.66045918365001
 30
0.0
 11
86.6437023613
 21
-90.17334741915
 31
0.0
  0
LINE
  5
1E1E7
330
1E1CC
100
AcDbEntity
  8
文字
100
AcDbLine
 10
88.93
 20
-94.66045918365001
 30
0.0
 11
89.77000000000002
 21
-94.66045918365001
 31
0.0
  0
LINE
  5
1E1E8
330
1E1CC
100
AcDbEntity
  8
文字
100
AcDbLine
 10
89.42628221460001
 20
-92.80830874385001
 30
0.0
 11
90.32812765100002
 21
-89.44257575445
 31
0.0
  0
LINE
  5
1E1E9
330
1E1CC
100
AcDbEntity
  8
文字
100
AcDbLine
 10
85.12907954220001
 20
-89.14045918365001
 30
0.0
 11
85.25769515460002
 21
-88.66045918365001
 31
0.0
  0
LINE
  5
1E1EA
330
1E1CC
100
AcDbEntity
  8
文字
100
AcDbLine
 10
85.60907954220002
 20
-89.14045918365001
 30
0.0
 11
85.7376951546
 21
-88.66045918365001
 31
0.0
  0
LINE
  5
1E1EB
330
1E1CC
100
AcDbEntity
  8
文字
100
AcDbLine
 10
89.42628221460001
 20
-92.80830874385001
 30
0.0
 11
87.31284730300002
 21
-88.66045918365001
 31
0.0
  0
LINE
  5
1E1EC
330
1E1CC
100
AcDbEntity
  8
文字
100
AcDbLine
 10
89.7042316907
 20
-89.14045918365001
 30
0.0
 11
89.83284730299999
 21
-88.66045918365001
 31
0.0
  0
LINE
  5
1E1ED
330
1E1CC
100
AcDbEntity
  8
文字
100
AcDbLine
 10
91.62423169070001
 20
-89.14045918365001
 30
0.0
 11
91.75284730300001
 21
-88.66045918365001
 31
0.0
  0
LINE
  5
1E1EE
330
1E1CC
100
AcDbEntity
  8
文字
100
AcDbLine
 10
82.4976951546
 20
-88.66045918365001
 30
0.0
 11
80.33769515459999
 21
-88.66045918365001
 31
0.0
  0
LINE
  5
1E1EF
330
1E1CC
100
AcDbEntity
  8
文字
100
AcDbLine
 10
76.37769515460002
 20
-88.66045918365001
 30
0.0
 11
73.97769515460002
 21
-88.66045918365001
 31
0.0
  0
LINE
  5
1E1F0
330
1E1CC
100
AcDbEntity
  8
文字
100
AcDbLine
 10
79.37769515460002
 20
-88.66045918365001
 30
0.0
 11
77.09769515460002
 21
-88.66045918365001
 31
0.0
  0
LINE
  5
1E1F1
330
1E1CC
100
AcDbEntity
  8
文字
100
AcDbLine
 10
70.8576951546
 20
-88.66045918365001
 30
0.0
 11
68.4576951546
 21
-88.66045918365001
 31
0.0
  0
LINE
  5
1E1F2
330
1E1CC
100
AcDbEntity
  8
文字
100
AcDbLine
 10
67.25769515460001
 20
-88.66045918365001
 30
0.0
 11
64.85769515460001
 21
-88.66045918365001
 31
0.0
  0
LINE
  5
1E1F3
330
1E1CC
100
AcDbEntity
  8
文字
100
AcDbLine
 10
73.6176951546
 20
-88.66045918365001
 30
0.0
 11
71.21769515459999
 21
-88.66045918365001
 31
0.0
  0
LINE
  5
1E1F4
330
1E1CC
100
AcDbEntity
  8
文字
100
AcDbLine
 10
82.36907954220001
 20
-89.14045918365001
 30
0.0
 11
82.05553755050003
 21
-89.14045918365001
 31
0.0
  0
ARC
  5
1E1F5
330
1E1CC
100
AcDbEntity
  8
文字
100
AcDbCircle
 10
82.05553755050003
 20
-89.38045918365
 30
0.0
 40
0.24
100
AcDbArc
 50
90.0
 51
150.0000047745997
  0
ARC
  5
1E1F6
330
1E1CC
100
AcDbEntity
  8
文字
100
AcDbCircle
 10
83.17269249750001
 20
-89.26045918365
 30
0.0
 40
0.12
100
AcDbArc
 50
345.0000109816994
 51
90.0
  0
LINE
  5
1E1F7
330
1E1CC
100
AcDbEntity
  8
文字
100
AcDbLine
 10
83.17269249750001
 20
-89.14045918365001
 30
0.0
 11
82.7290795422
 21
-89.14045918365001
 31
0.0
  0
LINE
  5
1E1F8
330
1E1CC
100
AcDbEntity
  8
文字
100
AcDbLine
 10
79.2490795422
 20
-89.14045918365001
 30
0.0
 11
78.94776092879999
 21
-89.14045918365001
 31
0.0
  0
LINE
  5
1E1F9
330
1E1CC
100
AcDbEntity
  8
文字
100
AcDbLine
 10
80.56289929950001
 20
-89.14045918365001
 30
0.0
 11
80.20907954220001
 21
-89.14045918365001
 31
0.0
  0
LINE
  5
1E1FA
330
1E1CC
100
AcDbEntity
  8
文字
100
AcDbLine
 10
78.89163332859999
 20
-92.92075374575
 30
0.0
 11
78.8277792053
 21
-89.26255347245001
 31
0.0
  0
LINE
  5
1E1FB
330
1E1CC
100
AcDbEntity
  8
文字
100
AcDbLine
 10
78.89163332859999
 20
-92.92075374575
 30
0.0
 11
80.72256124950001
 21
-89.40357393404999
 31
0.0
  0
ARC
  5
1E1FC
330
1E1CC
100
AcDbEntity
  8
文字
100
AcDbCircle
 10
78.94776092879999
 20
-89.26045918365
 30
0.0
 40
0.12
100
AcDbArc
 50
90.0
 51
181.0000057614001
  0
ARC
  5
1E1FD
330
1E1CC
100
AcDbEntity
  8
文字
100
AcDbCircle
 10
80.56289929950001
 20
-89.32045918365
 30
0.0
 40
0.18
100
AcDbArc
 50
332.5000105837975
 51
90.0
  0
ARC
  5
1E1FE
330
1E1CC
100
AcDbEntity
  8
文字
100
AcDbCircle
 10
83.49138970180002
 20
-93.94045918365
 30
0.0
 40
0.24
100
AcDbArc
 50
165.0000052521
 51
270.0
  0
LINE
  5
1E1FF
330
1E1CC
100
AcDbEntity
  8
文字
100
AcDbLine
 10
83.77861561240001
 20
-94.18045918365001
 30
0.0
 11
83.49138970180002
 21
-94.18045918365001
 31
0.0
  0
LINE
  5
1E200
330
1E1CC
100
AcDbEntity
  8
文字
100
AcDbLine
 10
83.65
 20
-94.66045918365001
 30
0.0
 11
83.77861561240001
 21
-94.18045918365001
 31
0.0
  0
LINE
  5
1E201
330
1E1CC
100
AcDbEntity
  8
文字
100
AcDbLine
 10
81.7944571353
 20
-94.18045918365001
 30
0.0
 11
81.37861561240001
 21
-94.18045918365001
 31
0.0
  0
ARC
  5
1E202
330
1E1CC
100
AcDbEntity
  8
文字
100
AcDbCircle
 10
81.7944571353
 20
-93.94045918365
 30
0.0
 40
0.24
100
AcDbArc
 50
270.0
 51
345.0000109816997
  0
LINE
  5
1E203
330
1E1CC
100
AcDbEntity
  8
文字
100
AcDbLine
 10
83.65
 20
-94.66045918365001
 30
0.0
 11
81.25
 21
-94.66045918365001
 31
0.0
  0
LINE
  5
1E204
330
1E1CC
100
AcDbEntity
  8
文字
100
AcDbLine
 10
81.25
 20
-94.66045918365001
 30
0.0
 11
81.37861561240001
 21
-94.18045918365001
 31
0.0
  0
LINE
  5
1E205
330
1E1CC
100
AcDbEntity
  8
文字
100
AcDbLine
 10
78.73000000000001
 20
-94.66045918365001
 30
0.0
 11
81.84769145360002
 21
-89.26045918365
 31
0.0
  0
LINE
  5
1E206
330
1E1CC
100
AcDbEntity
  8
文字
100
AcDbLine
 10
82.0262793336
 20
-94.00257575445001
 30
0.0
 11
83.28860359660001
 21
-89.29151746905001
 31
0.0
  0
LINE
  5
1E207
330
1E1CC
100
AcDbEntity
  8
文字
100
AcDbLine
 10
76.24907954220001
 20
-89.14045918365001
 30
0.0
 11
75.94987381590001
 21
-89.14045918365001
 31
0.0
  0
LINE
  5
1E208
330
1E1CC
100
AcDbEntity
  8
文字
100
AcDbLine
 10
77.1255890983
 20
-89.14045918365001
 30
0.0
 11
76.96907954220001
 21
-89.14045918365001
 31
0.0
  0
LINE
  5
1E209
330
1E1CC
100
AcDbEntity
  8
文字
100
AcDbLine
 10
75.7717150883
 20
-92.92543775594999
 30
0.0
 11
77.54128129209999
 21
-89.86045918365
 31
0.0
  0
ARC
  5
1E20A
330
1E1CC
100
AcDbEntity
  8
文字
100
AcDbCircle
 10
77.1255890983
 20
-89.62045918364999
 30
0.0
 40
0.4800000000000001
100
AcDbArc
 50
330.0000105041998
 51
90.0
  0
LINE
  5
1E20B
330
1E1CC
100
AcDbEntity
  8
文字
100
AcDbLine
 10
73.48907954220002
 20
-89.14045918365001
 30
0.0
 11
73.07323801930002
 21
-89.14045918365001
 31
0.0
  0
LINE
  5
1E20C
330
1E1CC
100
AcDbEntity
  8
文字
100
AcDbLine
 10
74.17924157699999
 20
-89.14045918365001
 30
0.0
 11
73.8490795422
 21
-89.14045918365001
 31
0.0
  0
ARC
  5
1E20D
330
1E1CC
100
AcDbEntity
  8
文字
100
AcDbCircle
 10
74.17924157699999
 20
-89.38045918365
 30
0.0
 40
0.24
100
AcDbArc
 50
2.500000079599775
 51
90.0
  0
LINE
  5
1E20E
330
1E1CC
100
AcDbEntity
  8
文字
100
AcDbLine
 10
75.7717150883
 20
-92.92543775594999
 30
0.0
 11
75.70991036910001
 21
-89.38464776115001
 31
0.0
  0
ARC
  5
1E20F
330
1E1CC
100
AcDbEntity
  8
文字
100
AcDbCircle
 10
75.94987381590001
 20
-89.38045918365
 30
0.0
 40
0.24
100
AcDbArc
 50
90.0
 51
181.0000057613999
  0
LINE
  5
1E210
330
1E1CC
100
AcDbEntity
  8
文字
100
AcDbLine
 10
74.65
 20
-94.66045918365001
 30
0.0
 11
75.61000000000001
 21
-94.66045918365001
 31
0.0
  0
LINE
  5
1E211
330
1E1CC
100
AcDbEntity
  8
文字
100
AcDbLine
 10
74.65
 20
-94.66045918365001
 30
0.0
 11
74.41901315020001
 21
-89.36999053064999
 31
0.0
  0
LINE
  5
1E212
330
1E1CC
100
AcDbEntity
  8
文字
100
AcDbLine
 10
75.61000000000001
 20
-94.66045918365001
 30
0.0
 11
77.7149916749
 21
-91.50903434665002
 31
0.0
  0
LINE
  5
1E213
330
1E1CC
100
AcDbEntity
  8
文字
100
AcDbLine
 10
77.77000000000001
 20
-94.66045918365001
 30
0.0
 11
77.7149916749
 21
-91.50903434665002
 31
0.0
  0
LINE
  5
1E214
330
1E1CC
100
AcDbEntity
  8
文字
100
AcDbLine
 10
77.77000000000001
 20
-94.66045918365001
 30
0.0
 11
78.73000000000001
 21
-94.66045918365001
 31
0.0
  0
LINE
  5
1E215
330
1E1CC
100
AcDbEntity
  8
文字
100
AcDbLine
 10
70.72907954219999
 20
-89.14045918365001
 30
0.0
 11
70.3132380193
 21
-89.14045918365001
 31
0.0
  0
LINE
  5
1E216
330
1E1CC
100
AcDbEntity
  8
文字
100
AcDbLine
 10
71.5326924975
 20
-89.14045918365001
 30
0.0
 11
71.08907954220001
 21
-89.14045918365001
 31
0.0
  0
ARC
  5
1E217
330
1E1CC
100
AcDbEntity
  8
文字
100
AcDbCircle
 10
71.5326924975
 20
-89.26045918365
 30
0.0
 40
0.12
100
AcDbArc
 50
345.0000109816994
 51
90.0
  0
LINE
  5
1E218
330
1E1CC
100
AcDbEntity
  8
文字
100
AcDbLine
 10
68.7726924975
 20
-89.14045918365001
 30
0.0
 11
68.32907954220002
 21
-89.14045918365001
 31
0.0
  0
LINE
  5
1E219
330
1E1CC
100
AcDbEntity
  8
文字
100
AcDbLine
 10
68.37414114720002
 20
-91.21151746905001
 30
0.0
 11
68.8886035966
 21
-89.29151746905001
 31
0.0
  0
ARC
  5
1E21A
330
1E1CC
100
AcDbEntity
  8
文字
100
AcDbCircle
 10
68.7726924975
 20
-89.26045918365
 30
0.0
 40
0.12
100
AcDbArc
 50
345.0000109816994
 51
90.0
  0
ARC
  5
1E21B
330
1E1CC
100
AcDbEntity
  8
文字
100
AcDbCircle
 10
68.258230048
 20
-91.18045918365
 30
0.0
 40
0.12
100
AcDbArc
 50
270.0
 51
345.0000109816994
  0
ARC
  5
1E21C
330
1E1CC
100
AcDbEntity
  8
文字
100
AcDbCircle
 10
68.00099882329999
 20
-92.14045918365
 30
0.0
 40
0.12
100
AcDbArc
 50
345.0000109816994
 51
90.0
  0
ARC
  5
1E21D
330
1E1CC
100
AcDbEntity
  8
文字
100
AcDbCircle
 10
70.3132380193
 20
-89.38045918365
 30
0.0
 40
0.24
100
AcDbArc
 50
90.0
 51
165.0000052521
  0
ARC
  5
1E21E
330
1E1CC
100
AcDbEntity
  8
文字
100
AcDbCircle
 10
70.15445713530002
 20
-93.94045918365
 30
0.0
 40
0.24
100
AcDbArc
 50
270.0
 51
345.0000109816997
  0
LINE
  5
1E21F
330
1E1CC
100
AcDbEntity
  8
文字
100
AcDbLine
 10
72.01000000000002
 20
-94.66045918365001
 30
0.0
 11
72.1386156124
 21
-94.18045918365001
 31
0.0
  0
LINE
  5
1E220
330
1E1CC
100
AcDbEntity
  8
文字
100
AcDbLine
 10
72.1386156124
 20
-94.18045918365001
 30
0.0
 11
71.8513897018
 21
-94.18045918365001
 31
0.0
  0
ARC
  5
1E221
330
1E1CC
100
AcDbEntity
  8
文字
100
AcDbCircle
 10
71.8513897018
 20
-93.94045918365
 30
0.0
 40
0.24
100
AcDbArc
 50
165.0000052521
 51
270.0
  0
LINE
  5
1E222
330
1E1CC
100
AcDbEntity
  8
文字
100
AcDbLine
 10
69.25
 20
-94.66045918365001
 30
0.0
 11
69.37861561240001
 21
-94.18045918365001
 31
0.0
  0
LINE
  5
1E223
330
1E1CC
100
AcDbEntity
  8
文字
100
AcDbLine
 10
69.37861561240001
 20
-94.18045918365001
 30
0.0
 11
69.09138970180001
 21
-94.18045918365001
 31
0.0
  0
ARC
  5
1E224
330
1E1CC
100
AcDbEntity
  8
文字
100
AcDbCircle
 10
67.3944571353
 20
-93.94045918365
 30
0.0
 40
0.24
100
AcDbArc
 50
270.0
 51
345.0000109816997
  0
ARC
  5
1E225
330
1E1CC
100
AcDbEntity
  8
文字
100
AcDbCircle
 10
69.09138970180001
 20
-93.94045918365
 30
0.0
 40
0.24
100
AcDbArc
 50
165.0000052521
 51
270.0
  0
LINE
  5
1E226
330
1E1CC
100
AcDbEntity
  8
文字
100
AcDbLine
 10
69.61000000000002
 20
-94.66045918365001
 30
0.0
 11
69.73861561239999
 21
-94.18045918365001
 31
0.0
  0
LINE
  5
1E227
330
1E1CC
100
AcDbEntity
  8
文字
100
AcDbLine
 10
70.15445713530002
 20
-94.18045918365001
 30
0.0
 11
69.73861561239999
 21
-94.18045918365001
 31
0.0
  0
LINE
  5
1E228
330
1E1CC
100
AcDbEntity
  8
文字
100
AcDbLine
 10
72.01000000000002
 20
-94.66045918365001
 30
0.0
 11
69.61000000000002
 21
-94.66045918365001
 31
0.0
  0
LINE
  5
1E229
330
1E1CC
100
AcDbEntity
  8
文字
100
AcDbLine
 10
67.6262793336
 20
-94.00257575445001
 30
0.0
 11
68.11690992239999
 21
-92.17151746905001
 31
0.0
  0
LINE
  5
1E22A
330
1E1CC
100
AcDbEntity
  8
文字
100
AcDbLine
 10
68.85956750350001
 20
-93.87834261285
 30
0.0
 11
70.08141582100001
 21
-89.31834261285001
 31
0.0
  0
LINE
  5
1E22B
330
1E1CC
100
AcDbEntity
  8
文字
100
AcDbLine
 10
70.38627933360001
 20
-94.00257575445001
 30
0.0
 11
71.6486035966
 21
-89.29151746905001
 31
0.0
  0
LINE
  5
1E22C
330
1E1CC
100
AcDbEntity
  8
文字
100
AcDbLine
 10
71.6195675035
 20
-93.87834261285
 30
0.0
 11
72.841415821
 21
-89.31834261285001
 31
0.0
  0
LINE
  5
1E22D
330
1E1CC
100
AcDbEntity
  8
文字
100
AcDbLine
 10
67.1290795422
 20
-89.14045918365001
 30
0.0
 11
66.7132380193
 21
-89.14045918365001
 31
0.0
  0
LINE
  5
1E22E
330
1E1CC
100
AcDbEntity
  8
文字
100
AcDbLine
 10
65.1726924975
 20
-89.14045918365001
 30
0.0
 11
64.7290795422
 21
-89.14045918365001
 31
0.0
  0
LINE
  5
1E22F
330
1E1CC
100
AcDbEntity
  8
文字
100
AcDbLine
 10
65.99078523220001
 20
-91.14940089825001
 30
0.0
 11
66.48141582100001
 21
-89.31834261285001
 31
0.0
  0
ARC
  5
1E230
330
1E1CC
100
AcDbEntity
  8
文字
100
AcDbCircle
 10
65.1726924975
 20
-89.26045918365
 30
0.0
 40
0.12
100
AcDbArc
 50
345.0000109816994
 51
90.0
  0
ARC
  5
1E231
330
1E1CC
100
AcDbEntity
  8
文字
100
AcDbCircle
 10
66.7132380193
 20
-89.38045918365
 30
0.0
 40
0.24
100
AcDbArc
 50
90.0
 51
165.0000052521
  0
ARC
  5
1E232
330
1E1CC
100
AcDbEntity
  8
文字
100
AcDbCircle
 10
65.8494651066
 20
-92.14045918365
 30
0.0
 40
0.12
100
AcDbArc
 50
90.0
 51
165.0000052521
  0
ARC
  5
1E233
330
1E1CC
100
AcDbEntity
  8
文字
100
AcDbCircle
 10
66.10669633130001
 20
-91.18045918365
 30
0.0
 40
0.12
100
AcDbArc
 50
165.0000052521
 51
270.0
  0
LINE
  5
1E234
330
1E1CC
100
AcDbEntity
  8
文字
100
AcDbLine
 10
65.77861561240002
 20
-94.18045918365001
 30
0.0
 11
65.64777674660001
 21
-94.18045918365001
 31
0.0
  0
LINE
  5
1E235
330
1E1CC
100
AcDbEntity
  8
文字
100
AcDbLine
 10
65.65000000000001
 20
-94.66045918365001
 30
0.0
 11
65.77861561240002
 21
-94.18045918365001
 31
0.0
  0
LINE
  5
1E236
330
1E1CC
100
AcDbEntity
  8
文字
100
AcDbLine
 10
66.84999999999999
 20
-94.66045918365001
 30
0.0
 11
66.9786156124
 21
-94.18045918365001
 31
0.0
  0
ARC
  5
1E237
330
1E1CC
100
AcDbEntity
  8
文字
100
AcDbCircle
 10
65.64777674660001
 20
-93.82045918364999
 30
0.0
 40
0.36
100
AcDbArc
 50
165.0000052521
 51
270.0
  0
LINE
  5
1E238
330
1E1CC
100
AcDbEntity
  8
文字
100
AcDbLine
 10
63.7944571353
 20
-94.18045918365001
 30
0.0
 11
63.37861561240001
 21
-94.18045918365001
 31
0.0
  0
LINE
  5
1E239
330
1E1CC
100
AcDbEntity
  8
文字
100
AcDbLine
 10
63.25
 20
-94.66045918365001
 30
0.0
 11
63.37861561240001
 21
-94.18045918365001
 31
0.0
  0
ARC
  5
1E23A
330
1E1CC
100
AcDbEntity
  8
文字
100
AcDbCircle
 10
63.7944571353
 20
-93.94045918365
 30
0.0
 40
0.24
100
AcDbArc
 50
270.0
 51
345.0000109816997
  0
LINE
  5
1E23B
330
1E1CC
100
AcDbEntity
  8
文字
100
AcDbLine
 10
65.65000000000001
 20
-94.66045918365001
 30
0.0
 11
63.25
 21
-94.66045918365001
 31
0.0
  0
LINE
  5
1E23C
330
1E1CC
100
AcDbEntity
  8
文字
100
AcDbLine
 10
64.0262793336
 20
-94.00257575445001
 30
0.0
 11
65.28860359660001
 21
-89.29151746905001
 31
0.0
  0
LINE
  5
1E23D
330
1E1CC
100
AcDbEntity
  8
文字
100
AcDbLine
 10
65.3000434491
 20
-93.72728432745001
 30
0.0
 11
65.73355400740002
 21
-92.10940089824999
 31
0.0
  0
LINE
  5
1E23E
330
1E1CC
100
AcDbEntity
  8
文字
100
AcDbLine
 10
67.3944571353
 20
-94.18045918365001
 30
0.0
 11
66.9786156124
 21
-94.18045918365001
 31
0.0
  0
LINE
  5
1E23F
330
1E1CC
100
AcDbEntity
  8
文字
100
AcDbLine
 10
69.25
 20
-94.66045918365001
 30
0.0
 11
66.84999999999999
 21
-94.66045918365001
 31
0.0
  0
LINE
  5
1E240
330
1E1CC
100
AcDbEntity
  8
文字
100
AcDbLine
 10
66.10669633130001
 20
-91.30045918365
 30
0.0
 11
68.258230048
 21
-91.30045918365
 31
0.0
  0
LINE
  5
1E241
330
1E1CC
100
AcDbEntity
  8
文字
100
AcDbLine
 10
65.8494651066
 20
-92.02045918365
 30
0.0
 11
68.00099882329999
 21
-92.02045918365
 31
0.0
  0
ARC
  5
1E242
330
1E1CC
100
AcDbEntity
  8
文字
100
AcDbCircle
 10
73.07323801930002
 20
-89.38045918365
 30
0.0
 40
0.24
100
AcDbArc
 50
90.0
 51
165.0000052521
  0
LINE
  5
1E243
330
1E1CC
100
AcDbEntity
  8
文字
100
AcDbLine
 10
64.7290795422
 20
-89.14045918365001
 30
0.0
 11
64.85769515460001
 21
-88.66045918365001
 31
0.0
  0
LINE
  5
1E244
330
1E1CC
100
AcDbEntity
  8
文字
100
AcDbLine
 10
67.1290795422
 20
-89.14045918365001
 30
0.0
 11
67.25769515460001
 21
-88.66045918365001
 31
0.0
  0
LINE
  5
1E245
330
1E1CC
100
AcDbEntity
  8
文字
100
AcDbLine
 10
68.32907954220002
 20
-89.14045918365001
 30
0.0
 11
68.4576951546
 21
-88.66045918365001
 31
0.0
  0
LINE
  5
1E246
330
1E1CC
100
AcDbEntity
  8
文字
100
AcDbLine
 10
70.72907954219999
 20
-89.14045918365001
 30
0.0
 11
70.8576951546
 21
-88.66045918365001
 31
0.0
  0
LINE
  5
1E247
330
1E1CC
100
AcDbEntity
  8
文字
100
AcDbLine
 10
71.08907954220001
 20
-89.14045918365001
 30
0.0
 11
71.21769515459999
 21
-88.66045918365001
 31
0.0
  0
LINE
  5
1E248
330
1E1CC
100
AcDbEntity
  8
文字
100
AcDbLine
 10
73.48907954220002
 20
-89.14045918365001
 30
0.0
 11
73.6176951546
 21
-88.66045918365001
 31
0.0
  0
LINE
  5
1E249
330
1E1CC
100
AcDbEntity
  8
文字
100
AcDbLine
 10
73.8490795422
 20
-89.14045918365001
 30
0.0
 11
73.97769515460002
 21
-88.66045918365001
 31
0.0
  0
LINE
  5
1E24A
330
1E1CC
100
AcDbEntity
  8
文字
100
AcDbLine
 10
76.24907954220001
 20
-89.14045918365001
 30
0.0
 11
76.37769515460002
 21
-88.66045918365001
 31
0.0
  0
LINE
  5
1E24B
330
1E1CC
100
AcDbEntity
  8
文字
100
AcDbLine
 10
76.96907954220001
 20
-89.14045918365001
 30
0.0
 11
77.09769515460002
 21
-88.66045918365001
 31
0.0
  0
LINE
  5
1E24C
330
1E1CC
100
AcDbEntity
  8
文字
100
AcDbLine
 10
79.2490795422
 20
-89.14045918365001
 30
0.0
 11
79.37769515460002
 21
-88.66045918365001
 31
0.0
  0
LINE
  5
1E24D
330
1E1CC
100
AcDbEntity
  8
文字
100
AcDbLine
 10
80.20907954220001
 20
-89.14045918365001
 30
0.0
 11
80.33769515459999
 21
-88.66045918365001
 31
0.0
  0
LINE
  5
1E24E
330
1E1CC
100
AcDbEntity
  8
文字
100
AcDbLine
 10
82.36907954220001
 20
-89.14045918365001
 30
0.0
 11
82.4976951546
 21
-88.66045918365001
 31
0.0
  0
LINE
  5
1E24F
330
1E1CC
100
AcDbEntity
  8
文字
100
AcDbLine
 10
82.7290795422
 20
-89.14045918365001
 30
0.0
 11
82.85769515460001
 21
-88.66045918365001
 31
0.0
  0
LINE
  5
1E250
330
1E1CC
100
AcDbEntity
  8
文字
100
AcDbLine
 10
85.25769515460002
 20
-88.66045918365001
 30
0.0
 11
82.85769515460001
 21
-88.66045918365001
 31
0.0
  0
LINE
  5
1E251
330
1E1CC
100
AcDbEntity
  8
文字
100
AcDbLine
 10
83.2595675035
 20
-93.87834261285
 30
0.0
 11
84.48141582100001
 21
-89.31834261285001
 31
0.0
  0
LINE
  5
1E252
330
1E1CC
100
AcDbEntity
  8
圖框
100
AcDbLine
 10
137.5
 20
-45.56045918365
 30
0.0
 11
62.5
 21
-45.56045918365
 31
0.0
  0
TEXT
  5
1E253
330
1E1CC
100
AcDbEntity
  8
文字
100
AcDbText
 10
95.52649007453704
 20
-94.35242673930732
 30
0.0
 40
3.264802668514023
  1
TECHNOLOGIES CORP.
 51
5.0
  7
型式I
 72
     1
 11
116.3057866166815
 21
-95.27234351330852
 31
0.0
100
AcDbText
 73
     1
  0
TEXT
  5
1E254
330
1E1CC
100
AcDbEntity
  8
文字
100
AcDbText
 10
129.2516159000329
 20
93.68953067375702
 30
0.0
 40
2.0
  1
APP
  7
型式1
 72
     1
 11
131.815569388405
 21
93.09650741794307
 31
0.0
100
AcDbText
 73
     1
  0
TEXT
  5
1E255
330
1E1CC
100
AcDbEntity
  8
文字
100
AcDbText
 10
116.1171397230732
 20
93.68953067375702
 30
0.0
 40
2.0
  1
DATE
  7
型式1
 72
     1
 11
119.8438839091197
 21
93.09650741794307
 31
0.0
100
AcDbText
 73
     1
  0
TEXT
  5
1E256
330
1E1CC
100
AcDbEntity
  8
文字
100
AcDbText
 10
81.50767723018667
 20
93.68953067375702
 30
0.0
 40
2.0
  1
MODIFICATION
  7
型式1
 72
     1
 11
91.75913071855877
 21
93.09650741794307
 31
0.0
100
AcDbText
 73
     1
  0
LINE
  5
1E257
330
1E1CC
100
AcDbEntity
  8
圖框
100
AcDbLine
 10
70.5
 20
92.46045918365
 30
0.0
 11
137.5
 21
92.46045918365
 31
0.0
  0
LINE
  5
1E258
330
1E1CC
100
AcDbEntity
  8
圖框
100
AcDbLine
 10
113.5
 20
96.46045918365
 30
0.0
 11
113.5
 21
88.46045918365
 31
0.0
  0
LINE
  5
1E259
330
1E1CC
100
AcDbEntity
  8
圖框
100
AcDbLine
 10
125.5
 20
96.46045918365
 30
0.0
 11
125.5
 21
88.46045918365
 31
0.0
  0
LINE
  5
1E25A
330
1E1CC
100
AcDbEntity
  8
圖框
100
AcDbLine
 10
70.5
 20
88.46045918365
 30
0.0
 11
70.5
 21
96.46045918365
 31
0.0
  0
TEXT
  5
1E25B
330
1E1CC
100
AcDbEntity
  8
文字
 62
     2
100
AcDbText
 10
129.4000000000001
 20
93.46045918365
 30
0.0
 40
1.8
  1
APP
 41
0.85
  7
COMPLEX
100
AcDbText
  0
TEXT
  5
1E25C
330
1E1CC
100
AcDbEntity
  8
文字
 62
     2
100
AcDbText
 10
116.7
 20
93.46045918365
 30
0.0
 40
1.8
  1
DATE
 41
0.85
  7
COMPLEX
100
AcDbText
  0
TEXT
  5
1E25D
330
1E1CC
100
AcDbEntity
  8
文字
 62
     2
100
AcDbText
 10
84.29999999999996
 20
93.46045918365
 30
0.0
 40
1.8
  1
MODIFICATION
 41
0.85
  7
COMPLEX
100
AcDbText
  0
LINE
  5
1E25E
330
1E1CC
100
AcDbEntity
  8
圖框
100
AcDbLine
 10
137.5
 20
-17.96045918365
 30
0.0
 11
62.5
 21
-17.96045918365
 31
0.0
  0
LINE
  5
1E25F
330
1E1CC
100
AcDbEntity
  8
圖框
100
AcDbLine
 10
137.5
 20
-6.960459183650002
 30
0.0
 11
62.5
 21
-6.960459183650002
 31
0.0
  0
LINE
  5
1E260
330
1E1CC
100
AcDbEntity
  8
圖框
100
AcDbLine
 10
137.5
 20
-12.46045918365
 30
0.0
 11
62.5
 21
-12.46045918365
 31
0.0
  0
LINE
  5
1E261
330
1E1CC
100
AcDbEntity
  8
圖框
100
AcDbLine
 10
137.5
 20
-23.46045918365
 30
0.0
 11
62.5
 21
-23.46045918365
 31
0.0
  0
LINE
  5
1E262
330
1E1CC
100
AcDbEntity
  8
圖框
100
AcDbLine
 10
137.5
 20
-28.96045918365
 30
0.0
 11
62.5
 21
-28.96045918365
 31
0.0
  0
LINE
  5
1E263
330
1E1CC
100
AcDbEntity
  8
圖框
100
AcDbLine
 10
137.5
 20
-34.46045918365
 30
0.0
 11
62.5
 21
-34.46045918365
 31
0.0
  0
LINE
  5
1E264
330
1E1CC
100
AcDbEntity
  8
圖框
100
AcDbLine
 10
137.5
 20
-39.96045918365
 30
0.0
 11
62.5
 21
-39.96045918365
 31
0.0
  0
LINE
  5
1E265
330
1E1CC
100
AcDbEntity
  8
圖框
100
AcDbLine
 10
112.5
 20
-12.46045918365
 30
0.0
 11
112.5
 21
-45.56045918365001
 31
0.0
  0
LINE
  5
1E266
330
1E1CC
100
AcDbEntity
  8
圖框
100
AcDbLine
 10
62.5
 20
-6.960459183650002
 30
0.0
 11
62.5
 21
-45.56045918365001
 31
0.0
  0
TEXT
  5
1E267
330
1E1CC
100
AcDbEntity
  8
文字
 62
     2
100
AcDbText
 10
64.19520365879884
 20
-68.48550702672961
 30
0.0
 40
3.5
  1
LINEAR MOTION GUIDEWAY
 41
0.7000000000000001
  7
COMPLEX
100
AcDbText
  0
LINE
  5
1E268
330
1E1CC
100
AcDbEntity
  8
圖框
100
AcDbLine
 10
137.5
 20
-81.86045918365001
 30
0.0
 11
117.5
 21
-81.86045918365001
 31
0.0
  0
LINE
  5
1E269
330
1E1CC
100
AcDbEntity
  8
圖框
100
AcDbLine
 10
137.5
 20
-76.86045918365
 30
0.0
 11
117.5
 21
-76.86045918365
 31
0.0
  0
LINE
  5
1E26A
330
1E1CC
100
AcDbEntity
  8
圖框
100
AcDbLine
 10
137.5
 20
-72.06045918364999
 30
0.0
 11
117.5
 21
-72.06045918364999
 31
0.0
  0
LINE
  5
1E26B
330
1E1CC
100
AcDbEntity
  8
圖框
100
AcDbLine
 10
137.5
 20
-67.26045918365
 30
0.0
 11
117.5
 21
-67.26045918365
 31
0.0
  0
LINE
  5
1E26C
330
1E1CC
100
AcDbEntity
  8
圖框
100
AcDbLine
 10
137.5
 20
-46.36045918365
 30
0.0
 11
62.5
 21
-46.36045918365
 31
0.0
  0
LINE
  5
1E26D
330
1E1CC
100
AcDbEntity
  8
圖框
100
AcDbLine
 10
137.5
 20
-54.46045918365
 30
0.0
 11
62.5
 21
-54.46045918365
 31
0.0
  0
LINE
  5
1E26E
330
1E1CC
100
AcDbEntity
  8
圖框
100
AcDbLine
 10
137.5
 20
-62.76045918364999
 30
0.0
 11
62.5
 21
-62.76045918364999
 31
0.0
  0
LINE
  5
1E26F
330
1E1CC
100
AcDbEntity
  8
圖框
100
AcDbLine
 10
117.5
 20
-70.46045918365
 30
0.0
 11
62.5
 21
-70.46045918365
 31
0.0
  0
LINE
  5
1E270
330
1E1CC
100
AcDbEntity
  8
圖框
100
AcDbLine
 10
117.5
 20
-78.46045918365
 30
0.0
 11
62.5
 21
-78.46045918365
 31
0.0
  0
LINE
  5
1E271
330
1E1CC
100
AcDbEntity
  8
圖框
100
AcDbLine
 10
137.5
 20
-86.86045918365001
 30
0.0
 11
62.5
 21
-86.86045918365001
 31
0.0
  0
LINE
  5
1E272
330
1E1CC
100
AcDbEntity
  8
圖框
100
AcDbLine
 10
62.5
 20
-46.36045918365
 30
0.0
 11
62.5
 21
-96.46045918365
 31
0.0
  0
LINE
  5
1E273
330
1E1CC
100
AcDbEntity
  8
圖框
100
AcDbLine
 10
117.5
 20
-62.76045918364999
 30
0.0
 11
117.5
 21
-86.86045918365001
 31
0.0
  0
TEXT
  5
1E274
330
1E1CC
100
AcDbEntity
  8
文字
 62
     2
100
AcDbText
 10
94.75440421570002
 20
-94.46045918364999
 30
0.0
 40
4.0
  1
TECHNOLOGIES CORP.
 41
0.6
 51
5.000000159199999
  7
COMPLEX
100
AcDbText
  0
LINE
  5
1E275
330
1E1CC
100
AcDbEntity
  8
圖框
100
AcDbLine
 10
-137.5
 20
-96.46045918365
 30
0.0
 11
-137.5
 21
96.46045918365
 31
0.0
  0
LINE
  5
1E276
330
1E1CC
100
AcDbEntity
  8
圖框
100
AcDbLine
 10
137.5
 20
-96.46045918365
 30
0.0
 11
-137.5
 21
-96.46045918365
 31
0.0
  0
LINE
  5
1E277
330
1E1CC
100
AcDbEntity
  8
圖框
100
AcDbLine
 10
137.5
 20
96.46045918365
 30
0.0
 11
137.5
 21
-96.46045918365
 31
0.0
  0
LINE
  5
1E278
330
1E1CC
100
AcDbEntity
  8
圖框
100
AcDbLine
 10
-137.5
 20
96.46045918365
 30
0.0
 11
137.5
 21
96.46045918365
 31
0.0
  0
TEXT
  5
1E279
330
1E1CC
100
AcDbEntity
  8
文字
100
AcDbText
 10
93.21511627906977
 20
-10.94926101297211
 30
0.0
 40
3.0
  1
規    格
  7
型式1
 72
     1
 11
100.0
 21
-11.83879589669304
 31
0.0
100
AcDbText
 73
     1
  0
TEXT
  5
1E27A
330
1E1CC
100
AcDbEntity
  8
文字
100
AcDbText
 10
80.05813953488372
 20
-16.39060938413577
 30
0.0
 40
2.5
  1
滑塊型式
  7
型式1
 72
     1
 11
87.5
 21
-17.13188845390321
 31
0.0
100
AcDbText
 73
     1
  0
TEXT
  5
1E27B
330
1E1CC
100
AcDbEntity
  8
文字
100
AcDbText
 10
70.75581395348837
 20
-21.89060938413577
 30
0.0
 40
2.5
  1
單根滑軌上滑塊個數
  7
型式1
 72
     1
 11
87.5
 21
-22.63188845390322
 31
0.0
100
AcDbText
 73
     1
  0
TEXT
  5
1E27C
330
1E1CC
100
AcDbEntity
  8
文字
100
AcDbText
 10
80.05813953488372
 20
-27.39060938413578
 30
0.0
 40
2.5
  1
精度等級
  7
型式1
 72
     1
 11
87.5
 21
-28.13188845390321
 31
0.0
100
AcDbText
 73
     1
  0
TEXT
  5
1E27D
330
1E1CC
100
AcDbEntity
  8
文字
100
AcDbText
 10
80.05813953488372
 20
-32.89060938413577
 30
0.0
 40
2.5
  1
預壓等級
  7
型式1
 72
     1
 11
87.5
 21
-33.63188845390322
 31
0.0
100
AcDbText
 73
     1
  0
TEXT
  5
1E27E
330
1E1CC
100
AcDbEntity
  8
文字
100
AcDbText
 10
70.75581395348837
 20
-38.39060938413577
 30
0.0
 40
2.5
  1
同一軸使用之滑軌數
  7
型式1
 72
     1
 11
87.5
 21
-39.13188845390322
 31
0.0
100
AcDbText
 73
     1
  0
TEXT
  5
1E27F
330
1E1CC
100
AcDbEntity
  8
文字
100
AcDbText
 10
74.47674418604652
 20
-43.94060938413576
 30
0.0
 40
2.5
  1
滑塊內預封油脂
  7
型式1
 72
     1
 11
87.5
 21
-44.68188845390321
 31
0.0
100
AcDbText
 73
     1
  0
TEXT
  5
1E280
330
1E1CC
100
AcDbEntity
  8
文字
100
AcDbText
 10
63.10000000000002
 20
-49.22348098820744
 30
0.0
 40
2.0
  1
客戶
  7
型式1
100
AcDbText
  0
TEXT
  5
1E281
330
1E1CC
100
AcDbEntity
  8
文字
100
AcDbText
 10
63.10000000000002
 20
-57.22348098820745
 30
0.0
 40
2.0
  1
機型
  7
型式1
100
AcDbText
  0
TEXT
  5
1E282
330
1E1CC
100
AcDbEntity
  8
文字
100
AcDbText
 10
70.67493132672578
 20
-68.12481386985424
 30
0.0
 40
3.731202987961495
  1
LINEAR GUIDEWAY
  7
型式2
 72
     1
 11
90.46473722972597
 21
-69.17614730845112
 31
0.0
100
AcDbText
 73
     1
  0
TEXT
  5
1E283
330
1E1CC
100
AcDbEntity
  8
文字
100
AcDbText
 10
63.10000000000002
 20
-73.22348098820746
 30
0.0
 40
2.0
  1
型號
  7
型式1
100
AcDbText
  0
TEXT
  5
1E284
330
1E1CC
100
AcDbEntity
  8
文字
100
AcDbText
 10
63.10000000000002
 20
-81.22348098820745
 30
0.0
 40
2.0
  1
圖號
  7
型式1
100
AcDbText
  0
TEXT
  5
1E285
330
1E1CC
100
AcDbEntity
  8
文字
100
AcDbText
 10
118.0422826873949
 20
-69.09858188128906
 30
0.0
 40
1.399999999999999
  1
DATE
  7
型式1
100
AcDbText
  0
TEXT
  5
1E286
330
1E1CC
100
AcDbEntity
  8
文字
100
AcDbText
 10
118.0422826873949
 20
-73.79398308954567
 30
0.0
 40
1.399999999999999
  1
DR
  7
型式1
100
AcDbText
  0
TEXT
  5
1E287
330
1E1CC
100
AcDbEntity
  8
文字
100
AcDbText
 10
118.0422826873949
 20
-78.72376718588485
 30
0.0
 40
1.399999999999999
  1
CK
  7
型式1
100
AcDbText
  0
TEXT
  5
1E288
330
1E1CC
100
AcDbEntity
  8
文字
100
AcDbText
 10
118.0422826873949
 20
-83.584745409562
 30
0.0
 40
1.399999999999999
  1
APP
  7
型式1
100
AcDbText
  0
LINE
  5
1E289
330
1E1CC
100
AcDbEntity
  8
圖框
100
AcDbLine
 10
70.5
 20
88.46045918365
 30
0.0
 11
137.5
 21
88.46045918365
 31
0.0
  0
LINE
  5
1E28A
330
1E1CC
100
AcDbEntity
  8
圖框
100
AcDbLine
 10
137.5
 20
-61.96045918365
 30
0.0
 11
62.5
 21
-61.96045918365
 31
0.0
  0
TEXT
  5
1E28B
330
1E1CC
100
AcDbEntity
  8
文字
100
AcDbText
 10
118.0422826873949
 20
-64.59858188128906
 30
0.0
 40
1.399999999999999
  1
SCALE
  7
型式1
100
AcDbText
  0
ENDBLK
  5
1E28C
330
1E1CC
100
AcDbEntity
  8
0
 62
     7
 48
0.27
100
AcDbBlockEnd
  0
BLOCK
  5
1E383
330
1E382
100
AcDbEntity
  8
0
100
AcDbBlockBegin
  2
_DotSmall
 70
     0
 10
0.0
 20
0.0
 30
0.0
  3
_DotSmall
  1

  0
LWPOLYLINE
  5
1E384
330
1E382
100
AcDbEntity
  8
0
  6
ByBlock
 62
     0
100
AcDbPolyline
 90
        2
 70
     1
 43
0.5
 10
-0.0625
 20
0.0
 42
1.0
 10
0.0625
 20
0.0
 42
1.0
  0
ENDBLK
  5
1E385
330
1E382
100
AcDbEntity
  8
0
100
AcDbBlockEnd
  0
BLOCK
  5
1E387
330
1E386
100
AcDbEntity
  8
0
 48
0.27
100
AcDbBlockBegin
  2
4
 70
     0
 10
0.0
 20
0.0
 30
0.0
  3
4
  1

  0
TEXT
  5
1E388
330
1E386
100
AcDbEntity
  8
HIWIN
 62
     5
100
AcDbText
 10
-1.539074279503282
 20
-1.527162655385474
 30
0.0
 40
3.0
  1
※
  7
SIMPLEX1
100
AcDbText
  0
ENDBLK
  5
1E389
330
1E386
100
AcDbEntity
  8
0
 48
0.27
100
AcDbBlockEnd
  0
BLOCK
  5
1E38B
330
1E38A
100
AcDbEntity
  8
0
 48
0.27
100
AcDbBlockBegin
  2
blk_c
 70
     0
 10
0.0
 20
0.0
 30
0.0
  3
blk_c
  1

  0
TEXT
  5
1E38C
330
1E38A
100
AcDbEntity
  8
標註線
 48
0.27
100
AcDbText
 10
-0.8936554201758141
 20
-1.139401422013806
 30
0.0
 40
2.499999999999962
  1
C
  7
型式2
 72
     4
 11
-0.0096775196233413
 21
0.02772564980938
 31
0.0
100
AcDbText
  0
LWPOLYLINE
  5
1E38D
330
1E38A
100
AcDbEntity
  8
標註線
 48
0.27
100
AcDbPolyline
 90
        4
 70
     1
 43
0.0
 10
1.75
 20
-1.749999999999972
 10
1.75
 20
1.749999999999972
 10
-1.75
 20
1.749999999999972
 10
-1.75
 20
-1.749999999999972
  0
ENDBLK
  5
1E38E
330
1E38A
100
AcDbEntity
  8
0
 48
0.27
100
AcDbBlockEnd
  0
BLOCK
  5
1E390
330
1E38F
100
AcDbEntity
  8
0
 48
0.27
100
AcDbBlockBegin
  2
blk_a
 70
     0
 10
0.0
 20
0.0
 30
0.0
  3
blk_a
  1

  0
LWPOLYLINE
  5
1E391
330
1E38F
100
AcDbEntity
  8
標註線
 48
0.27
100
AcDbPolyline
 90
        4
 70
     1
 43
0.0
 10
1.75
 20
-1.749999999999972
 10
1.75
 20
1.749999999999972
 10
-1.75
 20
1.749999999999972
 10
-1.75
 20
-1.749999999999972
  0
TEXT
  5
1E392
330
1E38F
100
AcDbEntity
  8
標註線
 48
0.27
100
AcDbText
 10
-0.8936554201758141
 20
-1.153213576709939
 30
0.0
 40
2.499999999999962
  1
A
  7
型式2
 72
     4
 11
-0.0096775196233413
 21
0.02772564980938
 31
0.0
100
AcDbText
  0
ENDBLK
  5
1E393
330
1E38F
100
AcDbEntity
  8
0
 48
0.27
100
AcDbBlockEnd
  0
BLOCK
  5
1E395
330
1E394
100
AcDbEntity
  8
0
 48
0.27
100
AcDbBlockBegin
  2
blk_d
 70
     0
 10
0.0
 20
0.0
 30
0.0
  3
blk_d
  1

  0
LWPOLYLINE
  5
1E396
330
1E394
100
AcDbEntity
  8
標註線
 48
0.27
100
AcDbPolyline
 90
        4
 70
     1
 43
0.0
 10
1.75
 20
-1.749999999999972
 10
1.75
 20
1.749999999999972
 10
-1.75
 20
1.749999999999972
 10
-1.75
 20
-1.749999999999972
  0
TEXT
  5
1E397
330
1E394
100
AcDbEntity
  8
標註線
 48
0.27
100
AcDbText
 10
-0.8936554201758141
 20
-1.139401422013806
 30
0.0
 40
2.499999999999962
  1
D
  7
型式2
 72
     4
 11
-0.0096775196233413
 21
0.02772564980938
 31
0.0
100
AcDbText
  0
ENDBLK
  5
1E398
330
1E394
100
AcDbEntity
  8
0
 48
0.27
100
AcDbBlockEnd
  0
BLOCK
  5
1E39A
330
1E399
100
AcDbEntity
  8
0
 48
0.27
100
AcDbBlockBegin
  2
blk_b
 70
     0
 10
0.0
 20
0.0
 30
0.0
  3
blk_b
  1

  0
LWPOLYLINE
  5
1E39B
330
1E399
100
AcDbEntity
  8
標註線
 48
0.27
100
AcDbPolyline
 90
        4
 70
     1
 43
0.0
 10
1.75
 20
-1.749999999999972
 10
1.75
 20
1.749999999999972
 10
-1.75
 20
1.749999999999972
 10
-1.75
 20
-1.749999999999972
  0
TEXT
  5
1E39C
330
1E399
100
AcDbEntity
  8
標註線
 48
0.27
100
AcDbText
 10
-0.8936554201758141
 20
-1.139401422013808
 30
0.0
 40
2.499999999999962
  1
B
  7
型式2
 72
     4
 11
-0.0096775196233413
 21
0.0277256498093788
 31
0.0
100
AcDbText
  0
ENDBLK
  5
1E39D
330
1E399
100
AcDbEntity
  8
0
 48
0.27
100
AcDbBlockEnd
  0
BLOCK
  5
1E39F
330
1E39E
100
AcDbEntity
  8
0
 48
0.27
100
AcDbBlockBegin
  2
2
 70
     0
 10
0.0
 20
0.0
 30
0.0
  3
2
  1

  0
INSERT
  5
1E3A0
330
1E39E
100
AcDbEntity
  8
標註線
 48
0.27
100
AcDbBlockReference
  2
4
 10
0.3603011646182495
 20
0.3432206475278008
 30
-5.0
 41
5.399999999999181
 42
5.400000000000034
 43
5.400000000000002
  0
ENDBLK
  5
1E3A1
330
1E39E
100
AcDbEntity
  8
0
 48
0.27
100
AcDbBlockEnd
  0
BLOCK
  5
1ECC4
330
1EC49
100
AcDbEntity
  8
0
 48
0.27
100
AcDbBlockBegin
  2
A$C2BEC5252
 70
     0
 10
0.0
 20
0.0
 30
0.0
  3
A$C2BEC5252
  1

  0
LINE
  5
1EC4A
330
1EC49
100
AcDbEntity
  8
0
 62
     1
 48
0.27
100
AcDbLine
 10
2.309433720339256
 20
8.000117384725399
 30
0.0
 11
6.928302351121601
 21
8.000117384725399
 31
0.0
  0
LINE
  5
1EC4B
330
1EC49
100
AcDbEntity
  8
0
 62
     1
 48
0.27
100
AcDbLine
 10
6.928303687141124
 20
0.0000006438144737
 30
0.0
 11
2.309433720339256
 21
0.0000006438144737
 31
0.0
  0
ARC
  5
1EC4C
330
1EC49
100
AcDbEntity
  8
0
 62
     1
 48
0.27
100
AcDbCircle
 10
4.618868035729974
 20
4.000059682279697
 30
0.0
 40
4.000057702445608
100
AcDbArc
 50
48.5903779988978
 51
311.4096220031896
  0
LINE
  5
1EC4D
330
1EC49
100
AcDbEntity
  8
0
 62
     1
 48
0.27
100
AcDbLine
 10
2.309433720339256
 20
8.000117384725399
 30
0.0
 11
-0.00000059505237
 21
4.000059682279697
 31
0.0
  0
LINE
  5
1EC4E
330
1EC49
100
AcDbEntity
  8
0
 62
     1
 48
0.27
100
AcDbLine
 10
-0.00000059505237
 20
4.000059682279697
 30
0.0
 11
2.309433720339256
 21
0.0000006438144737
 31
0.0
  0
LWPOLYLINE
  5
1EC4F
330
1EC49
100
AcDbEntity
  8
0
 62
     1
 48
0.27
100
AcDbPolyline
 90
       17
 70
     0
 43
0.0
 10
13.57068639155295
 20
4.000059682279697
 10
13.60423518250991
 20
3.783019272639194
 10
13.63712665167531
 20
3.720114120701964
 10
13.67369751913247
 20
3.690572052912557
 10
13.70767517234799
 20
3.690879337396381
 10
13.74416855067375
 20
3.721084070956294
 10
13.77551290906376
 20
3.780854920656111
 10
13.80489999859128
 20
3.910929799460973
 10
13.8098673198765
 20
4.000059682279697
 10
13.77631986493907
 20
4.217098755901133
 10
13.74342705975414
 20
4.280003907838363
 10
13.70685619229698
 20
4.309545975628225
 10
13.67287987510099
 20
4.309238691043901
 10
13.63638516075571
 20
4.279033957484443
 10
13.60504213838521
 20
4.219263107784172
 10
13.57565371283817
 20
4.089188229079354
 10
13.57068639155295
 20
4.000059682279697
  0
LINE
  5
1EC50
330
1EC49
100
AcDbEntity
  8
0
 62
     1
 48
0.27
100
AcDbLine
 10
14.36275235569701
 20
3.650518182030282
 30
0.0
 11
14.37592684604442
 21
4.000059682279697
 31
0.0
  0
LINE
  5
1EC51
330
1EC49
100
AcDbEntity
  8
0
 62
     1
 48
0.27
100
AcDbLine
 10
14.32373523614296
 20
3.31440902399072
 30
0.0
 11
14.36275235569701
 21
3.650518182030282
 31
0.0
  0
LINE
  5
1EC52
330
1EC49
100
AcDbEntity
  8
0
 62
     1
 48
0.27
100
AcDbLine
 10
14.37592684604442
 20
4.000059682279697
 30
0.0
 11
14.36275235569701
 21
4.349601182529568
 31
0.0
  0
LINE
  5
1EC53
330
1EC49
100
AcDbEntity
  8
0
 62
     1
 48
0.27
100
AcDbLine
 10
14.2603745014585
 20
3.004650182565455
 30
0.0
 11
14.32373523614296
 21
3.31440902399072
 31
0.0
  0
LINE
  5
1EC54
330
1EC49
100
AcDbEntity
  8
0
 62
     1
 48
0.27
100
AcDbLine
 10
14.36275235569701
 20
4.349601182529568
 30
0.0
 11
14.32373523614296
 21
4.685709004549607
 31
0.0
  0
LINE
  5
1EC55
330
1EC49
100
AcDbEntity
  8
0
 62
     1
 48
0.27
100
AcDbLine
 10
14.17510437956207
 20
2.733142921522357
 30
0.0
 11
14.2603745014585
 21
3.004650182565455
 31
0.0
  0
LINE
  5
1EC56
330
1EC49
100
AcDbEntity
  8
0
 62
     1
 48
0.27
100
AcDbLine
 10
13.41573883389537
 20
2.361726770569021
 30
0.0
 11
13.41763731789888
 21
2.36265530421906
 31
0.0
  0
LINE
  5
1EC57
330
1EC49
100
AcDbEntity
  8
0
 62
     1
 48
0.27
100
AcDbLine
 10
14.32373523614296
 20
4.685709004549607
 30
0.0
 11
14.2603745014585
 21
4.995469181994394
 31
0.0
  0
LINE
  5
1EC58
330
1EC49
100
AcDbEntity
  8
0
 62
     1
 48
0.27
100
AcDbLine
 10
14.07120346289866
 20
2.510322890543193
 30
0.0
 11
14.17510437956207
 21
2.733142921522357
 31
0.0
  0
LINE
  5
1EC59
330
1EC49
100
AcDbEntity
  8
0
 62
     1
 48
0.27
100
AcDbLine
 10
14.2603745014585
 20
4.995469181994394
 30
0.0
 11
14.17510437956207
 21
5.266975107017515
 31
0.0
  0
LINE
  5
1EC5A
330
1EC49
100
AcDbEntity
  8
0
 62
     1
 48
0.27
100
AcDbLine
 10
10.49748167351754
 20
1.963488688019424
 30
0.0
 11
10.73860784642693
 21
2.061893219577996
 31
0.0
  0
LINE
  5
1EC5B
330
1EC49
100
AcDbEntity
  8
0
 62
     1
 48
0.27
100
AcDbLine
 10
10.49748167351754
 20
6.036629340520903
 30
0.0
 11
10.73860784642693
 21
5.938226144982309
 31
0.0
  0
LINE
  5
1EC5C
330
1EC49
100
AcDbEntity
  8
0
 62
     1
 48
0.27
100
AcDbLine
 10
13.95266377832013
 20
2.344753976195079
 30
0.0
 11
14.07120346289866
 21
2.510322890543193
 31
0.0
  0
LINE
  5
1EC5D
330
1EC49
100
AcDbEntity
  8
0
 62
     1
 48
0.27
100
AcDbLine
 10
14.17510437956207
 20
5.266975107017515
 30
0.0
 11
14.07120346289866
 21
5.489795137996679
 31
0.0
  0
LINE
  5
1EC5E
330
1EC49
100
AcDbEntity
  8
0
 62
     1
 48
0.27
100
AcDbLine
 10
10.73860784642693
 20
2.061893219577996
 30
0.0
 11
10.95353467292534
 21
2.052765532982903
 31
0.0
  0
LINE
  5
1EC5F
330
1EC49
100
AcDbEntity
  8
0
 62
     1
 48
0.27
100
AcDbLine
 10
10.73860784642693
 20
5.938226144982309
 30
0.0
 11
10.95353467292534
 21
5.94735249555697
 31
0.0
  0
LINE
  5
1EC60
330
1EC49
100
AcDbEntity
  8
0
 62
     1
 48
0.27
100
AcDbLine
 10
12.57354808241052
 20
1.495694747382458
 30
0.0
 11
13.82404115290683
 21
2.242795632178513
 31
0.0
  0
LINE
  5
1EC61
330
1EC49
100
AcDbEntity
  8
0
 62
     1
 48
0.27
100
AcDbLine
 10
13.82404115290683
 20
2.242795632178513
 30
0.0
 11
13.95266377832013
 21
2.344753976195079
 31
0.0
  0
LINE
  5
1EC62
330
1EC49
100
AcDbEntity
  8
0
 62
     1
 48
0.27
100
AcDbLine
 10
14.07120346289866
 20
5.489795137996679
 30
0.0
 11
13.95266377832013
 21
5.655364052344793
 31
0.0
  0
LINE
  5
1EC63
330
1EC49
100
AcDbEntity
  8
0
 62
     1
 48
0.27
100
AcDbLine
 10
12.38291543832292
 20
1.446630759621712
 30
0.0
 11
12.57354808241052
 21
1.495694747382458
 31
0.0
  0
LINE
  5
1EC64
330
1EC49
100
AcDbEntity
  8
0
 62
     1
 48
0.27
100
AcDbLine
 10
12.02207789143631
 20
1.474514826917129
 30
0.0
 11
12.38291543832292
 21
1.446630759621712
 31
0.0
  0
LINE
  5
1EC65
330
1EC49
100
AcDbEntity
  8
0
 62
     1
 48
0.27
100
AcDbLine
 10
10.95353467292534
 20
2.052765532982903
 30
0.0
 11
11.50748986056169
 21
1.687543169412037
 31
0.0
  0
LINE
  5
1EC66
330
1EC49
100
AcDbEntity
  8
0
 62
     1
 48
0.27
100
AcDbLine
 10
13.69027752367401
 20
2.208369076312465
 30
0.0
 11
13.82404115290683
 21
2.242795632178513
 31
0.0
  0
LINE
  5
1EC67
330
1EC49
100
AcDbEntity
  8
0
 62
     1
 48
0.27
100
AcDbLine
 10
12.57354808241052
 20
6.504424617176937
 30
0.0
 11
13.82404115290683
 21
5.757322396362269
 31
0.0
  0
LINE
  5
1EC68
330
1EC49
100
AcDbEntity
  8
0
 62
     1
 48
0.27
100
AcDbLine
 10
13.82404115290683
 20
5.757322396362269
 30
0.0
 11
13.95266377832013
 21
5.655364052344793
 31
0.0
  0
LINE
  5
1EC69
330
1EC49
100
AcDbEntity
  8
0
 62
     1
 48
0.27
100
AcDbLine
 10
12.38291543832292
 20
6.55348726891907
 30
0.0
 11
12.57354808241052
 21
6.504424617176937
 31
0.0
  0
LINE
  5
1EC6A
330
1EC49
100
AcDbEntity
  8
0
 62
     1
 48
0.27
100
AcDbLine
 10
12.02207789143631
 20
6.525604537543131
 30
0.0
 11
12.38291543832292
 21
6.55348726891907
 31
0.0
  0
LINE
  5
1EC6B
330
1EC49
100
AcDbEntity
  8
0
 62
     1
 48
0.27
100
AcDbLine
 10
10.7626962818349
 20
2.197270760661467
 30
0.0
 11
10.90277928418254
 21
2.086228818592644
 31
0.0
  0
LINE
  5
1EC6C
330
1EC49
100
AcDbEntity
  8
0
 62
     1
 48
0.27
100
AcDbLine
 10
11.50748986056169
 20
1.687543169412037
 30
0.0
 11
11.83352676602317
 21
1.523041734840717
 31
0.0
  0
LINE
  5
1EC6D
330
1EC49
100
AcDbEntity
  8
0
 62
     1
 48
0.27
100
AcDbLine
 10
11.83352676602317
 20
1.523041734840717
 30
0.0
 11
12.02207789143631
 21
1.474514826917129
 31
0.0
  0
LINE
  5
1EC6E
330
1EC49
100
AcDbEntity
  8
0
 62
     1
 48
0.27
100
AcDbLine
 10
10.95353467292534
 20
5.94735249555697
 30
0.0
 11
11.50748986056169
 21
6.312574859128744
 31
0.0
  0
LINE
  5
1EC6F
330
1EC49
100
AcDbEntity
  8
0
 62
     1
 48
0.27
100
AcDbLine
 10
10.7626962818349
 20
5.802847267879315
 30
0.0
 11
10.90277928418254
 21
5.913889209947683
 31
0.0
  0
LINE
  5
1EC70
330
1EC49
100
AcDbEntity
  8
0
 62
     1
 48
0.27
100
AcDbLine
 10
12.19228145821489
 20
1.495694747382458
 30
0.0
 11
12.38291543832292
 21
1.446630759621712
 31
0.0
  0
LINE
  5
1EC71
330
1EC49
100
AcDbEntity
  8
0
 62
     1
 48
0.27
100
AcDbLine
 10
11.83352676602317
 20
6.477076293699155
 30
0.0
 11
12.02207789143631
 21
6.525604537543131
 31
0.0
  0
LINE
  5
1EC72
330
1EC49
100
AcDbEntity
  8
0
 62
     1
 48
0.27
100
AcDbLine
 10
11.50748986056169
 20
6.312574859128744
 30
0.0
 11
11.83352676602317
 21
6.477076293699155
 31
0.0
  0
LINE
  5
1EC73
330
1EC49
100
AcDbEntity
  8
0
 62
     1
 48
0.27
100
AcDbLine
 10
10.7626962818349
 20
2.197270760661467
 30
0.0
 11
10.63359402532387
 21
2.377592004581401
 31
0.0
  0
LINE
  5
1EC74
330
1EC49
100
AcDbEntity
  8
0
 62
     1
 48
0.27
100
AcDbLine
 10
13.55651389454215
 20
2.242795632178513
 30
0.0
 11
13.69027752367401
 21
2.208369076312465
 31
0.0
  0
LINE
  5
1EC75
330
1EC49
100
AcDbEntity
  8
0
 62
     1
 48
0.27
100
AcDbLine
 10
13.69027752367401
 20
5.791748952228317
 30
0.0
 11
13.82404115290683
 21
5.757322396362269
 31
0.0
  0
LINE
  5
1EC76
330
1EC49
100
AcDbEntity
  8
0
 62
     1
 48
0.27
100
AcDbLine
 10
12.19228145821489
 20
6.504424617176937
 30
0.0
 11
12.38291543832292
 21
6.55348726891907
 31
0.0
  0
LINE
  5
1EC77
330
1EC49
100
AcDbEntity
  8
0
 62
     1
 48
0.27
100
AcDbLine
 10
11.33822417966894
 20
6.17840107181064
 30
0.0
 11
11.50748986056169
 21
6.312574859128744
 31
0.0
  0
LINE
  5
1EC78
330
1EC49
100
AcDbEntity
  8
0
 62
     1
 48
0.27
100
AcDbLine
 10
10.63359402532387
 20
5.62252602395938
 30
0.0
 11
10.7626962818349
 21
5.802847267879315
 31
0.0
  0
LINE
  5
1EC79
330
1EC49
100
AcDbEntity
  8
0
 62
     1
 48
0.27
100
AcDbLine
 10
10.63359402532387
 20
2.377592004581401
 30
0.0
 11
10.5204358281735
 21
2.620263952347613
 31
0.0
  0
LINE
  5
1EC7A
330
1EC49
100
AcDbEntity
  8
0
 62
     1
 48
0.27
100
AcDbLine
 10
12.00897421012269
 20
1.640998914819192
 30
0.0
 11
12.19228145821489
 21
1.495694747382458
 31
0.0
  0
LINE
  5
1EC7B
330
1EC49
100
AcDbEntity
  8
0
 62
     1
 48
0.27
100
AcDbLine
 10
10.5204358281735
 20
5.379854076193169
 30
0.0
 11
10.63359402532387
 21
5.62252602395938
 31
0.0
  0
LINE
  5
1EC7C
330
1EC49
100
AcDbEntity
  8
0
 62
     1
 48
0.27
100
AcDbLine
 10
13.42788993310932
 20
2.344753976195079
 30
0.0
 11
13.55651389454215
 21
2.242795632178513
 31
0.0
  0
LINE
  5
1EC7D
330
1EC49
100
AcDbEntity
  8
0
 62
     1
 48
0.27
100
AcDbLine
 10
12.00897421012269
 20
6.35911911372068
 30
0.0
 11
12.19228145821489
 21
6.504424617176937
 31
0.0
  0
LINE
  5
1EC7E
330
1EC49
100
AcDbEntity
  8
0
 62
     1
 48
0.27
100
AcDbLine
 10
13.55651389454215
 20
5.757322396362269
 30
0.0
 11
13.69027752367401
 21
5.791748952228317
 31
0.0
  0
LINE
  5
1EC7F
330
1EC49
100
AcDbEntity
  8
0
 62
     1
 48
0.27
100
AcDbLine
 10
10.5204358281735
 20
2.620263952347613
 30
0.0
 11
10.42756909822492
 21
2.915961186280128
 31
0.0
  0
LINE
  5
1EC80
330
1EC49
100
AcDbEntity
  8
0
 62
     1
 48
0.27
100
AcDbLine
 10
10.42756909822492
 20
5.084156842260199
 30
0.0
 11
10.5204358281735
 21
5.379854076193169
 31
0.0
  0
LINE
  5
1EC81
330
1EC49
100
AcDbEntity
  8
0
 62
     1
 48
0.27
100
AcDbLine
 10
12.00897421012269
 20
1.640998914819192
 30
0.0
 11
11.84003719012617
 21
1.87696137157809
 31
0.0
  0
LINE
  5
1EC82
330
1EC49
100
AcDbEntity
  8
0
 62
     1
 48
0.27
100
AcDbLine
 10
10.42756909822492
 20
2.915961186280128
 30
0.0
 11
10.35856368026998
 21
3.253319522848414
 31
0.0
  0
LINE
  5
1EC83
330
1EC49
100
AcDbEntity
  8
0
 62
     1
 48
0.27
100
AcDbLine
 10
13.42788993310932
 20
5.655364052344793
 30
0.0
 11
13.55651389454215
 21
5.757322396362269
 31
0.0
  0
LINE
  5
1EC84
330
1EC49
100
AcDbEntity
  8
0
 62
     1
 48
0.27
100
AcDbLine
 10
13.42788993310932
 20
2.344753976195079
 30
0.0
 11
13.30935024853079
 21
2.510322890543193
 31
0.0
  0
LINE
  5
1EC85
330
1EC49
100
AcDbEntity
  8
0
 62
     1
 48
0.27
100
AcDbLine
 10
11.84003719012617
 20
6.123156656961782
 30
0.0
 11
12.00897421012269
 21
6.35911911372068
 31
0.0
  0
LINE
  5
1EC86
330
1EC49
100
AcDbEntity
  8
0
 62
     1
 48
0.27
100
AcDbLine
 10
10.35856368026998
 20
4.746798505692368
 30
0.0
 11
10.42756909822492
 21
5.084156842260199
 31
0.0
  0
LINE
  5
1EC87
330
1EC49
100
AcDbEntity
  8
0
 62
     1
 48
0.27
100
AcDbLine
 10
10.35856368026998
 20
3.253319522848414
 30
0.0
 11
10.31606890146941
 21
3.619374226665058
 31
0.0
  0
LINE
  5
1EC88
330
1EC49
100
AcDbEntity
  8
0
 62
     1
 48
0.27
100
AcDbLine
 10
10.31606890146941
 20
4.380743801875269
 30
0.0
 11
10.35856368026998
 21
4.746798505692368
 31
0.0
  0
LINE
  5
1EC89
330
1EC49
100
AcDbEntity
  8
0
 62
     1
 48
0.27
100
AcDbLine
 10
10.31606890146941
 20
3.619374226665058
 30
0.0
 11
10.30172138580474
 21
4.000059682279697
 31
0.0
  0
LINE
  5
1EC8A
330
1EC49
100
AcDbEntity
  8
0
 62
     1
 48
0.27
100
AcDbLine
 10
10.30172138580474
 20
4.000059682279697
 30
0.0
 11
10.31606890146941
 21
4.380743801875269
 31
0.0
  0
LINE
  5
1EC8B
330
1EC49
100
AcDbEntity
  8
0
 62
     1
 48
0.27
100
AcDbLine
 10
11.84003719012617
 20
1.87696137157809
 30
0.0
 11
11.69196211775488
 21
2.194513215922142
 31
0.0
  0
LINE
  5
1EC8C
330
1EC49
100
AcDbEntity
  8
0
 62
     1
 48
0.27
100
AcDbLine
 10
13.30935024853079
 20
5.489795137996679
 30
0.0
 11
13.42788993310932
 21
5.655364052344793
 31
0.0
  0
LINE
  5
1EC8D
330
1EC49
100
AcDbEntity
  8
0
 62
     1
 48
0.27
100
AcDbLine
 10
13.30935024853079
 20
2.510322890543193
 30
0.0
 11
13.20544933186738
 21
2.733142921522357
 31
0.0
  0
LINE
  5
1EC8E
330
1EC49
100
AcDbEntity
  8
0
 62
     1
 48
0.27
100
AcDbLine
 10
11.69196211775488
 20
5.805606148638162
 30
0.0
 11
11.84003719012617
 21
6.123156656961782
 31
0.0
  0
LINE
  5
1EC8F
330
1EC49
100
AcDbEntity
  8
0
 62
     1
 48
0.27
100
AcDbLine
 10
13.20544933186738
 20
5.266975107017515
 30
0.0
 11
13.30935024853079
 21
5.489795137996679
 31
0.0
  0
LINE
  5
1EC90
330
1EC49
100
AcDbEntity
  8
0
 62
     1
 48
0.27
100
AcDbLine
 10
11.69196211775488
 20
2.194513215922142
 30
0.0
 11
11.57044043716178
 21
2.58144990775736
 31
0.0
  0
LINE
  5
1EC91
330
1EC49
100
AcDbEntity
  8
0
 62
     1
 48
0.27
100
AcDbLine
 10
13.20544933186738
 20
2.733142921522357
 30
0.0
 11
13.12018054599048
 21
3.004650182565455
 31
0.0
  0
LINE
  5
1EC92
330
1EC49
100
AcDbEntity
  8
0
 62
     1
 48
0.27
100
AcDbLine
 10
11.57044043716178
 20
5.418668120682923
 30
0.0
 11
11.69196211775488
 21
5.805606148638162
 31
0.0
  0
LINE
  5
1EC93
330
1EC49
100
AcDbEntity
  8
0
 62
     1
 48
0.27
100
AcDbLine
 10
13.12018054599048
 20
4.995469181994394
 30
0.0
 11
13.20544933186738
 21
5.266975107017515
 31
0.0
  0
LINE
  5
1EC94
330
1EC49
100
AcDbEntity
  8
0
 62
     1
 48
0.27
100
AcDbLine
 10
11.57044043716178
 20
2.58144990775736
 30
0.0
 11
11.48014153708391
 21
3.022904219835709
 31
0.0
  0
LINE
  5
1EC95
330
1EC49
100
AcDbEntity
  8
0
 62
     1
 48
0.27
100
AcDbLine
 10
13.12018054599048
 20
3.004650182565455
 30
0.0
 11
13.0568198113051
 21
3.31440902399072
 31
0.0
  0
LINE
  5
1EC96
330
1EC49
100
AcDbEntity
  8
0
 62
     1
 48
0.27
100
AcDbLine
 10
11.48014153708391
 20
4.977213808704618
 30
0.0
 11
11.57044043716178
 21
5.418668120682923
 31
0.0
  0
LINE
  5
1EC97
330
1EC49
100
AcDbEntity
  8
0
 62
     1
 48
0.27
100
AcDbLine
 10
13.0568198113051
 20
4.685709004549607
 30
0.0
 11
13.12018054599048
 21
4.995469181994394
 31
0.0
  0
LINE
  5
1EC98
330
1EC49
100
AcDbEntity
  8
0
 62
     1
 48
0.27
100
AcDbLine
 10
11.48014153708391
 20
3.022904219835709
 30
0.0
 11
11.42453639687119
 21
3.501910037880861
 31
0.0
  0
LINE
  5
1EC99
330
1EC49
100
AcDbEntity
  8
0
 62
     1
 48
0.27
100
AcDbLine
 10
13.0568198113051
 20
3.31440902399072
 30
0.0
 11
13.01780135573244
 21
3.650518182030282
 31
0.0
  0
LINE
  5
1EC9A
330
1EC49
100
AcDbEntity
  8
0
 62
     1
 48
0.27
100
AcDbLine
 10
11.42453639687119
 20
4.498207990659921
 30
0.0
 11
11.48014153708391
 21
4.977213808704618
 31
0.0
  0
LINE
  5
1EC9B
330
1EC49
100
AcDbEntity
  8
0
 62
     1
 48
0.27
100
AcDbLine
 10
13.01780135573244
 20
4.349601182529568
 30
0.0
 11
13.0568198113051
 21
4.685709004549607
 31
0.0
  0
LINE
  5
1EC9C
330
1EC49
100
AcDbEntity
  8
0
 62
     1
 48
0.27
100
AcDbLine
 10
11.42453639687119
 20
3.501910037880861
 30
0.0
 11
11.40575997587802
 21
4.000059682279697
 31
0.0
  0
LINE
  5
1EC9D
330
1EC49
100
AcDbEntity
  8
0
 62
     1
 48
0.27
100
AcDbLine
 10
13.01780135573244
 20
3.650518182030282
 30
0.0
 11
13.00462686538503
 21
4.000059682279697
 31
0.0
  0
LINE
  5
1EC9E
330
1EC49
100
AcDbEntity
  8
0
 62
     1
 48
0.27
100
AcDbLine
 10
13.00462686538503
 20
4.000059682279697
 30
0.0
 11
13.01780135573244
 21
4.349601182529568
 31
0.0
  0
LINE
  5
1EC9F
330
1EC49
100
AcDbEntity
  8
0
 62
     1
 48
0.27
100
AcDbLine
 10
11.40575997587802
 20
4.000059682279697
 30
0.0
 11
11.42453639687119
 21
4.498207990659921
 31
0.0
  0
LINE
  5
1ECA0
330
1EC49
100
AcDbEntity
  8
0
 62
     1
 48
0.27
100
AcDbLine
 10
10.90277928418254
 20
2.086228818592644
 30
0.0
 11
10.95353467292534
 21
2.052765532982903
 31
0.0
  0
LINE
  5
1ECA1
330
1EC49
100
AcDbEntity
  8
0
 62
     1
 48
0.27
100
AcDbLine
 10
10.6902532852182
 20
2.063946681942525
 30
0.0
 11
10.73860784642693
 21
2.061893219577996
 31
0.0
  0
LINE
  5
1ECA2
330
1EC49
100
AcDbEntity
  8
0
 62
     1
 48
0.27
100
AcDbLine
 10
10.90277928418254
 20
5.913889209947683
 30
0.0
 11
10.95353467292534
 21
5.94735249555697
 31
0.0
  0
LINE
  5
1ECA3
330
1EC49
100
AcDbEntity
  8
0
 62
     1
 48
0.27
100
AcDbLine
 10
7.505661931983922
 20
1.000015403431007
 30
0.0
 11
6.928303687141124
 21
0.0000006438144737
 31
0.0
  0
LINE
  5
1ECA4
330
1EC49
100
AcDbEntity
  8
0
 62
     1
 48
0.27
100
AcDbLine
 10
5.920393051104838
 20
1.000015403431007
 30
0.0
 11
8.934505617444301
 21
1.000015403431007
 31
0.0
  0
LINE
  5
1ECA5
330
1EC49
100
AcDbEntity
  8
0
 62
     1
 48
0.27
100
AcDbLine
 10
8.997405425303441
 20
6.715411521482565
 30
0.0
 11
8.934505617444301
 21
7.00010262510932
 31
0.0
  0
LINE
  5
1ECA6
330
1EC49
100
AcDbEntity
  8
0
 62
     1
 48
0.27
100
AcDbLine
 10
8.934505617444301
 20
1.000015403431007
 30
0.0
 11
8.997405425303441
 21
1.284706507057762
 31
0.0
  0
LINE
  5
1ECA7
330
1EC49
100
AcDbEntity
  8
0
 62
     1
 48
0.27
100
AcDbLine
 10
5.920393051104838
 20
7.00010262510932
 30
0.0
 11
8.934505617444301
 21
7.00010262510932
 31
0.0
  0
LINE
  5
1ECA8
330
1EC49
100
AcDbEntity
  8
0
 62
     1
 48
0.27
100
AcDbLine
 10
8.271668831664101
 20
1.000015403431007
 30
0.0
 11
8.495645855626207
 21
1.057660645813484
 31
0.0
  0
LINE
  5
1ECA9
330
1EC49
100
AcDbEntity
  8
0
 62
     1
 48
0.27
100
AcDbLine
 10
8.271668831664101
 20
7.00010262510932
 30
0.0
 11
8.495645855626207
 21
6.942457382726843
 31
0.0
  0
LINE
  5
1ECAA
330
1EC49
100
AcDbEntity
  8
0
 62
     1
 48
0.27
100
AcDbLine
 10
8.047691807701085
 20
1.057660645813484
 30
0.0
 11
8.271668831664101
 21
1.000015403431007
 31
0.0
  0
LINE
  5
1ECAB
330
1EC49
100
AcDbEntity
  8
0
 62
     1
 48
0.27
100
AcDbLine
 10
8.047691807701085
 20
6.942457382726843
 30
0.0
 11
8.271668831664101
 21
7.00010262510932
 31
0.0
  0
LINE
  5
1ECAC
330
1EC49
100
AcDbEntity
  8
0
 62
     1
 48
0.27
100
AcDbLine
 10
7.832322758649752
 20
1.228379916117319
 30
0.0
 11
8.047691807701085
 21
1.057660645813484
 31
0.0
  0
LINE
  5
1ECAD
330
1EC49
100
AcDbEntity
  8
0
 62
     1
 48
0.27
100
AcDbLine
 10
7.832322758649752
 20
6.771738112422553
 30
0.0
 11
8.047691807701085
 21
6.942457382726843
 31
0.0
  0
LINE
  5
1ECAE
330
1EC49
100
AcDbEntity
  8
0
 62
     1
 48
0.27
100
AcDbLine
 10
5.257556265325547
 20
4.000059682279697
 30
0.0
 11
5.920393051104838
 21
7.00010262510932
 31
0.0
  0
LINE
  5
1ECAF
330
1EC49
100
AcDbEntity
  8
0
 62
     1
 48
0.27
100
AcDbLine
 10
5.257556265325547
 20
4.000059682279697
 30
0.0
 11
6.9459952601037
 21
4.000059682279697
 31
0.0
  0
LINE
  5
1ECB0
330
1EC49
100
AcDbEntity
  8
0
 62
     1
 48
0.27
100
AcDbLine
 10
5.920393051104838
 20
1.000015403431007
 30
0.0
 11
5.257556265325547
 21
4.000059682279697
 31
0.0
  0
LINE
  5
1ECB1
330
1EC49
100
AcDbEntity
  8
0
 62
     1
 48
0.27
100
AcDbLine
 10
7.832322758649752
 20
1.228379916117319
 30
0.0
 11
7.633836990766212
 21
1.505613357719084
 31
0.0
  0
LINE
  5
1ECB2
330
1EC49
100
AcDbEntity
  8
0
 62
     1
 48
0.27
100
AcDbLine
 10
7.633836990766212
 20
6.494504670821243
 30
0.0
 11
7.832322758649752
 21
6.771738112422553
 31
0.0
  0
LINE
  5
1ECB3
330
1EC49
100
AcDbEntity
  8
0
 62
     1
 48
0.27
100
AcDbLine
 10
7.633836990766212
 20
1.505613357719084
 30
0.0
 11
7.459863176370163
 21
1.878707549359205
 31
0.0
  0
LINE
  5
1ECB4
330
1EC49
100
AcDbEntity
  8
0
 62
     1
 48
0.27
100
AcDbLine
 10
7.459863176370163
 20
6.121410479181122
 30
0.0
 11
7.633836990766212
 21
6.494504670821243
 31
0.0
  0
LINE
  5
1ECB5
330
1EC49
100
AcDbEntity
  8
0
 62
     1
 48
0.27
100
AcDbLine
 10
7.6088320458839
 20
1.000015403431007
 30
0.0
 11
6.9459952601037
 21
4.000059682279697
 31
0.0
  0
LINE
  5
1ECB6
330
1EC49
100
AcDbEntity
  8
0
 62
     1
 48
0.27
100
AcDbLine
 10
6.9459952601037
 20
4.000059682279697
 30
0.0
 11
7.6088320458839
 21
7.00010262510932
 31
0.0
  0
LINE
  5
1ECB7
330
1EC49
100
AcDbEntity
  8
0
 62
     1
 48
0.27
100
AcDbLine
 10
7.459863176370163
 20
1.878707549359205
 30
0.0
 11
7.317085422199852
 21
2.333324327609716
 31
0.0
  0
LINE
  5
1ECB8
330
1EC49
100
AcDbEntity
  8
0
 62
     1
 48
0.27
100
AcDbLine
 10
7.317085422199852
 20
5.666793700931066
 30
0.0
 11
7.459863176370163
 21
6.121410479181122
 31
0.0
  0
LINE
  5
1ECB9
330
1EC49
100
AcDbEntity
  8
0
 62
     1
 48
0.27
100
AcDbLine
 10
7.317085422199852
 20
2.333324327609716
 30
0.0
 11
7.210993433263865
 21
2.851992562724262
 31
0.0
  0
LINE
  5
1ECBA
330
1EC49
100
AcDbEntity
  8
0
 62
     1
 48
0.27
100
AcDbLine
 10
7.210993433263865
 20
5.148126801835587
 30
0.0
 11
7.317085422199852
 21
5.666793700931066
 31
0.0
  0
LINE
  5
1ECBB
330
1EC49
100
AcDbEntity
  8
0
 62
     1
 48
0.27
100
AcDbLine
 10
7.210993433263865
 20
2.851992562724262
 30
0.0
 11
7.145662069521677
 21
3.414780176547083
 31
0.0
  0
LINE
  5
1ECBC
330
1EC49
100
AcDbEntity
  8
0
 62
     1
 48
0.27
100
AcDbLine
 10
7.145662069521677
 20
4.585339187913177
 30
0.0
 11
7.210993433263865
 21
5.148126801835587
 31
0.0
  0
LINE
  5
1ECBD
330
1EC49
100
AcDbEntity
  8
0
 62
     1
 48
0.27
100
AcDbLine
 10
7.145662069521677
 20
3.414780176547083
 30
0.0
 11
7.123601712108211
 21
4.000059682279697
 31
0.0
  0
LINE
  5
1ECBE
330
1EC49
100
AcDbEntity
  8
0
 62
     1
 48
0.27
100
AcDbLine
 10
7.123601712108211
 20
4.000059682279697
 30
0.0
 11
7.145662069521677
 21
4.585339187913177
 31
0.0
  0
LINE
  5
1ECBF
330
1EC49
100
AcDbEntity
  8
0
 62
     1
 48
0.27
100
AcDbLine
 10
8.495645855626207
 20
1.057660645813484
 30
0.0
 11
10.49748167351754
 21
1.963488688019424
 31
0.0
  0
LINE
  5
1ECC0
330
1EC49
100
AcDbEntity
  8
0
 62
     1
 48
0.27
100
AcDbLine
 10
8.495645855626207
 20
6.942457382726843
 30
0.0
 11
10.49748167351754
 21
6.036629340520903
 31
0.0
  0
LINE
  5
1ECC1
330
1EC49
100
AcDbEntity
  8
0
 62
     1
 48
0.27
100
AcDbLine
 10
7.505661931983922
 20
7.00010262510932
 30
0.0
 11
6.928302351121601
 21
8.000117384725399
 31
0.0
  0
ENDBLK
  5
1ECC5
330
1EC49
100
AcDbEntity
  8
0
 48
0.27
100
AcDbBlockEnd
  0
BLOCK
  5
20E97
330
20E8D
100
AcDbEntity
  8
0
 48
0.27
100
AcDbBlockBegin
  2
*D89
 70
     1
 10
0.0
 20
0.0
 30
0.0
  3
*D89
  1

  0
LINE
  5
20E8E
330
20E8D
100
AcDbEntity
  8
0
 48
0.27
370
    -2
100
AcDbLine
 10
127.7598578260018
 20
-1545.736642343451
 30
0.0
 11
127.7598578260018
 21
-1539.162279954131
 31
0.0
  0
LINE
  5
20E8F
330
20E8D
100
AcDbEntity
  8
0
 48
0.27
370
    -2
100
AcDbLine
 10
171.7598578260023
 20
-1545.736642343451
 30
0.0
 11
171.7598578260023
 21
-1539.162279954131
 31
0.0
  0
LINE
  5
20E90
330
20E8D
100
AcDbEntity
  8
0
 48
0.27
370
    -2
100
AcDbLine
 10
132.5598578260018
 20
-1540.562279954131
 30
0.0
 11
166.9598578260023
 21
-1540.562279954131
 31
0.0
  0
SOLID
  5
20E91
330
20E8D
100
AcDbEntity
  8
0
 48
0.27
100
AcDbTrace
 10
132.5598578260018
 20
-1539.762279954131
 30
0.0
 11
132.5598578260018
 21
-1541.362279954131
 31
0.0
 12
127.7598578260018
 22
-1540.562279954131
 32
0.0
 13
127.7598578260018
 23
-1540.562279954131
 33
0.0
  0
SOLID
  5
20E92
330
20E8D
100
AcDbEntity
  8
0
 48
0.27
100
AcDbTrace
 10
166.9598578260023
 20
-1539.762279954131
 30
0.0
 11
166.9598578260023
 21
-1541.362279954131
 31
0.0
 12
171.7598578260023
 22
-1540.562279954131
 32
0.0
 13
171.7598578260023
 23
-1540.562279954131
 33
0.0
  0
MTEXT
  5
20E93
330
20E8D
100
AcDbEntity
  8
0
 48
0.27
100
AcDbMText
 10
149.7598578260021
 20
-1536.662279954131
 30
0.0
 40
5.0
 41
0.0
 71
     5
 72
     1
  1
44
 73
     1
 44
1.0
1001
ACAD
1000
MTEXTBEGIN
1070
    73
1070
     1
1070
    44
1040
1.0
1070
    74
1070
     0
1000
MTEXTEND
  0
POINT
  5
20E94
330
20E8D
100
AcDbEntity
  8
Defpoints
 62
     0
 48
0.27
100
AcDbPoint
 10
127.7598578260018
 20
-1547.136642343451
 30
0.0
  0
POINT
  5
20E95
330
20E8D
100
AcDbEntity
  8
Defpoints
 62
     0
 48
0.27
100
AcDbPoint
 10
171.7598578260023
 20
-1547.136642343451
 30
0.0
  0
POINT
  5
20E96
330
20E8D
100
AcDbEntity
  8
Defpoints
 62
     0
 48
0.27
100
AcDbPoint
 10
171.7598578260023
 20
-1540.562279954131
 30
0.0
  0
ENDBLK
  5
20E98
330
20E8D
100
AcDbEntity
  8
0
 48
0.27
100
AcDbBlockEnd
  0
BLOCK
  5
20EA4
330
20E9A
100
AcDbEntity
  8
0
 48
0.27
100
AcDbBlockBegin
  2
*D90
 70
     1
 10
0.0
 20
0.0
 30
0.0
  3
*D90
  1

  0
LINE
  5
20E9B
330
20E9A
100
AcDbEntity
  8
0
 48
0.27
370
    -2
100
AcDbLine
 10
123.7598578260027
 20
-1545.651885980886
 30
0.0
 11
123.7598578260027
 21
-1526.692086741099
 31
0.0
  0
LINE
  5
20E9C
330
20E9A
100
AcDbEntity
  8
0
 48
0.27
370
    -2
100
AcDbLine
 10
175.7598578260018
 20
-1545.651885980885
 30
0.0
 11
175.7598578260018
 21
-1526.692086741099
 31
0.0
  0
LINE
  5
20E9D
330
20E9A
100
AcDbEntity
  8
0
 48
0.27
370
    -2
100
AcDbLine
 10
128.5598578260027
 20
-1528.092086741099
 30
0.0
 11
170.9598578260018
 21
-1528.092086741099
 31
0.0
  0
SOLID
  5
20E9E
330
20E9A
100
AcDbEntity
  8
0
 48
0.27
100
AcDbTrace
 10
128.5598578260027
 20
-1527.292086741099
 30
0.0
 11
128.5598578260027
 21
-1528.892086741099
 31
0.0
 12
123.7598578260027
 22
-1528.092086741099
 32
0.0
 13
123.7598578260027
 23
-1528.092086741099
 33
0.0
  0
SOLID
  5
20E9F
330
20E9A
100
AcDbEntity
  8
0
 48
0.27
100
AcDbTrace
 10
170.9598578260018
 20
-1527.292086741099
 30
0.0
 11
170.9598578260018
 21
-1528.892086741099
 31
0.0
 12
175.7598578260018
 22
-1528.092086741099
 32
0.0
 13
175.7598578260018
 23
-1528.092086741099
 33
0.0
  0
MTEXT
  5
20EA0
330
20E9A
100
AcDbEntity
  8
0
 48
0.27
100
AcDbMText
 10
149.7598578260023
 20
-1524.191594615115
 30
0.0
 40
5.0
 41
0.0
 71
     5
 72
     1
  1
52
 73
     1
 44
1.0
1001
ACAD
1000
MTEXTBEGIN
1070
    73
1070
     1
1070
    44
1040
1.0
1070
    74
1070
     0
1000
MTEXTEND
  0
POINT
  5
20EA1
330
20E9A
100
AcDbEntity
  8
Defpoints
 62
     0
 48
0.27
100
AcDbPoint
 10
123.7598578260027
 20
-1547.051885980886
 30
0.0
  0
POINT
  5
20EA2
330
20E9A
100
AcDbEntity
  8
Defpoints
 62
     0
 48
0.27
100
AcDbPoint
 10
175.7598578260018
 20
-1547.051885980885
 30
0.0
  0
POINT
  5
20EA3
330
20E9A
100
AcDbEntity
  8
Defpoints
 62
     0
 48
0.27
100
AcDbPoint
 10
175.7598578260018
 20
-1528.092086741099
 30
0.0
  0
ENDBLK
  5
20EA5
330
20E9A
100
AcDbEntity
  8
0
 48
0.27
100
AcDbBlockEnd
  0
ENDSEC
  0
SECTION
  2
ENTITIES
  0
TEXT
  5
BC0B
330
1F
100
AcDbEntity
  8
標註線
100
AcDbText
 10
548.8276282314106
 20
-272.6528804859577
 30
0.0
 40
2.43
  1

  7
型式2
100
AcDbText
1001
sheetnoteflag
1010
348.0
1020
200.0
1030
0.0
  0
LINE
  5
1F780
330
1F
100
AcDbEntity
  8
虛線
 48
0.2
100
AcDbLine
 10
-43.15081860466546
 20
-1584.816285686927
 30
0.0
 11
-43.15081860466546
 21
-1558.816285686927
 31
0.0
  0
LINE
  5
1F781
330
1F
100
AcDbEntity
  8
虛線
 48
0.2
100
AcDbLine
 10
-27.15081860466262
 20
-1558.816285686927
 30
0.0
 11
-43.15081860466455
 21
-1558.816285686927
 31
0.0
  0
LINE
  5
1F782
330
1F
100
AcDbEntity
  8
中心線
 48
0.4
100
AcDbLine
 10
-108.1508186046609
 20
-1580.048241569118
 30
0.0
 11
-108.1508186046609
 21
-1546.216285686926
 31
0.0
  0
LINE
  5
1F783
330
1F
100
AcDbEntity
  8
中心線
 48
0.4
100
AcDbLine
 10
-36.15081860466273
 20
-1580.380335026618
 30
0.0
 11
-36.15081860466273
 21
-1546.216285686926
 31
0.0
  0
LINE
  5
1F784
330
1F
100
AcDbEntity
  8
虛線
 48
0.2
100
AcDbLine
 10
-101.15081860465
 20
-1584.816285686931
 30
0.0
 11
-101.1508186046536
 21
-1558.816285686931
 31
0.0
  0
LINE
  5
1F785
330
1F
100
AcDbEntity
  8
虛線
 48
0.2
100
AcDbLine
 10
-116.6508186046542
 20
-1558.816285686934
 30
0.0
 11
-101.1508186046545
 21
-1558.816285686931
 31
0.0
  0
LINE
  5
1F786
330
1F
100
AcDbEntity
  8
虛線
 48
0.2
100
AcDbLine
 10
-72.15081860466273
 20
-1554.316285686925
 30
0.0
 11
-65.15081860466182
 21
-1554.316285686925
 31
0.0
  0
LINE
  5
1F787
330
1F
100
AcDbEntity
  8
虛線
 48
0.2
100
AcDbLine
 10
-67.15081860466273
 20
-1554.316285686925
 30
0.0
 11
-67.15081860466273
 21
-1549.366285686936
 31
0.0
  0
LINE
  5
1F78A
330
1F
100
AcDbEntity
  8
虛線
 48
0.2
100
AcDbLine
 10
-65.1508186046608
 20
-1561.066285686926
 30
0.0
 11
-65.15081860466182
 21
-1554.316285686925
 31
0.0
  0
LINE
  5
1F78B
330
1F
100
AcDbEntity
  8
虛線
 48
0.2
100
AcDbLine
 10
-72.15081860466091
 20
-1554.316285686925
 30
0.0
 11
-79.15081860466091
 21
-1554.316285686925
 31
0.0
  0
LINE
  5
1F78E
330
1F
100
AcDbEntity
  8
虛線
 48
0.2
100
AcDbLine
 10
-79.15081860466091
 20
-1561.066285686926
 30
0.0
 11
-79.15081860466091
 21
-1554.316285686925
 31
0.0
  0
LINE
  5
1F78F
330
1F
100
AcDbEntity
  8
虛線
 48
0.2
100
AcDbLine
 10
-112.4008186046553
 20
-1558.816285686934
 30
0.0
 11
-112.4008186046563
 21
-1550.116285686933
 31
0.0
  0
LINE
  5
1F790
330
1F
100
AcDbEntity
  8
虛線
 48
0.2
100
AcDbLine
 10
-113.1508186046554
 20
-1558.816285686934
 30
0.0
 11
-113.1508186046572
 21
-1549.366285686934
 31
0.0
  0
LINE
  5
1F791
330
1F
100
AcDbEntity
  8
虛線
 48
0.2
100
AcDbLine
 10
-103.1508186046544
 20
-1558.816285686932
 30
0.0
 11
-103.1508186046572
 21
-1549.366285686933
 31
0.0
  0
LINE
  5
1F792
330
1F
100
AcDbEntity
  8
虛線
 48
0.2
100
AcDbLine
 10
-103.9008186046542
 20
-1558.816285686932
 30
0.0
 11
-103.9008186046572
 21
-1550.116285686933
 31
0.0
  0
LINE
  5
1F793
330
1F
100
AcDbEntity
  8
虛線
 48
0.2
100
AcDbLine
 10
-112.4008186046563
 20
-1550.116285686933
 30
0.0
 11
-113.7008186046647
 21
-1548.816285686926
 31
0.0
  0
LINE
  5
1F794
330
1F
100
AcDbEntity
  8
虛線
 48
0.2
100
AcDbLine
 10
-103.9008186046563
 20
-1550.116285686933
 30
0.0
 11
-102.6008186046489
 21
-1548.816285686926
 31
0.0
  0
LINE
  5
1F795
330
1F
100
AcDbEntity
  8
虛線
 48
0.2
100
AcDbLine
 10
-112.4008186046563
 20
-1550.116285686933
 30
0.0
 11
-103.9008186046563
 21
-1550.116285686933
 31
0.0
  0
LINE
  5
1F799
330
1F
100
AcDbEntity
  8
虛線
 48
0.2
100
AcDbLine
 10
-67.90081860465727
 20
-1550.116285686931
 30
0.0
 11
-66.60081860464981
 21
-1548.816285686924
 31
0.0
  0
LINE
  5
1F79A
330
1F
100
AcDbEntity
  8
虛線
 48
0.2
100
AcDbLine
 10
-76.40081860465727
 20
-1550.116285686931
 30
0.0
 11
-67.90081860465727
 21
-1550.116285686931
 31
0.0
  0
LINE
  5
1F79C
330
1F
100
AcDbEntity
  8
虛線
 48
0.2
100
AcDbLine
 10
-67.90081860465727
 20
-1550.116285686931
 30
0.0
 11
-67.90081860466563
 21
-1554.316285686925
 31
0.0
  0
LINE
  5
1F79D
330
1F
100
AcDbEntity
  8
虛線
 48
0.2
100
AcDbLine
 10
-77.15081860465909
 20
-1554.316285686924
 30
0.0
 11
-77.15081860465909
 21
-1549.366285686936
 31
0.0
  0
LINE
  5
1F79E
330
1F
100
AcDbEntity
  8
虛線
 48
0.2
100
AcDbLine
 10
-76.40081860466455
 20
-1550.116285686931
 30
0.0
 11
-77.700818604672
 21
-1548.816285686926
 31
0.0
  0
LINE
  5
1F7A0
330
1F
100
AcDbEntity
  8
虛線
 48
0.2
100
AcDbLine
 10
-76.40081860466455
 20
-1550.116285686931
 30
0.0
 11
-76.40081860465619
 21
-1554.316285686925
 31
0.0
  0
LINE
  5
1F7A2
330
1F
100
AcDbEntity
  8
虛線
 48
0.2
100
AcDbLine
 10
-31.90081860466648
 20
-1558.816285686927
 30
0.0
 11
-31.90081860466546
 21
-1550.116285686933
 31
0.0
  0
LINE
  5
1F7A3
330
1F
100
AcDbEntity
  8
虛線
 48
0.2
100
AcDbLine
 10
-31.15081860466643
 20
-1558.816285686927
 30
0.0
 11
-31.15081860466455
 21
-1549.366285686934
 31
0.0
  0
LINE
  5
1F7A4
330
1F
100
AcDbEntity
  8
虛線
 48
0.2
100
AcDbLine
 10
-41.15081860466736
 20
-1558.816285686927
 30
0.0
 11
-41.15081860466455
 21
-1549.366285686933
 31
0.0
  0
LINE
  5
1F7A5
330
1F
100
AcDbEntity
  8
虛線
 48
0.2
100
AcDbLine
 10
-40.40081860466762
 20
-1558.816285686927
 30
0.0
 11
-40.40081860466455
 21
-1550.116285686933
 31
0.0
  0
LINE
  5
1F7A6
330
1F
100
AcDbEntity
  8
虛線
 48
0.2
100
AcDbLine
 10
-31.90081860466546
 20
-1550.116285686933
 30
0.0
 11
-30.60081860465527
 21
-1548.816285686926
 31
0.0
  0
LINE
  5
1F7A7
330
1F
100
AcDbEntity
  8
虛線
 48
0.2
100
AcDbLine
 10
-40.40081860466545
 20
-1550.116285686933
 30
0.0
 11
-41.70081860467291
 21
-1548.816285686926
 31
0.0
  0
LINE
  5
1F7A8
330
1F
100
AcDbEntity
  8
虛線
 48
0.2
100
AcDbLine
 10
-31.90081860466546
 20
-1550.116285686933
 30
0.0
 11
-40.40081860466545
 21
-1550.116285686933
 31
0.0
  0
LINE
  5
1F7CD
330
1F
100
AcDbEntity
  8
0
  6
Continuous
 62
     7
100
AcDbLine
 10
-44.15081860466216
 20
-1549.616285686926
 30
0.0
 11
-42.65081860466216
 21
-1551.116285686926
 31
0.0
  0
LINE
  5
1F7CE
330
1F
100
AcDbEntity
  8
0
  6
Continuous
 62
     7
100
AcDbLine
 10
-42.65081860466216
 20
-1583.316285686926
 30
0.0
 11
-44.15081860466165
 21
-1584.816285686926
 31
0.0
  0
LINE
  5
1F7CF
330
1F
100
AcDbEntity
  8
0
  6
Continuous
 62
     7
100
AcDbLine
 10
-42.65081860466216
 20
-1583.316285686926
 30
0.0
 11
-42.65081860466216
 21
-1551.116285686926
 31
0.0
  0
LINE
  5
1F7D1
330
1F
100
AcDbEntity
  8
0
  6
Continuous
 62
     7
100
AcDbLine
 10
-58.15081860066221
 20
-1589.316285683026
 30
0.0
 11
-59.65081860466217
 21
-1590.816285686926
 31
0.0
  0
LINE
  5
1F7D2
330
1F
100
AcDbEntity
  8
0
  6
Continuous
 62
     7
100
AcDbLine
 10
-44.15081860466216
 20
-1549.616285686926
 30
0.0
 11
-100.1508186046621
 21
-1549.616285686926
 31
0.0
  0
LINE
  5
1F7D4
330
1F
100
AcDbEntity
  8
0
  6
Continuous
 62
     7
100
AcDbLine
 10
-66.25081860466218
 20
-1590.316285686926
 30
0.0
 11
-66.75081860466218
 21
-1590.816285686926
 31
0.0
  0
LINE
  5
1F7D5
330
1F
100
AcDbEntity
  8
0
  6
Continuous
 62
     7
100
AcDbLine
 10
-56.40081860066221
 20
-1565.941381628126
 30
0.0
 11
-56.40081860066221
 21
-1562.591411952826
 31
0.0
  0
LINE
  5
1F7D6
330
1F
100
AcDbEntity
  8
0
  6
Continuous
 62
     7
100
AcDbLine
 10
-56.40081860066221
 20
-1584.216285686926
 30
0.0
 11
-56.40081860066221
 21
-1582.091189745726
 31
0.0
  0
LINE
  5
1F7D7
330
1F
100
AcDbEntity
  8
0
  6
Continuous
 62
     7
100
AcDbLine
 10
-56.40081860066221
 20
-1562.591411952826
 30
0.0
 11
-57.92594486656219
 21
-1561.066285686926
 31
0.0
  0
LINE
  5
1F7D8
330
1F
100
AcDbEntity
  8
0
  6
Continuous
 62
     7
100
AcDbLine
 10
-58.42300114136219
 20
-1562.266285686926
 30
0.0
 11
-57.60081860066214
 21
-1563.088468227626
 31
0.0
  0
LINE
  5
1F7D9
330
1F
100
AcDbEntity
  8
0
  6
Continuous
 62
     7
100
AcDbLine
 10
-58.6508186006622
 20
-1562.816285686926
 30
0.0
 11
-58.15081860066221
 21
-1563.316285687047
 31
0.0
  0
LINE
  5
1F7DA
330
1F
100
AcDbEntity
  8
0
  6
Continuous
 62
     7
100
AcDbLine
 10
-57.60081860066214
 20
-1565.444325353506
 30
0.0
 11
-57.60081860066214
 21
-1563.088468227626
 31
0.0
  0
LINE
  5
1F7DB
330
1F
100
AcDbEntity
  8
0
  6
Continuous
 62
     7
100
AcDbLine
 10
-57.60081860066214
 20
-1582.588246020445
 30
0.0
 11
-57.60081860066214
 21
-1584.216285686926
 31
0.0
  0
LINE
  5
1F7DC
330
1F
100
AcDbEntity
  8
0
  6
Continuous
 62
     7
100
AcDbLine
 10
-58.15081860066221
 20
-1582.816063479849
 30
0.0
 11
-58.15081860066221
 21
-1589.316285683026
 31
0.0
  0
LINE
  5
1F7DD
330
1F
100
AcDbEntity
  8
0
  6
Continuous
 62
     7
100
AcDbLine
 10
-58.15081860066221
 20
-1563.316285687047
 30
0.0
 11
-58.15081860066221
 21
-1565.216507894143
 31
0.0
  0
LINE
  5
1F7DE
330
1F
100
AcDbEntity
  8
0
  6
Continuous
 62
     7
100
AcDbLine
 10
-80.40081860466216
 20
-1590.316285686926
 30
0.0
 11
-80.90081860466217
 21
-1590.816285686926
 31
0.0
  0
LINE
  5
1F7DF
330
1F
100
AcDbEntity
  8
0
  6
Continuous
 62
     7
100
AcDbLine
 10
-61.90081860466216
 20
-1571.441381634926
 30
0.0
 11
-56.40081860066221
 21
-1565.941381628126
 31
0.0
  0
LINE
  5
1F7E0
330
1F
100
AcDbEntity
  8
0
  6
Continuous
 62
     7
100
AcDbLine
 10
-57.60081860066214
 20
-1565.444325353506
 30
0.0
 11
-63.10081860466221
 21
-1570.944325360226
 31
0.0
  0
LINE
  5
1F7E1
330
1F
100
AcDbEntity
  8
0
  6
Continuous
 62
     7
100
AcDbLine
 10
-61.90081860466216
 20
-1571.441381634926
 30
0.0
 11
-61.90081860466216
 21
-1576.591189739026
 31
0.0
  0
LINE
  5
1F7E2
330
1F
100
AcDbEntity
  8
0
  6
Continuous
 62
     7
100
AcDbLine
 10
-63.10081860466221
 20
-1577.088246013726
 30
0.0
 11
-63.10081860466221
 21
-1570.944325360226
 31
0.0
  0
LINE
  5
1F7E3
330
1F
100
AcDbEntity
  8
0
  6
Continuous
 62
     7
100
AcDbLine
 10
-63.65081860286216
 20
-1570.716507899202
 30
0.0
 11
-63.65081860286216
 21
-1577.316063474338
 31
0.0
  0
LINE
  5
1F7E4
330
1F
100
AcDbEntity
  8
0
  6
Continuous
 62
     7
100
AcDbLine
 10
-86.37569234276213
 20
-1561.066285686926
 30
0.0
 11
-57.92594486656219
 21
-1561.066285686926
 31
0.0
  0
LINE
  5
1F7E5
330
1F
100
AcDbEntity
  8
0
  6
Continuous
 62
     7
100
AcDbLine
 10
-58.42300114136219
 20
-1562.266285686926
 30
0.0
 11
-85.87863606786219
 21
-1562.266285686926
 31
0.0
  0
LINE
  5
1F7E6
330
1F
100
AcDbEntity
  8
0
  6
Continuous
 62
     7
100
AcDbLine
 10
-85.65081860856219
 20
-1562.816285686926
 30
0.0
 11
-58.6508186006622
 21
-1562.816285686926
 31
0.0
  0
LINE
  5
1F7E9
330
1F
100
AcDbEntity
  8
0
  6
Continuous
 62
     7
100
AcDbLine
 10
-58.15081860066221
 20
-1565.216507894143
 30
0.0
 11
-63.65081860286216
 21
-1570.716507899202
 31
0.0
  0
LINE
  5
1F7EB
330
1F
100
AcDbEntity
  8
0
  6
Continuous
 62
     7
100
AcDbLine
 10
-56.40081860066221
 20
-1582.091189745726
 30
0.0
 11
-61.90081860466216
 21
-1576.591189739026
 31
0.0
  0
LINE
  5
1F7EE
330
1F
100
AcDbEntity
  8
0
  6
Continuous
 62
     7
100
AcDbLine
 10
-86.1508186085622
 20
-1582.816063479895
 30
0.0
 11
-80.65081860646216
 21
-1577.316063474333
 31
0.0
  0
LINE
  5
1F7EF
330
1F
100
AcDbEntity
  8
0
  6
Continuous
 62
     7
100
AcDbLine
 10
-63.10081860466221
 20
-1577.088246013726
 30
0.0
 11
-57.60081860066214
 21
-1582.588246020445
 31
0.0
  0
LINE
  5
1F7F0
330
1F
100
AcDbEntity
  8
0
  6
Continuous
 62
     7
100
AcDbLine
 10
-63.65081860286216
 20
-1577.316063474338
 30
0.0
 11
-58.15081860066221
 21
-1582.816063479849
 31
0.0
  0
LINE
  5
1F7F2
330
1F
100
AcDbEntity
  8
0
  6
Continuous
 62
     7
100
AcDbLine
 10
-86.70081860856214
 20
-1582.588246020345
 30
0.0
 11
-81.20081860466212
 21
-1577.088246013726
 31
0.0
  0
LINE
  5
1F7F3
330
1F
100
AcDbEntity
  8
0
  6
Continuous
 62
     7
100
AcDbLine
 10
-82.40081860466217
 20
-1576.591189739026
 30
0.0
 11
-87.90081860856219
 21
-1582.091189745726
 31
0.0
  0
LINE
  5
1F7FA
330
1F
100
AcDbEntity
  8
0
  6
Continuous
 62
     7
100
AcDbLine
 10
-80.65081860646216
 20
-1570.716507899202
 30
0.0
 11
-86.1508186085622
 21
-1565.216507894243
 31
0.0
  0
LINE
  5
1F7FB
330
1F
100
AcDbEntity
  8
0
  6
Continuous
 62
     7
100
AcDbLine
 10
-81.20081860466212
 20
-1570.944325360226
 30
0.0
 11
-86.70081860856214
 21
-1565.444325353606
 31
0.0
  0
LINE
  5
1F7FC
330
1F
100
AcDbEntity
  8
0
  6
Continuous
 62
     7
100
AcDbLine
 10
-87.90081860856219
 20
-1565.941381628126
 30
0.0
 11
-82.40081860466217
 21
-1571.441381634926
 31
0.0
  0
LINE
  5
1F7FF
330
1F
100
AcDbEntity
  8
0
  6
Continuous
 62
     7
100
AcDbLine
 10
-80.65081860646216
 20
-1577.316063474333
 30
0.0
 11
-80.65081860646216
 21
-1570.716507899202
 31
0.0
  0
LINE
  5
1F800
330
1F
100
AcDbEntity
  8
0
  6
Continuous
 62
     7
100
AcDbLine
 10
-81.20081860466212
 20
-1570.944325360226
 30
0.0
 11
-81.20081860466212
 21
-1577.088246013726
 31
0.0
  0
LINE
  5
1F801
330
1F
100
AcDbEntity
  8
0
  6
Continuous
 62
     7
100
AcDbLine
 10
-63.40081860466217
 20
-1590.816285686926
 30
0.0
 11
-63.90081860466216
 21
-1590.316285686926
 31
0.0
  0
LINE
  5
1F802
330
1F
100
AcDbEntity
  8
0
  6
Continuous
 62
     7
100
AcDbLine
 10
-82.40081860466217
 20
-1576.591189739026
 30
0.0
 11
-82.40081860466217
 21
-1571.441381634926
 31
0.0
  0
LINE
  5
1F803
330
1F
100
AcDbEntity
  8
0
  6
Continuous
 62
     7
100
AcDbLine
 10
-86.1508186085622
 20
-1563.316285686926
 30
0.0
 11
-85.65081860856219
 21
-1562.816285686926
 31
0.0
  0
LINE
  5
1F804
330
1F
100
AcDbEntity
  8
0
  6
Continuous
 62
     7
100
AcDbLine
 10
-86.70081860856214
 20
-1563.088468227626
 30
0.0
 11
-85.87863606786219
 21
-1562.266285686926
 31
0.0
  0
LINE
  5
1F805
330
1F
100
AcDbEntity
  8
0
  6
Continuous
 62
     7
100
AcDbLine
 10
-86.1508186085622
 20
-1565.216507894243
 30
0.0
 11
-86.1508186085622
 21
-1563.316285686926
 31
0.0
  0
LINE
  5
1F806
330
1F
100
AcDbEntity
  8
0
  6
Continuous
 62
     7
100
AcDbLine
 10
-86.1508186085622
 20
-1589.316285683026
 30
0.0
 11
-86.1508186085622
 21
-1582.816063479895
 31
0.0
  0
LINE
  5
1F807
330
1F
100
AcDbEntity
  8
0
  6
Continuous
 62
     7
100
AcDbLine
 10
-86.70081860856214
 20
-1582.588246020345
 30
0.0
 11
-86.70081860856214
 21
-1584.216285686926
 31
0.0
  0
LINE
  5
1F808
330
1F
100
AcDbEntity
  8
0
  6
Continuous
 62
     7
100
AcDbLine
 10
-86.70081860856214
 20
-1563.088468227626
 30
0.0
 11
-86.70081860856214
 21
-1565.444325353606
 31
0.0
  0
LINE
  5
1F809
330
1F
100
AcDbEntity
  8
0
  6
Continuous
 62
     7
100
AcDbLine
 10
-57.60081860066214
 20
-1584.216285686926
 30
0.0
 11
-56.40081860066221
 21
-1584.216285686926
 31
0.0
  0
LINE
  5
1F80A
330
1F
100
AcDbEntity
  8
0
  6
Continuous
 62
     7
100
AcDbLine
 10
-87.90081860856219
 20
-1584.216285686926
 30
0.0
 11
-86.70081860856214
 21
-1584.216285686926
 31
0.0
  0
LINE
  5
1F80D
330
1F
100
AcDbEntity
  8
0
  6
Continuous
 62
     7
100
AcDbLine
 10
-86.37569234276213
 20
-1561.066285686926
 30
0.0
 11
-87.90081860856219
 21
-1562.591411952826
 31
0.0
  0
LINE
  5
1F80E
330
1F
100
AcDbEntity
  8
0
  6
Continuous
 62
     7
100
AcDbLine
 10
-87.90081860856219
 20
-1582.091189745726
 30
0.0
 11
-87.90081860856219
 21
-1584.216285686926
 31
0.0
  0
LINE
  5
1F80F
330
1F
100
AcDbEntity
  8
0
  6
Continuous
 62
     7
100
AcDbLine
 10
-87.90081860856219
 20
-1562.591411952826
 30
0.0
 11
-87.90081860856219
 21
-1565.941381628126
 31
0.0
  0
LINE
  5
1F810
330
1F
100
AcDbEntity
  8
0
  6
Continuous
 62
     7
100
AcDbLine
 10
-77.55081860466214
 20
-1590.816285686926
 30
0.0
 11
-78.05081860466214
 21
-1590.316285686926
 31
0.0
  0
LINE
  5
1F811
330
1F
100
AcDbEntity
  8
0
  6
Continuous
 62
     7
100
AcDbLine
 10
-78.05081860466214
 20
-1590.316285686926
 30
0.0
 11
-80.40081860466216
 21
-1590.316285686926
 31
0.0
  0
LINE
  5
1F812
330
1F
100
AcDbEntity
  8
0
  6
Continuous
 62
     7
100
AcDbLine
 10
-63.90081860466216
 20
-1590.316285686926
 30
0.0
 11
-66.25081860466218
 21
-1590.316285686926
 31
0.0
  0
LINE
  5
1F813
330
1F
100
AcDbEntity
  8
0
  6
Continuous
 62
     7
100
AcDbLine
 10
-80.90081860466217
 20
-1590.816285686926
 30
0.0
 11
-84.65081860466217
 21
-1590.816285686926
 31
0.0
  0
LINE
  5
1F814
330
1F
100
AcDbEntity
  8
0
  6
Continuous
 62
     7
100
AcDbLine
 10
-66.75081860466218
 20
-1590.816285686926
 30
0.0
 11
-77.55081860466214
 21
-1590.816285686926
 31
0.0
  0
LINE
  5
1F815
330
1F
100
AcDbEntity
  8
0
  6
Continuous
 62
     7
100
AcDbLine
 10
-59.65081860466217
 20
-1590.816285686926
 30
0.0
 11
-63.40081860466217
 21
-1590.816285686926
 31
0.0
  0
LINE
  5
1F816
330
1F
100
AcDbEntity
  8
0
  6
Continuous
 62
     7
100
AcDbLine
 10
-84.65081860466217
 20
-1590.816285686926
 30
0.0
 11
-86.1508186085622
 21
-1589.316285683026
 31
0.0
  0
LINE
  5
1F818
330
1F
100
AcDbEntity
  8
0
  6
Continuous
 62
     7
100
AcDbLine
 10
-100.1508186046622
 20
-1584.816285686926
 30
0.0
 11
-101.6508186046621
 21
-1583.316285686926
 31
0.0
  0
LINE
  5
1F819
330
1F
100
AcDbEntity
  8
0
  6
Continuous
 62
     7
100
AcDbLine
 10
-101.6508186046621
 20
-1551.116285686926
 30
0.0
 11
-100.1508186046621
 21
-1549.616285686926
 31
0.0
  0
LINE
  5
1F81A
330
1F
100
AcDbEntity
  8
0
 48
0.27
100
AcDbLine
 10
-74.46025292005288
 20
-1551.31622798448
 30
0.0
 11
-69.84138428927053
 21
-1551.31622798448
 31
0.0
  0
LINE
  5
1F81B
330
1F
100
AcDbEntity
  8
0
 48
0.27
100
AcDbLine
 10
-69.84138295325101
 20
-1559.316344725391
 30
0.0
 11
-74.46025292005288
 21
-1559.316344725391
 31
0.0
  0
ARC
  5
1F81C
330
1F
100
AcDbEntity
  8
0
 48
0.27
100
AcDbCircle
 10
-72.15081860466217
 20
-1555.316285686926
 30
0.0
 40
4.000057702445608
100
AcDbArc
 50
48.59037799889628
 51
311.4096220031896
  0
LINE
  5
1F81D
330
1F
100
AcDbEntity
  8
0
 48
0.27
100
AcDbLine
 10
-74.46025292005288
 20
-1551.31622798448
 30
0.0
 11
-76.76968723544451
 21
-1555.316285686926
 31
0.0
  0
LINE
  5
1F81E
330
1F
100
AcDbEntity
  8
0
 48
0.27
100
AcDbLine
 10
-76.76968723544451
 20
-1555.316285686926
 30
0.0
 11
-74.46025292005288
 21
-1559.316344725391
 31
0.0
  0
LWPOLYLINE
  5
1F81F
330
1F
100
AcDbEntity
  8
0
 48
0.27
100
AcDbPolyline
 90
       17
 70
     0
 43
0.0
 10
-63.19900024883918
 20
-1555.316285686926
 10
-63.16545145788222
 20
-1555.533326096566
 10
-63.13255998871682
 20
-1555.596231248504
 10
-63.09598912125967
 20
-1555.625773316293
 10
-63.06201146804415
 20
-1555.625466031809
 10
-63.02551808971839
 20
-1555.595261298249
 10
-62.99417373132837
 20
-1555.535490448549
 10
-62.96478664180085
 20
-1555.405415569745
 10
-62.95981932051564
 20
-1555.316285686926
 10
-62.99336677545307
 20
-1555.099246613305
 10
-63.02625958063799
 20
-1555.036341461368
 10
-63.06283044809515
 20
-1555.006799393577
 10
-63.09680676529115
 20
-1555.007106678162
 10
-63.13330147963643
 20
-1555.037311411721
 10
-63.16464450200692
 20
-1555.097082261422
 10
-63.19403292755396
 20
-1555.227157140126
 10
-63.19900024883918
 20
-1555.316285686926
  0
LINE
  5
1F820
330
1F
100
AcDbEntity
  8
0
 48
0.27
100
AcDbLine
 10
-62.40693428469512
 20
-1555.665827187176
 30
0.0
 11
-62.39375979434772
 21
-1555.316285686926
 31
0.0
  0
LINE
  5
1F821
330
1F
100
AcDbEntity
  8
0
 48
0.27
100
AcDbLine
 10
-62.44595140424917
 20
-1556.001936345215
 30
0.0
 11
-62.40693428469512
 21
-1555.665827187176
 31
0.0
  0
LINE
  5
1F822
330
1F
100
AcDbEntity
  8
0
 48
0.27
100
AcDbLine
 10
-62.39375979434772
 20
-1555.316285686926
 30
0.0
 11
-62.40693428469512
 21
-1554.966744186676
 31
0.0
  0
LINE
  5
1F823
330
1F
100
AcDbEntity
  8
0
 48
0.27
100
AcDbLine
 10
-62.50931213893363
 20
-1556.31169518664
 30
0.0
 11
-62.44595140424917
 21
-1556.001936345215
 31
0.0
  0
LINE
  5
1F824
330
1F
100
AcDbEntity
  8
0
 48
0.27
100
AcDbLine
 10
-62.40693428469512
 20
-1554.966744186676
 30
0.0
 11
-62.44595140424917
 21
-1554.630636364656
 31
0.0
  0
LINE
  5
1F825
330
1F
100
AcDbEntity
  8
0
 48
0.27
100
AcDbLine
 10
-62.59458226083006
 20
-1556.583202447683
 30
0.0
 11
-62.50931213893363
 21
-1556.31169518664
 31
0.0
  0
LINE
  5
1F826
330
1F
100
AcDbEntity
  8
0
 48
0.27
100
AcDbLine
 10
-63.35394780649676
 20
-1556.954618598636
 30
0.0
 11
-63.35204932249325
 21
-1556.953690064986
 31
0.0
  0
LINE
  5
1F827
330
1F
100
AcDbEntity
  8
0
 48
0.27
100
AcDbLine
 10
-62.44595140424917
 20
-1554.630636364656
 30
0.0
 11
-62.50931213893363
 21
-1554.320876187211
 31
0.0
  0
LINE
  5
1F828
330
1F
100
AcDbEntity
  8
0
 48
0.27
100
AcDbLine
 10
-62.69848317749347
 20
-1556.806022478662
 30
0.0
 11
-62.59458226083006
 21
-1556.583202447683
 31
0.0
  0
LINE
  5
1F829
330
1F
100
AcDbEntity
  8
0
 48
0.27
100
AcDbLine
 10
-62.50931213893363
 20
-1554.320876187211
 30
0.0
 11
-62.59458226083006
 21
-1554.049370262188
 31
0.0
  0
LINE
  5
1F82A
330
1F
100
AcDbEntity
  8
0
 48
0.27
100
AcDbLine
 10
-66.2722049668746
 20
-1557.352856681187
 30
0.0
 11
-66.03107879396521
 21
-1557.254452149628
 31
0.0
  0
LINE
  5
1F82B
330
1F
100
AcDbEntity
  8
0
 48
0.27
100
AcDbLine
 10
-66.2722049668746
 20
-1553.279716028685
 30
0.0
 11
-66.03107879396521
 21
-1553.378119224223
 31
0.0
  0
LINE
  5
1F82C
330
1F
100
AcDbEntity
  8
0
 48
0.27
100
AcDbLine
 10
-62.81702286207201
 20
-1556.971591393011
 30
0.0
 11
-62.69848317749347
 21
-1556.806022478662
 31
0.0
  0
LINE
  5
1F82D
330
1F
100
AcDbEntity
  8
0
 48
0.27
100
AcDbLine
 10
-62.59458226083006
 20
-1554.049370262188
 30
0.0
 11
-62.69848317749347
 21
-1553.826550231209
 31
0.0
  0
LINE
  5
1F82E
330
1F
100
AcDbEntity
  8
0
 48
0.27
100
AcDbLine
 10
-66.03107879396521
 20
-1557.254452149628
 30
0.0
 11
-65.81615196746679
 21
-1557.263579836223
 31
0.0
  0
LINE
  5
1F82F
330
1F
100
AcDbEntity
  8
0
 48
0.27
100
AcDbLine
 10
-66.03107879396521
 20
-1553.378119224223
 30
0.0
 11
-65.81615196746679
 21
-1553.368992873649
 31
0.0
  0
LINE
  5
1F830
330
1F
100
AcDbEntity
  8
0
 48
0.27
100
AcDbLine
 10
-64.19613855798161
 20
-1557.820650621823
 30
0.0
 11
-62.94564548748531
 21
-1557.073549737027
 31
0.0
  0
LINE
  5
1F831
330
1F
100
AcDbEntity
  8
0
 48
0.27
100
AcDbLine
 10
-62.94564548748531
 20
-1557.073549737027
 30
0.0
 11
-62.81702286207201
 21
-1556.971591393011
 31
0.0
  0
LINE
  5
1F832
330
1F
100
AcDbEntity
  8
0
 48
0.27
100
AcDbLine
 10
-62.69848317749347
 20
-1553.826550231209
 30
0.0
 11
-62.81702286207201
 21
-1553.660981316861
 31
0.0
  0
LINE
  5
1F833
330
1F
100
AcDbEntity
  8
0
 48
0.27
100
AcDbLine
 10
-64.38677120206921
 20
-1557.869714609584
 30
0.0
 11
-64.19613855798161
 21
-1557.820650621823
 31
0.0
  0
LINE
  5
1F834
330
1F
100
AcDbEntity
  8
0
 48
0.27
100
AcDbLine
 10
-64.74760874895583
 20
-1557.841830542288
 30
0.0
 11
-64.38677120206921
 21
-1557.869714609584
 31
0.0
  0
LINE
  5
1F835
330
1F
100
AcDbEntity
  8
0
 48
0.27
100
AcDbLine
 10
-65.81615196746679
 20
-1557.263579836223
 30
0.0
 11
-65.26219677983045
 21
-1557.628802199794
 31
0.0
  0
LINE
  5
1F836
330
1F
100
AcDbEntity
  8
0
 48
0.27
100
AcDbLine
 10
-63.07940911671813
 20
-1557.107976292893
 30
0.0
 11
-62.94564548748531
 21
-1557.073549737027
 31
0.0
  0
LINE
  5
1F837
330
1F
100
AcDbEntity
  8
0
 48
0.27
100
AcDbLine
 10
-64.19613855798161
 20
-1552.811920752029
 30
0.0
 11
-62.94564548748531
 21
-1553.559022972843
 31
0.0
  0
LINE
  5
1F838
330
1F
100
AcDbEntity
  8
0
 48
0.27
100
AcDbLine
 10
-62.94564548748531
 20
-1553.559022972843
 30
0.0
 11
-62.81702286207201
 21
-1553.660981316861
 31
0.0
  0
LINE
  5
1F839
330
1F
100
AcDbEntity
  8
0
 48
0.27
100
AcDbLine
 10
-64.38677120206921
 20
-1552.762858100287
 30
0.0
 11
-64.19613855798161
 21
-1552.811920752029
 31
0.0
  0
LINE
  5
1F83A
330
1F
100
AcDbEntity
  8
0
 48
0.27
100
AcDbLine
 10
-64.74760874895583
 20
-1552.790740831662
 30
0.0
 11
-64.38677120206921
 21
-1552.762858100287
 31
0.0
  0
LINE
  5
1F83B
330
1F
100
AcDbEntity
  8
0
 48
0.27
100
AcDbLine
 10
-66.00699035855723
 20
-1557.119074608544
 30
0.0
 11
-65.86690735620959
 21
-1557.230116550613
 31
0.0
  0
LINE
  5
1F83C
330
1F
100
AcDbEntity
  8
0
 48
0.27
100
AcDbLine
 10
-65.26219677983045
 20
-1557.628802199794
 30
0.0
 11
-64.93615987436896
 21
-1557.793303634365
 31
0.0
  0
LINE
  5
1F83D
330
1F
100
AcDbEntity
  8
0
 48
0.27
100
AcDbLine
 10
-64.93615987436896
 20
-1557.793303634365
 30
0.0
 11
-64.74760874895583
 21
-1557.841830542288
 31
0.0
  0
LINE
  5
1F83E
330
1F
100
AcDbEntity
  8
0
 48
0.27
100
AcDbLine
 10
-65.81615196746679
 20
-1553.368992873649
 30
0.0
 11
-65.26219677983045
 21
-1553.003770510077
 31
0.0
  0
LINE
  5
1F83F
330
1F
100
AcDbEntity
  8
0
 48
0.27
100
AcDbLine
 10
-66.00699035855723
 20
-1553.513498101326
 30
0.0
 11
-65.86690735620959
 21
-1553.402456159258
 31
0.0
  0
LINE
  5
1F840
330
1F
100
AcDbEntity
  8
0
 48
0.27
100
AcDbLine
 10
-64.57740518217724
 20
-1557.820650621823
 30
0.0
 11
-64.38677120206921
 21
-1557.869714609584
 31
0.0
  0
LINE
  5
1F841
330
1F
100
AcDbEntity
  8
0
 48
0.27
100
AcDbLine
 10
-64.93615987436896
 20
-1552.839269075506
 30
0.0
 11
-64.74760874895583
 21
-1552.790740831662
 31
0.0
  0
LINE
  5
1F842
330
1F
100
AcDbEntity
  8
0
 48
0.27
100
AcDbLine
 10
-65.26219677983045
 20
-1553.003770510077
 30
0.0
 11
-64.93615987436896
 21
-1552.839269075506
 31
0.0
  0
LINE
  5
1F843
330
1F
100
AcDbEntity
  8
0
 48
0.27
100
AcDbLine
 10
-66.00699035855723
 20
-1557.119074608544
 30
0.0
 11
-66.13609261506827
 21
-1556.938753364624
 31
0.0
  0
LINE
  5
1F844
330
1F
100
AcDbEntity
  8
0
 48
0.27
100
AcDbLine
 10
-63.21317274584998
 20
-1557.073549737027
 30
0.0
 11
-63.07940911671813
 21
-1557.107976292893
 31
0.0
  0
LINE
  5
1F845
330
1F
100
AcDbEntity
  8
0
 48
0.27
100
AcDbLine
 10
-63.07940911671813
 20
-1553.524596416977
 30
0.0
 11
-62.94564548748531
 21
-1553.559022972843
 31
0.0
  0
LINE
  5
1F846
330
1F
100
AcDbEntity
  8
0
 48
0.27
100
AcDbLine
 10
-64.57740518217724
 20
-1552.811920752029
 30
0.0
 11
-64.38677120206921
 21
-1552.762858100287
 31
0.0
  0
LINE
  5
1F848
330
1F
100
AcDbEntity
  8
0
 48
0.27
100
AcDbLine
 10
-66.13609261506827
 20
-1553.693819345246
 30
0.0
 11
-66.00699035855723
 21
-1553.513498101326
 31
0.0
  0
LINE
  5
1F849
330
1F
100
AcDbEntity
  8
0
 48
0.27
100
AcDbLine
 10
-66.13609261506827
 20
-1556.938753364624
 30
0.0
 11
-66.24925081221864
 21
-1556.696081416858
 31
0.0
  0
LINE
  5
1F84A
330
1F
100
AcDbEntity
  8
0
 48
0.27
100
AcDbLine
 10
-64.76071243026945
 20
-1557.675346454386
 30
0.0
 11
-64.57740518217724
 21
-1557.820650621823
 31
0.0
  0
LINE
  5
1F84B
330
1F
100
AcDbEntity
  8
0
 48
0.27
100
AcDbLine
 10
-66.24925081221864
 20
-1553.936491293012
 30
0.0
 11
-66.13609261506827
 21
-1553.693819345246
 31
0.0
  0
LINE
  5
1F84C
330
1F
100
AcDbEntity
  8
0
 48
0.27
100
AcDbLine
 10
-63.34179670728281
 20
-1556.971591393011
 30
0.0
 11
-63.21317274584998
 21
-1557.073549737027
 31
0.0
  0
LINE
  5
1F84D
330
1F
100
AcDbEntity
  8
0
 48
0.27
100
AcDbLine
 10
-64.76071243026945
 20
-1552.957226255485
 30
0.0
 11
-64.57740518217724
 21
-1552.811920752029
 31
0.0
  0
LINE
  5
1F84E
330
1F
100
AcDbEntity
  8
0
 48
0.27
100
AcDbLine
 10
-63.21317274584998
 20
-1553.559022972843
 30
0.0
 11
-63.07940911671813
 21
-1553.524596416977
 31
0.0
  0
LINE
  5
1F84F
330
1F
100
AcDbEntity
  8
0
 48
0.27
100
AcDbLine
 10
-66.24925081221864
 20
-1556.696081416858
 30
0.0
 11
-66.34211754216721
 21
-1556.400384182925
 31
0.0
  0
LINE
  5
1F850
330
1F
100
AcDbEntity
  8
0
 48
0.27
100
AcDbLine
 10
-66.34211754216721
 20
-1554.232188526946
 30
0.0
 11
-66.24925081221864
 21
-1553.936491293012
 31
0.0
  0
LINE
  5
1F851
330
1F
100
AcDbEntity
  8
0
 48
0.27
100
AcDbLine
 10
-64.76071243026945
 20
-1557.675346454386
 30
0.0
 11
-64.92964945026597
 21
-1557.439383997627
 31
0.0
  0
LINE
  5
1F852
330
1F
100
AcDbEntity
  8
0
 48
0.27
100
AcDbLine
 10
-66.34211754216721
 20
-1556.400384182925
 30
0.0
 11
-66.41112296012216
 21
-1556.063025846357
 31
0.0
  0
LINE
  5
1F853
330
1F
100
AcDbEntity
  8
0
 48
0.27
100
AcDbLine
 10
-63.34179670728281
 20
-1553.660981316861
 30
0.0
 11
-63.21317274584998
 21
-1553.559022972843
 31
0.0
  0
LINE
  5
1F854
330
1F
100
AcDbEntity
  8
0
 48
0.27
100
AcDbLine
 10
-63.34179670728281
 20
-1556.971591393011
 30
0.0
 11
-63.46033639186135
 21
-1556.806022478662
 31
0.0
  0
LINE
  5
1F855
330
1F
100
AcDbEntity
  8
0
 48
0.27
100
AcDbLine
 10
-64.92964945026597
 20
-1553.193188712244
 30
0.0
 11
-64.76071243026945
 21
-1552.957226255485
 31
0.0
  0
LINE
  5
1F856
330
1F
100
AcDbEntity
  8
0
 48
0.27
100
AcDbLine
 10
-66.41112296012216
 20
-1554.569546863513
 30
0.0
 11
-66.34211754216721
 21
-1554.232188526946
 31
0.0
  0
LINE
  5
1F857
330
1F
100
AcDbEntity
  8
0
 48
0.27
100
AcDbLine
 10
-66.41112296012216
 20
-1556.063025846357
 30
0.0
 11
-66.45361773892273
 21
-1555.696971142541
 31
0.0
  0
LINE
  5
1F858
330
1F
100
AcDbEntity
  8
0
 48
0.27
100
AcDbLine
 10
-66.45361773892273
 20
-1554.93560156733
 30
0.0
 11
-66.41112296012216
 21
-1554.569546863513
 31
0.0
  0
LINE
  5
1F859
330
1F
100
AcDbEntity
  8
0
 48
0.27
100
AcDbLine
 10
-66.45361773892273
 20
-1555.696971142541
 30
0.0
 11
-66.46796525458739
 21
-1555.316285686926
 31
0.0
  0
LINE
  5
1F85A
330
1F
100
AcDbEntity
  8
0
 48
0.27
100
AcDbLine
 10
-66.46796525458739
 20
-1555.316285686926
 30
0.0
 11
-66.45361773892273
 21
-1554.93560156733
 31
0.0
  0
LINE
  5
1F85B
330
1F
100
AcDbEntity
  8
0
 48
0.27
100
AcDbLine
 10
-64.92964945026597
 20
-1557.439383997627
 30
0.0
 11
-65.07772452263726
 21
-1557.121832153283
 31
0.0
  0
LINE
  5
1F85C
330
1F
100
AcDbEntity
  8
0
 48
0.27
100
AcDbLine
 10
-63.46033639186135
 20
-1553.826550231209
 30
0.0
 11
-63.34179670728281
 21
-1553.660981316861
 31
0.0
  0
LINE
  5
1F85D
330
1F
100
AcDbEntity
  8
0
 48
0.27
100
AcDbLine
 10
-63.46033639186135
 20
-1556.806022478662
 30
0.0
 11
-63.56423730852475
 21
-1556.583202447683
 31
0.0
  0
LINE
  5
1F85E
330
1F
100
AcDbEntity
  8
0
 48
0.27
100
AcDbLine
 10
-65.07772452263726
 20
-1553.510739220567
 30
0.0
 11
-64.92964945026597
 21
-1553.193188712244
 31
0.0
  0
LINE
  5
1F85F
330
1F
100
AcDbEntity
  8
0
 48
0.27
100
AcDbLine
 10
-63.56423730852475
 20
-1554.049370262188
 30
0.0
 11
-63.46033639186135
 21
-1553.826550231209
 31
0.0
  0
LINE
  5
1F860
330
1F
100
AcDbEntity
  8
0
 48
0.27
100
AcDbLine
 10
-65.07772452263726
 20
-1557.121832153283
 30
0.0
 11
-65.19924620323036
 21
-1556.734895461448
 31
0.0
  0
LINE
  5
1F861
330
1F
100
AcDbEntity
  8
0
 48
0.27
100
AcDbLine
 10
-63.56423730852475
 20
-1556.583202447683
 30
0.0
 11
-63.64950609440166
 21
-1556.31169518664
 31
0.0
  0
LINE
  5
1F862
330
1F
100
AcDbEntity
  8
0
 48
0.27
100
AcDbLine
 10
-65.19924620323036
 20
-1553.897677248523
 30
0.0
 11
-65.07772452263726
 21
-1553.510739220567
 31
0.0
  0
LINE
  5
1F863
330
1F
100
AcDbEntity
  8
0
 48
0.27
100
AcDbLine
 10
-63.64950609440166
 20
-1554.320876187211
 30
0.0
 11
-63.56423730852475
 21
-1554.049370262188
 31
0.0
  0
LINE
  5
1F864
330
1F
100
AcDbEntity
  8
0
 48
0.27
100
AcDbLine
 10
-65.19924620323036
 20
-1556.734895461448
 30
0.0
 11
-65.28954510330823
 21
-1556.29344114937
 31
0.0
  0
LINE
  5
1F865
330
1F
100
AcDbEntity
  8
0
 48
0.27
100
AcDbLine
 10
-63.64950609440166
 20
-1556.31169518664
 30
0.0
 11
-63.71286682908703
 21
-1556.001936345215
 31
0.0
  0
LINE
  5
1F866
330
1F
100
AcDbEntity
  8
0
 48
0.27
100
AcDbLine
 10
-65.28954510330823
 20
-1554.339131560501
 30
0.0
 11
-65.19924620323036
 21
-1553.897677248523
 31
0.0
  0
LINE
  5
1F867
330
1F
100
AcDbEntity
  8
0
 48
0.27
100
AcDbLine
 10
-63.71286682908703
 20
-1554.630636364656
 30
0.0
 11
-63.64950609440166
 21
-1554.320876187211
 31
0.0
  0
LINE
  5
1F868
330
1F
100
AcDbEntity
  8
0
 48
0.27
100
AcDbLine
 10
-65.28954510330823
 20
-1556.29344114937
 30
0.0
 11
-65.34515024352095
 21
-1555.814435331325
 31
0.0
  0
LINE
  5
1F869
330
1F
100
AcDbEntity
  8
0
 48
0.27
100
AcDbLine
 10
-63.71286682908703
 20
-1556.001936345215
 30
0.0
 11
-63.75188528465969
 21
-1555.665827187176
 31
0.0
  0
LINE
  5
1F86A
330
1F
100
AcDbEntity
  8
0
 48
0.27
100
AcDbLine
 10
-65.34515024352095
 20
-1554.818137378546
 30
0.0
 11
-65.28954510330823
 21
-1554.339131560501
 31
0.0
  0
LINE
  5
1F86B
330
1F
100
AcDbEntity
  8
0
 48
0.27
100
AcDbLine
 10
-63.75188528465969
 20
-1554.966744186676
 30
0.0
 11
-63.71286682908703
 21
-1554.630636364656
 31
0.0
  0
LINE
  5
1F86C
330
1F
100
AcDbEntity
  8
0
 48
0.27
100
AcDbLine
 10
-65.34515024352095
 20
-1555.814435331325
 30
0.0
 11
-65.36392666451411
 21
-1555.316285686926
 31
0.0
  0
LINE
  5
1F86D
330
1F
100
AcDbEntity
  8
0
 48
0.27
100
AcDbLine
 10
-63.75188528465969
 20
-1555.665827187176
 30
0.0
 11
-63.7650597750071
 21
-1555.316285686926
 31
0.0
  0
LINE
  5
1F86E
330
1F
100
AcDbEntity
  8
0
 48
0.27
100
AcDbLine
 10
-63.7650597750071
 20
-1555.316285686926
 30
0.0
 11
-63.75188528465969
 21
-1554.966744186676
 31
0.0
  0
LINE
  5
1F86F
330
1F
100
AcDbEntity
  8
0
 48
0.27
100
AcDbLine
 10
-65.36392666451411
 20
-1555.316285686926
 30
0.0
 11
-65.34515024352095
 21
-1554.818137378546
 31
0.0
  0
LINE
  5
1F870
330
1F
100
AcDbEntity
  8
0
 48
0.27
100
AcDbLine
 10
-65.86690735620959
 20
-1557.230116550613
 30
0.0
 11
-65.81615196746679
 21
-1557.263579836223
 31
0.0
  0
LINE
  5
1F872
330
1F
100
AcDbEntity
  8
0
 48
0.27
100
AcDbLine
 10
-65.86690735620959
 20
-1553.402456159258
 30
0.0
 11
-65.81615196746679
 21
-1553.368992873649
 31
0.0
  0
LINE
  5
1F873
330
1F
100
AcDbEntity
  8
0
 48
0.27
100
AcDbLine
 10
-69.26402470840821
 20
-1558.316329965775
 30
0.0
 11
-69.84138295325101
 21
-1559.316344725391
 31
0.0
  0
LINE
  5
1F874
330
1F
100
AcDbEntity
  8
0
 48
0.27
100
AcDbLine
 10
-70.8492935892873
 20
-1558.316329965775
 30
0.0
 11
-67.83518102294784
 21
-1558.316329965775
 31
0.0
  0
LINE
  5
1F875
330
1F
100
AcDbEntity
  8
0
 48
0.27
100
AcDbLine
 10
-67.77228121508869
 20
-1552.600933847723
 30
0.0
 11
-67.83518102294784
 21
-1552.316242744097
 31
0.0
  0
LINE
  5
1F876
330
1F
100
AcDbEntity
  8
0
 48
0.27
100
AcDbLine
 10
-67.83518102294784
 20
-1558.316329965775
 30
0.0
 11
-67.77228121508869
 21
-1558.031638862148
 31
0.0
  0
LINE
  5
1F877
330
1F
100
AcDbEntity
  8
0
 48
0.27
100
AcDbLine
 10
-70.8492935892873
 20
-1552.316242744097
 30
0.0
 11
-67.83518102294784
 21
-1552.316242744097
 31
0.0
  0
LINE
  5
1F878
330
1F
100
AcDbEntity
  8
0
 48
0.27
100
AcDbLine
 10
-68.49801780872804
 20
-1558.316329965775
 30
0.0
 11
-68.27404078476593
 21
-1558.258684723393
 31
0.0
  0
LINE
  5
1F879
330
1F
100
AcDbEntity
  8
0
 48
0.27
100
AcDbLine
 10
-68.49801780872804
 20
-1552.316242744097
 30
0.0
 11
-68.27404078476593
 21
-1552.373887986479
 31
0.0
  0
LINE
  5
1F87A
330
1F
100
AcDbEntity
  8
0
 48
0.27
100
AcDbLine
 10
-68.72199483269105
 20
-1558.258684723393
 30
0.0
 11
-68.49801780872804
 21
-1558.316329965775
 31
0.0
  0
LINE
  5
1F87B
330
1F
100
AcDbEntity
  8
0
 48
0.27
100
AcDbLine
 10
-68.72199483269105
 20
-1552.373887986479
 30
0.0
 11
-68.49801780872804
 21
-1552.316242744097
 31
0.0
  0
LINE
  5
1F87C
330
1F
100
AcDbEntity
  8
0
 48
0.27
100
AcDbLine
 10
-68.93736388174239
 20
-1558.087965453088
 30
0.0
 11
-68.72199483269105
 21
-1558.258684723393
 31
0.0
  0
LINE
  5
1F87D
330
1F
100
AcDbEntity
  8
0
 48
0.27
100
AcDbLine
 10
-68.93736388174239
 20
-1552.544607256783
 30
0.0
 11
-68.72199483269105
 21
-1552.373887986479
 31
0.0
  0
LINE
  5
1F87E
330
1F
100
AcDbEntity
  8
0
 48
0.27
100
AcDbLine
 10
-71.51213037506659
 20
-1555.316285686926
 30
0.0
 11
-70.8492935892873
 21
-1552.316242744097
 31
0.0
  0
LINE
  5
1F87F
330
1F
100
AcDbEntity
  8
0
 48
0.27
100
AcDbLine
 10
-71.51213037506659
 20
-1555.316285686926
 30
0.0
 11
-69.82369138028843
 21
-1555.316285686926
 31
0.0
  0
LINE
  5
1F880
330
1F
100
AcDbEntity
  8
0
 48
0.27
100
AcDbLine
 10
-70.8492935892873
 20
-1558.316329965775
 30
0.0
 11
-71.51213037506659
 21
-1555.316285686926
 31
0.0
  0
LINE
  5
1F881
330
1F
100
AcDbEntity
  8
0
 48
0.27
100
AcDbLine
 10
-68.93736388174239
 20
-1558.087965453088
 30
0.0
 11
-69.13584964962592
 21
-1557.810732011487
 31
0.0
  0
LINE
  5
1F882
330
1F
100
AcDbEntity
  8
0
 48
0.27
100
AcDbLine
 10
-69.13584964962592
 20
-1552.821840698384
 30
0.0
 11
-68.93736388174239
 21
-1552.544607256783
 31
0.0
  0
LINE
  5
1F883
330
1F
100
AcDbEntity
  8
0
 48
0.27
100
AcDbLine
 10
-69.13584964962592
 20
-1557.810732011487
 30
0.0
 11
-69.30982346402197
 21
-1557.437637819847
 31
0.0
  0
LINE
  5
1F884
330
1F
100
AcDbEntity
  8
0
 48
0.27
100
AcDbLine
 10
-69.30982346402197
 20
-1553.194934890024
 30
0.0
 11
-69.13584964962592
 21
-1552.821840698384
 31
0.0
  0
LINE
  5
1F885
330
1F
100
AcDbEntity
  8
0
 48
0.27
100
AcDbLine
 10
-69.16085459450823
 20
-1558.316329965775
 30
0.0
 11
-69.82369138028843
 21
-1555.316285686926
 31
0.0
  0
LINE
  5
1F886
330
1F
100
AcDbEntity
  8
0
 48
0.27
100
AcDbLine
 10
-69.82369138028843
 20
-1555.316285686926
 30
0.0
 11
-69.16085459450823
 21
-1552.316242744097
 31
0.0
  0
LINE
  5
1F887
330
1F
100
AcDbEntity
  8
0
 48
0.27
100
AcDbLine
 10
-69.30982346402197
 20
-1557.437637819847
 30
0.0
 11
-69.45260121819228
 21
-1556.983021041596
 31
0.0
  0
LINE
  5
1F888
330
1F
100
AcDbEntity
  8
0
 48
0.27
100
AcDbLine
 10
-69.45260121819228
 20
-1553.649551668274
 30
0.0
 11
-69.30982346402197
 21
-1553.194934890024
 31
0.0
  0
LINE
  5
1F889
330
1F
100
AcDbEntity
  8
0
 48
0.27
100
AcDbLine
 10
-69.45260121819228
 20
-1556.983021041596
 30
0.0
 11
-69.55869320712827
 21
-1556.464352806482
 31
0.0
  0
LINE
  5
1F88A
330
1F
100
AcDbEntity
  8
0
 48
0.27
100
AcDbLine
 10
-69.55869320712827
 20
-1554.16821856737
 30
0.0
 11
-69.45260121819228
 21
-1553.649551668274
 31
0.0
  0
LINE
  5
1F88B
330
1F
100
AcDbEntity
  8
0
 48
0.27
100
AcDbLine
 10
-69.55869320712827
 20
-1556.464352806482
 30
0.0
 11
-69.62402457087046
 21
-1555.901565192658
 31
0.0
  0
LINE
  5
1F88C
330
1F
100
AcDbEntity
  8
0
 48
0.27
100
AcDbLine
 10
-69.62402457087046
 20
-1554.731006181292
 30
0.0
 11
-69.55869320712827
 21
-1554.16821856737
 31
0.0
  0
LINE
  5
1F88D
330
1F
100
AcDbEntity
  8
0
 48
0.27
100
AcDbLine
 10
-69.62402457087046
 20
-1555.901565192658
 30
0.0
 11
-69.64608492828393
 21
-1555.316285686926
 31
0.0
  0
LINE
  5
1F88E
330
1F
100
AcDbEntity
  8
0
 48
0.27
100
AcDbLine
 10
-69.64608492828393
 20
-1555.316285686926
 30
0.0
 11
-69.62402457087046
 21
-1554.731006181292
 31
0.0
  0
LINE
  5
1F88F
330
1F
100
AcDbEntity
  8
0
 48
0.27
100
AcDbLine
 10
-68.27404078476593
 20
-1558.258684723393
 30
0.0
 11
-66.2722049668746
 21
-1557.352856681187
 31
0.0
  0
LINE
  5
1F890
330
1F
100
AcDbEntity
  8
0
 48
0.27
100
AcDbLine
 10
-68.27404078476593
 20
-1552.373887986479
 30
0.0
 11
-66.2722049668746
 21
-1553.279716028685
 31
0.0
  0
LINE
  5
1F891
330
1F
100
AcDbEntity
  8
0
 48
0.27
100
AcDbLine
 10
-69.26402470840821
 20
-1552.316242744097
 30
0.0
 11
-69.84138428927053
 21
-1551.31622798448
 31
0.0
  0
LINE
  5
1F893
330
1F
100
AcDbEntity
  8
0
 62
     3
100
AcDbLine
 10
-97.91744275540715
 20
-1575.405245435685
 30
0.0
 11
-98.39726521406886
 21
-1574.925422977023
 31
0.0
  0
LINE
  5
1F894
330
1F
100
AcDbEntity
  8
0
 62
     3
100
AcDbLine
 10
-97.36185885590339
 20
-1574.849661536181
 30
0.0
 11
-97.84168131456556
 21
-1574.369839073049
 31
0.0
  0
CIRCLE
  5
1F895
330
1F
100
AcDbEntity
  8
0
 62
     3
100
AcDbCircle
 10
-98.75081860466218
 20
-1574.016285686926
 30
0.0
 40
2.75
  0
LINE
  5
1F896
330
1F
100
AcDbEntity
  8
0
 62
     3
100
AcDbLine
 10
-97.36185885590339
 20
-1574.849661536181
 30
0.0
 11
-97.91744275540715
 21
-1575.405245435685
 31
0.0
  0
LINE
  5
1F897
330
1F
100
AcDbEntity
  8
0
 62
     3
100
AcDbLine
 10
-99.6599558947595
 20
-1574.369839077519
 30
0.0
 11
-100.1397783534216
 21
-1574.849661536181
 31
0.0
  0
LINE
  5
1F898
330
1F
100
AcDbEntity
  8
0
 62
     3
100
AcDbLine
 10
-99.1043719952554
 20
-1574.925422977023
 30
0.0
 11
-99.58419445391792
 21
-1575.405245435685
 31
0.0
  0
LINE
  5
1F899
330
1F
100
AcDbEntity
  8
0
 62
     3
100
AcDbLine
 10
-99.58419445391792
 20
-1572.627325938166
 30
0.0
 11
-99.10437199972546
 21
-1573.107148396829
 31
0.0
  0
LINE
  5
1F89A
330
1F
100
AcDbEntity
  8
0
 62
     3
100
AcDbLine
 10
-99.6599558947595
 20
-1573.662732296332
 30
0.0
 11
-100.1397783534216
 21
-1573.18290983767
 31
0.0
  0
LINE
  5
1F89B
330
1F
100
AcDbEntity
  8
0
 62
     3
100
AcDbLine
 10
-97.91744275540715
 20
-1572.627325938166
 30
0.0
 11
-97.36185885590339
 21
-1573.18290983767
 31
0.0
  0
LINE
  5
1F89C
330
1F
100
AcDbEntity
  8
0
 62
     3
100
AcDbLine
 10
-97.91744275540715
 20
-1572.627325938166
 30
0.0
 11
-98.39726521853856
 21
-1573.107148396828
 31
0.0
  0
LINE
  5
1F89D
330
1F
100
AcDbEntity
  8
0
 62
     3
100
AcDbLine
 10
-97.36185885590339
 20
-1573.18290983767
 30
0.0
 11
-97.84168131456556
 21
-1573.662732291862
 31
0.0
  0
LINE
  5
1F89E
330
1F
100
AcDbEntity
  8
0
 62
     3
100
AcDbLine
 10
-100.1397783534216
 20
-1573.18290983767
 30
0.0
 11
-99.58419445391792
 21
-1572.627325938166
 31
0.0
  0
LINE
  5
1F89F
330
1F
100
AcDbEntity
  8
0
 62
     3
100
AcDbLine
 10
-99.58419445391792
 20
-1575.405245435685
 30
0.0
 11
-100.1397783534216
 21
-1574.849661536181
 31
0.0
  0
LINE
  5
1F8A1
330
1F
100
AcDbEntity
  8
0
 62
     3
100
AcDbLine
 10
-44.71744275540709
 20
-1575.405245435685
 30
0.0
 11
-45.19726521406892
 21
-1574.925422977023
 31
0.0
  0
LINE
  5
1F8A2
330
1F
100
AcDbEntity
  8
0
 62
     3
100
AcDbLine
 10
-44.16185885590334
 20
-1574.849661536181
 30
0.0
 11
-44.64168131456552
 21
-1574.369839073049
 31
0.0
  0
CIRCLE
  5
1F8A3
330
1F
100
AcDbEntity
  8
0
 62
     3
100
AcDbCircle
 10
-45.55081860466214
 20
-1574.016285686926
 30
0.0
 40
2.75
  0
LINE
  5
1F8A4
330
1F
100
AcDbEntity
  8
0
 62
     3
100
AcDbLine
 10
-44.16185885590334
 20
-1574.849661536181
 30
0.0
 11
-44.71744275540709
 21
-1575.405245435685
 31
0.0
  0
LINE
  5
1F8A5
330
1F
100
AcDbEntity
  8
0
 62
     3
100
AcDbLine
 10
-46.45995589475922
 20
-1574.369839077519
 30
0.0
 11
-46.93977835342161
 21
-1574.849661536181
 31
0.0
  0
LINE
  5
1F8A6
330
1F
100
AcDbEntity
  8
0
 62
     3
100
AcDbLine
 10
-45.90437199525547
 20
-1574.925422977023
 30
0.0
 11
-46.38419445391787
 21
-1575.405245435685
 31
0.0
  0
LINE
  5
1F8A7
330
1F
100
AcDbEntity
  8
0
 62
     3
100
AcDbLine
 10
-46.38419445391787
 20
-1572.627325938166
 30
0.0
 11
-45.90437199972564
 21
-1573.107148396829
 31
0.0
  0
LINE
  5
1F8A8
330
1F
100
AcDbEntity
  8
0
 62
     3
100
AcDbLine
 10
-46.45995589475922
 20
-1573.662732296332
 30
0.0
 11
-46.93977835342161
 21
-1573.18290983767
 31
0.0
  0
LINE
  5
1F8A9
330
1F
100
AcDbEntity
  8
0
 62
     3
100
AcDbLine
 10
-44.71744275540709
 20
-1572.627325938166
 30
0.0
 11
-44.16185885590334
 21
-1573.18290983767
 31
0.0
  0
LINE
  5
1F8AA
330
1F
100
AcDbEntity
  8
0
 62
     3
100
AcDbLine
 10
-44.71744275540709
 20
-1572.627325938166
 30
0.0
 11
-45.19726521853875
 21
-1573.107148396828
 31
0.0
  0
LINE
  5
1F8AB
330
1F
100
AcDbEntity
  8
0
 62
     3
100
AcDbLine
 10
-44.16185885590334
 20
-1573.18290983767
 30
0.0
 11
-44.64168131456552
 21
-1573.662732291863
 31
0.0
  0
LINE
  5
1F8AC
330
1F
100
AcDbEntity
  8
0
 62
     3
100
AcDbLine
 10
-46.93977835342161
 20
-1573.18290983767
 30
0.0
 11
-46.38419445391787
 21
-1572.627325938166
 31
0.0
  0
LINE
  5
1F8AD
330
1F
100
AcDbEntity
  8
0
 62
     3
100
AcDbLine
 10
-46.38419445391787
 20
-1575.405245435685
 30
0.0
 11
-46.93977835342161
 21
-1574.849661536181
 31
0.0
  0
LINE
  5
1F8AF
330
1F
100
AcDbEntity
  8
中心線
 48
0.25
100
AcDbLine
 10
-61.41626363617342
 20
-1555.316285686926
 30
0.0
 11
-77.78380393662974
 21
-1555.316285686926
 31
0.0
  0
LINE
  5
1F8B0
330
1F
100
AcDbEntity
  8
中心線
 48
0.2
100
AcDbLine
 10
-72.15081860466217
 20
-1544.041452481667
 30
0.0
 11
-72.15081860466125
 21
-1593.369516107741
 31
0.0
  0
LINE
  5
1F8B1
330
1F
100
AcDbEntity
  8
虛線
 48
0.2
100
AcDbLine
 10
-67.65081860466307
 20
-1590.316285686925
 30
0.0
 11
-67.65081860466307
 21
-1575.116285686926
 31
0.0
  0
LINE
  5
1F8B2
330
1F
100
AcDbEntity
  8
虛線
 48
0.2
100
AcDbLine
 10
-79.15081860466307
 20
-1574.816285686926
 30
0.0
 11
-79.15081860466307
 21
-1563.216285686926
 31
0.0
  0
LINE
  5
1F8B3
330
1F
100
AcDbEntity
  8
虛線
 48
0.2
100
AcDbLine
 10
-65.15081860466307
 20
-1574.816285686926
 30
0.0
 11
-65.15081860466307
 21
-1563.216285686926
 31
0.0
  0
LINE
  5
1F8B4
330
1F
100
AcDbEntity
  8
虛線
 48
0.2
100
AcDbLine
 10
-67.35081860466312
 20
-1574.816285686926
 30
0.0
 11
-67.65081860466307
 21
-1575.116285686926
 31
0.0
  0
LINE
  5
1F8B5
330
1F
100
AcDbEntity
  8
虛線
 48
0.2
100
AcDbLine
 10
-76.95081860466302
 20
-1574.816285686926
 30
0.0
 11
-76.65081860466307
 21
-1575.116285686926
 31
0.0
  0
LINE
  5
1F8B6
330
1F
100
AcDbEntity
  8
虛線
 48
0.2
100
AcDbLine
 10
-67.65081860466307
 20
-1575.116285686926
 30
0.0
 11
-76.65081860466307
 21
-1575.116285686926
 31
0.0
  0
LINE
  5
1F8B7
330
1F
100
AcDbEntity
  8
虛線
 48
0.2
100
AcDbLine
 10
-65.15081860466307
 20
-1574.816285686926
 30
0.0
 11
-79.15081860466307
 21
-1574.816285686926
 31
0.0
  0
LINE
  5
1F8B8
330
1F
100
AcDbEntity
  8
虛線
 48
0.2
100
AcDbLine
 10
-64.91987849698739
 20
-1562.816285686926
 30
0.0
 11
-65.15081860466307
 21
-1563.216285686926
 31
0.0
  0
LINE
  5
1F8B9
330
1F
100
AcDbEntity
  8
虛線
 48
0.2
100
AcDbLine
 10
-79.15081860466307
 20
-1563.216285686926
 30
0.0
 11
-79.38175871233898
 21
-1562.816285686926
 31
0.0
  0
LINE
  5
1F8BA
330
1F
100
AcDbEntity
  8
虛線
 48
0.2
100
AcDbLine
 10
-65.15081860466307
 20
-1563.216285686926
 30
0.0
 11
-79.15081860466307
 21
-1563.216285686926
 31
0.0
  0
LINE
  5
1F8BB
330
1F
100
AcDbEntity
  8
虛線
 48
0.2
100
AcDbLine
 10
-76.65081860466319
 20
-1590.316285686927
 30
0.0
 11
-76.65081860466307
 21
-1575.116285686926
 31
0.0
  0
LINE
  5
1F8BC
330
1F
100
AcDbEntity
  8
虛線
 48
0.2
100
AcDbLine
 10
-79.15081860466307
 20
-1574.816285686926
 30
0.0
 11
-79.15081860466307
 21
-1563.216285686926
 31
0.0
  0
LINE
  5
1F8BD
330
1F
100
AcDbEntity
  8
虛線
 48
0.2
100
AcDbLine
 10
-76.95081860466302
 20
-1574.816285686926
 30
0.0
 11
-76.65081860466307
 21
-1575.116285686926
 31
0.0
  0
LINE
  5
1F8BE
330
1F
100
AcDbEntity
  8
虛線
 48
0.2
100
AcDbLine
 10
-79.38175871233898
 20
-1562.816285686926
 30
0.0
 11
-79.15081860466307
 21
-1563.216285686926
 31
0.0
  0
LINE
  5
1F8BF
330
1F
100
AcDbEntity
  8
虛線
 48
0.2
100
AcDbLine
 10
-67.65081860466205
 20
-1590.316285686926
 30
0.0
 11
-76.65081860466205
 21
-1590.316285686926
 31
0.0
  0
LINE
  5
1F8C0
330
1F
100
AcDbEntity
  8
虛線
 48
0.2
100
AcDbLine
 10
-67.15081860466193
 20
-1590.816285686926
 30
0.0
 11
-67.65081860466216
 21
-1590.316285686926
 31
0.0
  0
LINE
  5
1F8C1
330
1F
100
AcDbEntity
  8
虛線
 48
0.2
100
AcDbLine
 10
-77.15081860466217
 20
-1590.816285686926
 30
0.0
 11
-76.65081860466205
 21
-1590.316285686926
 31
0.0
  0
LINE
  5
1F8C2
330
1F
100
AcDbEntity
  8
0
 48
0.27
100
AcDbLine
 10
-101.6508186046621
 20
-1551.116285686926
 30
0.0
 11
-101.6508186046621
 21
-1583.316285686926
 31
0.0
  0
ARC
  5
1F912
330
1F
100
AcDbEntity
  8
0
 62
     3
100
AcDbCircle
 10
-98.75081860466218
 20
-1575.278976367617
 30
0.0
 40
0.5
100
AcDbArc
 50
44.99999999997696
 51
134.9999999999908
  0
ARC
  5
1F913
330
1F
100
AcDbEntity
  8
0
 62
     3
100
AcDbCircle
 10
-97.48812792397211
 20
-1574.016285682455
 30
0.0
 40
0.5
100
AcDbArc
 50
135.000000000023
 51
224.999999999977
  0
ARC
  5
1F914
330
1F
100
AcDbEntity
  8
0
 62
     3
100
AcDbCircle
 10
-98.75081860913212
 20
-1572.753595006235
 30
0.0
 40
0.5
100
AcDbArc
 50
224.9999999999724
 51
315.0000000000322
  0
ARC
  5
1F915
330
1F
100
AcDbEntity
  8
0
 62
     3
100
AcDbCircle
 10
-100.0135092853527
 20
-1574.016285686926
 30
0.0
 40
0.5
100
AcDbArc
 50
314.9999999999908
 51
45.00000000000921
  0
ARC
  5
1F916
330
1F
100
AcDbEntity
  8
0
 62
     3
100
AcDbCircle
 10
-46.81350928535255
 20
-1574.016285686926
 30
0.0
 40
0.5
100
AcDbArc
 50
314.9999999999908
 51
45.00000000000921
  0
ARC
  5
1F917
330
1F
100
AcDbEntity
  8
0
 62
     3
100
AcDbCircle
 10
-45.5508186091323
 20
-1572.753595006235
 30
0.0
 40
0.5
100
AcDbArc
 50
224.9999999999724
 51
315.0000000000322
  0
ARC
  5
1F918
330
1F
100
AcDbEntity
  8
0
 62
     3
100
AcDbCircle
 10
-44.28812792397218
 20
-1574.016285682456
 30
0.0
 40
0.5
100
AcDbArc
 50
135.000000000023
 51
224.999999999977
  0
ARC
  5
1F919
330
1F
100
AcDbEntity
  8
0
 62
     3
100
AcDbCircle
 10
-45.55081860466237
 20
-1575.278976367617
 30
0.0
 40
0.5
100
AcDbArc
 50
44.99999999997696
 51
134.9999999999908
  0
LINE
  5
1F91A
330
1F
100
AcDbEntity
  8
0
  6
Continuous
 62
     7
100
AcDbLine
 10
-28.65081860466137
 20
-1548.816285686926
 30
0.0
 11
-27.15081860466137
 21
-1550.316285686926
 31
0.0
  0
LINE
  5
1F91B
330
1F
100
AcDbEntity
  8
0
  6
Continuous
 62
     7
100
AcDbLine
 10
-117.1508186046611
 20
-1558.316285686926
 30
0.0
 11
-117.1508186046611
 21
-1550.316285686926
 31
0.0
  0
LINE
  5
1F91C
330
1F
100
AcDbEntity
  8
0
  6
Continuous
 62
     7
100
AcDbLine
 10
-116.6508186046611
 20
-1569.816285686926
 30
0.0
 11
-116.6508186046611
 21
-1558.816285686926
 31
0.0
  0
LINE
  5
1F91D
330
1F
100
AcDbEntity
  8
0
  6
Continuous
 62
     7
100
AcDbLine
 10
-116.6508186046611
 20
-1569.816285686926
 30
0.0
 11
-101.6508186046611
 21
-1584.816285686926
 31
0.0
  0
LINE
  5
1F91E
330
1F
100
AcDbEntity
  8
0
  6
Continuous
 62
     7
100
AcDbLine
 10
-117.1508186046611
 20
-1558.316285686926
 30
0.0
 11
-116.6508186046611
 21
-1558.816285686926
 31
0.0
  0
LINE
  5
1F91F
330
1F
100
AcDbEntity
  8
0
  6
Continuous
 62
     7
100
AcDbLine
 10
-62.15081860466137
 20
-1548.816285686926
 30
0.0
 11
-61.65081860466137
 21
-1549.316285686926
 31
0.0
  0
LINE
  5
1F920
330
1F
100
AcDbEntity
  8
0
  6
Continuous
 62
     7
100
AcDbLine
 10
-62.27508267336123
 20
-1549.116285686926
 30
0.0
 11
-61.77508267336122
 21
-1549.616285686926
 31
0.0
  0
LINE
  5
1F921
330
1F
100
AcDbEntity
  8
0
  6
Continuous
 62
     7
100
AcDbLine
 10
-99.15081860466138
 20
-1548.816285686926
 30
0.0
 11
-115.6508186046613
 21
-1548.816285686926
 31
0.0
  0
LINE
  5
1F922
330
1F
100
AcDbEntity
  8
0
  6
Continuous
 62
     7
100
AcDbLine
 10
-62.15081860466137
 20
-1548.816285686926
 30
0.0
 11
-82.15081860466137
 21
-1548.816285686926
 31
0.0
  0
LINE
  5
1F923
330
1F
100
AcDbEntity
  8
0
  6
Continuous
 62
     7
100
AcDbLine
 10
-28.65081860466137
 20
-1548.816285686926
 30
0.0
 11
-45.15081860466136
 21
-1548.816285686926
 31
0.0
  0
LINE
  5
1F924
330
1F
100
AcDbEntity
  8
0
  6
Continuous
 62
     7
100
AcDbLine
 10
-62.27508267336123
 20
-1549.116285686926
 30
0.0
 11
-82.02655453596127
 21
-1549.116285686926
 31
0.0
  0
LINE
  5
1F925
330
1F
100
AcDbEntity
  8
0
  6
Continuous
 62
     7
100
AcDbLine
 10
-82.65081860466137
 20
-1549.316285686926
 30
0.0
 11
-98.65081860466137
 21
-1549.316285686926
 31
0.0
  0
LINE
  5
1F926
330
1F
100
AcDbEntity
  8
0
  6
Continuous
 62
     7
100
AcDbLine
 10
-45.65081860466136
 20
-1549.316285686926
 30
0.0
 11
-61.65081860466137
 21
-1549.316285686926
 31
0.0
  0
LINE
  5
1F927
330
1F
100
AcDbEntity
  8
0
  6
Continuous
 62
     7
100
AcDbLine
 10
-45.65081860466136
 20
-1549.316285686926
 30
0.0
 11
-45.15081860466136
 21
-1548.816285686926
 31
0.0
  0
LINE
  5
1F929
330
1F
100
AcDbEntity
  8
0
  6
Continuous
 62
     7
100
AcDbLine
 10
-99.15081860466138
 20
-1548.816285686926
 30
0.0
 11
-98.65081860466137
 21
-1549.316285686926
 31
0.0
  0
LINE
  5
1F92B
330
1F
100
AcDbEntity
  8
0
  6
Continuous
 62
     7
100
AcDbLine
 10
-86.1508186085622
 20
-1584.816285686926
 30
0.0
 11
-101.6508186046611
 21
-1584.816285686926
 31
0.0
  0
LINE
  5
1F92C
330
1F
100
AcDbEntity
  8
0
  6
Continuous
 62
     7
100
AcDbLine
 10
-42.65081860466136
 20
-1584.816285686926
 30
0.0
 11
-58.15081860066221
 21
-1584.816285686926
 31
0.0
  0
LINE
  5
1F92D
330
1F
100
AcDbEntity
  8
0
  6
Continuous
 62
     7
100
AcDbLine
 10
-82.52655453596128
 20
-1549.616285686926
 30
0.0
 11
-82.02655453596127
 21
-1549.116285686926
 31
0.0
  0
LINE
  5
1F92E
330
1F
100
AcDbEntity
  8
0
  6
Continuous
 62
     7
100
AcDbLine
 10
-82.65081860466137
 20
-1549.316285686926
 30
0.0
 11
-82.15081860466137
 21
-1548.816285686926
 31
0.0
  0
LINE
  5
1F92F
330
1F
100
AcDbEntity
  8
0
  6
Continuous
 62
     7
100
AcDbLine
 10
-42.65081860466136
 20
-1584.816285686926
 30
0.0
 11
-27.15081860466137
 21
-1569.316285686926
 31
0.0
  0
LINE
  5
1F930
330
1F
100
AcDbEntity
  8
0
  6
Continuous
 62
     7
100
AcDbLine
 10
-117.1508186046613
 20
-1550.316285686926
 30
0.0
 11
-115.6508186046613
 21
-1548.816285686926
 31
0.0
  0
LINE
  5
1F931
330
1F
100
AcDbEntity
  8
0
  6
Continuous
 62
     7
100
AcDbLine
 10
-27.15081860466137
 20
-1550.316285686926
 30
0.0
 11
-27.15081860466137
 21
-1569.316285686926
 31
0.0
  0
TEXT
  5
201CF
330
1F
100
AcDbEntity
  8
0
100
AcDbText
 10
255.2595249969269
 20
-1530.489750617194
 30
0.0
 40
2.43
  1

  7
型式2
100
AcDbText
1001
sheetnoteflag
1010
348.0
1020
200.0
1030
0.0
  0
CIRCLE
  5
20B83
330
1F
100
AcDbEntity
  8
0
  6
Continuous
 62
     7
100
AcDbCircle
 10
193.2598578260023
 20
-1453.696215262502
 30
0.0
 40
0.75
  0
CIRCLE
  5
20B84
330
1F
100
AcDbEntity
  8
0
  6
Continuous
 62
     7
100
AcDbCircle
 10
193.2598578260023
 20
-1453.696215262502
 30
0.0
 40
5.15
  0
CIRCLE
  5
20B85
330
1F
100
AcDbEntity
  8
0
  6
Continuous
 62
     7
100
AcDbCircle
 10
106.2598578260023
 20
-1453.696215262502
 30
0.0
 40
0.75
  0
CIRCLE
  5
20B86
330
1F
100
AcDbEntity
  8
0
  6
Continuous
 62
     7
100
AcDbCircle
 10
106.2598578260023
 20
-1453.696215262502
 30
0.0
 40
5.15
  0
CIRCLE
  5
20B87
330
1F
100
AcDbEntity
  8
0
  6
Continuous
 62
     7
100
AcDbCircle
 10
106.2598578260023
 20
-1556.116285686926
 30
0.0
 40
2.9999258795
  0
CIRCLE
  5
20B88
330
1F
100
AcDbEntity
  8
0
  6
Continuous
 62
     7
100
AcDbCircle
 10
106.2598578260023
 20
-1556.116285686926
 30
0.0
 40
2.499956716699999
  0
CIRCLE
  5
20B89
330
1F
100
AcDbEntity
  8
0
  6
Continuous
 62
     7
100
AcDbCircle
 10
106.2598578260023
 20
-1556.116285686926
 30
0.0
 40
0.75
  0
CIRCLE
  5
20B8A
330
1F
100
AcDbEntity
  8
0
  6
Continuous
 62
     7
100
AcDbCircle
 10
193.2598578260023
 20
-1556.116285686926
 30
0.0
 40
2.9999258795
  0
CIRCLE
  5
20B8B
330
1F
100
AcDbEntity
  8
0
  6
Continuous
 62
     7
100
AcDbCircle
 10
193.2598578260023
 20
-1556.116285686926
 30
0.0
 40
0.75
  0
CIRCLE
  5
20B8C
330
1F
100
AcDbEntity
  8
0
  6
Continuous
 62
     7
100
AcDbCircle
 10
193.2598578260023
 20
-1556.116285686926
 30
0.0
 40
2.499956716699999
  0
LINE
  5
20B8D
330
1F
100
AcDbEntity
  8
0
  6
Continuous
 62
     7
100
AcDbLine
 10
202.2598578260023
 20
-1483.196215262502
 30
0.0
 11
202.2598578260023
 21
-1424.196215262502
 31
0.0
  0
LINE
  5
20B90
330
1F
100
AcDbEntity
  8
0
  6
Continuous
 62
     7
100
AcDbLine
 10
97.25985782600231
 20
-1424.196215262502
 30
0.0
 11
114.2598578260023
 21
-1424.196215262502
 31
0.0
  0
LINE
  5
20B91
330
1F
100
AcDbEntity
  8
0
  6
Continuous
 62
     7
100
AcDbLine
 10
204.6598578260022
 20
-1424.196215262502
 30
0.0
 11
185.2598578260023
 21
-1424.196215262502
 31
0.0
  0
LINE
  5
20B93
330
1F
100
AcDbEntity
  8
0
  6
Continuous
 62
     7
100
AcDbLine
 10
97.25985782600231
 20
-1425.696215262502
 30
0.0
 11
114.2598578260023
 21
-1425.696215262502
 31
0.0
  0
LINE
  5
20B94
330
1F
100
AcDbEntity
  8
0
  6
Continuous
 62
     7
100
AcDbLine
 10
204.6598578260022
 20
-1425.696215262502
 30
0.0
 11
185.2598578260023
 21
-1425.696215262502
 31
0.0
  0
LINE
  5
20B95
330
1F
100
AcDbEntity
  8
0
  6
Continuous
 62
     7
100
AcDbLine
 10
204.6598578260022
 20
-1439.696215258602
 30
0.0
 11
289.7598578260025
 21
-1439.696215258602
 31
0.0
  0
LINE
  5
20B97
330
1F
100
AcDbEntity
  8
0
  6
Continuous
 62
     7
100
AcDbLine
 10
9.759857826001848
 20
-1439.696215258603
 30
0.0
 11
94.85985782600222
 21
-1439.696215258602
 31
0.0
  0
LINE
  5
20B99
330
1F
100
AcDbEntity
  8
0
  6
Continuous
 62
     7
100
AcDbLine
 10
185.2598578260023
 20
-1443.320479331202
 30
0.0
 11
202.2598578260023
 21
-1443.320479331202
 31
0.0
  0
LINE
  5
20B9A
330
1F
100
AcDbEntity
  8
0
  6
Continuous
 62
     7
100
AcDbLine
 10
114.2598578260023
 20
-1443.320479331202
 30
0.0
 11
97.25985782600231
 21
-1443.320479331202
 31
0.0
  0
LINE
  5
20B9B
330
1F
100
AcDbEntity
  8
0
  6
Continuous
 62
     7
100
AcDbLine
 10
97.25985782600231
 20
-1443.820479331302
 30
0.0
 11
114.2598578260023
 21
-1443.820479331302
 31
0.0
  0
LINE
  5
20B9C
330
1F
100
AcDbEntity
  8
0
  6
Continuous
 62
     7
100
AcDbLine
 10
202.2598578260023
 20
-1443.820479331202
 30
0.0
 11
185.2598578260023
 21
-1443.820479331202
 31
0.0
  0
LINE
  5
20BA1
330
1F
100
AcDbEntity
  8
0
  6
Continuous
 62
     7
100
AcDbLine
 10
97.25985782600231
 20
-1463.571951193802
 30
0.0
 11
114.2598578260023
 21
-1463.571951193802
 31
0.0
  0
LINE
  5
20BA2
330
1F
100
AcDbEntity
  8
0
  6
Continuous
 62
     7
100
AcDbLine
 10
202.2598578260023
 20
-1463.571951193802
 30
0.0
 11
185.2598578260023
 21
-1463.571951193802
 31
0.0
  0
LINE
  5
20BA3
330
1F
100
AcDbEntity
  8
0
  6
Continuous
 62
     7
100
AcDbLine
 10
185.2598578260023
 20
-1464.071951193802
 30
0.0
 11
202.2598578260023
 21
-1464.071951193802
 31
0.0
  0
LINE
  5
20BA4
330
1F
100
AcDbEntity
  8
0
  6
Continuous
 62
     7
100
AcDbLine
 10
114.2598578260023
 20
-1464.071951193802
 30
0.0
 11
97.25985782600231
 21
-1464.071951193802
 31
0.0
  0
LINE
  5
20BA7
330
1F
100
AcDbEntity
  8
0
  6
Continuous
 62
     7
100
AcDbLine
 10
94.85985782600222
 20
-1467.696215266502
 30
0.0
 11
9.759857826002075
 21
-1467.696215266503
 31
0.0
  0
LINE
  5
20BA8
330
1F
100
AcDbEntity
  8
0
  6
Continuous
 62
     7
100
AcDbLine
 10
97.25985782600231
 20
-1481.696215262502
 30
0.0
 11
114.2598578260023
 21
-1481.696215262502
 31
0.0
  0
LINE
  5
20BA9
330
1F
100
AcDbEntity
  8
0
  6
Continuous
 62
     7
100
AcDbLine
 10
204.6598578260022
 20
-1481.696215262502
 30
0.0
 11
185.2598578260023
 21
-1481.696215262502
 31
0.0
  0
LINE
  5
20BAB
330
1F
100
AcDbEntity
  8
0
  6
Continuous
 62
     7
100
AcDbLine
 10
97.25985782600231
 20
-1483.196215262502
 30
0.0
 11
114.2598578260023
 21
-1483.196215262502
 31
0.0
  0
LINE
  5
20BAC
330
1F
100
AcDbEntity
  8
0
  6
Continuous
 62
     7
100
AcDbLine
 10
204.6598578260022
 20
-1483.196215262502
 30
0.0
 11
185.2598578260023
 21
-1483.196215262502
 31
0.0
  0
LINE
  5
20BAF
330
1F
100
AcDbEntity
  8
0
  6
Continuous
 62
     7
100
AcDbLine
 10
97.25985782600231
 20
-1483.196215262502
 30
0.0
 11
97.25985782600231
 21
-1424.196215262502
 31
0.0
  0
LINE
  5
20BB0
330
1F
100
AcDbEntity
  8
0
  6
Continuous
 62
     7
100
AcDbLine
 10
202.2598578260023
 20
-1584.816285686926
 30
0.0
 11
202.2598578260023
 21
-1549.116285686926
 31
0.0
  0
LINE
  5
20BB4
330
1F
100
AcDbEntity
  8
0
  6
Continuous
 62
     7
100
AcDbLine
 10
97.25985782600231
 20
-1549.116285686926
 30
0.0
 11
114.2598578260023
 21
-1549.116285686926
 31
0.0
  0
LINE
  5
20BB5
330
1F
100
AcDbEntity
  8
0
  6
Continuous
 62
     7
100
AcDbLine
 10
202.2598578260023
 20
-1549.116285686926
 30
0.0
 11
185.2598578260023
 21
-1549.116285686926
 31
0.0
  0
LINE
  5
20BB6
330
1F
100
AcDbEntity
  8
0
  6
Continuous
 62
     7
100
AcDbLine
 10
94.85985782600222
 20
-1549.616285686926
 30
0.0
 11
114.2598578260023
 21
-1549.616285686926
 31
0.0
  0
LINE
  5
20BB7
330
1F
100
AcDbEntity
  8
0
  6
Continuous
 62
     7
100
AcDbLine
 10
204.6598578260022
 20
-1549.616285686926
 30
0.0
 11
185.2598578260023
 21
-1549.616285686926
 31
0.0
  0
LINE
  5
20BB8
330
1F
100
AcDbEntity
  8
0
  6
Continuous
 62
     7
100
AcDbLine
 10
94.85985782600222
 20
-1551.116285686926
 30
0.0
 11
114.2598578260023
 21
-1551.116285686926
 31
0.0
  0
LINE
  5
20BB9
330
1F
100
AcDbEntity
  8
0
  6
Continuous
 62
     7
100
AcDbLine
 10
204.6598578260022
 20
-1551.116285686926
 30
0.0
 11
185.2598578260023
 21
-1551.116285686926
 31
0.0
  0
LINE
  5
20BBA
330
1F
100
AcDbEntity
  8
0
  6
Continuous
 62
     7
100
AcDbLine
 10
204.6598578260022
 20
-1562.816285686926
 30
0.0
 11
289.7598578260025
 21
-1562.816285686926
 31
0.0
  0
LINE
  5
20BBB
330
1F
100
AcDbEntity
  8
0
  6
Continuous
 62
     7
100
AcDbLine
 10
9.759857826002075
 20
-1562.816285686926
 30
0.0
 11
94.85985782600208
 21
-1562.816285686927
 31
0.0
  0
LINE
  5
20BBC
330
1F
100
AcDbEntity
  8
0
  6
Continuous
 62
     7
100
AcDbLine
 10
94.85985782600222
 20
-1583.316285686926
 30
0.0
 11
114.2598578260023
 21
-1583.316285686926
 31
0.0
  0
LINE
  5
20BBD
330
1F
100
AcDbEntity
  8
0
  6
Continuous
 62
     7
100
AcDbLine
 10
204.6598578260022
 20
-1583.316285686926
 30
0.0
 11
185.2598578260023
 21
-1583.316285686926
 31
0.0
  0
LINE
  5
20BBE
330
1F
100
AcDbEntity
  8
0
  6
Continuous
 62
     7
100
AcDbLine
 10
94.85985782600186
 20
-1584.816285686926
 30
0.0
 11
114.2598578260023
 21
-1584.816285686926
 31
0.0
  0
LINE
  5
20BBF
330
1F
100
AcDbEntity
  8
0
  6
Continuous
 62
     7
100
AcDbLine
 10
204.6598578260022
 20
-1584.816285686926
 30
0.0
 11
185.2598578260023
 21
-1584.816285686926
 31
0.0
  0
LINE
  5
20BC1
330
1F
100
AcDbEntity
  8
0
  6
Continuous
 62
     7
100
AcDbLine
 10
9.759857826002303
 20
-1590.816285686926
 30
0.0
 11
289.7598578260023
 21
-1590.816285686926
 31
0.0
  0
LINE
  5
20BC3
330
1F
100
AcDbEntity
  8
0
  6
Continuous
 62
     7
100
AcDbLine
 10
97.25985782600231
 20
-1584.816285686926
 30
0.0
 11
97.25985782600231
 21
-1549.116285686926
 31
0.0
  0
LINE
  5
20CA2
330
1F
100
AcDbEntity
  8
0
  6
Continuous
 62
     7
100
AcDbLine
 10
94.05985782600225
 20
-1574.766285686926
 30
0.0
 11
94.05985782600225
 21
-1574.016285686926
 31
0.0
  0
ARC
  5
20CA3
330
1F
100
AcDbEntity
  8
0
  6
Continuous
 62
     7
100
AcDbCircle
 10
96.05985782600226
 20
-1573.266285686926
 30
0.0
 40
2.0
100
AcDbArc
 50
126.8698976458499
 51
180.0
  0
ARC
  5
20CA4
330
1F
100
AcDbEntity
  8
0
  6
Continuous
 62
     7
100
AcDbCircle
 10
96.05985782600226
 20
-1574.766285686926
 30
0.0
 40
2.0
100
AcDbArc
 50
180.0
 51
233.1301023541481
  0
LINE
  5
20CA5
330
1F
100
AcDbEntity
  8
0
  6
Continuous
 62
     7
100
AcDbLine
 10
94.85985782600186
 20
-1584.816285686926
 30
0.0
 11
94.85985782600222
 21
-1549.616285686926
 31
0.0
  0
LINE
  5
20CA6
330
1F
100
AcDbEntity
  8
0
  6
Continuous
 62
     7
100
AcDbLine
 10
204.6598578260022
 20
-1584.816285686926
 30
0.0
 11
204.6598578260022
 21
-1549.616285686926
 31
0.0
  0
LINE
  5
20CA7
330
1F
100
AcDbEntity
  8
0
  6
Continuous
 62
     7
100
AcDbLine
 10
94.05985782600225
 20
-1574.016285686926
 30
0.0
 11
94.05985782600225
 21
-1573.266285686926
 31
0.0
  0
LINE
  5
20CA8
330
1F
100
AcDbEntity
  8
0
  6
Continuous
 62
     7
100
AcDbLine
 10
205.4598578260023
 20
-1574.766285686926
 30
0.0
 11
205.4598578260023
 21
-1574.016285686926
 31
0.0
  0
ARC
  5
20CA9
330
1F
100
AcDbEntity
  8
0
  6
Continuous
 62
     7
100
AcDbCircle
 10
203.4598578260023
 20
-1573.266285686926
 30
0.0
 40
2.0
100
AcDbArc
 50
0.0
 51
53.13010235415597
  0
ARC
  5
20CAA
330
1F
100
AcDbEntity
  8
0
  6
Continuous
 62
     7
100
AcDbCircle
 10
203.4598578260023
 20
-1574.766285686926
 30
0.0
 40
2.0
100
AcDbArc
 50
306.869897645844
 51
0.0
  0
LINE
  5
20CAB
330
1F
100
AcDbEntity
  8
0
  6
Continuous
 62
     7
100
AcDbLine
 10
205.4598578260023
 20
-1574.016285686926
 30
0.0
 11
205.4598578260023
 21
-1573.266285686926
 31
0.0
  0
LINE
  5
20CAD
330
1F
100
AcDbEntity
  8
0
  6
Continuous
 62
     7
100
AcDbLine
 10
34.2598578260014
 20
-1590.316285686925
 30
0.0
 11
34.2598578260014
 21
-1575.116285686926
 31
0.0
  0
LINE
  5
20CAE
330
1F
100
AcDbEntity
  8
0
  6
Continuous
 62
     7
100
AcDbLine
 10
22.75985782600139
 20
-1574.816285686926
 30
0.0
 11
22.75985782600139
 21
-1563.216285686926
 31
0.0
  0
LINE
  5
20CAF
330
1F
100
AcDbEntity
  8
0
  6
Continuous
 62
     7
100
AcDbLine
 10
36.7598578260014
 20
-1574.816285686926
 30
0.0
 11
36.7598578260014
 21
-1563.216285686926
 31
0.0
  0
LINE
  5
20CB0
330
1F
100
AcDbEntity
  8
0
  6
Continuous
 62
     7
100
AcDbLine
 10
34.55985782600135
 20
-1574.816285686926
 30
0.0
 11
34.2598578260014
 21
-1575.116285686926
 31
0.0
  0
LINE
  5
20CB1
330
1F
100
AcDbEntity
  8
0
  6
Continuous
 62
     7
100
AcDbLine
 10
24.95985782600144
 20
-1574.816285686926
 30
0.0
 11
25.2598578260014
 21
-1575.116285686926
 31
0.0
  0
LINE
  5
20CB2
330
1F
100
AcDbEntity
  8
0
  6
Continuous
 62
     7
100
AcDbLine
 10
34.2598578260014
 20
-1575.116285686926
 30
0.0
 11
25.2598578260014
 21
-1575.116285686926
 31
0.0
  0
LINE
  5
20CB3
330
1F
100
AcDbEntity
  8
0
  6
Continuous
 62
     7
100
AcDbLine
 10
36.7598578260014
 20
-1574.816285686926
 30
0.0
 11
22.75985782600139
 21
-1574.816285686926
 31
0.0
  0
LINE
  5
20CB4
330
1F
100
AcDbEntity
  8
0
  6
Continuous
 62
     7
100
AcDbLine
 10
36.99079793367707
 20
-1562.816285686926
 30
0.0
 11
36.7598578260014
 21
-1563.216285686926
 31
0.0
  0
LINE
  5
20CB5
330
1F
100
AcDbEntity
  8
0
  6
Continuous
 62
     7
100
AcDbLine
 10
22.75985782600139
 20
-1563.216285686926
 30
0.0
 11
22.52891771832549
 21
-1562.816285686926
 31
0.0
  0
LINE
  5
20CB6
330
1F
100
AcDbEntity
  8
0
  6
Continuous
 62
     7
100
AcDbLine
 10
36.7598578260014
 20
-1563.216285686926
 30
0.0
 11
22.75985782600139
 21
-1563.216285686926
 31
0.0
  0
LINE
  5
20CB7
330
1F
100
AcDbEntity
  8
0
  6
Continuous
 62
     7
100
AcDbLine
 10
25.25985782600117
 20
-1590.316285686927
 30
0.0
 11
25.2598578260014
 21
-1575.116285686926
 31
0.0
  0
LINE
  5
20CB8
330
1F
100
AcDbEntity
  8
0
  6
Continuous
 62
     7
100
AcDbLine
 10
22.75985782600139
 20
-1574.816285686926
 30
0.0
 11
22.75985782600139
 21
-1563.216285686926
 31
0.0
  0
LINE
  5
20CB9
330
1F
100
AcDbEntity
  8
0
  6
Continuous
 62
     7
100
AcDbLine
 10
24.95985782600144
 20
-1574.816285686926
 30
0.0
 11
25.2598578260014
 21
-1575.116285686926
 31
0.0
  0
LINE
  5
20CBA
330
1F
100
AcDbEntity
  8
0
  6
Continuous
 62
     7
100
AcDbLine
 10
22.52891771832549
 20
-1562.816285686926
 30
0.0
 11
22.75985782600139
 21
-1563.216285686926
 31
0.0
  0
LINE
  5
20CBB
330
1F
100
AcDbEntity
  8
0
  6
Continuous
 62
     7
100
AcDbLine
 10
34.25985782600253
 20
-1590.316285686926
 30
0.0
 11
25.25985782600253
 21
-1590.316285686926
 31
0.0
  0
LINE
  5
20CBC
330
1F
100
AcDbEntity
  8
0
  6
Continuous
 62
     7
100
AcDbLine
 10
34.75985782600253
 20
-1590.816285686926
 30
0.0
 11
34.25985782600231
 21
-1590.316285686926
 31
0.0
  0
LINE
  5
20CBD
330
1F
100
AcDbEntity
  8
0
  6
Continuous
 62
     7
100
AcDbLine
 10
24.7598578260023
 20
-1590.816285686926
 30
0.0
 11
25.25985782600253
 21
-1590.316285686926
 31
0.0
  0
LINE
  5
20CBE
330
1F
100
AcDbEntity
  8
中心線
 48
0.2
100
AcDbLine
 10
29.75985782600253
 20
-1560.633747539289
 30
0.0
 11
29.75985782600231
 21
-1592.621319954534
 31
0.0
  0
LINE
  5
20CBF
330
1F
100
AcDbEntity
  8
中心線
 48
0.3
100
AcDbLine
 10
93.09613112762383
 20
-1574.016285686926
 30
0.0
 11
96.91578355547825
 21
-1574.016285686926
 31
0.0
  0
LINE
  5
20CC0
330
1F
100
AcDbEntity
  8
中心線
 48
0.3
100
AcDbLine
 10
202.4981337362357
 20
-1574.016285686926
 30
0.0
 11
206.3177861640901
 21
-1574.016285686926
 31
0.0
  0
LINE
  5
20CC1
330
1F
100
AcDbEntity
  8
中心線
 48
0.2
100
AcDbLine
 10
149.7598578260025
 20
-1584.816285686926
 30
0.0
 11
149.7598578260023
 21
-1592.621319954535
 31
0.0
  0
LINE
  5
20CC2
330
1F
100
AcDbEntity
  8
虛線
 48
0.2
100
AcDbLine
 10
74.25985782600253
 20
-1590.316285686926
 30
0.0
 11
65.25985782600253
 21
-1590.316285686926
 31
0.0
  0
LINE
  5
20CC3
330
1F
100
AcDbEntity
  8
虛線
 48
0.2
100
AcDbLine
 10
74.75985782600253
 20
-1590.816285686926
 30
0.0
 11
74.2598578260023
 21
-1590.316285686926
 31
0.0
  0
LINE
  5
20CC4
330
1F
100
AcDbEntity
  8
虛線
 48
0.2
100
AcDbLine
 10
64.7598578260023
 20
-1590.816285686926
 30
0.0
 11
65.25985782600253
 21
-1590.316285686926
 31
0.0
  0
LINE
  5
20CC5
330
1F
100
AcDbEntity
  8
虛線
 48
0.2
100
AcDbLine
 10
114.2598578260015
 20
-1590.316285686926
 30
0.0
 11
114.2598578260011
 21
-1584.816285686926
 31
0.0
  0
LINE
  5
20CC6
330
1F
100
AcDbEntity
  8
虛線
 48
0.2
100
AcDbLine
 10
105.259857826001
 20
-1590.316285686926
 30
0.0
 11
105.2598578260014
 21
-1584.816285686926
 31
0.0
  0
LINE
  5
20CC7
330
1F
100
AcDbEntity
  8
虛線
 48
0.2
100
AcDbLine
 10
114.2598578260015
 20
-1590.316285686926
 30
0.0
 11
105.259857826001
 21
-1590.316285686926
 31
0.0
  0
LINE
  5
20CC8
330
1F
100
AcDbEntity
  8
虛線
 48
0.2
100
AcDbLine
 10
114.7598578260025
 20
-1590.816285686926
 30
0.0
 11
114.2598578260023
 21
-1590.316285686926
 31
0.0
  0
LINE
  5
20CC9
330
1F
100
AcDbEntity
  8
虛線
 48
0.2
100
AcDbLine
 10
104.7598578260023
 20
-1590.816285686925
 30
0.0
 11
105.2598578260025
 21
-1590.316285686926
 31
0.0
  0
LINE
  5
20CCA
330
1F
100
AcDbEntity
  8
虛線
 48
0.2
100
AcDbLine
 10
154.2598578260014
 20
-1590.316285686925
 30
0.0
 11
154.2598578260014
 21
-1584.816285686926
 31
0.0
  0
LINE
  5
20CCB
330
1F
100
AcDbEntity
  8
虛線
 48
0.2
100
AcDbLine
 10
145.2598578260011
 20
-1590.316285686927
 30
0.0
 11
145.2598578260016
 21
-1584.816285686926
 31
0.0
  0
LINE
  5
20CCC
330
1F
100
AcDbEntity
  8
虛線
 48
0.2
100
AcDbLine
 10
154.2598578260025
 20
-1590.316285686926
 30
0.0
 11
145.2598578260025
 21
-1590.316285686926
 31
0.0
  0
LINE
  5
20CCD
330
1F
100
AcDbEntity
  8
虛線
 48
0.2
100
AcDbLine
 10
154.7598578260025
 20
-1590.816285686926
 30
0.0
 11
154.2598578260023
 21
-1590.316285686926
 31
0.0
  0
LINE
  5
20CCE
330
1F
100
AcDbEntity
  8
虛線
 48
0.2
100
AcDbLine
 10
144.7598578260023
 20
-1590.816285686926
 30
0.0
 11
145.2598578260025
 21
-1590.316285686926
 31
0.0
  0
LINE
  5
20CCF
330
1F
100
AcDbEntity
  8
中心線
 48
0.2
100
AcDbLine
 10
109.7598578260025
 20
-1584.816285686926
 30
0.0
 11
109.7598578260023
 21
-1592.621319954535
 31
0.0
  0
LINE
  5
20D1E
330
1F
100
AcDbEntity
  8
中心線
 48
0.25
100
AcDbLine
 10
79.85985958501908
 20
-1555.316285686926
 30
0.0
 11
95.16432769955565
 21
-1555.316285686926
 31
0.0
  0
ARC
  5
20D1F
330
1F
100
AcDbEntity
  8
0
 48
0.27
100
AcDbCircle
 10
94.05147482600217
 20
-1557.316266355826
 30
0.0
 40
2.954110999999976
100
AcDbArc
 50
137.3885930045073
 51
222.1075788516008
  0
ARC
  5
20D20
330
1F
100
AcDbEntity
  8
0
 48
0.27
100
AcDbCircle
 10
94.05147582600205
 20
-1553.316266355826
 30
0.0
 40
2.954111999999976
100
AcDbArc
 50
137.388598002194
 51
222.6114019998944
  0
LWPOLYLINE
  5
20D21
330
1F
100
AcDbEntity
  8
0
 48
0.27
100
AcDbPolyline
 90
       31
 70
     0
 43
0.0
 10
83.76864682600183
 20
-1555.316266355826
 10
83.73582882600215
 20
-1555.106011355826
 10
83.69168182600208
 20
-1555.000524355826
 10
83.62864882600218
 20
-1554.902745355826
 10
83.54917282600229
 20
-1554.818632355826
 10
83.45768182600215
 20
-1554.752759355826
 10
83.359761826002
 20
-1554.707478355826
 10
83.22712582600217
 20
-1554.678537355826
 10
83.10411682600181
 20
-1554.681196355826
 10
82.99719282600211
 20
-1554.706702355826
 10
82.88098782600185
 20
-1554.762470355826
 10
82.77041782600202
 20
-1554.851959355826
 10
82.68218782600218
 20
-1554.966509355826
 10
82.62555382600215
 20
-1555.086348355826
 10
82.59770282600232
 20
-1555.190004355825
 10
82.58608182600221
 20
-1555.316266355826
 10
82.61889982600235
 20
-1555.526521355826
 10
82.66304782600229
 20
-1555.632009355826
 10
82.72607982600233
 20
-1555.729787355826
 10
82.8055558260022
 20
-1555.813900355826
 10
82.89704682600234
 20
-1555.879773355826
 10
82.99496682600249
 20
-1555.925054355826
 10
83.12760282600185
 20
-1555.953996355826
 10
83.25061182600222
 20
-1555.951336355826
 10
83.35753582600238
 20
-1555.925831355826
 10
83.4737408260022
 20
-1555.870063355826
 10
83.58431082600247
 20
-1555.780573355826
 10
83.67254082600187
 20
-1555.666024355826
 10
83.72917482600234
 20
-1555.546185355826
 10
83.75702682600252
 20
-1555.442528355826
 10
83.76864682600183
 20
-1555.316266355826
  0
ARC
  5
20D22
330
1F
100
AcDbEntity
  8
0
 48
0.27
100
AcDbCircle
 10
87.34902382600205
 20
-1555.316266355826
 30
0.0
 40
3.999999999999968
100
AcDbArc
 50
90.0
 51
131.4096219996073
  0
ARC
  5
20D23
330
1F
100
AcDbEntity
  8
0
 48
0.27
100
AcDbCircle
 10
87.34902382600205
 20
-1555.316266355826
 30
0.0
 40
3.999999999999968
100
AcDbArc
 50
228.5903779972841
 51
270.0
  0
LINE
  5
20D24
330
1F
100
AcDbEntity
  8
0
 48
0.27
100
AcDbLine
 10
94.85985782600222
 20
-1551.316266355826
 30
0.0
 11
87.34902382600205
 21
-1551.316266355826
 31
0.0
  0
LINE
  5
20D25
330
1F
100
AcDbEntity
  8
0
 48
0.27
100
AcDbLine
 10
87.34902382600205
 20
-1559.316266355826
 30
0.0
 11
94.85985782600222
 21
-1559.316266355826
 31
0.0
  0
LINE
  5
20D26
330
1F
100
AcDbEntity
  8
0
 48
0.27
100
AcDbLine
 10
91.09736382600216
 20
-1551.316266355826
 30
0.0
 11
91.09736382600216
 21
-1559.316266355826
 31
0.0
  0
LINE
  5
20D27
330
1F
100
AcDbEntity
  8
0
 48
0.27
100
AcDbLine
 10
83.82158682600232
 20
-1552.316266355826
 30
0.0
 11
87.72136282600206
 21
-1552.316266355826
 31
0.0
  0
LINE
  5
20D28
330
1F
100
AcDbEntity
  8
0
 48
0.27
100
AcDbLine
 10
83.57519382600196
 20
-1557.854339355826
 30
0.0
 11
83.82158682600232
 21
-1558.316266355826
 31
0.0
  0
LINE
  5
20D29
330
1F
100
AcDbEntity
  8
0
 48
0.27
100
AcDbLine
 10
83.82158682600232
 20
-1552.316266355826
 30
0.0
 11
83.57519382600196
 21
-1552.778193355826
 31
0.0
  0
LINE
  5
20D2A
330
1F
100
AcDbEntity
  8
0
 48
0.27
100
AcDbLine
 10
88.62220482600207
 20
-1555.316266355826
 30
0.0
 11
89.32156882600214
 21
-1555.316266355826
 31
0.0
  0
LINE
  5
20D2B
330
1F
100
AcDbEntity
  8
0
 48
0.27
100
AcDbLine
 10
87.72136282600206
 20
-1552.316266355826
 30
0.0
 11
89.32156882600214
 21
-1555.316266355826
 31
0.0
  0
LINE
  5
20D2C
330
1F
100
AcDbEntity
  8
0
 48
0.27
100
AcDbLine
 10
87.72136282600206
 20
-1558.316266355826
 30
0.0
 11
83.82158682600232
 21
-1558.316266355826
 31
0.0
  0
LINE
  5
20D2D
330
1F
100
AcDbEntity
  8
0
 48
0.27
100
AcDbLine
 10
89.32156882600214
 20
-1555.316266355826
 30
0.0
 11
87.72136282600206
 21
-1558.316266355826
 31
0.0
  0
LINE
  5
20D2E
330
1F
100
AcDbEntity
  8
0
 48
0.27
100
AcDbLine
 10
83.94266582600186
 20
-1552.786732355826
 30
0.0
 11
84.3611328260023
 21
-1552.544628355826
 31
0.0
  0
LINE
  5
20D2F
330
1F
100
AcDbEntity
  8
0
 48
0.27
100
AcDbLine
 10
83.94266582600186
 20
-1557.845801355826
 30
0.0
 11
84.3611328260023
 21
-1558.087905355826
 31
0.0
  0
LINE
  5
20D30
330
1F
100
AcDbEntity
  8
0
 48
0.27
100
AcDbLine
 10
84.3611328260023
 20
-1552.544628355826
 30
0.0
 11
84.88107282600243
 21
-1552.373910355826
 31
0.0
  0
LINE
  5
20D31
330
1F
100
AcDbEntity
  8
0
 48
0.27
100
AcDbLine
 10
84.3611328260023
 20
-1558.087905355826
 30
0.0
 11
84.88107282600243
 21
-1558.258622355826
 31
0.0
  0
LINE
  5
20D32
330
1F
100
AcDbEntity
  8
0
 48
0.27
100
AcDbLine
 10
84.88107282600243
 20
-1552.373910355826
 30
0.0
 11
85.42179282600239
 21
-1552.316266355826
 31
0.0
  0
LINE
  5
20D33
330
1F
100
AcDbEntity
  8
0
 48
0.27
100
AcDbLine
 10
84.88107282600243
 20
-1558.258622355826
 30
0.0
 11
85.42179282600239
 21
-1558.316266355826
 31
0.0
  0
LINE
  5
20D34
330
1F
100
AcDbEntity
  8
0
 48
0.27
100
AcDbLine
 10
85.42179282600239
 20
-1552.316266355826
 30
0.0
 11
85.96251282600235
 21
-1552.373910355826
 31
0.0
  0
LINE
  5
20D35
330
1F
100
AcDbEntity
  8
0
 48
0.27
100
AcDbLine
 10
85.42179282600239
 20
-1558.316266355826
 30
0.0
 11
85.96251282600235
 21
-1558.258622355826
 31
0.0
  0
LINE
  5
20D36
330
1F
100
AcDbEntity
  8
0
 48
0.27
100
AcDbLine
 10
85.96251282600235
 20
-1552.373910355826
 30
0.0
 11
86.48245282600203
 21
-1552.544628355826
 31
0.0
  0
LINE
  5
20D37
330
1F
100
AcDbEntity
  8
0
 48
0.27
100
AcDbLine
 10
85.96251282600235
 20
-1558.258622355826
 30
0.0
 11
86.48245282600203
 21
-1558.087905355826
 31
0.0
  0
LINE
  5
20D38
330
1F
100
AcDbEntity
  8
0
 48
0.27
100
AcDbLine
 10
86.48245282600203
 20
-1552.544628355826
 30
0.0
 11
86.96163282600185
 21
-1552.821857355826
 31
0.0
  0
LINE
  5
20D39
330
1F
100
AcDbEntity
  8
0
 48
0.27
100
AcDbLine
 10
86.48245282600203
 20
-1558.087905355826
 30
0.0
 11
86.96163282600185
 21
-1557.810675355826
 31
0.0
  0
LINE
  5
20D3A
330
1F
100
AcDbEntity
  8
0
 48
0.27
100
AcDbLine
 10
86.96163282600185
 20
-1552.821857355826
 30
0.0
 11
87.38163682600236
 21
-1553.194946355826
 31
0.0
  0
LINE
  5
20D3B
330
1F
100
AcDbEntity
  8
0
 48
0.27
100
AcDbLine
 10
86.96163282600185
 20
-1557.810675355826
 30
0.0
 11
87.38163682600236
 21
-1557.437587355826
 31
0.0
  0
LINE
  5
20D3C
330
1F
100
AcDbEntity
  8
0
 48
0.27
100
AcDbLine
 10
87.02199882600245
 20
-1552.316266355826
 30
0.0
 11
88.62220482600207
 21
-1555.316266355826
 31
0.0
  0
LINE
  5
20D3D
330
1F
100
AcDbEntity
  8
0
 48
0.27
100
AcDbLine
 10
88.62220482600207
 20
-1555.316266355826
 30
0.0
 11
87.02199882600245
 21
-1558.316266355826
 31
0.0
  0
LINE
  5
20D3E
330
1F
100
AcDbEntity
  8
0
 48
0.27
100
AcDbLine
 10
87.38163682600236
 20
-1553.194946355826
 30
0.0
 11
87.72632582600193
 21
-1553.649556355826
 31
0.0
  0
LINE
  5
20D3F
330
1F
100
AcDbEntity
  8
0
 48
0.27
100
AcDbLine
 10
87.72632582600193
 20
-1556.982977355826
 30
0.0
 11
87.38163682600236
 21
-1557.437587355826
 31
0.0
  0
LINE
  5
20D40
330
1F
100
AcDbEntity
  8
0
 48
0.27
100
AcDbLine
 10
87.72632582600193
 20
-1553.649556355826
 30
0.0
 11
87.98245282600204
 21
-1554.168216355826
 31
0.0
  0
LINE
  5
20D41
330
1F
100
AcDbEntity
  8
0
 48
0.27
100
AcDbLine
 10
87.98245282600204
 20
-1556.464317355825
 30
0.0
 11
87.72632582600193
 21
-1556.982977355826
 31
0.0
  0
LINE
  5
20D42
330
1F
100
AcDbEntity
  8
0
 48
0.27
100
AcDbLine
 10
87.98245282600204
 20
-1554.168216355826
 30
0.0
 11
88.1401748260024
 21
-1554.730995355826
 31
0.0
  0
LINE
  5
20D43
330
1F
100
AcDbEntity
  8
0
 48
0.27
100
AcDbLine
 10
88.1401748260024
 20
-1555.901537355826
 30
0.0
 11
87.98245282600204
 21
-1556.464317355825
 31
0.0
  0
LINE
  5
20D44
330
1F
100
AcDbEntity
  8
0
 48
0.27
100
AcDbLine
 10
88.1401748260024
 20
-1554.730995355826
 30
0.0
 11
88.19343082600211
 21
-1555.316266355826
 31
0.0
  0
LINE
  5
20D45
330
1F
100
AcDbEntity
  8
0
 48
0.27
100
AcDbLine
 10
88.19343082600211
 20
-1555.316266355826
 30
0.0
 11
88.1401748260024
 21
-1555.901537355826
 31
0.0
  0
LINE
  5
20D46
330
1F
100
AcDbEntity
  8
0
 48
0.27
100
AcDbLine
 10
82.51789582600224
 20
-1553.676039355826
 30
0.0
 11
82.52086682600213
 21
-1553.677654355826
 31
0.0
  0
LINE
  5
20D47
330
1F
100
AcDbEntity
  8
0
 48
0.27
100
AcDbLine
 10
82.51789582600224
 20
-1556.956494355826
 30
0.0
 11
82.52086682600213
 21
-1556.954878355826
 31
0.0
  0
LINE
  5
20D48
330
1F
100
AcDbEntity
  8
0
 48
0.27
100
AcDbLine
 10
81.40518582600192
 20
-1554.818124355826
 30
0.0
 11
81.3598578260022
 21
-1555.316266355826
 31
0.0
  0
LINE
  5
20D49
330
1F
100
AcDbEntity
  8
0
 48
0.27
100
AcDbLine
 10
81.539427826002
 20
-1554.339126355826
 30
0.0
 11
81.40518582600192
 21
-1554.818124355826
 31
0.0
  0
LINE
  5
20D4A
330
1F
100
AcDbEntity
  8
0
 48
0.27
100
AcDbLine
 10
81.3598578260022
 20
-1555.316266355826
 30
0.0
 11
81.40518582600192
 21
-1555.814408355826
 31
0.0
  0
LINE
  5
20D4B
330
1F
100
AcDbEntity
  8
0
 48
0.27
100
AcDbLine
 10
81.75742482600218
 20
-1553.897678355826
 30
0.0
 11
81.539427826002
 21
-1554.339126355826
 31
0.0
  0
LINE
  5
20D4C
330
1F
100
AcDbEntity
  8
0
 48
0.27
100
AcDbLine
 10
81.40518582600192
 20
-1555.814408355826
 30
0.0
 11
81.539427826002
 21
-1556.293407355826
 31
0.0
  0
LINE
  5
20D4D
330
1F
100
AcDbEntity
  8
0
 48
0.27
100
AcDbLine
 10
82.05080082600227
 20
-1553.510746355826
 30
0.0
 11
81.75742482600218
 21
-1553.897678355826
 31
0.0
  0
LINE
  5
20D4E
330
1F
100
AcDbEntity
  8
0
 48
0.27
100
AcDbLine
 10
81.539427826002
 20
-1556.293407355826
 30
0.0
 11
81.75742482600218
 21
-1556.734854355826
 31
0.0
  0
LINE
  5
20D4F
330
1F
100
AcDbEntity
  8
0
 48
0.27
100
AcDbLine
 10
82.05080082600227
 20
-1553.510746355826
 30
0.0
 11
82.40827882600218
 21
-1553.193199355826
 31
0.0
  0
LINE
  5
20D50
330
1F
100
AcDbEntity
  8
0
 48
0.27
100
AcDbLine
 10
81.75742482600218
 20
-1556.734854355826
 30
0.0
 11
82.05080082600227
 21
-1557.121786355826
 31
0.0
  0
LINE
  5
20D51
330
1F
100
AcDbEntity
  8
0
 48
0.27
100
AcDbLine
 10
81.5538888260022
 20
-1554.966730355826
 30
0.0
 11
81.52208282600225
 21
-1555.316266355826
 31
0.0
  0
LINE
  5
20D52
330
1F
100
AcDbEntity
  8
0
 48
0.27
100
AcDbLine
 10
81.64808382600233
 20
-1554.630626355826
 30
0.0
 11
81.5538888260022
 21
-1554.966730355826
 31
0.0
  0
LINE
  5
20D53
330
1F
100
AcDbEntity
  8
0
 48
0.27
100
AcDbLine
 10
81.52208282600225
 20
-1555.316266355826
 30
0.0
 11
81.5538888260022
 21
-1555.665802355826
 31
0.0
  0
LINE
  5
20D54
330
1F
100
AcDbEntity
  8
0
 48
0.27
100
AcDbLine
 10
81.80104782600222
 20
-1554.320871355826
 30
0.0
 11
81.64808382600233
 21
-1554.630626355826
 31
0.0
  0
LINE
  5
20D55
330
1F
100
AcDbEntity
  8
0
 48
0.27
100
AcDbLine
 10
81.5538888260022
 20
-1555.665802355826
 30
0.0
 11
81.64808382600233
 21
-1556.001906355826
 31
0.0
  0
LINE
  5
20D56
330
1F
100
AcDbEntity
  8
0
 48
0.27
100
AcDbLine
 10
82.40827882600218
 20
-1553.193199355826
 30
0.0
 11
82.8161238260019
 21
-1552.957240355826
 31
0.0
  0
LINE
  5
20D57
330
1F
100
AcDbEntity
  8
0
 48
0.27
100
AcDbLine
 10
82.05080082600227
 20
-1557.121786355826
 30
0.0
 11
82.40827882600218
 21
-1557.439333355826
 31
0.0
  0
LINE
  5
20D58
330
1F
100
AcDbEntity
  8
0
 48
0.27
100
AcDbLine
 10
82.00690382600226
 20
-1554.049369355826
 30
0.0
 11
81.80104782600222
 21
-1554.320871355826
 31
0.0
  0
LINE
  5
20D59
330
1F
100
AcDbEntity
  8
0
 48
0.27
100
AcDbLine
 10
81.64808382600233
 20
-1556.001906355826
 30
0.0
 11
81.80104782600222
 21
-1556.311661355826
 31
0.0
  0
LINE
  5
20D5A
330
1F
100
AcDbEntity
  8
0
 48
0.27
100
AcDbLine
 10
82.8161238260019
 20
-1552.957240355826
 30
0.0
 11
83.2586608260018
 21
-1552.811938355826
 31
0.0
  0
LINE
  5
20D5B
330
1F
100
AcDbEntity
  8
0
 48
0.27
100
AcDbLine
 10
82.40827882600218
 20
-1557.439333355826
 30
0.0
 11
82.8161238260019
 21
-1557.675292355826
 31
0.0
  0
LINE
  5
20D5C
330
1F
100
AcDbEntity
  8
0
 48
0.27
100
AcDbLine
 10
82.00690382600226
 20
-1554.049369355826
 30
0.0
 11
82.25773882600208
 21
-1553.826552355826
 31
0.0
  0
LINE
  5
20D5D
330
1F
100
AcDbEntity
  8
0
 48
0.27
100
AcDbLine
 10
81.80104782600222
 20
-1556.311661355826
 30
0.0
 11
82.00690382600226
 21
-1556.583164355826
 31
0.0
  0
LINE
  5
20D5E
330
1F
100
AcDbEntity
  8
0
 48
0.27
100
AcDbLine
 10
83.2586608260018
 20
-1552.811938355826
 30
0.0
 11
83.71888382600184
 21
-1552.762875355826
 31
0.0
  0
LINE
  5
20D5F
330
1F
100
AcDbEntity
  8
0
 48
0.27
100
AcDbLine
 10
82.8161238260019
 20
-1557.675292355826
 30
0.0
 11
83.2586608260018
 21
-1557.820595355826
 31
0.0
  0
LINE
  5
20D60
330
1F
100
AcDbEntity
  8
0
 48
0.27
100
AcDbLine
 10
82.25773882600208
 20
-1553.826552355826
 30
0.0
 11
82.54391582600248
 21
-1553.660985355826
 31
0.0
  0
LINE
  5
20D61
330
1F
100
AcDbEntity
  8
0
 48
0.27
100
AcDbLine
 10
82.00690382600226
 20
-1556.583164355826
 30
0.0
 11
82.25773882600208
 21
-1556.805980355826
 31
0.0
  0
LINE
  5
20D62
330
1F
100
AcDbEntity
  8
0
 48
0.27
100
AcDbLine
 10
84.32354282600238
 20
-1552.839285355825
 30
0.0
 11
84.76124682600232
 21
-1552.983001355826
 31
0.0
  0
LINE
  5
20D63
330
1F
100
AcDbEntity
  8
0
 48
0.27
100
AcDbLine
 10
82.54391582600248
 20
-1553.660985355826
 30
0.0
 11
82.85443482600214
 21
-1553.559029355826
 31
0.0
  0
LINE
  5
20D64
330
1F
100
AcDbEntity
  8
0
 48
0.27
100
AcDbLine
 10
82.25773882600208
 20
-1556.805980355826
 30
0.0
 11
82.54391582600248
 21
-1556.971548355826
 31
0.0
  0
LINE
  5
20D65
330
1F
100
AcDbEntity
  8
0
 48
0.27
100
AcDbLine
 10
84.17910682600188
 20
-1552.811938355826
 30
0.0
 11
84.32354282600238
 21
-1552.839285355825
 31
0.0
  0
LINE
  5
20D66
330
1F
100
AcDbEntity
  8
0
 48
0.27
100
AcDbLine
 10
83.71888382600184
 20
-1552.762875355826
 30
0.0
 11
84.17910682600188
 21
-1552.811938355826
 31
0.0
  0
LINE
  5
20D67
330
1F
100
AcDbEntity
  8
0
 48
0.27
100
AcDbLine
 10
83.2586608260018
 20
-1557.820595355826
 30
0.0
 11
83.71888382600184
 21
-1557.869657355826
 31
0.0
  0
LINE
  5
20D68
330
1F
100
AcDbEntity
  8
0
 48
0.27
100
AcDbLine
 10
84.76124682600232
 20
-1552.983001355826
 30
0.0
 11
85.16463782600215
 21
-1553.216383355826
 31
0.0
  0
LINE
  5
20D69
330
1F
100
AcDbEntity
  8
0
 48
0.27
100
AcDbLine
 10
84.32354282600238
 20
-1557.793247355826
 30
0.0
 11
84.76124682600232
 21
-1557.649531355826
 31
0.0
  0
LINE
  5
20D6A
330
1F
100
AcDbEntity
  8
0
 48
0.27
100
AcDbLine
 10
85.16463782600215
 20
-1553.216383355826
 30
0.0
 11
85.51821282600224
 21
-1553.530462355826
 31
0.0
  0
LINE
  5
20D6B
330
1F
100
AcDbEntity
  8
0
 48
0.27
100
AcDbLine
 10
84.76124682600232
 20
-1557.649531355826
 30
0.0
 11
85.16463782600215
 21
-1557.416149355826
 31
0.0
  0
LINE
  5
20D6C
330
1F
100
AcDbEntity
  8
0
 48
0.27
100
AcDbLine
 10
82.85443482600214
 20
-1553.559029355826
 30
0.0
 11
83.17736482600242
 21
-1553.524603355826
 31
0.0
  0
LINE
  5
20D6D
330
1F
100
AcDbEntity
  8
0
 48
0.27
100
AcDbLine
 10
82.54391582600248
 20
-1556.971548355826
 30
0.0
 11
82.85443482600214
 21
-1557.073504355826
 31
0.0
  0
LINE
  5
20D6E
330
1F
100
AcDbEntity
  8
0
 48
0.27
100
AcDbLine
 10
84.17910682600188
 20
-1552.811938355826
 30
0.0
 11
84.62164382600178
 21
-1552.957240355826
 31
0.0
  0
LINE
  5
20D6F
330
1F
100
AcDbEntity
  8
0
 48
0.27
100
AcDbLine
 10
84.17910682600188
 20
-1557.820595355826
 30
0.0
 11
84.32354282600238
 21
-1557.793247355826
 31
0.0
  0
LINE
  5
20D70
330
1F
100
AcDbEntity
  8
0
 48
0.27
100
AcDbLine
 10
83.71888382600184
 20
-1557.869657355826
 30
0.0
 11
84.17910682600188
 21
-1557.820595355826
 31
0.0
  0
LINE
  5
20D71
330
1F
100
AcDbEntity
  8
0
 48
0.27
100
AcDbLine
 10
85.51821282600224
 20
-1553.530462355826
 30
0.0
 11
85.80838382600189
 21
-1553.913169355826
 31
0.0
  0
LINE
  5
20D72
330
1F
100
AcDbEntity
  8
0
 48
0.27
100
AcDbLine
 10
85.16463782600215
 20
-1557.416149355826
 30
0.0
 11
85.51821282600224
 21
-1557.102070355826
 31
0.0
  0
LINE
  5
20D73
330
1F
100
AcDbEntity
  8
0
 48
0.27
100
AcDbLine
 10
83.17736482600242
 20
-1553.524603355826
 30
0.0
 11
83.50029382600235
 21
-1553.559029355826
 31
0.0
  0
LINE
  5
20D74
330
1F
100
AcDbEntity
  8
0
 48
0.27
100
AcDbLine
 10
82.85443482600214
 20
-1557.073504355826
 30
0.0
 11
83.17736482600242
 21
-1557.107930355826
 31
0.0
  0
LINE
  5
20D75
330
1F
100
AcDbEntity
  8
0
 48
0.27
100
AcDbLine
 10
84.62164382600178
 20
-1552.957240355826
 30
0.0
 11
85.02948782600208
 21
-1553.193199355826
 31
0.0
  0
LINE
  5
20D76
330
1F
100
AcDbEntity
  8
0
 48
0.27
100
AcDbLine
 10
84.17910682600188
 20
-1557.820595355826
 30
0.0
 11
84.62164382600178
 21
-1557.675292355826
 31
0.0
  0
LINE
  5
20D77
330
1F
100
AcDbEntity
  8
0
 48
0.27
100
AcDbLine
 10
85.80838382600189
 20
-1553.913169355826
 30
0.0
 11
86.02400082600217
 21
-1554.349796355826
 31
0.0
  0
LINE
  5
20D78
330
1F
100
AcDbEntity
  8
0
 48
0.27
100
AcDbLine
 10
85.80838382600189
 20
-1556.719363355826
 30
0.0
 11
85.51821282600224
 21
-1557.102070355826
 31
0.0
  0
LINE
  5
20D79
330
1F
100
AcDbEntity
  8
0
 48
0.27
100
AcDbLine
 10
86.02400082600217
 20
-1554.349796355826
 30
0.0
 11
86.1567768260021
 21
-1554.823564355826
 31
0.0
  0
LINE
  5
20D7A
330
1F
100
AcDbEntity
  8
0
 48
0.27
100
AcDbLine
 10
86.02400082600217
 20
-1556.282736355826
 30
0.0
 11
85.80838382600189
 21
-1556.719363355826
 31
0.0
  0
LINE
  5
20D7B
330
1F
100
AcDbEntity
  8
0
 48
0.27
100
AcDbLine
 10
85.02948782600208
 20
-1553.193199355826
 30
0.0
 11
85.38696682600232
 21
-1553.510746355826
 31
0.0
  0
LINE
  5
20D7C
330
1F
100
AcDbEntity
  8
0
 48
0.27
100
AcDbLine
 10
84.62164382600178
 20
-1557.675292355826
 30
0.0
 11
85.02948782600208
 21
-1557.439333355826
 31
0.0
  0
LINE
  5
20D7D
330
1F
100
AcDbEntity
  8
0
 48
0.27
100
AcDbLine
 10
86.1567768260021
 20
-1554.823564355826
 30
0.0
 11
86.20160982600202
 21
-1555.316266355826
 31
0.0
  0
LINE
  5
20D7E
330
1F
100
AcDbEntity
  8
0
 48
0.27
100
AcDbLine
 10
86.1567768260021
 20
-1555.808968355826
 30
0.0
 11
86.02400082600217
 21
-1556.282736355826
 31
0.0
  0
LINE
  5
20D7F
330
1F
100
AcDbEntity
  8
0
 48
0.27
100
AcDbLine
 10
83.50029382600235
 20
-1553.559029355826
 30
0.0
 11
83.81081282600201
 21
-1553.660985355826
 31
0.0
  0
LINE
  5
20D80
330
1F
100
AcDbEntity
  8
0
 48
0.27
100
AcDbLine
 10
83.17736482600242
 20
-1557.107930355826
 30
0.0
 11
83.50029382600235
 21
-1557.073504355826
 31
0.0
  0
LINE
  5
20D81
330
1F
100
AcDbEntity
  8
0
 48
0.27
100
AcDbLine
 10
86.20160982600202
 20
-1555.316266355826
 30
0.0
 11
86.1567768260021
 21
-1555.808968355826
 31
0.0
  0
LINE
  5
20D82
330
1F
100
AcDbEntity
  8
0
 48
0.27
100
AcDbLine
 10
85.38696682600232
 20
-1553.510746355826
 30
0.0
 11
85.68034182600205
 21
-1553.897678355826
 31
0.0
  0
LINE
  5
20D83
330
1F
100
AcDbEntity
  8
0
 48
0.27
100
AcDbLine
 10
85.02948782600208
 20
-1557.439333355826
 30
0.0
 11
85.38696682600232
 21
-1557.121786355826
 31
0.0
  0
LINE
  5
20D84
330
1F
100
AcDbEntity
  8
0
 48
0.27
100
AcDbLine
 10
83.81081282600201
 20
-1553.660985355826
 30
0.0
 11
84.09698982600195
 21
-1553.826552355826
 31
0.0
  0
LINE
  5
20D85
330
1F
100
AcDbEntity
  8
0
 48
0.27
100
AcDbLine
 10
83.50029382600235
 20
-1557.073504355826
 30
0.0
 11
83.81081282600201
 21
-1556.971548355826
 31
0.0
  0
LINE
  5
20D86
330
1F
100
AcDbEntity
  8
0
 48
0.27
100
AcDbLine
 10
85.68034182600205
 20
-1553.897678355826
 30
0.0
 11
85.89833882600226
 21
-1554.339126355826
 31
0.0
  0
LINE
  5
20D87
330
1F
100
AcDbEntity
  8
0
 48
0.27
100
AcDbLine
 10
85.68034182600205
 20
-1556.734854355826
 30
0.0
 11
85.38696682600232
 21
-1557.121786355826
 31
0.0
  0
LINE
  5
20D88
330
1F
100
AcDbEntity
  8
0
 48
0.27
100
AcDbLine
 10
85.89833882600226
 20
-1554.339126355826
 30
0.0
 11
86.03258182600177
 21
-1554.818124355826
 31
0.0
  0
LINE
  5
20D89
330
1F
100
AcDbEntity
  8
0
 48
0.27
100
AcDbLine
 10
85.89833882600226
 20
-1556.293407355826
 30
0.0
 11
85.68034182600205
 21
-1556.734854355826
 31
0.0
  0
LINE
  5
20D8A
330
1F
100
AcDbEntity
  8
0
 48
0.27
100
AcDbLine
 10
84.09698982600195
 20
-1553.826552355826
 30
0.0
 11
84.34782482600178
 21
-1554.049369355826
 31
0.0
  0
LINE
  5
20D8B
330
1F
100
AcDbEntity
  8
0
 48
0.27
100
AcDbLine
 10
83.81081282600201
 20
-1556.971548355826
 30
0.0
 11
84.09698982600195
 21
-1556.805980355826
 31
0.0
  0
LINE
  5
20D8C
330
1F
100
AcDbEntity
  8
0
 48
0.27
100
AcDbLine
 10
86.03258182600177
 20
-1554.818124355826
 30
0.0
 11
86.07790982600192
 21
-1555.316266355826
 31
0.0
  0
LINE
  5
20D8D
330
1F
100
AcDbEntity
  8
0
 48
0.27
100
AcDbLine
 10
86.03258182600177
 20
-1555.814408355826
 30
0.0
 11
85.89833882600226
 21
-1556.293407355826
 31
0.0
  0
LINE
  5
20D8E
330
1F
100
AcDbEntity
  8
0
 48
0.27
100
AcDbLine
 10
86.07790982600192
 20
-1555.316266355826
 30
0.0
 11
86.03258182600177
 21
-1555.814408355826
 31
0.0
  0
LINE
  5
20D8F
330
1F
100
AcDbEntity
  8
0
 48
0.27
100
AcDbLine
 10
84.34782482600178
 20
-1554.049369355826
 30
0.0
 11
84.55368082600228
 21
-1554.320871355826
 31
0.0
  0
LINE
  5
20D90
330
1F
100
AcDbEntity
  8
0
 48
0.27
100
AcDbLine
 10
84.09698982600195
 20
-1556.805980355826
 30
0.0
 11
84.34782482600178
 21
-1556.583164355826
 31
0.0
  0
LINE
  5
20D91
330
1F
100
AcDbEntity
  8
0
 48
0.27
100
AcDbLine
 10
84.55368082600228
 20
-1554.320871355826
 30
0.0
 11
84.70664482600216
 21
-1554.630626355826
 31
0.0
  0
LINE
  5
20D92
330
1F
100
AcDbEntity
  8
0
 48
0.27
100
AcDbLine
 10
84.55368082600228
 20
-1556.311661355826
 30
0.0
 11
84.34782482600178
 21
-1556.583164355826
 31
0.0
  0
LINE
  5
20D93
330
1F
100
AcDbEntity
  8
0
 48
0.27
100
AcDbLine
 10
84.70664482600216
 20
-1554.630626355826
 30
0.0
 11
84.80083982600183
 21
-1554.966730355826
 31
0.0
  0
LINE
  5
20D94
330
1F
100
AcDbEntity
  8
0
 48
0.27
100
AcDbLine
 10
84.70664482600216
 20
-1556.001906355826
 30
0.0
 11
84.55368082600228
 21
-1556.311661355826
 31
0.0
  0
LINE
  5
20D95
330
1F
100
AcDbEntity
  8
0
 48
0.27
100
AcDbLine
 10
84.80083982600183
 20
-1554.966730355826
 30
0.0
 11
84.83264582600179
 21
-1555.316266355826
 31
0.0
  0
LINE
  5
20D96
330
1F
100
AcDbEntity
  8
0
 48
0.27
100
AcDbLine
 10
84.80083982600183
 20
-1555.665802355826
 30
0.0
 11
84.70664482600216
 21
-1556.001906355826
 31
0.0
  0
LINE
  5
20D97
330
1F
100
AcDbEntity
  8
0
 48
0.27
100
AcDbLine
 10
84.83264582600179
 20
-1555.316266355826
 30
0.0
 11
84.80083982600183
 21
-1555.665802355826
 31
0.0
  0
LINE
  5
20D98
330
1F
100
AcDbEntity
  8
0
 48
0.27
100
AcDbLine
 10
94.85985782600222
 20
-1551.316266355826
 30
0.0
 11
94.85985782600222
 21
-1559.316266355826
 31
0.0
  0
CIRCLE
  5
20DAA
330
1F
100
AcDbEntity
  8
0
 48
0.27
100
AcDbCircle
 10
29.75985782600299
 20
-1453.696215262502
 30
0.0
 40
4.499999999998863
  0
CIRCLE
  5
20DAB
330
1F
100
AcDbEntity
  8
0
 48
0.27
100
AcDbCircle
 10
29.75985782600299
 20
-1453.696215262502
 30
0.0
 40
6.999999999998863
  0
LINE
  5
20DAC
330
1F
100
AcDbEntity
  8
0
  6
Continuous
 62
     7
100
AcDbLine
 10
289.7598578260025
 20
-1467.696215266504
 30
0.0
 11
204.6598578260022
 21
-1467.696215266503
 31
0.0
  0
LINE
  5
20DAD
330
1F
100
AcDbEntity
  8
0
  6
Continuous
 62
     7
100
AcDbLine
 10
204.6598578260022
 20
-1483.196215262502
 30
0.0
 11
204.6598578260022
 21
-1424.196215262502
 31
0.0
  0
LINE
  5
20DAE
330
1F
100
AcDbEntity
  8
0
  6
Continuous
 62
     7
100
AcDbLine
 10
9.759857826002075
 20
-1562.816285686926
 30
0.0
 11
9.759857826002303
 21
-1590.816285686926
 31
0.0
  0
LINE
  5
20DAF
330
1F
100
AcDbEntity
  8
0
 62
     7
100
AcDbLine
 10
48.30232203085413
 20
-1562.816285686926
 30
0.0
 11
46.36690453788912
 21
-1568.192646661124
 31
0.0
  0
LINE
  5
20DB0
330
1F
100
AcDbEntity
  8
0
 62
     7
100
AcDbLine
 10
46.36690453788912
 20
-1568.192646661124
 30
0.0
 11
48.86973313894475
 21
-1574.169771074827
 31
0.0
  0
LINE
  5
20DB1
330
1F
100
AcDbEntity
  8
0
 62
     7
100
AcDbLine
 10
48.86973313894475
 20
-1574.169771074827
 30
0.0
 11
46.33367847047964
 21
-1581.03785351252
 31
0.0
  0
LINE
  5
20DB2
330
1F
100
AcDbEntity
  8
0
 62
     7
100
AcDbLine
 10
46.33367847047964
 20
-1581.03785351252
 30
0.0
 11
48.86973313894475
 21
-1586.597733253719
 31
0.0
  0
LINE
  5
20DB3
330
1F
100
AcDbEntity
  8
0
 62
     7
100
AcDbLine
 10
48.86973313894475
 20
-1586.597733253719
 30
0.0
 11
46.95510201138822
 21
-1590.816285686926
 31
0.0
  0
LINE
  5
20DB4
330
1F
100
AcDbEntity
  8
0
  6
Continuous
 62
     7
100
AcDbLine
 10
9.759857826001848
 20
-1439.696215258602
 30
0.0
 11
9.759857826002075
 21
-1467.696215266503
 31
0.0
  0
LINE
  5
20DBD
330
1F
100
AcDbEntity
  8
0
  6
Continuous
 62
     7
100
AcDbLine
 10
205.4598578260024
 20
-1481.046215262502
 30
0.0
 11
205.4598578260024
 21
-1480.296215262502
 31
0.0
  0
ARC
  5
20DBE
330
1F
100
AcDbEntity
  8
0
  6
Continuous
 62
     7
100
AcDbCircle
 10
203.4598578260024
 20
-1479.546215262502
 30
0.0
 40
2.0
100
AcDbArc
 50
0.0
 51
53.13010235415271
  0
ARC
  5
20DBF
330
1F
100
AcDbEntity
  8
0
  6
Continuous
 62
     7
100
AcDbCircle
 10
203.4598578260024
 20
-1481.046215262502
 30
0.0
 40
2.0
100
AcDbArc
 50
306.8698976458473
 51
0.0
  0
LINE
  5
20DC0
330
1F
100
AcDbEntity
  8
0
  6
Continuous
 62
     7
100
AcDbLine
 10
205.4598578260024
 20
-1480.296215262502
 30
0.0
 11
205.4598578260024
 21
-1479.546215262502
 31
0.0
  0
LINE
  5
20DC1
330
1F
100
AcDbEntity
  8
0
  6
Continuous
 62
     7
100
AcDbLine
 10
205.4598578260024
 20
-1427.846215262502
 30
0.0
 11
205.4598578260024
 21
-1427.096215262502
 31
0.0
  0
ARC
  5
20DC2
330
1F
100
AcDbEntity
  8
0
  6
Continuous
 62
     7
100
AcDbCircle
 10
203.4598578260024
 20
-1426.346215262502
 30
0.0
 40
2.0
100
AcDbArc
 50
0.0
 51
53.13010235415206
  0
ARC
  5
20DC3
330
1F
100
AcDbEntity
  8
0
  6
Continuous
 62
     7
100
AcDbCircle
 10
203.4598578260024
 20
-1427.846215262502
 30
0.0
 40
2.0
100
AcDbArc
 50
306.8698976458479
 51
0.0
  0
LINE
  5
20DC4
330
1F
100
AcDbEntity
  8
0
  6
Continuous
 62
     7
100
AcDbLine
 10
205.4598578260024
 20
-1427.096215262502
 30
0.0
 11
205.4598578260024
 21
-1426.346215262502
 31
0.0
  0
LINE
  5
20DC5
330
1F
100
AcDbEntity
  8
中心線
 48
0.3
100
AcDbLine
 10
206.4235845243809
 20
-1427.096215262502
 30
0.0
 11
202.6039320965265
 21
-1427.096215262502
 31
0.0
  0
LINE
  5
20DC6
330
1F
100
AcDbEntity
  8
中心線
 48
0.3
100
AcDbLine
 10
206.4235845243809
 20
-1480.296215262502
 30
0.0
 11
202.6039320965265
 21
-1480.296215262502
 31
0.0
  0
LINE
  5
20DC7
330
1F
100
AcDbEntity
  8
中心線
 48
0.5
100
AcDbLine
 10
29.75985782600299
 20
-1461.752284344893
 30
0.0
 11
29.75985782600299
 21
-1445.640146180112
 31
0.0
  0
LINE
  5
20DC8
330
1F
100
AcDbEntity
  8
中心線
 48
0.5
100
AcDbLine
 10
21.70378874361234
 20
-1453.696215262502
 30
0.0
 11
37.81592690839364
 21
-1453.696215262502
 31
0.0
  0
MTEXT
  5
20DC9
330
1F
100
AcDbEntity
  8
0
 48
0.27
100
AcDbMText
 10
-87.24003119560952
 20
-1602.193898319878
 30
0.0
 40
5.0
 41
65.71349999999999
 71
     1
 72
     5
  1
\A1;RGW30CC\PC:3980 kgf\PC{\H0.7x;\S^ 0;}:8370 kgf
  7
型式2
 73
     1
 44
1.0
1001
ACAD
1000
MTEXTBEGIN
1070
    73
1070
     1
1070
    44
1040
1.0
1070
    74
1070
     0
1000
MTEXTEND
  0
LINE
  5
20DCA
330
1F
100
AcDbEntity
  8
0
  6
Continuous
 62
     7
100
AcDbLine
 10
94.85985782600222
 20
-1424.196215262503
 30
0.0
 11
114.2598578260023
 21
-1424.196215262503
 31
0.0
  0
LINE
  5
20DCB
330
1F
100
AcDbEntity
  8
0
  6
Continuous
 62
     7
100
AcDbLine
 10
94.85985782600222
 20
-1425.696215262503
 30
0.0
 11
114.2598578260023
 21
-1425.696215262503
 31
0.0
  0
LINE
  5
20DCC
330
1F
100
AcDbEntity
  8
0
  6
Continuous
 62
     7
100
AcDbLine
 10
94.85985782600222
 20
-1481.696215262503
 30
0.0
 11
114.2598578260023
 21
-1481.696215262503
 31
0.0
  0
LINE
  5
20DCD
330
1F
100
AcDbEntity
  8
0
  6
Continuous
 62
     7
100
AcDbLine
 10
94.85985782600222
 20
-1483.196215262503
 30
0.0
 11
114.2598578260023
 21
-1483.196215262503
 31
0.0
  0
LINE
  5
20DCE
330
1F
100
AcDbEntity
  8
0
  6
Continuous
 62
     7
100
AcDbLine
 10
94.85985782600222
 20
-1483.196215262503
 30
0.0
 11
94.85985782600222
 21
-1424.196215262503
 31
0.0
  0
LINE
  5
20DCF
330
1F
100
AcDbEntity
  8
0
  6
Continuous
 62
     7
100
AcDbLine
 10
94.0598578260022
 20
-1481.146215262502
 30
0.0
 11
94.0598578260022
 21
-1480.396215262502
 31
0.0
  0
ARC
  5
20DD0
330
1F
100
AcDbEntity
  8
0
  6
Continuous
 62
     7
100
AcDbCircle
 10
96.05985782600221
 20
-1479.646215262502
 30
0.0
 40
2.0
100
AcDbArc
 50
126.8698976458479
 51
180.0
  0
ARC
  5
20DD1
330
1F
100
AcDbEntity
  8
0
  6
Continuous
 62
     7
100
AcDbCircle
 10
96.05985782600221
 20
-1481.146215262502
 30
0.0
 40
2.0
100
AcDbArc
 50
180.0
 51
233.1301023541521
  0
LINE
  5
20DD2
330
1F
100
AcDbEntity
  8
0
  6
Continuous
 62
     7
100
AcDbLine
 10
94.0598578260022
 20
-1480.396215262502
 30
0.0
 11
94.0598578260022
 21
-1479.646215262502
 31
0.0
  0
LINE
  5
20DD3
330
1F
100
AcDbEntity
  8
0
  6
Continuous
 62
     7
100
AcDbLine
 10
94.0598578260022
 20
-1427.946215262503
 30
0.0
 11
94.0598578260022
 21
-1427.196215262502
 31
0.0
  0
ARC
  5
20DD4
330
1F
100
AcDbEntity
  8
0
  6
Continuous
 62
     7
100
AcDbCircle
 10
96.05985782600221
 20
-1426.446215262503
 30
0.0
 40
2.0
100
AcDbArc
 50
126.8698976458479
 51
180.0
  0
ARC
  5
20DD5
330
1F
100
AcDbEntity
  8
0
  6
Continuous
 62
     7
100
AcDbCircle
 10
96.05985782600221
 20
-1427.946215262503
 30
0.0
 40
2.0
100
AcDbArc
 50
180.0
 51
233.1301023541521
  0
LINE
  5
20DD6
330
1F
100
AcDbEntity
  8
0
  6
Continuous
 62
     7
100
AcDbLine
 10
94.0598578260022
 20
-1427.196215262503
 30
0.0
 11
94.0598578260022
 21
-1426.446215262503
 31
0.0
  0
LINE
  5
20DD7
330
1F
100
AcDbEntity
  8
中心線
 48
0.3
100
AcDbLine
 10
93.09613112762377
 20
-1427.196215262503
 30
0.0
 11
96.91578355547818
 21
-1427.196215262503
 31
0.0
  0
LINE
  5
20DD8
330
1F
100
AcDbEntity
  8
中心線
 48
0.3
100
AcDbLine
 10
93.09613112762377
 20
-1480.396215262502
 30
0.0
 11
96.91578355547818
 21
-1480.396215262502
 31
0.0
  0
ARC
  5
20DD9
330
1F
100
AcDbEntity
  8
0
  6
Continuous
100
AcDbCircle
 10
89.01673393149769
 20
-1461.944374692597
 30
0.0
 40
2.059673609817604
100
AcDbArc
 50
89.15209883495883
 51
159.1520988349398
  0
LINE
  5
20DDA
330
1F
100
AcDbEntity
  8
0
  6
Continuous
100
AcDbLine
 10
82.6572885510933
 20
-1459.37448030597
 30
0.0
 11
86.90713440064531
 21
-1461.134824094849
 31
0.0
  0
ARC
  5
20DDB
330
1F
100
AcDbEntity
  8
0
  6
Continuous
100
AcDbCircle
 10
83.8411460522426
 20
-1461.809604248393
 30
0.0
 40
2.860349020536762
100
AcDbArc
 50
118.5864858262528
 51
163.5864858262603
  0
ARC
  5
20DDC
330
1F
100
AcDbEntity
  8
0
  6
Continuous
100
AcDbCircle
 10
87.49880500351684
 20
-1453.696215262507
 30
0.0
 40
4.0
100
AcDbArc
 50
90.0
 51
210.8352048940846
  0
ARC
  5
20DDD
330
1F
100
AcDbEntity
  8
0
  6
Continuous
100
AcDbCircle
 10
99.06479780563552
 20
-1453.696215262507
 30
0.0
 40
7.96743397963368
100
AcDbArc
 50
163.2213499979088
 51
196.7786500020912
  0
LINE
  5
20DDE
330
1F
100
AcDbEntity
  8
0
  6
Continuous
100
AcDbLine
 10
91.09736382600216
 20
-1457.1462153621
 30
0.0
 11
91.09736382600216
 21
-1450.246215162914
 31
0.0
  0
LINE
  5
20DDF
330
1F
100
AcDbEntity
  8
0
  6
Continuous
100
AcDbLine
 10
91.43661636811122
 20
-1455.996215063321
 30
0.0
 11
94.85985782600222
 21
-1455.996215063321
 31
0.0
  0
LINE
  5
20DE0
330
1F
100
AcDbEntity
  8
0
  6
Continuous
100
AcDbLine
 10
91.43661636811122
 20
-1458.296215262507
 30
0.0
 11
94.85985782600222
 21
-1458.296215262507
 31
0.0
  0
ARC
  5
20DE1
330
1F
100
AcDbEntity
  8
0
  6
Continuous
100
AcDbCircle
 10
93.21637380304821
 20
-1457.1462153621
 30
0.0
 40
2.119009977045996
100
AcDbArc
 50
147.132779998942
 51
212.8672200010579
  0
ARC
  5
20DE2
330
1F
100
AcDbEntity
  8
0
  6
Continuous
100
AcDbCircle
 10
88.35035327860863
 20
-1459.528769995925
 30
0.0
 40
1.854133729915247
100
AcDbArc
 50
34.63277999893354
 51
100.3672200010583
  0
LINE
  5
20DE3
330
1F
100
AcDbEntity
  8
0
  6
Continuous
100
AcDbLine
 10
88.77125971427142
 20
-1457.696215262507
 30
0.0
 11
91.16998591401682
 21
-1457.696215262507
 31
0.0
  0
LINE
  5
20DE4
330
1F
100
AcDbEntity
  8
0
  6
Continuous
100
AcDbLine
 10
87.44457021245365
 20
-1459.086065108837
 30
0.0
 11
88.01664748096902
 21
-1457.704948408461
 31
0.0
  0
ARC
  5
20DE5
330
1F
100
AcDbEntity
  8
0
  6
Continuous
100
AcDbCircle
 10
88.97017245705558
 20
-1458.032394129099
 30
0.0
 40
1.854133729915247
100
AcDbArc
 50
214.6327799989335
 51
280.3672200010583
  0
LINE
  5
20DE6
330
1F
100
AcDbEntity
  8
0
  6
Continuous
100
AcDbLine
 10
89.30383568060699
 20
-1459.856258362439
 30
0.0
 11
89.87595557397265
 21
-1458.475038756572
 31
0.0
  0
LINE
  5
20DE7
330
1F
100
AcDbEntity
  8
0
  6
Continuous
100
AcDbLine
 10
91.43661636811122
 20
-1449.096215262507
 30
0.0
 11
94.85985782600222
 21
-1449.096215262507
 31
0.0
  0
LINE
  5
20DE8
330
1F
100
AcDbEntity
  8
0
  6
Continuous
100
AcDbLine
 10
91.43661636811122
 20
-1451.396215461693
 30
0.0
 11
94.85985782600222
 21
-1451.396215461693
 31
0.0
  0
LINE
  5
20DE9
330
1F
100
AcDbEntity
  8
0
  6
Continuous
100
AcDbLine
 10
87.49880500351684
 20
-1449.696215262507
 30
0.0
 11
91.16998591401682
 21
-1449.696215262507
 31
0.0
  0
ARC
  5
20DEA
330
1F
100
AcDbEntity
  8
0
  6
Continuous
100
AcDbCircle
 10
93.21637380304821
 20
-1450.246215162914
 30
0.0
 40
2.119009977045996
100
AcDbArc
 50
147.132779998942
 51
212.8672200010579
  0
ARC
  5
20DEB
330
1F
100
AcDbEntity
  8
0
  6
Continuous
100
AcDbCircle
 10
88.13954413760905
 20
-1452.149334155039
 30
0.0
 40
6.971504732179473
100
AcDbArc
 50
230.7213499979066
 51
264.2786500020816
  0
ARC
  5
20DEC
330
1F
100
AcDbEntity
  8
0
  6
Continuous
100
AcDbCircle
 10
83.60305875949746
 20
-1463.101378680383
 30
0.0
 40
6.971504732179473
100
AcDbArc
 50
50.72134999790662
 51
84.27865000208162
  0
LINE
  5
20DED
330
1F
100
AcDbEntity
  8
0
  6
Continuous
100
AcDbLine
 10
83.48197669987859
 20
-1455.505322502716
 30
0.0
 11
89.05989953843629
 21
-1457.815773792318
 31
0.0
  0
LINE
  5
20DEE
330
1F
100
AcDbEntity
  8
0
  6
Continuous
100
AcDbLine
 10
82.6827033586702
 20
-1457.434939043105
 30
0.0
 11
88.2606261972279
 21
-1459.745390332706
 31
0.0
  0
ARC
  5
20DEF
330
1F
100
AcDbEntity
  8
0
  6
Continuous
100
AcDbCircle
 10
80.59313769985839
 20
-1458.455206889497
 30
0.0
 40
2.059673609817605
100
AcDbArc
 50
335.8479011650651
 51
45.84790116506693
  0
ARC
  5
20DF0
330
1F
100
AcDbEntity
  8
0
  6
Continuous
100
AcDbCircle
 10
83.39224961849835
 20
-1455.721942839497
 30
0.0
 40
1.854133729915247
100
AcDbArc
 50
214.6327799989335
 51
280.3672200010583
  0
ARC
  5
20DF1
330
1F
100
AcDbEntity
  8
0
  6
Continuous
100
AcDbCircle
 10
82.77243044005047
 20
-1457.218318706324
 30
0.0
 40
1.854133729915247
100
AcDbArc
 50
34.63277999893354
 51
100.3672200010583
  0
LINE
  5
20DF2
330
1F
100
AcDbEntity
  8
0
  6
Continuous
100
AcDbLine
 10
81.86664769593756
 20
-1456.775613952629
 30
0.0
 11
82.43872496445295
 21
-1455.394497252254
 31
0.0
  0
LINE
  5
20DF3
330
1F
100
AcDbEntity
  8
0
  6
Continuous
100
AcDbLine
 10
83.72595541613703
 20
-1457.545764426961
 30
0.0
 11
84.29803268465287
 21
-1456.164647726586
 31
0.0
  0
ARC
  5
20DF4
330
1F
100
AcDbEntity
  8
0
  6
Continuous
100
AcDbCircle
 10
84.34812808090702
 20
-1462.019603080545
 30
0.0
 40
2.860349020536762
100
AcDbArc
 50
331.41351417373
 51
16.41351417373966
  0
LINE
  5
20DF5
330
1F
100
AcDbEntity
  8
0
  6
Continuous
100
AcDbLine
 10
84.71584380426941
 20
-1465.53218139373
 30
0.0
 11
86.85978870980273
 21
-1463.388236488196
 31
0.0
  0
LINE
  5
20DF6
330
1F
100
AcDbEntity
  8
0
  6
Continuous
100
AcDbLine
 10
81.09736382600216
 20
-1464.033357911556
 30
0.0
 11
81.09736382600216
 21
-1461.00136194917
 31
0.0
  0
LINE
  5
20DF7
330
1F
100
AcDbEntity
  8
0
  6
Continuous
100
AcDbLine
 10
81.09736382600216
 20
-1464.033357911556
 30
0.0
 11
84.71584380426941
 21
-1465.53218139373
 31
0.0
  0
LINE
  5
20DF8
330
1F
100
AcDbEntity
  8
0
  6
Continuous
100
AcDbLine
 10
81.09736382600216
 20
-1461.00136194917
 30
0.0
 11
86.85978870980273
 21
-1463.388236488196
 31
0.0
  0
LINE
  5
20DF9
330
1F
100
AcDbEntity
  8
中心線
 48
0.2
100
AcDbLine
 10
189.7598578260025
 20
-1584.816285686927
 30
0.0
 11
189.7598578260023
 21
-1592.621319954536
 31
0.0
  0
LINE
  5
20DFA
330
1F
100
AcDbEntity
  8
中心線
 48
0.2
100
AcDbLine
 10
269.7598578260025
 20
-1584.816285686929
 30
0.0
 11
269.7598578260023
 21
-1592.621319954537
 31
0.0
  0
LINE
  5
20DFB
330
1F
100
AcDbEntity
  8
中心線
 48
0.2
100
AcDbLine
 10
269.7598578260026
 20
-1560.633747539283
 30
0.0
 11
269.7598578260024
 21
-1592.621319954528
 31
0.0
  0
LINE
  5
20DFC
330
1F
100
AcDbEntity
  8
虛線
 48
0.3
100
AcDbLine
 10
274.2598578260013
 20
-1590.316285686918
 30
0.0
 11
274.2598578260013
 21
-1575.11628568692
 31
0.0
  0
LINE
  5
20DFD
330
1F
100
AcDbEntity
  8
虛線
 48
0.3
100
AcDbLine
 10
276.7598578260013
 20
-1574.816285686919
 30
0.0
 11
276.7598578260013
 21
-1563.216285686919
 31
0.0
  0
LINE
  5
20DFE
330
1F
100
AcDbEntity
  8
虛線
 48
0.3
100
AcDbLine
 10
274.5598578260013
 20
-1574.816285686919
 30
0.0
 11
274.2598578260013
 21
-1575.11628568692
 31
0.0
  0
LINE
  5
20DFF
330
1F
100
AcDbEntity
  8
虛線
 48
0.3
100
AcDbLine
 10
264.9598578260014
 20
-1574.816285686919
 30
0.0
 11
265.2598578260013
 21
-1575.11628568692
 31
0.0
  0
LINE
  5
20E00
330
1F
100
AcDbEntity
  8
虛線
 48
0.3
100
AcDbLine
 10
274.2598578260013
 20
-1575.11628568692
 30
0.0
 11
265.2598578260013
 21
-1575.11628568692
 31
0.0
  0
LINE
  5
20E01
330
1F
100
AcDbEntity
  8
虛線
 48
0.3
100
AcDbLine
 10
276.7598578260013
 20
-1574.816285686919
 30
0.0
 11
262.7598578260013
 21
-1574.816285686919
 31
0.0
  0
LINE
  5
20E02
330
1F
100
AcDbEntity
  8
虛線
 48
0.3
100
AcDbLine
 10
276.990797933677
 20
-1562.816285686919
 30
0.0
 11
276.7598578260013
 21
-1563.216285686919
 31
0.0
  0
LINE
  5
20E03
330
1F
100
AcDbEntity
  8
虛線
 48
0.3
100
AcDbLine
 10
276.7598578260013
 20
-1563.216285686919
 30
0.0
 11
262.7598578260013
 21
-1563.216285686919
 31
0.0
  0
LINE
  5
20E04
330
1F
100
AcDbEntity
  8
虛線
 48
0.3
100
AcDbLine
 10
265.2598578260012
 20
-1590.31628568692
 30
0.0
 11
265.2598578260013
 21
-1575.11628568692
 31
0.0
  0
LINE
  5
20E05
330
1F
100
AcDbEntity
  8
虛線
 48
0.3
100
AcDbLine
 10
262.7598578260013
 20
-1574.816285686919
 30
0.0
 11
262.7598578260013
 21
-1563.216285686919
 31
0.0
  0
LINE
  5
20E06
330
1F
100
AcDbEntity
  8
虛線
 48
0.3
100
AcDbLine
 10
264.9598578260014
 20
-1574.816285686919
 30
0.0
 11
265.2598578260013
 21
-1575.11628568692
 31
0.0
  0
LINE
  5
20E07
330
1F
100
AcDbEntity
  8
虛線
 48
0.3
100
AcDbLine
 10
262.5289177183254
 20
-1562.816285686919
 30
0.0
 11
262.7598578260013
 21
-1563.216285686919
 31
0.0
  0
LINE
  5
20E08
330
1F
100
AcDbEntity
  8
虛線
 48
0.3
100
AcDbLine
 10
274.2598578260023
 20
-1590.316285686919
 30
0.0
 11
265.2598578260024
 21
-1590.316285686919
 31
0.0
  0
LINE
  5
20E09
330
1F
100
AcDbEntity
  8
虛線
 48
0.3
100
AcDbLine
 10
274.7598578260026
 20
-1590.816285686919
 30
0.0
 11
274.2598578260023
 21
-1590.316285686919
 31
0.0
  0
LINE
  5
20E0A
330
1F
100
AcDbEntity
  8
虛線
 48
0.3
100
AcDbLine
 10
264.7598578260022
 20
-1590.816285686919
 30
0.0
 11
265.2598578260024
 21
-1590.316285686919
 31
0.0
  0
LINE
  5
20E0B
330
1F
100
AcDbEntity
  8
中心線
 48
0.2
100
AcDbLine
 10
189.7598578260025
 20
-1584.816285686929
 30
0.0
 11
189.7598578260023
 21
-1592.621319954537
 31
0.0
  0
LINE
  5
20E0C
330
1F
100
AcDbEntity
  8
中心線
 48
0.2
100
AcDbLine
 10
189.7598578260024
 20
-1584.816285686926
 30
0.0
 11
189.7598578260023
 21
-1592.621319954528
 31
0.0
  0
LINE
  5
20E0D
330
1F
100
AcDbEntity
  8
虛線
 48
0.3
100
AcDbLine
 10
194.2598578260013
 20
-1590.316285686918
 30
0.0
 11
194.2598578260013
 21
-1584.816285686926
 31
0.0
  0
LINE
  5
20E0E
330
1F
100
AcDbEntity
  8
虛線
 48
0.3
100
AcDbLine
 10
185.2598578260012
 20
-1590.31628568692
 30
0.0
 11
185.2598578260012
 21
-1584.816285686926
 31
0.0
  0
LINE
  5
20E0F
330
1F
100
AcDbEntity
  8
虛線
 48
0.3
100
AcDbLine
 10
194.2598578260023
 20
-1590.316285686919
 30
0.0
 11
185.2598578260023
 21
-1590.316285686919
 31
0.0
  0
LINE
  5
20E10
330
1F
100
AcDbEntity
  8
虛線
 48
0.3
100
AcDbLine
 10
194.7598578260026
 20
-1590.816285686919
 30
0.0
 11
194.2598578260023
 21
-1590.316285686919
 31
0.0
  0
LINE
  5
20E11
330
1F
100
AcDbEntity
  8
虛線
 48
0.3
100
AcDbLine
 10
184.7598578260022
 20
-1590.816285686919
 30
0.0
 11
185.2598578260023
 21
-1590.316285686919
 31
0.0
  0
CIRCLE
  5
20E12
330
1F
100
AcDbEntity
  8
0
 48
0.27
100
AcDbCircle
 10
229.7598578260026
 20
-1453.696215262502
 30
0.0
 40
4.499999999998863
  0
CIRCLE
  5
20E13
330
1F
100
AcDbEntity
  8
0
 48
0.27
100
AcDbCircle
 10
229.7598578260026
 20
-1453.696215262502
 30
0.0
 40
6.999999999998863
  0
LINE
  5
20E14
330
1F
100
AcDbEntity
  8
中心線
 48
0.5
100
AcDbLine
 10
229.7598578260026
 20
-1461.752284344893
 30
0.0
 11
229.7598578260026
 21
-1445.640146180112
 31
0.0
  0
LINE
  5
20E15
330
1F
100
AcDbEntity
  8
中心線
 48
0.5
100
AcDbLine
 10
221.703788743612
 20
-1453.696215262502
 30
0.0
 11
237.8159269083933
 21
-1453.696215262502
 31
0.0
  0
LINE
  5
20E16
330
1F
100
AcDbEntity
  8
0
  6
Continuous
 62
     7
100
AcDbLine
 10
289.7598578260025
 20
-1563.316285687047
 30
0.0
 11
204.6598578260022
 21
-1563.316285687047
 31
0.0
  0
LINE
  5
20E17
330
1F
100
AcDbEntity
  8
0
  6
Continuous
 62
     7
100
AcDbLine
 10
289.7598578260025
 20
-1565.216507894143
 30
0.0
 11
204.6598578260022
 21
-1565.216507894142
 31
0.0
  0
LINE
  5
20E18
330
1F
100
AcDbEntity
  8
0
  6
Continuous
 62
     7
100
AcDbLine
 10
289.7598578260025
 20
-1570.716507899202
 30
0.0
 11
204.6598578260022
 21
-1570.716507899202
 31
0.0
  0
LINE
  5
20E19
330
1F
100
AcDbEntity
  8
0
  6
Continuous
 62
     7
100
AcDbLine
 10
289.7598578260025
 20
-1577.316063474338
 30
0.0
 11
204.6598578260022
 21
-1577.316063474338
 31
0.0
  0
LINE
  5
20E1A
330
1F
100
AcDbEntity
  8
0
  6
Continuous
 62
     7
100
AcDbLine
 10
289.7598578260024
 20
-1582.816063479848
 30
0.0
 11
204.6598578260022
 21
-1582.816063479848
 31
0.0
  0
LINE
  5
20E1B
330
1F
100
AcDbEntity
  8
0
  6
Continuous
 62
     7
100
AcDbLine
 10
289.7598578260023
 20
-1589.316285683026
 30
0.0
 11
47.63589162921903
 21
-1589.316285683026
 31
0.0
  0
LINE
  5
20E1C
330
1F
100
AcDbEntity
  8
0
  6
Continuous
 62
     7
100
AcDbLine
 10
94.85985782600208
 20
-1563.316285687047
 30
0.0
 11
48.12232876936008
 21
-1563.316285687047
 31
0.0
  0
LINE
  5
20E1D
330
1F
100
AcDbEntity
  8
0
  6
Continuous
 62
     7
100
AcDbLine
 10
94.85985782600204
 20
-1565.216507894143
 30
0.0
 11
47.43827438428747
 21
-1565.216507894142
 31
0.0
  0
LINE
  5
20E1E
330
1F
100
AcDbEntity
  8
0
  6
Continuous
 62
     7
100
AcDbLine
 10
94.85985782600199
 20
-1570.716507899202
 30
0.0
 11
47.42373247964559
 21
-1570.716507899202
 31
0.0
  0
LINE
  5
20E1F
330
1F
100
AcDbEntity
  8
0
  6
Continuous
 62
     7
100
AcDbLine
 10
94.85985782600195
 20
-1577.316063474338
 30
0.0
 11
47.70795769426683
 21
-1577.316063474338
 31
0.0
  0
LINE
  5
20E20
330
1F
100
AcDbEntity
  8
0
  6
Continuous
 62
     7
100
AcDbLine
 10
94.8598578260019
 20
-1582.816063479848
 30
0.0
 11
47.14478192937955
 21
-1582.816063479848
 31
0.0
  0
LINE
  5
20E21
330
1F
100
AcDbEntity
  8
0
  6
Continuous
 62
     7
100
AcDbLine
 10
289.7598578260025
 20
-1562.816285686926
 30
0.0
 11
289.7598578260023
 21
-1590.816285686925
 31
0.0
  0
LINE
  5
20E22
330
1F
100
AcDbEntity
  8
虛線
 48
0.2
100
AcDbLine
 10
74.25985782600145
 20
-1590.316285686926
 30
0.0
 11
74.25985782600145
 21
-1575.116285686926
 31
0.0
  0
LINE
  5
20E23
330
1F
100
AcDbEntity
  8
虛線
 48
0.2
100
AcDbLine
 10
65.25985782600122
 20
-1590.316285686928
 30
0.0
 11
65.25985782600145
 21
-1575.116285686928
 31
0.0
  0
LINE
  5
20E24
330
1F
100
AcDbEntity
  8
虛線
 48
0.2
100
AcDbLine
 10
62.75985782600122
 20
-1574.816285686926
 30
0.0
 11
62.75985782600122
 21
-1563.216285686926
 31
0.0
  0
LINE
  5
20E25
330
1F
100
AcDbEntity
  8
虛線
 48
0.2
100
AcDbLine
 10
76.75985782600122
 20
-1574.816285686926
 30
0.0
 11
76.75985782600122
 21
-1563.216285686926
 31
0.0
  0
LINE
  5
20E26
330
1F
100
AcDbEntity
  8
虛線
 48
0.2
100
AcDbLine
 10
74.55985782600118
 20
-1574.816285686926
 30
0.0
 11
74.25985782600122
 21
-1575.116285686926
 31
0.0
  0
LINE
  5
20E27
330
1F
100
AcDbEntity
  8
虛線
 48
0.2
100
AcDbLine
 10
64.95985782600127
 20
-1574.816285686926
 30
0.0
 11
65.25985782600122
 21
-1575.116285686926
 31
0.0
  0
LINE
  5
20E28
330
1F
100
AcDbEntity
  8
虛線
 48
0.2
100
AcDbLine
 10
74.25985782600145
 20
-1575.116285686926
 30
0.0
 11
65.25985782600122
 21
-1575.116285686926
 31
0.0
  0
LINE
  5
20E29
330
1F
100
AcDbEntity
  8
虛線
 48
0.2
100
AcDbLine
 10
76.75985782600122
 20
-1574.816285686926
 30
0.0
 11
62.75985782600122
 21
-1574.816285686926
 31
0.0
  0
LINE
  5
20E2A
330
1F
100
AcDbEntity
  8
虛線
 48
0.2
100
AcDbLine
 10
76.9907979336769
 20
-1562.816285686926
 30
0.0
 11
76.75985782600122
 21
-1563.216285686926
 31
0.0
  0
LINE
  5
20E2B
330
1F
100
AcDbEntity
  8
虛線
 48
0.2
100
AcDbLine
 10
62.75985782600122
 20
-1563.216285686926
 30
0.0
 11
62.52891771832532
 21
-1562.816285686926
 31
0.0
  0
LINE
  5
20E2C
330
1F
100
AcDbEntity
  8
虛線
 48
0.2
100
AcDbLine
 10
76.75985782600122
 20
-1563.216285686926
 30
0.0
 11
62.75985782600122
 21
-1563.216285686926
 31
0.0
  0
LINE
  5
20E2D
330
1F
100
AcDbEntity
  8
虛線
 48
0.2
100
AcDbLine
 10
62.75985782600122
 20
-1574.816285686926
 30
0.0
 11
62.75985782600122
 21
-1563.216285686926
 31
0.0
  0
LINE
  5
20E2E
330
1F
100
AcDbEntity
  8
虛線
 48
0.2
100
AcDbLine
 10
64.95985782600127
 20
-1574.816285686926
 30
0.0
 11
65.25985782600122
 21
-1575.116285686926
 31
0.0
  0
LINE
  5
20E2F
330
1F
100
AcDbEntity
  8
虛線
 48
0.2
100
AcDbLine
 10
62.52891771832532
 20
-1562.816285686926
 30
0.0
 11
62.75985782600122
 21
-1563.216285686926
 31
0.0
  0
LINE
  5
20E30
330
1F
100
AcDbEntity
  8
中心線
 48
0.2
100
AcDbLine
 10
69.75985782600275
 20
-1560.633747539289
 30
0.0
 11
69.75985782600253
 21
-1592.621319954534
 31
0.0
  0
LINE
  5
20E31
330
1F
100
AcDbEntity
  8
中心線
 48
0.2
100
AcDbLine
 10
229.7598578260025
 20
-1584.816285686929
 30
0.0
 11
229.7598578260023
 21
-1592.621319954537
 31
0.0
  0
LINE
  5
20E32
330
1F
100
AcDbEntity
  8
中心線
 48
0.2
100
AcDbLine
 10
229.7598578260026
 20
-1560.633747539283
 30
0.0
 11
229.7598578260024
 21
-1592.621319954528
 31
0.0
  0
LINE
  5
20E33
330
1F
100
AcDbEntity
  8
虛線
 48
0.3
100
AcDbLine
 10
234.2598578260013
 20
-1590.316285686918
 30
0.0
 11
234.2598578260013
 21
-1575.11628568692
 31
0.0
  0
LINE
  5
20E34
330
1F
100
AcDbEntity
  8
虛線
 48
0.3
100
AcDbLine
 10
236.7598578260013
 20
-1574.816285686919
 30
0.0
 11
236.7598578260013
 21
-1563.216285686919
 31
0.0
  0
LINE
  5
20E35
330
1F
100
AcDbEntity
  8
虛線
 48
0.3
100
AcDbLine
 10
234.5598578260013
 20
-1574.816285686919
 30
0.0
 11
234.2598578260013
 21
-1575.11628568692
 31
0.0
  0
LINE
  5
20E36
330
1F
100
AcDbEntity
  8
虛線
 48
0.3
100
AcDbLine
 10
224.9598578260014
 20
-1574.816285686919
 30
0.0
 11
225.2598578260013
 21
-1575.11628568692
 31
0.0
  0
LINE
  5
20E37
330
1F
100
AcDbEntity
  8
虛線
 48
0.3
100
AcDbLine
 10
234.2598578260013
 20
-1575.11628568692
 30
0.0
 11
225.2598578260013
 21
-1575.11628568692
 31
0.0
  0
LINE
  5
20E38
330
1F
100
AcDbEntity
  8
虛線
 48
0.3
100
AcDbLine
 10
236.7598578260013
 20
-1574.816285686919
 30
0.0
 11
222.7598578260014
 21
-1574.816285686919
 31
0.0
  0
LINE
  5
20E39
330
1F
100
AcDbEntity
  8
虛線
 48
0.3
100
AcDbLine
 10
236.990797933677
 20
-1562.816285686919
 30
0.0
 11
236.7598578260013
 21
-1563.216285686919
 31
0.0
  0
LINE
  5
20E3A
330
1F
100
AcDbEntity
  8
虛線
 48
0.3
100
AcDbLine
 10
236.7598578260013
 20
-1563.216285686919
 30
0.0
 11
222.7598578260014
 21
-1563.216285686919
 31
0.0
  0
LINE
  5
20E3B
330
1F
100
AcDbEntity
  8
虛線
 48
0.3
100
AcDbLine
 10
225.2598578260012
 20
-1590.31628568692
 30
0.0
 11
225.2598578260013
 21
-1575.11628568692
 31
0.0
  0
LINE
  5
20E3C
330
1F
100
AcDbEntity
  8
虛線
 48
0.3
100
AcDbLine
 10
222.7598578260014
 20
-1574.816285686919
 30
0.0
 11
222.7598578260014
 21
-1563.216285686919
 31
0.0
  0
LINE
  5
20E3D
330
1F
100
AcDbEntity
  8
虛線
 48
0.3
100
AcDbLine
 10
224.9598578260014
 20
-1574.816285686919
 30
0.0
 11
225.2598578260013
 21
-1575.11628568692
 31
0.0
  0
LINE
  5
20E3E
330
1F
100
AcDbEntity
  8
虛線
 48
0.3
100
AcDbLine
 10
222.5289177183254
 20
-1562.816285686919
 30
0.0
 11
222.7598578260014
 21
-1563.216285686919
 31
0.0
  0
LINE
  5
20E3F
330
1F
100
AcDbEntity
  8
虛線
 48
0.3
100
AcDbLine
 10
234.2598578260024
 20
-1590.316285686919
 30
0.0
 11
225.2598578260024
 21
-1590.316285686919
 31
0.0
  0
LINE
  5
20E40
330
1F
100
AcDbEntity
  8
虛線
 48
0.3
100
AcDbLine
 10
234.7598578260026
 20
-1590.816285686919
 30
0.0
 11
234.2598578260024
 21
-1590.316285686919
 31
0.0
  0
LINE
  5
20E41
330
1F
100
AcDbEntity
  8
虛線
 48
0.3
100
AcDbLine
 10
224.7598578260022
 20
-1590.816285686919
 30
0.0
 11
225.2598578260024
 21
-1590.316285686919
 31
0.0
  0
LINE
  5
20E43
330
1F
100
AcDbEntity
  8
0
 48
0.27
100
AcDbLine
 10
289.7598578260025
 20
-1467.696215266504
 30
0.0
 11
289.7598578260025
 21
-1439.696215258602
 31
0.0
  0
CIRCLE
  5
20E44
330
1F
100
AcDbEntity
  8
0
 48
0.27
100
AcDbCircle
 10
269.7598578260026
 20
-1453.696215262502
 30
0.0
 40
4.499999999998863
  0
CIRCLE
  5
20E45
330
1F
100
AcDbEntity
  8
0
 48
0.27
100
AcDbCircle
 10
269.7598578260026
 20
-1453.696215262502
 30
0.0
 40
6.999999999998863
  0
LINE
  5
20E46
330
1F
100
AcDbEntity
  8
中心線
 48
0.5
100
AcDbLine
 10
269.7598578260026
 20
-1461.752284344893
 30
0.0
 11
269.7598578260026
 21
-1445.640146180112
 31
0.0
  0
LINE
  5
20E47
330
1F
100
AcDbEntity
  8
中心線
 48
0.5
100
AcDbLine
 10
261.7037887436119
 20
-1453.696215262502
 30
0.0
 11
277.8159269083932
 21
-1453.696215262502
 31
0.0
  0
CIRCLE
  5
20E48
330
1F
100
AcDbEntity
  8
0
 48
0.27
100
AcDbCircle
 10
69.75985782600275
 20
-1453.696215262502
 30
0.0
 40
4.499999999998863
  0
CIRCLE
  5
20E49
330
1F
100
AcDbEntity
  8
0
 48
0.27
100
AcDbCircle
 10
69.75985782600275
 20
-1453.696215262502
 30
0.0
 40
6.999999999998863
  0
LINE
  5
20E4A
330
1F
100
AcDbEntity
  8
中心線
 48
0.5
100
AcDbLine
 10
69.75985782600275
 20
-1461.752284344893
 30
0.0
 11
69.75985782600275
 21
-1445.640146180112
 31
0.0
  0
LINE
  5
20E4B
330
1F
100
AcDbEntity
  8
中心線
 48
0.5
100
AcDbLine
 10
61.70378874361211
 20
-1453.696215262502
 30
0.0
 11
77.81592690839341
 21
-1453.696215262502
 31
0.0
  0
LINE
  5
20E4C
330
1F
100
AcDbEntity
  8
中心線
 48
0.27
100
AcDbLine
 10
189.6598578260024
 20
-1556.116285686926
 30
0.0
 11
196.8598578260022
 21
-1556.116285686926
 31
0.0
  0
LINE
  5
20E4D
330
1F
100
AcDbEntity
  8
中心線
 48
0.27
100
AcDbLine
 10
193.2598578260023
 20
-1559.716285686926
 30
0.0
 11
193.2598578260023
 21
-1552.516285686926
 31
0.0
  0
LINE
  5
20E4E
330
1F
100
AcDbEntity
  8
中心線
 48
0.27
100
AcDbLine
 10
102.6598578260024
 20
-1556.116285686926
 30
0.0
 11
109.8598578260022
 21
-1556.116285686926
 31
0.0
  0
LINE
  5
20E4F
330
1F
100
AcDbEntity
  8
中心線
 48
0.27
100
AcDbLine
 10
106.2598578260023
 20
-1559.716285686926
 30
0.0
 11
106.2598578260023
 21
-1552.516285686926
 31
0.0
  0
LINE
  5
20E50
330
1F
100
AcDbEntity
  8
中心線
 48
0.5
100
AcDbLine
 10
149.7598578260023
 20
-1403.696215262503
 30
0.0
 11
149.7598578260023
 21
-1503.696215262501
 31
0.0
  0
LINE
  5
20E51
330
1F
100
AcDbEntity
  8
中心線
 48
0.5
100
AcDbLine
 10
190.2598578260023
 20
-1453.696215262502
 30
0.0
 11
109.2598578260023
 21
-1453.696215262502
 31
0.0
  0
LINE
  5
20E52
330
1F
100
AcDbEntity
  8
0
  6
Continuous
 62
     7
100
AcDbLine
 10
114.2598578260023
 20
-1548.816285686926
 30
0.0
 11
114.2598578260023
 21
-1584.816285686926
 31
0.0
  0
LINE
  5
20E53
330
1F
100
AcDbEntity
  8
0
 48
0.27
100
AcDbLine
 10
114.2598578260023
 20
-1548.816285686926
 30
0.0
 11
185.2598578260023
 21
-1548.816285686925
 31
0.0
  0
LINE
  5
20E54
330
1F
100
AcDbEntity
  8
0
 48
0.27
100
AcDbLine
 10
114.2598578260023
 20
-1550.316285686926
 30
0.0
 11
185.2598578260021
 21
-1550.316285686926
 31
0.0
  0
LINE
  5
20E55
330
1F
100
AcDbEntity
  8
0
 48
0.27
100
AcDbLine
 10
114.2598578260023
 20
-1569.316285686926
 30
0.0
 11
116.7598578260032
 21
-1569.316285686926
 31
0.0
  0
LINE
  5
20E56
330
1F
100
AcDbEntity
  8
0
 48
0.27
100
AcDbLine
 10
116.7598578260032
 20
-1558.816285686928
 30
0.0
 11
130.7598578260039
 21
-1558.816285686928
 31
0.0
  0
LINE
  5
20E57
330
1F
100
AcDbEntity
  8
0
 48
0.27
100
AcDbLine
 10
114.2598578260023
 20
-1584.816285686927
 30
0.0
 11
185.2598578260023
 21
-1584.816285686926
 31
0.0
  0
LINE
  5
20E58
330
1F
100
AcDbEntity
  8
0
 48
0.27
100
AcDbLine
 10
130.7598578260028
 20
-1581.355179252732
 30
0.0
 11
130.7598578260039
 21
-1558.816285686928
 31
0.0
  0
LINE
  5
20E59
330
1F
100
AcDbEntity
  8
0
 48
0.27
100
AcDbLine
 10
116.7598578260031
 20
-1581.355179236751
 30
0.0
 11
116.7598578260032
 21
-1558.816285686928
 31
0.0
  0
LINE
  5
20E5A
330
1F
100
AcDbEntity
  8
0
 48
0.27
100
AcDbLine
 10
130.7598578260034
 20
-1569.316285686926
 30
0.0
 11
168.7598578260059
 21
-1569.316285686926
 31
0.0
  0
LINE
  5
20E5B
330
1F
100
AcDbEntity
  8
0
 48
0.27
100
AcDbLine
 10
185.2598578260023
 20
-1548.816285686925
 30
0.0
 11
185.2598578260023
 21
-1584.816285686926
 31
0.0
  0
LINE
  5
20E5C
330
1F
100
AcDbEntity
  8
虛線
 48
0.2
100
AcDbLine
 10
185.2598578260023
 20
-1560.816285686926
 30
0.0
 11
114.2598578260024
 21
-1560.816285686926
 31
0.0
  0
LINE
  5
20E5D
330
1F
100
AcDbEntity
  8
0
 48
0.27
100
AcDbLine
 10
182.7598578260018
 20
-1569.316285686926
 30
0.0
 11
185.2598578260027
 21
-1569.316285686926
 31
0.0
  0
LINE
  5
20E5E
330
1F
100
AcDbEntity
  8
中心線
 48
0.5
100
AcDbLine
 10
175.7598578260018
 20
-1563.077441417948
 30
0.0
 11
175.7598578260018
 21
-1547.051885980885
 31
0.0
  0
LINE
  5
20E5F
330
1F
100
AcDbEntity
  8
中心線
 48
0.5
100
AcDbLine
 10
123.7598578260032
 20
-1563.077441417949
 30
0.0
 11
123.7598578260027
 21
-1547.051885980886
 31
0.0
  0
LINE
  5
20E60
330
1F
100
AcDbEntity
  8
虛線
 48
0.2
100
AcDbLine
 10
119.5098578260083
 20
-1558.816285686928
 30
0.0
 11
119.5098578260073
 21
-1550.116285686933
 31
0.0
  0
LINE
  5
20E61
330
1F
100
AcDbEntity
  8
虛線
 48
0.2
100
AcDbLine
 10
118.7598578260082
 20
-1558.816285686928
 30
0.0
 11
118.7598578260064
 21
-1549.366285686933
 31
0.0
  0
LINE
  5
20E62
330
1F
100
AcDbEntity
  8
虛線
 48
0.2
100
AcDbLine
 10
128.7598578260092
 20
-1558.816285686928
 30
0.0
 11
128.7598578260064
 21
-1549.366285686932
 31
0.0
  0
LINE
  5
20E63
330
1F
100
AcDbEntity
  8
虛線
 48
0.2
100
AcDbLine
 10
128.0098578260094
 20
-1558.816285686928
 30
0.0
 11
128.0098578260064
 21
-1550.116285686932
 31
0.0
  0
LINE
  5
20E64
330
1F
100
AcDbEntity
  8
虛線
 48
0.2
100
AcDbLine
 10
119.5098578260073
 20
-1550.116285686933
 30
0.0
 11
118.2098578259989
 21
-1548.816285686925
 31
0.0
  0
LINE
  5
20E65
330
1F
100
AcDbEntity
  8
虛線
 48
0.2
100
AcDbLine
 10
128.0098578260073
 20
-1550.116285686932
 30
0.0
 11
129.3098578260147
 21
-1548.816285686926
 31
0.0
  0
LINE
  5
20E66
330
1F
100
AcDbEntity
  8
虛線
 48
0.2
100
AcDbLine
 10
119.5098578260073
 20
-1550.116285686933
 30
0.0
 11
128.0098578260073
 21
-1550.116285686932
 31
0.0
  0
LINE
  5
20E67
330
1F
100
AcDbEntity
  8
虛線
 48
0.2
100
AcDbLine
 10
171.5098578260074
 20
-1558.816285686928
 30
0.0
 11
171.5098578260064
 21
-1550.116285686933
 31
0.0
  0
LINE
  5
20E68
330
1F
100
AcDbEntity
  8
虛線
 48
0.2
100
AcDbLine
 10
170.7598578260073
 20
-1558.816285686928
 30
0.0
 11
170.7598578260055
 21
-1549.366285686933
 31
0.0
  0
LINE
  5
20E69
330
1F
100
AcDbEntity
  8
虛線
 48
0.2
100
AcDbLine
 10
180.7598578260083
 20
-1558.816285686928
 30
0.0
 11
180.7598578260055
 21
-1549.366285686932
 31
0.0
  0
LINE
  5
20E6A
330
1F
100
AcDbEntity
  8
虛線
 48
0.2
100
AcDbLine
 10
180.0098578260086
 20
-1558.816285686928
 30
0.0
 11
180.0098578260055
 21
-1550.116285686932
 31
0.0
  0
LINE
  5
20E6B
330
1F
100
AcDbEntity
  8
虛線
 48
0.2
100
AcDbLine
 10
171.5098578260064
 20
-1550.116285686933
 30
0.0
 11
170.209857825998
 21
-1548.816285686925
 31
0.0
  0
LINE
  5
20E6C
330
1F
100
AcDbEntity
  8
虛線
 48
0.2
100
AcDbLine
 10
180.0098578260064
 20
-1550.116285686932
 30
0.0
 11
181.3098578260138
 21
-1548.816285686926
 31
0.0
  0
LINE
  5
20E6D
330
1F
100
AcDbEntity
  8
虛線
 48
0.2
100
AcDbLine
 10
171.5098578260064
 20
-1550.116285686933
 30
0.0
 11
180.0098578260064
 21
-1550.116285686932
 31
0.0
  0
LINE
  5
20E6E
330
1F
100
AcDbEntity
  8
中心線
 48
0.5
100
AcDbLine
 10
171.7598578260023
 20
-1547.136642343451
 30
0.0
 11
171.7598578260023
 21
-1563.253633072199
 31
0.0
  0
LINE
  5
20E6F
330
1F
100
AcDbEntity
  8
中心線
 48
0.5
100
AcDbLine
 10
127.7598578260018
 20
-1547.136642343451
 30
0.0
 11
127.7598578260023
 21
-1563.142531602933
 31
0.0
  0
LINE
  5
20E70
330
1F
100
AcDbEntity
  8
虛線
 48
0.2
100
AcDbLine
 10
127.7598578260009
 20
-1554.316285686926
 30
0.0
 11
134.7598578260018
 21
-1554.316285686926
 31
0.0
  0
LINE
  5
20E71
330
1F
100
AcDbEntity
  8
虛線
 48
0.2
100
AcDbLine
 10
132.7598578260009
 20
-1554.316285686926
 30
0.0
 11
132.7598578260009
 21
-1549.366285686937
 31
0.0
  0
LINE
  5
20E72
330
1F
100
AcDbEntity
  8
虛線
 48
0.2
100
AcDbLine
 10
134.7598578260028
 20
-1560.816285686926
 30
0.0
 11
134.7598578260018
 21
-1554.316285686926
 31
0.0
  0
LINE
  5
20E73
330
1F
100
AcDbEntity
  8
虛線
 48
0.2
100
AcDbLine
 10
127.7598578260027
 20
-1554.316285686926
 30
0.0
 11
120.7598578260027
 21
-1554.316285686926
 31
0.0
  0
LINE
  5
20E74
330
1F
100
AcDbEntity
  8
虛線
 48
0.2
100
AcDbLine
 10
120.7598578260027
 20
-1560.816285686926
 30
0.0
 11
120.7598578260027
 21
-1554.316285686926
 31
0.0
  0
LINE
  5
20E75
330
1F
100
AcDbEntity
  8
虛線
 48
0.2
100
AcDbLine
 10
132.0098578260064
 20
-1550.116285686931
 30
0.0
 11
133.3098578260138
 21
-1548.816285686925
 31
0.0
  0
LINE
  5
20E76
330
1F
100
AcDbEntity
  8
虛線
 48
0.2
100
AcDbLine
 10
123.5098578260064
 20
-1550.116285686932
 30
0.0
 11
132.0098578260064
 21
-1550.116285686931
 31
0.0
  0
LINE
  5
20E77
330
1F
100
AcDbEntity
  8
虛線
 48
0.2
100
AcDbLine
 10
132.0098578260064
 20
-1550.116285686931
 30
0.0
 11
132.009857825998
 21
-1554.316285686926
 31
0.0
  0
LINE
  5
20E78
330
1F
100
AcDbEntity
  8
虛線
 48
0.2
100
AcDbLine
 10
122.7598578260046
 20
-1554.316285686926
 30
0.0
 11
122.7598578260046
 21
-1549.366285686937
 31
0.0
  0
LINE
  5
20E79
330
1F
100
AcDbEntity
  8
虛線
 48
0.2
100
AcDbLine
 10
123.5098578259991
 20
-1550.116285686931
 30
0.0
 11
122.2098578259916
 21
-1548.816285686927
 31
0.0
  0
LINE
  5
20E7A
330
1F
100
AcDbEntity
  8
虛線
 48
0.2
100
AcDbLine
 10
123.5098578259991
 20
-1550.116285686931
 30
0.0
 11
123.5098578260074
 21
-1554.316285686926
 31
0.0
  0
LINE
  5
20E7B
330
1F
100
AcDbEntity
  8
虛線
 48
0.2
100
AcDbLine
 10
176.7598578260014
 20
-1554.316285686925
 30
0.0
 11
176.7598578260014
 21
-1549.366285686936
 31
0.0
  0
LINE
  5
20E7C
330
1F
100
AcDbEntity
  8
虛線
 48
0.2
100
AcDbLine
 10
178.7598578260033
 20
-1560.816285686926
 30
0.0
 11
178.7598578260023
 21
-1554.316285686925
 31
0.0
  0
LINE
  5
20E7D
330
1F
100
AcDbEntity
  8
虛線
 48
0.2
100
AcDbLine
 10
178.7598578260023
 20
-1554.316285686925
 30
0.0
 11
164.7598578260032
 21
-1554.316285686925
 31
0.0
  0
LINE
  5
20E7E
330
1F
100
AcDbEntity
  8
虛線
 48
0.2
100
AcDbLine
 10
164.7598578260032
 20
-1560.816285686926
 30
0.0
 11
164.7598578260032
 21
-1554.316285686925
 31
0.0
  0
LINE
  5
20E7F
330
1F
100
AcDbEntity
  8
虛線
 48
0.2
100
AcDbLine
 10
176.0098578260068
 20
-1550.116285686931
 30
0.0
 11
177.3098578260143
 21
-1548.816285686925
 31
0.0
  0
LINE
  5
20E80
330
1F
100
AcDbEntity
  8
虛線
 48
0.2
100
AcDbLine
 10
167.5098578260068
 20
-1550.116285686932
 30
0.0
 11
176.0098578260068
 21
-1550.116285686931
 31
0.0
  0
LINE
  5
20E81
330
1F
100
AcDbEntity
  8
虛線
 48
0.2
100
AcDbLine
 10
176.0098578260068
 20
-1550.116285686931
 30
0.0
 11
176.0098578259985
 21
-1554.316285686925
 31
0.0
  0
LINE
  5
20E82
330
1F
100
AcDbEntity
  8
虛線
 48
0.2
100
AcDbLine
 10
166.759857826005
 20
-1554.316285686925
 30
0.0
 11
166.759857826005
 21
-1549.366285686936
 31
0.0
  0
LINE
  5
20E83
330
1F
100
AcDbEntity
  8
虛線
 48
0.2
100
AcDbLine
 10
167.5098578259996
 20
-1550.116285686931
 30
0.0
 11
166.2098578259921
 21
-1548.816285686926
 31
0.0
  0
LINE
  5
20E84
330
1F
100
AcDbEntity
  8
虛線
 48
0.2
100
AcDbLine
 10
167.5098578259996
 20
-1550.116285686931
 30
0.0
 11
167.5098578260079
 21
-1554.316285686925
 31
0.0
  0
LINE
  5
20E85
330
1F
100
AcDbEntity
  8
0
 48
0.27
100
AcDbLine
 10
168.7598578260059
 20
-1558.816285686928
 30
0.0
 11
182.7598578260018
 21
-1558.816285686928
 31
0.0
  0
SPLINE
  5
20E86
330
1F
100
AcDbEntity
  8
0
  6
Continuous
 62
     7
100
AcDbSpline
210
0.0
220
0.0
230
1.0
 70
     8
 71
     3
 72
    10
 73
     6
 74
     4
 42
0.0000000001
 43
0.0000000001
 44
0.0000000001
 12
0.4944860456749705
 22
0.8691855674323701
 32
0.0
 13
0.0
 23
1.0
 33
0.0
 40
0.0
 40
0.0
 40
0.0
 40
0.0
 40
1.175827532424803
 40
2.382252441129524
 40
3.616216036101262
 40
3.616216036101262
 40
3.616216036101262
 40
3.616216036101262
 10
129.8441567980028
 20
-1584.816285686927
 30
0.0
 10
130.0379669003043
 20
-1584.475614913269
 30
0.0
 10
130.3731823162974
 20
-1583.750820766527
 30
0.0
 10
130.6877488150253
 20
-1582.581566237829
 30
0.0
 10
130.7598578323034
 20
-1581.76620428555
 30
0.0
 10
130.7598578323034
 20
-1581.354883087226
 30
0.0
 11
129.8441567980028
 21
-1584.816285686927
 31
0.0
 11
130.3376963466028
 21
-1583.749051364027
 31
0.0
 11
130.651096007103
 21
-1582.584044191026
 31
0.0
 11
130.7598578323034
 21
-1581.354883087226
 31
0.0
  0
SPLINE
  5
20E87
330
1F
100
AcDbEntity
  8
0
  6
Continuous
 62
     7
100
AcDbSpline
210
0.0
220
0.0
230
1.0
 70
     8
 71
     3
 72
    10
 73
     6
 74
     4
 42
0.0000000001
 43
0.0000000001
 44
0.0000000001
 12
-0.4944860456749705
 22
0.8691855674323701
 32
0.0
 13
0.0
 23
1.0
 33
0.0
 40
0.0
 40
0.0
 40
0.0
 40
0.0
 40
1.175827532424803
 40
2.382252441129524
 40
3.616216036101182
 40
3.616216036101182
 40
3.616216036101182
 40
3.616216036101182
 10
117.6755588540029
 20
-1584.816285686927
 30
0.0
 10
117.4817487517014
 20
-1584.475614913269
 30
0.0
 10
117.1465333357083
 20
-1583.750820766527
 30
0.0
 10
116.8319668369801
 20
-1582.581566237829
 30
0.0
 10
116.7598578197032
 20
-1581.76620428555
 30
0.0
 10
116.7598578197032
 20
-1581.354883087226
 30
0.0
 11
117.6755588540029
 21
-1584.816285686927
 31
0.0
 11
117.1820193054029
 21
-1583.749051364027
 31
0.0
 11
116.8686196449027
 21
-1582.584044191026
 31
0.0
 11
116.7598578197032
 21
-1581.354883087226
 31
0.0
  0
LINE
  5
20E88
330
1F
100
AcDbEntity
  8
0
 48
0.27
100
AcDbLine
 10
182.7598578260007
 20
-1581.355179252732
 30
0.0
 11
182.7598578260018
 21
-1558.816285686928
 31
0.0
  0
LINE
  5
20E89
330
1F
100
AcDbEntity
  8
0
 48
0.27
100
AcDbLine
 10
168.7598578260011
 20
-1581.355179236751
 30
0.0
 11
168.7598578260011
 21
-1558.816285686928
 31
0.0
  0
SPLINE
  5
20E8A
330
1F
100
AcDbEntity
  8
0
  6
Continuous
 62
     7
100
AcDbSpline
210
0.0
220
0.0
230
1.0
 70
     8
 71
     3
 72
    10
 73
     6
 74
     4
 42
0.0000000001
 43
0.0000000001
 44
0.0000000001
 12
0.4944860456749705
 22
0.8691855674323701
 32
0.0
 13
0.0
 23
1.0
 33
0.0
 40
0.0
 40
0.0
 40
0.0
 40
0.0
 40
1.175827532424803
 40
2.382252441129524
 40
3.616216036101262
 40
3.616216036101262
 40
3.616216036101262
 40
3.616216036101262
 10
181.8441567980007
 20
-1584.816285686927
 30
0.0
 10
182.0379669003022
 20
-1584.475614913269
 30
0.0
 10
182.3731823162954
 20
-1583.750820766527
 30
0.0
 10
182.6877488150233
 20
-1582.581566237829
 30
0.0
 10
182.7598578323013
 20
-1581.76620428555
 30
0.0
 10
182.7598578323013
 20
-1581.354883087226
 30
0.0
 11
181.8441567980007
 21
-1584.816285686927
 31
0.0
 11
182.3376963466007
 21
-1583.749051364027
 31
0.0
 11
182.6510960071009
 21
-1582.584044191026
 31
0.0
 11
182.7598578323013
 21
-1581.354883087226
 31
0.0
  0
SPLINE
  5
20E8B
330
1F
100
AcDbEntity
  8
0
  6
Continuous
 62
     7
100
AcDbSpline
210
0.0
220
0.0
230
1.0
 70
     8
 71
     3
 72
    10
 73
     6
 74
     4
 42
0.0000000001
 43
0.0000000001
 44
0.0000000001
 12
-0.4944860456749705
 22
0.8691855674323701
 32
0.0
 13
0.0
 23
1.0
 33
0.0
 40
0.0
 40
0.0
 40
0.0
 40
0.0
 40
1.175827532424803
 40
2.382252441129524
 40
3.616216036101182
 40
3.616216036101182
 40
3.616216036101182
 40
3.616216036101182
 10
169.6755588540009
 20
-1584.816285686927
 30
0.0
 10
169.4817487516993
 20
-1584.475614913269
 30
0.0
 10
169.1465333357063
 20
-1583.750820766527
 30
0.0
 10
168.831966836978
 20
-1582.581566237829
 30
0.0
 10
168.7598578197012
 20
-1581.76620428555
 30
0.0
 10
168.7598578197012
 20
-1581.354883087226
 30
0.0
 11
169.6755588540009
 21
-1584.816285686927
 31
0.0
 11
169.1820193054009
 21
-1583.749051364027
 31
0.0
 11
168.8686196449007
 21
-1582.584044191026
 31
0.0
 11
168.7598578197012
 21
-1581.354883087226
 31
0.0
  0
LINE
  5
20EA8
330
1F
100
AcDbEntity
  8
0
  6
Continuous
 62
     7
100
AcDbLine
 10
185.2598578260023
 20
-1498.696215262502
 30
0.0
 11
185.2598578260023
 21
-1408.696215262503
 31
0.0
  0
LINE
  5
20EA9
330
1F
100
AcDbEntity
  8
0
  6
Continuous
 62
     7
100
AcDbLine
 10
114.2598578260023
 20
-1408.696215262503
 30
0.0
 11
114.2598578260023
 21
-1498.696215262501
 31
0.0
  0
LINE
  5
20EAB
330
1F
100
AcDbEntity
  8
中心線
 48
0.5
100
AcDbLine
 10
171.7598578260005
 20
-1444.430940829569
 30
0.0
 11
171.7598578260005
 21
-1462.961489695437
 31
0.0
  0
LINE
  5
20EAC
330
1F
100
AcDbEntity
  8
中心線
 48
0.5
100
AcDbLine
 10
167.7470801074702
 20
-1489.696215262503
 30
0.0
 11
183.7726355445335
 21
-1489.696215262503
 31
0.0
  0
LINE
  5
20EAD
330
1F
100
AcDbEntity
  8
中心線
 48
0.5
100
AcDbLine
 10
175.7598578260018
 20
-1497.708992981034
 30
0.0
 11
175.7598578260018
 21
-1481.683437543971
 31
0.0
  0
LINE
  5
20EB2
330
1F
100
AcDbEntity
  8
中心線
 48
0.5
100
AcDbLine
 10
127.7598578260019
 20
-1444.430940829568
 30
0.0
 11
127.7598578260024
 21
-1462.961489695437
 31
0.0
  0
LINE
  5
20EB3
330
1F
100
AcDbEntity
  8
0
100
AcDbLine
 10
185.2598578260023
 20
-1498.696215262502
 30
0.0
 11
114.2598578260023
 21
-1498.696215262501
 31
0.0
  0
LINE
  5
20EB4
330
1F
100
AcDbEntity
  8
0
100
AcDbLine
 10
185.2598578260023
 20
-1496.9962152625
 30
0.0
 11
114.2598578260023
 21
-1496.9962152625
 31
0.0
  0
LINE
  5
20EB5
330
1F
100
AcDbEntity
  8
0
100
AcDbLine
 10
185.2598578260023
 20
-1464.610428824876
 30
0.0
 11
114.2598578260023
 21
-1464.610428824875
 31
0.0
  0
LINE
  5
20EB6
330
1F
100
AcDbEntity
  8
0
100
AcDbLine
 10
185.2598578260023
 20
-1463.496215262503
 30
0.0
 11
114.2598578260023
 21
-1463.496215262503
 31
0.0
  0
LINE
  5
20EB7
330
1F
100
AcDbEntity
  8
0
100
AcDbLine
 10
185.2598578260023
 20
-1408.696215262503
 30
0.0
 11
114.2598578260023
 21
-1408.696215262503
 31
0.0
  0
LINE
  5
20EB8
330
1F
100
AcDbEntity
  8
0
100
AcDbLine
 10
185.2598578260023
 20
-1410.196215262504
 30
0.0
 11
114.2598578260023
 21
-1410.196215262504
 31
0.0
  0
LINE
  5
20EB9
330
1F
100
AcDbEntity
  8
0
100
AcDbLine
 10
185.2598578260027
 20
-1442.782001700128
 30
0.0
 11
114.2598578260023
 21
-1442.782001700128
 31
0.0
  0
LINE
  5
20EBA
330
1F
100
AcDbEntity
  8
0
100
AcDbLine
 10
185.2598578260023
 20
-1443.896215262502
 30
0.0
 11
114.2598578260023
 21
-1443.896215262501
 31
0.0
  0
LINE
  5
20EBB
330
1F
100
AcDbEntity
  8
0
100
AcDbLine
 10
185.2598578260023
 20
-1480.896215262502
 30
0.0
 11
114.2598578260023
 21
-1480.896215262502
 31
0.0
  0
LINE
  5
20EBC
330
1F
100
AcDbEntity
  8
0
100
AcDbLine
 10
185.2598578260023
 20
-1479.78200170013
 30
0.0
 11
114.2598578260023
 21
-1479.78200170013
 31
0.0
  0
LINE
  5
20EBD
330
1F
100
AcDbEntity
  8
中心線
 48
0.5
100
AcDbLine
 10
167.7470801074702
 20
-1417.696215262501
 30
0.0
 11
183.7726355445335
 21
-1417.696215262501
 31
0.0
  0
LINE
  5
20EBE
330
1F
100
AcDbEntity
  8
中心線
 48
0.5
100
AcDbLine
 10
175.7598578260018
 20
-1409.683437543969
 30
0.0
 11
175.7598578260018
 21
-1425.708992981032
 31
0.0
  0
LINE
  5
20EC2
330
1F
100
AcDbEntity
  8
0
100
AcDbLine
 10
185.2598578260023
 20
-1426.496215262501
 30
0.0
 11
114.2598578260023
 21
-1426.496215262501
 31
0.0
  0
LINE
  5
20EC3
330
1F
100
AcDbEntity
  8
0
100
AcDbLine
 10
185.2598578260023
 20
-1427.610428824873
 30
0.0
 11
114.2598578260023
 21
-1427.610428824873
 31
0.0
  0
LINE
  5
20EC4
330
1F
100
AcDbEntity
  8
0
100
AcDbLine
 10
185.2598578260023
 20
-1426.496215262501
 30
0.0
 11
114.2598578260023
 21
-1426.496215262501
 31
0.0
  0
LINE
  5
20EC5
330
1F
100
AcDbEntity
  8
0
100
AcDbLine
 10
185.2598578260023
 20
-1427.610428824873
 30
0.0
 11
114.2598578260023
 21
-1427.610428824873
 31
0.0
  0
CIRCLE
  5
20EC6
330
1F
100
AcDbEntity
  8
0
100
AcDbCircle
 10
123.7598578260031
 20
-1489.696215262504
 30
0.0
 40
4.25
  0
LINE
  5
20EC7
330
1F
100
AcDbEntity
  8
中心線
 48
0.5
100
AcDbLine
 10
131.7726355445348
 20
-1489.696215262504
 30
0.0
 11
115.7470801074715
 21
-1489.696215262504
 31
0.0
  0
LINE
  5
20EC8
330
1F
100
AcDbEntity
  8
中心線
 48
0.5
100
AcDbLine
 10
123.7598578260032
 20
-1497.708992981035
 30
0.0
 11
123.7598578260027
 21
-1481.683437543972
 31
0.0
  0
LINE
  5
20ECC
330
1F
100
AcDbEntity
  8
0
100
AcDbLine
 10
114.2598578260023
 20
-1480.896215262503
 30
0.0
 11
185.2598578260023
 21
-1480.896215262502
 31
0.0
  0
LINE
  5
20ECD
330
1F
100
AcDbEntity
  8
0
100
AcDbLine
 10
114.2598578260023
 20
-1479.782001700131
 30
0.0
 11
185.2598578260023
 21
-1479.78200170013
 31
0.0
  0
LINE
  5
20ECE
330
1F
100
AcDbEntity
  8
中心線
 48
0.5
100
AcDbLine
 10
131.7726355445335
 20
-1417.696215262502
 30
0.0
 11
115.7470801074702
 21
-1417.696215262502
 31
0.0
  0
LINE
  5
20ECF
330
1F
100
AcDbEntity
  8
中心線
 48
0.5
100
AcDbLine
 10
123.7598578260014
 20
-1409.68343754397
 30
0.0
 11
123.7598578260018
 21
-1425.708992981033
 31
0.0
  0
LINE
  5
20ED3
330
1F
100
AcDbEntity
  8
0
100
AcDbLine
 10
114.2598578260014
 20
-1426.496215262502
 30
0.0
 11
185.2598578260014
 21
-1426.496215262501
 31
0.0
  0
LINE
  5
20ED4
330
1F
100
AcDbEntity
  8
0
100
AcDbLine
 10
114.2598578260014
 20
-1427.610428824874
 30
0.0
 11
185.2598578260014
 21
-1427.610428824873
 31
0.0
  0
LINE
  5
20ED5
330
1F
100
AcDbEntity
  8
0
100
AcDbLine
 10
114.2598578260014
 20
-1426.496215262502
 30
0.0
 11
185.2598578260014
 21
-1426.496215262501
 31
0.0
  0
LINE
  5
20ED6
330
1F
100
AcDbEntity
  8
0
100
AcDbLine
 10
114.2598578260014
 20
-1427.610428824874
 30
0.0
 11
185.2598578260014
 21
-1427.610428824873
 31
0.0
  0
CIRCLE
  5
20ED8
330
1F
100
AcDbEntity
  8
0
100
AcDbCircle
 10
127.759857826002
 20
-1453.696215262502
 30
0.0
 40
4.25
  0
CIRCLE
  5
20EDA
330
1F
100
AcDbEntity
  8
0
100
AcDbCircle
 10
123.7598578260017
 20
-1417.696215262501
 30
0.0
 40
4.25
  0
CIRCLE
  5
20EDC
330
1F
100
AcDbEntity
  8
0
100
AcDbCircle
 10
175.7598578260017
 20
-1417.6962152625
 30
0.0
 40
4.25
  0
ARC
  5
20EDD
330
1F
100
AcDbEntity
  8
標註線
 62
     1
100
AcDbCircle
 10
175.759857826003
 20
-1417.696215262503
 30
0.0
 40
5.0
100
AcDbArc
 50
168.4630409671632
 51
101.5369590328298
  0
CIRCLE
  5
20EDE
330
1F
100
AcDbEntity
  8
0
100
AcDbCircle
 10
171.7598578260023
 20
-1453.696215262502
 30
0.0
 40
4.25
  0
CIRCLE
  5
20EE0
330
1F
100
AcDbEntity
  8
0
100
AcDbCircle
 10
175.7598578260017
 20
-1489.696215262504
 30
0.0
 40
4.25
  0
ARC
  5
20EF2
330
1F
100
AcDbEntity
  8
標註線
 62
     1
100
AcDbCircle
 10
123.759857826003
 20
-1417.696215262504
 30
0.0
 40
5.0
100
AcDbArc
 50
168.4630409671686
 51
101.5369590328285
  0
ARC
  5
20EFA
330
1F
100
AcDbEntity
  8
標註線
 62
     1
100
AcDbCircle
 10
127.7598578260034
 20
-1453.696215262505
 30
0.0
 40
5.0
100
AcDbArc
 50
168.4630409671686
 51
101.5369590328285
  0
ARC
  5
20F02
330
1F
100
AcDbEntity
  8
標註線
 62
     1
100
AcDbCircle
 10
171.7598578260017
 20
-1453.696215262505
 30
0.0
 40
5.0
100
AcDbArc
 50
168.4630409671684
 51
101.5369590328293
  0
ARC
  5
20F0A
330
1F
100
AcDbEntity
  8
標註線
 62
     1
100
AcDbCircle
 10
123.7598578260042
 20
-1489.696215262505
 30
0.0
 40
5.0
100
AcDbArc
 50
168.4630409671686
 51
101.5369590328285
  0
ARC
  5
20F12
330
1F
100
AcDbEntity
  8
標註線
 62
     1
100
AcDbCircle
 10
175.759857826003
 20
-1489.696215262505
 30
0.0
 40
5.0
100
AcDbArc
 50
168.4630409671684
 51
101.5369590328293
  0
ENDSEC
  0
SECTION
  2
OBJECTS
  0
DICTIONARY
  5
C
330
0
100
AcDbDictionary
281
     1
  3
ACAD_COLOR
350
1EAD
  3
ACAD_GROUP
350
D
  3
ACAD_LAYOUT
350
1A
  3
ACAD_MATERIAL
350
1EAC
  3
ACAD_MLINESTYLE
350
17
  3
ACAD_PLOTSETTINGS
350
19
  3
ACAD_PLOTSTYLENAME
350
E
  3
ACAD_TABLESTYLE
350
1EAE
  3
ACDBHEADERROUNDTRIPXREC
350
20F22
  3
AcDbVariableDictionary
350
4E
  0
DICTIONARY
  5
B56
330
2
100
AcDbDictionary
280
     1
281
     1
  3
ACAD_LAYERFILTERS
360
1B22B
  3
ACAD_LAYERSTATES
360
B57
  0
DICTIONARY
  5
37F6
330
1F
100
AcDbDictionary
280
     1
281
     1
  3
ACAD_SORTENTS
360
37F7
  0
DICTIONARY
  5
1E1CD
330
1E1CC
100
AcDbDictionary
280
     1
281
     1
  0
DICTIONARY
  5
1ECC2
330
1EC49
100
AcDbDictionary
280
     1
281
     1
  3
ACAD_SORTENTS
360
1ECC3
  0
DICTIONARY
  5
1EAD
102
{ACAD_REACTORS
330
C
102
}
330
C
100
AcDbDictionary
281
     1
  0
DICTIONARY
  5
D
102
{ACAD_REACTORS
330
C
102
}
330
C
100
AcDbDictionary
281
     1
  3
*A1
350
BFA
  3
*A10
350
BFB
  3
*A11
350
BFC
  3
*A12
350
BFD
  3
*A13
350
BFE
  3
*A14
350
BFF
  3
*A15
350
C00
  3
*A16
350
C01
  3
*A17
350
C02
  3
*A18
350
C03
  3
*A19
350
C04
  3
*A2
350
C05
  3
*A20
350
C06
  3
*A21
350
F10
  3
*A22
350
F11
  3
*A23
350
F12
  3
*A24
350
F13
  3
*A25
350
F14
  3
*A26
350
F15
  3
*A27
350
F16
  3
*A28
350
F17
  3
*A29
350
F18
  3
*A3
350
F19
  3
*A30
350
F1A
  3
*A31
350
F1B
  3
*A32
350
F1C
  3
*A33
350
F1D
  3
*A34
350
10A0
  3
*A35
350
10A1
  3
*A36
350
10A2
  3
*A37
350
10A3
  3
*A38
350
10A4
  3
*A39
350
10A5
  3
*A4
350
10A6
  3
*A40
350
10A7
  3
*A5
350
10A8
  3
*A6
350
10A9
  3
*A7
350
10AA
  3
*A8
350
10AB
  3
*A9
350
10AC
  0
DICTIONARY
  5
1A
102
{ACAD_REACTORS
330
C
102
}
330
C
100
AcDbDictionary
281
     1
  3
Model
350
22
  3
配置1
350
1E
  3
配置2
350
26
  0
DICTIONARY
  5
1EAC
102
{ACAD_REACTORS
330
C
102
}
330
C
100
AcDbDictionary
281
     1
  0
DICTIONARY
  5
17
102
{ACAD_REACTORS
330
C
102
}
330
C
100
AcDbDictionary
281
     1
  3
Standard
350
18
  0
DICTIONARY
  5
19
102
{ACAD_REACTORS
330
C
102
}
330
C
100
AcDbDictionary
281
     1
  3
LANSRO
350
1AB
  0
ACDBDICTIONARYWDFLT
  5
E
102
{ACAD_REACTORS
330
C
102
}
330
C
100
AcDbDictionary
281
     1
  3
Normal
350
F
100
AcDbDictionaryWithDefault
340
F
  0
DICTIONARY
  5
1EAE
102
{ACAD_REACTORS
330
C
102
}
330
C
100
AcDbDictionary
281
     1
  3
Standard
350
1EAF
  0
DICTIONARY
  5
20F22
102
{ACAD_REACTORS
330
C
102
}
330
C
100
AcDbDictionary
281
     1
  3
COLORDICT
350
20F24
  3
MATERIALDICT
350
20F23
  0
DICTIONARY
  5
4E
102
{ACAD_REACTORS
330
C
102
}
330
C
100
AcDbDictionary
281
     1
  3
CTABLESTYLE
350
1EB7
  3
DIMASSOC
350
A766
  3
PROJECTNAME
350
A767
  3
SORTENTS
350
4F
  0
DICTIONARY
  5
1B22B
102
{ACAD_REACTORS
330
B56
102
}
330
B56
100
AcDbDictionary
281
     1
  0
DICTIONARY
  5
B57
102
{ACAD_REACTORS
330
B56
102
}
330
B56
100
AcDbDictionary
281
     1
  0
SORTENTSTABLE
  5
37F7
102
{ACAD_REACTORS
330
37F6
102
}
330
37F6
100
AcDbSortentsTable
330
1F
  0
SORTENTSTABLE
  5
1ECC3
102
{ACAD_REACTORS
330
1ECC2
102
}
330
1ECC2
100
AcDbSortentsTable
330
1EC49
  0
GROUP
  5
BFA
102
{ACAD_REACTORS
330
D
102
}
330
D
100
AcDbGroup
300

 70
     1
 71
     1
  0
GROUP
  5
BFB
102
{ACAD_REACTORS
330
D
102
}
330
D
100
AcDbGroup
300

 70
     1
 71
     1
  0
GROUP
  5
BFC
102
{ACAD_REACTORS
330
D
102
}
330
D
100
AcDbGroup
300

 70
     1
 71
     1
  0
GROUP
  5
BFD
102
{ACAD_REACTORS
330
D
102
}
330
D
100
AcDbGroup
300

 70
     1
 71
     1
  0
GROUP
  5
BFE
102
{ACAD_REACTORS
330
D
102
}
330
D
100
AcDbGroup
300

 70
     1
 71
     1
  0
GROUP
  5
BFF
102
{ACAD_REACTORS
330
D
102
}
330
D
100
AcDbGroup
300

 70
     1
 71
     1
  0
GROUP
  5
C00
102
{ACAD_REACTORS
330
D
102
}
330
D
100
AcDbGroup
300

 70
     1
 71
     1
  0
GROUP
  5
C01
102
{ACAD_REACTORS
330
D
102
}
330
D
100
AcDbGroup
300

 70
     1
 71
     1
  0
GROUP
  5
C02
102
{ACAD_REACTORS
330
D
102
}
330
D
100
AcDbGroup
300

 70
     1
 71
     1
  0
GROUP
  5
C03
102
{ACAD_REACTORS
330
D
102
}
330
D
100
AcDbGroup
300

 70
     1
 71
     1
  0
GROUP
  5
C04
102
{ACAD_REACTORS
330
D
102
}
330
D
100
AcDbGroup
300

 70
     1
 71
     1
  0
GROUP
  5
C05
102
{ACAD_REACTORS
330
D
102
}
330
D
100
AcDbGroup
300

 70
     1
 71
     1
  0
GROUP
  5
C06
102
{ACAD_REACTORS
330
D
102
}
330
D
100
AcDbGroup
300

 70
     1
 71
     1
  0
GROUP
  5
F10
102
{ACAD_REACTORS
330
D
102
}
330
D
100
AcDbGroup
300

 70
     1
 71
     1
  0
GROUP
  5
F11
102
{ACAD_REACTORS
330
D
102
}
330
D
100
AcDbGroup
300

 70
     1
 71
     1
  0
GROUP
  5
F12
102
{ACAD_REACTORS
330
D
102
}
330
D
100
AcDbGroup
300

 70
     1
 71
     1
  0
GROUP
  5
F13
102
{ACAD_REACTORS
330
D
102
}
330
D
100
AcDbGroup
300

 70
     1
 71
     1
  0
GROUP
  5
F14
102
{ACAD_REACTORS
330
D
102
}
330
D
100
AcDbGroup
300

 70
     1
 71
     1
  0
GROUP
  5
F15
102
{ACAD_REACTORS
330
D
102
}
330
D
100
AcDbGroup
300

 70
     1
 71
     1
  0
GROUP
  5
F16
102
{ACAD_REACTORS
330
D
102
}
330
D
100
AcDbGroup
300

 70
     1
 71
     1
  0
GROUP
  5
F17
102
{ACAD_REACTORS
330
D
102
}
330
D
100
AcDbGroup
300

 70
     1
 71
     1
  0
GROUP
  5
F18
102
{ACAD_REACTORS
330
D
102
}
330
D
100
AcDbGroup
300

 70
     1
 71
     1
  0
GROUP
  5
F19
102
{ACAD_REACTORS
330
D
102
}
330
D
100
AcDbGroup
300

 70
     1
 71
     1
  0
GROUP
  5
F1A
102
{ACAD_REACTORS
330
D
102
}
330
D
100
AcDbGroup
300

 70
     1
 71
     1
  0
GROUP
  5
F1B
102
{ACAD_REACTORS
330
D
102
}
330
D
100
AcDbGroup
300

 70
     1
 71
     1
  0
GROUP
  5
F1C
102
{ACAD_REACTORS
330
D
102
}
330
D
100
AcDbGroup
300

 70
     1
 71
     1
  0
GROUP
  5
F1D
102
{ACAD_REACTORS
330
D
102
}
330
D
100
AcDbGroup
300

 70
     1
 71
     1
  0
GROUP
  5
10A0
102
{ACAD_REACTORS
330
D
102
}
330
D
100
AcDbGroup
300

 70
     1
 71
     1
  0
GROUP
  5
10A1
102
{ACAD_REACTORS
330
D
102
}
330
D
100
AcDbGroup
300

 70
     1
 71
     1
  0
GROUP
  5
10A2
102
{ACAD_REACTORS
330
D
102
}
330
D
100
AcDbGroup
300

 70
     1
 71
     1
  0
GROUP
  5
10A3
102
{ACAD_REACTORS
330
D
102
}
330
D
100
AcDbGroup
300

 70
     1
 71
     1
  0
GROUP
  5
10A4
102
{ACAD_REACTORS
330
D
102
}
330
D
100
AcDbGroup
300

 70
     1
 71
     1
  0
GROUP
  5
10A5
102
{ACAD_REACTORS
330
D
102
}
330
D
100
AcDbGroup
300

 70
     1
 71
     1
  0
GROUP
  5
10A6
102
{ACAD_REACTORS
330
D
102
}
330
D
100
AcDbGroup
300

 70
     1
 71
     1
  0
GROUP
  5
10A7
102
{ACAD_REACTORS
330
D
102
}
330
D
100
AcDbGroup
300

 70
     1
 71
     1
  0
GROUP
  5
10A8
102
{ACAD_REACTORS
330
D
102
}
330
D
100
AcDbGroup
300

 70
     1
 71
     1
  0
GROUP
  5
10A9
102
{ACAD_REACTORS
330
D
102
}
330
D
100
AcDbGroup
300

 70
     1
 71
     1
  0
GROUP
  5
10AA
102
{ACAD_REACTORS
330
D
102
}
330
D
100
AcDbGroup
300

 70
     1
 71
     1
  0
GROUP
  5
10AB
102
{ACAD_REACTORS
330
D
102
}
330
D
100
AcDbGroup
300

 70
     1
 71
     1
  0
GROUP
  5
10AC
102
{ACAD_REACTORS
330
D
102
}
330
D
100
AcDbGroup
300

 70
     1
 71
     1
  0
LAYOUT
  5
22
102
{ACAD_XDICTIONARY
360
20F27
102
}
102
{ACAD_REACTORS
330
1A
102
}
330
1A
100
AcDbPlotSettings
  1

  2
HP LaserJet 5100 Series
  4
A4
  6

 40
5.027083396911621
 41
5.408084392547607
 42
5.70440673828125
 43
5.365753173828125
 44
209.8886566162109
 45
297.0530090332031
 46
3.33
 47
0.0
 48
-114.3921822345449
 49
-1517.123039014255
140
420.207817765455
141
-1157.636773708224
142
1.0
143
1.867407947496965
 70
 11956
 72
     1
 73
     1
 74
     4
  7
aclt.ctb
 75
     0
147
0.5355016301287456
148
114.3921822345449
149
1517.123039014255
100
AcDbLayout
  1
Model
 70
     1
 71
     0
 10
0.0
 20
0.0
 11
12.0
 21
9.0
 12
0.0
 22
0.0
 32
0.0
 14
0.0
 24
0.0
 34
0.0
 15
0.0
 25
0.0
 35
0.0
146
0.0
 13
0.0
 23
0.0
 33
0.0
 16
1.0
 26
0.0
 36
0.0
 17
0.0
 27
1.0
 37
0.0
 76
     0
330
1F
  0
LAYOUT
  5
1E
102
{ACAD_XDICTIONARY
360
20F25
102
}
102
{ACAD_REACTORS
330
1A
102
}
330
1A
100
AcDbPlotSettings
  1

  2
C:\Program Files\AutoCAD LT 2000i\plotters\DWF Classic.pc3
  4

  6

 40
0.0
 41
0.0
 42
0.0
 43
0.0
 44
0.0
 45
0.0
 46
0.0
 47
0.0
 48
0.0
 49
0.0
140
0.0
141
0.0
142
1.0
143
1.0
 70
   688
 72
     0
 73
     0
 74
     5
  7
aclt.ctb
 75
    16
147
1.0
148
0.0
149
0.0
100
AcDbLayout
  1
配置1
 70
     1
 71
     1
 10
0.0
 20
0.0
 11
420.0
 21
297.0
 12
0.0
 22
0.0
 32
0.0
 14
1.000000000000000E+20
 24
1.000000000000000E+20
 34
1.000000000000000E+20
 15
-1.000000000000000E+20
 25
-1.000000000000000E+20
 35
-1.000000000000000E+20
146
0.0
 13
0.0
 23
0.0
 33
0.0
 16
1.0
 26
0.0
 36
0.0
 17
0.0
 27
1.0
 37
0.0
 76
     0
330
1B
  0
LAYOUT
  5
26
102
{ACAD_XDICTIONARY
360
20F29
102
}
102
{ACAD_REACTORS
330
1A
102
}
330
1A
100
AcDbPlotSettings
  1

  2
C:\Program Files\AutoCAD LT 2000i\plotters\DWF Classic.pc3
  4

  6

 40
0.0
 41
0.0
 42
0.0
 43
0.0
 44
0.0
 45
0.0
 46
0.0
 47
0.0
 48
0.0
 49
0.0
140
0.0
141
0.0
142
1.0
143
1.0
 70
   688
 72
     0
 73
     0
 74
     5
  7
aclt.ctb
 75
    16
147
1.0
148
0.0
149
0.0
100
AcDbLayout
  1
配置2
 70
     1
 71
     2
 10
0.0
 20
0.0
 11
12.0
 21
9.0
 12
0.0
 22
0.0
 32
0.0
 14
0.0
 24
0.0
 34
0.0
 15
0.0
 25
0.0
 35
0.0
146
0.0
 13
0.0
 23
0.0
 33
0.0
 16
1.0
 26
0.0
 36
0.0
 17
0.0
 27
1.0
 37
0.0
 76
     0
330
23
  0
MLINESTYLE
  5
18
102
{ACAD_REACTORS
330
17
102
}
330
17
100
AcDbMlineStyle
  2
STANDARD
 70
     0
  3

 62
   256
 51
90.0
 52
90.0
 71
     2
 49
0.5
 62
   256
  6
BYLAYER
 49
-0.5
 62
   256
  6
BYLAYER
  0
PLOTSETTINGS
  5
1AB
102
{ACAD_XDICTIONARY
360
20F2B
102
}
102
{ACAD_REACTORS
330
19
102
}
330
19
100
AcDbPlotSettings
  1
LANSRO
  2
\\1260\HP2200
  4
A4
  6

 40
6.043083190917968
 41
6.762742042541503
 42
7.736419677734375
 43
5.027069091796875
 44
209.9733276367187
 45
296.9683227539062
 46
5.15
 47
0.0
 48
0.0
 49
0.0
140
0.0
141
0.0
142
1.0
143
0.8829829263240881
 70
  1716
 72
     1
 73
     1
 74
     0
  7
AAA.ctb
 75
     0
147
1.132524729739748
148
-132.297014905803
149
-71.78507365635891
  0
ACDBPLACEHOLDER
  5
F
102
{ACAD_REACTORS
330
E
102
}
330
E
  0
ACAD_PROXY_OBJECT
  5
1EAF
102
{ACAD_REACTORS
330
1EAE
102
}
330
1EAE
100
AcDbProxyObject
 90
      499
 91
      505
 95
   720919
 70
     0
 93
     1841
310
4214DD185B99185C9928000000000000F83F0000000000003E0FC00000000000004901028000000C1008070000C3001FDFF8000000C1003FBFF000000182007F7FE00000030400FEFFC00000060801FDFF8000000C1003FBFF000000182000000000000000C2020B0000001820100E000186003FBFF000000182007F7FE000
310
00030400FEFFC00000060801FDFF8000000C1003FBFF000000182007F7FE0000003040000000000000012404160000003040201C00030C007F7FE00000030400FEFFC00000060801FDFF8000000C1003FBFF000000182007F7FE00000030400FEFFC000000608000
340
11
340
11
340
11
 94
        0
1001
ACAD
1000
AcRTDxfName
1000
TABLESTYLE
1000
AcRTDxfName
1000
TABLESTYLE
1000
AcRTDxfName
1000
TABLESTYLE
1000
AcRTDxfName
1000
TABLESTYLE
1000
AcRTDxfName
1000
TABLESTYLE
1000
AcRTDxfName
1000
TABLESTYLE
1000
AcRTDxfName
1000
TABLESTYLE
1000
AcRTDxfName
1000
TABLESTYLE
1000
AcRTDxfName
1000
TABLESTYLE
  0
XRECORD
  5
20F24
102
{ACAD_REACTORS
330
20F22
102
}
330
20F22
100
AcDbXrecord
280
     1
340
1EAD
  0
XRECORD
  5
20F23
102
{ACAD_REACTORS
330
20F22
102
}
330
20F22
100
AcDbXrecord
280
     1
340
1EAC
  0
DICTIONARYVAR
  5
1EB7
102
{ACAD_REACTORS
330
4E
102
}
330
4E
100
DictionaryVariables
280
     0
  1
STANDARD
  0
DICTIONARYVAR
  5
A766
102
{ACAD_REACTORS
330
4E
102
}
330
4E
100
DictionaryVariables
280
     0
  1
1
  0
DICTIONARYVAR
  5
A767
102
{ACAD_REACTORS
330
4E
102
}
330
4E
100
DictionaryVariables
280
     0
  1

  0
DICTIONARYVAR
  5
4F
102
{ACAD_REACTORS
330
4E
102
}
330
4E
100
DictionaryVariables
280
     0
  1
96
  0
DICTIONARY
  5
20F27
330
22
100
AcDbDictionary
280
     1
281
     1
  3
ACAD_XREC_ROUNDTRIP
360
20F28
  0
DICTIONARY
  5
20F25
330
1E
100
AcDbDictionary
280
     1
281
     1
  3
ACAD_XREC_ROUNDTRIP
360
20F26
  0
DICTIONARY
  5
20F29
330
26
100
AcDbDictionary
280
     1
281
     1
  3
ACAD_XREC_ROUNDTRIP
360
20F2A
  0
DICTIONARY
  5
20F2B
330
1AB
100
AcDbDictionary
280
     1
281
     1
  3
ACAD_XREC_ROUNDTRIP
360
20F2C
  0
XRECORD
  5
20F28
102
{ACAD_REACTORS
330
20F27
102
}
330
20F27
100
AcDbXrecord
280
     1
102
SHADEPLOT
 70
     0
102
SHADEPLOTRESLEVEL
 70
     2
102
SHADEPLOTCUSTOMDPI
 70
   300
  0
XRECORD
  5
20F26
102
{ACAD_REACTORS
330
20F25
102
}
330
20F25
100
AcDbXrecord
280
     1
102
SHADEPLOT
 70
     0
102
SHADEPLOTRESLEVEL
 70
     2
102
SHADEPLOTCUSTOMDPI
 70
   300
  0
XRECORD
  5
20F2A
102
{ACAD_REACTORS
330
20F29
102
}
330
20F29
100
AcDbXrecord
280
     1
102
SHADEPLOT
 70
     0
102
SHADEPLOTRESLEVEL
 70
     2
102
SHADEPLOTCUSTOMDPI
 70
   300
  0
XRECORD
  5
20F2C
102
{ACAD_REACTORS
330
20F2B
102
}
330
20F2B
100
AcDbXrecord
280
     1
102
SHADEPLOT
 70
     0
102
SHADEPLOTRESLEVEL
 70
     2
102
SHADEPLOTCUSTOMDPI
 70
   300
  0
ENDSEC
  0
EOF
