  0
SECTION
  2
HEADER
  9
$ACADVER
  1
AC1015
  9
$ACADMAINTVER
 70
    20
  9
$DWGCODEPAGE
  3
ANSI_950
  9
$INSBASE
 10
0.0
 20
0.0
 30
0.0
  9
$EXTMIN
 10
2168.764712749582
 20
1079.482877205168
 30
-0.0000000000000009
  9
$EXTMAX
 10
2495.590018383087
 20
1286.877922760261
 30
0.0
  9
$LIMMIN
 10
-10.0
 20
-15.0
  9
$LIMMAX
 10
120.0
 20
90.0
  9
$ORTHOMODE
 70
     1
  9
$REGENMODE
 70
     0
  9
$FILLMODE
 70
     1
  9
$QTEXTMODE
 70
     0
  9
$MIRRTEXT
 70
     0
  9
$LTSCALE
 40
3.0
  9
$ATTMODE
 70
     1
  9
$TEXTSIZE
 40
3.0
  9
$TRACEWID
 40
1.0
  9
$TEXTSTYLE
  7
STANDARD
  9
$CLAYER
  8
0
  9
$CELTYPE
  6
ByLayer
  9
$CECOLOR
 62
   256
  9
$CELTSCALE
 40
1.0
  9
$DISPSILH
 70
     0
  9
$DIMSCALE
 40
1.0
  9
$DIMASZ
 40
3.0
  9
$DIMEXO
 40
1.0
  9
$DIMDLI
 40
6.0
  9
$DIMRND
 40
0.0
  9
$DIMDLE
 40
0.0
  9
$DIMEXE
 40
1.0
  9
$DIMTP
 40
0.0
  9
$DIMTM
 40
0.0
  9
$DIMTXT
 40
3.0
  9
$DIMCEN
 40
1.5
  9
$DIMTSZ
 40
0.0
  9
$DIMTOL
 70
     0
  9
$DIMLIM
 70
     0
  9
$DIMTIH
 70
     1
  9
$DIMTOH
 70
     1
  9
$DIMSE1
 70
     0
  9
$DIMSE2
 70
     0
  9
$DIMTAD
 70
     0
  9
$DIMZIN
 70
     0
  9
$DIMBLK
  1

  9
$DIMASO
 70
     1
  9
$DIMSHO
 70
     0
  9
$DIMPOST
  1

  9
$DIMAPOST
  1

  9
$DIMALT
 70
     0
  9
$DIMALTD
 70
     2
  9
$DIMALTF
 40
25.4
  9
$DIMLFAC
 40
1.0
  9
$DIMTOFL
 70
     1
  9
$DIMTVP
 40
0.0
  9
$DIMTIX
 70
     0
  9
$DIMSOXD
 70
     0
  9
$DIMSAH
 70
     0
  9
$DIMBLK1
  1

  9
$DIMBLK2
  1

  9
$DIMSTYLE
  2
Standard
  9
$DIMCLRD
 70
     0
  9
$DIMCLRE
 70
     0
  9
$DIMCLRT
 70
     0
  9
$DIMTFAC
 40
1.0
  9
$DIMGAP
 40
0.09
  9
$DIMJUST
 70
     0
  9
$DIMSD1
 70
     0
  9
$DIMSD2
 70
     0
  9
$DIMTOLJ
 70
     1
  9
$DIMTZIN
 70
     0
  9
$DIMALTZ
 70
     0
  9
$DIMALTTZ
 70
     0
  9
$DIMUPT
 70
     0
  9
$DIMDEC
 70
     4
  9
$DIMTDEC
 70
     8
  9
$DIMALTU
 70
     2
  9
$DIMALTTD
 70
     2
  9
$DIMTXSTY
  7
STANDARD
  9
$DIMAUNIT
 70
     0
  9
$DIMADEC
 70
     0
  9
$DIMALTRND
 40
0.0
  9
$DIMAZIN
 70
     0
  9
$DIMDSEP
 70
    46
  9
$DIMATFIT
 70
     3
  9
$DIMFRAC
 70
     0
  9
$DIMLDRBLK
  1

  9
$DIMLUNIT
 70
     2
  9
$DIMLWD
 70
    -2
  9
$DIMLWE
 70
    -2
  9
$DIMTMOVE
 70
     2
  9
$LUNITS
 70
     2
  9
$LUPREC
 70
     4
  9
$SKETCHINC
 40
0.5
  9
$FILLETRAD
 40
0.0
  9
$AUNITS
 70
     0
  9
$AUPREC
 70
     0
  9
$MENU
  1
ACAD
  9
$ELEVATION
 40
0.0
  9
$PELEVATION
 40
0.0
  9
$THICKNESS
 40
0.0
  9
$LIMCHECK
 70
     0
  9
$CHAMFERA
 40
0.0
  9
$CHAMFERB
 40
0.0
  9
$CHAMFERC
 40
0.0
  9
$CHAMFERD
 40
0.0
  9
$SKPOLY
 70
     0
  9
$TDCREATE
 40
2444975.333333334
  9
$TDUCREATE
 40
2444975.000000000
  9
$TDUPDATE
 40
2454042.453798044
  9
$TDUUPDATE
 40
2454042.120464710
  9
$TDINDWG
 40
0.3149850116
  9
$TDUSRTIMER
 40
0.0000000000
  9
$USRTIMER
 70
     0
  9
$ANGBASE
 50
0.0
  9
$ANGDIR
 70
     0
  9
$PDMODE
 70
     0
  9
$PDSIZE
 40
0.001
  9
$PLINEWID
 40
0.0
  9
$SPLFRAME
 70
     0
  9
$SPLINETYPE
 70
     6
  9
$SPLINESEGS
 70
  8000
  9
$HANDSEED
  5
EAD4
  9
$SURFTAB1
 70
     6
  9
$SURFTAB2
 70
     6
  9
$SURFTYPE
 70
     6
  9
$SURFU
 70
     6
  9
$SURFV
 70
     6
  9
$UCSBASE
  2

  9
$UCSNAME
  2

  9
$UCSORG
 10
0.0
 20
0.0
 30
0.0
  9
$UCSXDIR
 10
1.0
 20
0.0
 30
0.0
  9
$UCSYDIR
 10
0.0
 20
1.0
 30
0.0
  9
$UCSORTHOREF
  2

  9
$UCSORTHOVIEW
 70
     0
  9
$UCSORGTOP
 10
0.0
 20
0.0
 30
0.0
  9
$UCSORGBOTTOM
 10
0.0
 20
0.0
 30
0.0
  9
$UCSORGLEFT
 10
0.0
 20
0.0
 30
0.0
  9
$UCSORGRIGHT
 10
0.0
 20
0.0
 30
0.0
  9
$UCSORGFRONT
 10
0.0
 20
0.0
 30
0.0
  9
$UCSORGBACK
 10
0.0
 20
0.0
 30
0.0
  9
$PUCSBASE
  2

  9
$PUCSNAME
  2

  9
$PUCSORG
 10
0.0
 20
0.0
 30
0.0
  9
$PUCSXDIR
 10
1.0
 20
0.0
 30
0.0
  9
$PUCSYDIR
 10
0.0
 20
1.0
 30
0.0
  9
$PUCSORTHOREF
  2

  9
$PUCSORTHOVIEW
 70
     0
  9
$PUCSORGTOP
 10
0.0
 20
0.0
 30
0.0
  9
$PUCSORGBOTTOM
 10
0.0
 20
0.0
 30
0.0
  9
$PUCSORGLEFT
 10
0.0
 20
0.0
 30
0.0
  9
$PUCSORGRIGHT
 10
0.0
 20
0.0
 30
0.0
  9
$PUCSORGFRONT
 10
0.0
 20
0.0
 30
0.0
  9
$PUCSORGBACK
 10
0.0
 20
0.0
 30
0.0
  9
$USERI1
 70
     0
  9
$USERI2
 70
     0
  9
$USERI3
 70
     0
  9
$USERI4
 70
     0
  9
$USERI5
 70
     0
  9
$USERR1
 40
0.0
  9
$USERR2
 40
0.0
  9
$USERR3
 40
0.0
  9
$USERR4
 40
0.0
  9
$USERR5
 40
0.0
  9
$WORLDVIEW
 70
     1
  9
$SHADEDGE
 70
     3
  9
$SHADEDIF
 70
    70
  9
$TILEMODE
 70
     1
  9
$MAXACTVP
 70
    48
  9
$PINSBASE
 10
0.0
 20
0.0
 30
0.0
  9
$PLIMCHECK
 70
     0
  9
$PEXTMIN
 10
1.000000000000000E+20
 20
1.000000000000000E+20
 30
1.000000000000000E+20
  9
$PEXTMAX
 10
-1.000000000000000E+20
 20
-1.000000000000000E+20
 30
-1.000000000000000E+20
  9
$PLIMMIN
 10
0.0
 20
0.0
  9
$PLIMMAX
 10
12.0
 20
9.0
  9
$UNITMODE
 70
     0
  9
$VISRETAIN
 70
     1
  9
$PLINEGEN
 70
     0
  9
$PSLTSCALE
 70
     0
  9
$TREEDEPTH
 70
  3020
  9
$CMLSTYLE
  2
Standard
  9
$CMLJUST
 70
     0
  9
$CMLSCALE
 40
1.0
  9
$PROXYGRAPHICS
 70
     1
  9
$MEASUREMENT
 70
     0
  9
$CELWEIGHT
370
    -1
  9
$ENDCAPS
280
     0
  9
$JOINSTYLE
280
     0
  9
$LWDISPLAY
290
     0
  9
$INSUNITS
 70
     0
  9
$HYPERLINKBASE
  1

  9
$STYLESHEET
  1

  9
$XEDIT
290
     1
  9
$CEPSNTYPE
380
     0
  9
$PSTYLEMODE
290
     1
  9
$FINGERPRINTGUID
  2
{77095E5F-9CE7-11D7-970D-0040F4541FA8}
  9
$VERSIONGUID
  2
{4505004A-24E8-4714-B63D-3E277646377C}
  9
$EXTNAMES
290
     1
  9
$PSVPSCALE
 40
0.0
  9
$OLESTARTUP
290
     0
  0
ENDSEC
  0
SECTION
  2
CLASSES
  0
CLASS
  1
ACDBDICTIONARYWDFLT
  2
AcDbDictionaryWithDefault
  3
ObjectDBX Classes
 90
        0
280
     0
281
     0
  0
CLASS
  1
ACDBPLACEHOLDER
  2
AcDbPlaceHolder
  3
ObjectDBX Classes
 90
        0
280
     0
281
     0
  0
CLASS
  1
LAYOUT
  2
AcDbLayout
  3
ObjectDBX Classes
 90
        0
280
     0
281
     0
  0
CLASS
  1
LONG_TRANSACTION
  2
AcDbLongTransaction
  3
ObjectDBX Classes
 90
    32768
280
     0
281
     0
  0
CLASS
  1
LWPOLYLINE
  2
AcDbPolyline
  3
ObjectDBX Classes
 90
        0
280
     0
281
     1
  0
CLASS
  1
HATCH
  2
AcDbHatch
  3
ObjectDBX Classes
 90
    32768
280
     0
281
     1
  0
CLASS
  1
XRECORD
  2
AcDbXrecord
  3
ObjectDBX Classes
 90
        0
280
     0
281
     0
  0
CLASS
  1
LONG_TRANSACTION
  2
AcDbLongTransaction
  3
ObjectDBX Classes
 90
    32768
280
     0
281
     0
  0
CLASS
  1
LWPOLYLINE
  2
AcDbPolyline
  3
ObjectDBX Classes
 90
        0
280
     0
281
     1
  0
CLASS
  1
HATCH
  2
AcDbHatch
  3
ObjectDBX Classes
 90
    32768
280
     0
281
     1
  0
CLASS
  1
XRECORD
  2
AcDbXrecord
  3
ObjectDBX Classes
 90
        0
280
     0
281
     0
  0
CLASS
  1
DICTIONARYVAR
  2
AcDbDictionaryVar
  3
ObjectDBX Classes
 90
        0
280
     0
281
     0
  0
CLASS
  1
PLOTSETTINGS
  2
AcDbPlotSettings
  3
ObjectDBX Classes
 90
        0
280
     0
281
     0
  0
CLASS
  1
SORTENTSTABLE
  2
AcDbSortentsTable
  3
ObjectDBX Classes
 90
        0
280
     0
281
     0
  0
CLASS
  1
TABLESTYLE
  2
AcDbTableStyle
  3
ObjectDBX Classes
 90
     2047
280
     0
281
     0
  0
ENDSEC
  0
SECTION
  2
TABLES
  0
TABLE
  2
VPORT
  5
8
330
0
100
AcDbSymbolTable
 70
     4
  0
VPORT
  5
EACA
330
8
100
AcDbSymbolTableRecord
100
AcDbViewportTableRecord
  2
*Active
 70
     0
 10
0.0
 20
0.0
 11
1.0
 21
1.0
 12
2330.390958602977
 22
1186.830828862286
 13
457.9999999999997
 23
1082.0
 14
10.0
 24
10.0
 15
10.0
 25
10.0
 16
0.0
 26
0.0
 36
1.0
 17
0.0
 27
0.0
 37
0.0
 40
233.8005715074937
 41
1.530456852791878
 42
1.0
 43
0.0
 44
0.0
 50
0.0
 51
0.0
 71
     0
 72
  2000
 73
     1
 74
     1
 75
     0
 76
     0
 77
     0
 78
     0
281
     0
 65
     1
110
0.0
120
0.0
130
0.0
111
1.0
121
0.0
131
0.0
112
0.0
122
1.0
132
0.0
 79
     0
146
0.0
  0
ENDTAB
  0
TABLE
  2
LTYPE
  5
5
330
0
100
AcDbSymbolTable
 70
     6
  0
LTYPE
  5
13
330
5
100
AcDbSymbolTableRecord
100
AcDbLinetypeTableRecord
  2
ByBlock
 70
     0
  3

 72
    65
 73
     0
 40
0.0
  0
LTYPE
  5
14
330
5
100
AcDbSymbolTableRecord
100
AcDbLinetypeTableRecord
  2
ByLayer
 70
     0
  3

 72
    65
 73
     0
 40
0.0
  0
LTYPE
  5
15
330
5
100
AcDbSymbolTableRecord
100
AcDbLinetypeTableRecord
  2
CONTINUOUS
 70
     0
  3
連續線 ________________________
 72
    65
 73
     0
 40
0.0
  0
LTYPE
  5
225
330
5
100
AcDbSymbolTableRecord
100
AcDbLinetypeTableRecord
  2
BYBLOCK
 70
     0
  3
Solid line
 72
    65
 73
     0
 40
0.0
  0
LTYPE
  5
226
330
5
100
AcDbSymbolTableRecord
100
AcDbLinetypeTableRecord
  2
BYLAYER
 70
     0
  3
Solid line
 72
    65
 73
     0
 40
0.0
  0
LTYPE
  5
413C
330
5
100
AcDbSymbolTableRecord
100
AcDbLinetypeTableRecord
  2
CENTER2
 70
     0
  3
Center (.5x) ___ _ ___ _ ___ _ ___ _ ___ _ ___
 72
    65
 73
     4
 40
28.575
 49
19.05
 74
     0
 49
-3.174999999999999
 74
     0
 49
3.174999999999999
 74
     0
 49
-3.174999999999999
 74
     0
  0
LTYPE
  5
413D
330
5
100
AcDbSymbolTableRecord
100
AcDbLinetypeTableRecord
  2
DASHED2
 70
     0
  3
Dashed (.5x) _ _ _ _ _ _ _ _ _ _ _ _ _ _ _ _ _
 72
    65
 73
     2
 40
9.524999999999998
 49
6.349999999999999
 74
     0
 49
-3.174999999999999
 74
     0
  0
LTYPE
  5
69DC
330
5
100
AcDbSymbolTableRecord
100
AcDbLinetypeTableRecord
  2
DASHED
 70
     0
  3
__ __ __ __ __ __ __ __ __ __ __ __ __ __ __
 72
    65
 73
     2
 40
4.0
 49
3.0
 74
     0
 49
-1.0
 74
     0
  0
ENDTAB
  0
TABLE
  2
LAYER
  5
2
102
{ACAD_XDICTIONARY
360
43C2
102
}
330
0
100
AcDbSymbolTable
 70
     7
  0
LAYER
  5
10
330
2
100
AcDbSymbolTableRecord
100
AcDbLayerTableRecord
  2
0
 70
     0
 62
     7
  6
CONTINUOUS
370
    -3
390
F
  0
LAYER
  5
413E
330
2
100
AcDbSymbolTableRecord
100
AcDbLayerTableRecord
  2
指線
 70
     0
 62
     3
  6
CONTINUOUS
370
    15
390
F
  0
LAYER
  5
413F
330
2
100
AcDbSymbolTableRecord
100
AcDbLayerTableRecord
  2
中心線
 70
     0
 62
     4
  6
CENTER2
370
    20
390
F
  0
LAYER
  5
4140
330
2
100
AcDbSymbolTableRecord
100
AcDbLayerTableRecord
  2
虛線
 70
     0
 62
     6
  6
DASHED2
290
     0
370
    -3
390
F
  0
LAYER
  5
43B4
330
2
100
AcDbSymbolTableRecord
100
AcDbLayerTableRecord
  2
建構線
 70
     0
 62
     1
  6
CONTINUOUS
370
    -3
390
F
  0
LAYER
  5
69DF
330
2
100
AcDbSymbolTableRecord
100
AcDbLayerTableRecord
  2
標註線
 70
     0
 62
     3
  6
CONTINUOUS
370
    13
390
F
  0
LAYER
  5
C701
330
2
100
AcDbSymbolTableRecord
100
AcDbLayerTableRecord
  2
Defpoints
 70
     0
 62
     7
  6
CONTINUOUS
290
     0
370
    -3
390
F
  0
ENDTAB
  0
TABLE
  2
STYLE
  5
3
330
0
100
AcDbSymbolTable
 70
     1
  0
STYLE
  5
11
330
3
100
AcDbSymbolTableRecord
100
AcDbTextStyleTableRecord
  2
STANDARD
 70
     0
 40
0.0
 41
1.0
 50
0.0
 71
     0
 42
3.0
  3

  4

  0
ENDTAB
  0
TABLE
  2
VIEW
  5
6
330
0
100
AcDbSymbolTable
 70
     0
  0
ENDTAB
  0
TABLE
  2
UCS
  5
7
330
0
100
AcDbSymbolTable
 70
     0
  0
ENDTAB
  0
TABLE
  2
APPID
  5
9
330
0
100
AcDbSymbolTable
 70
     4
  0
APPID
  5
12
330
9
100
AcDbSymbolTableRecord
100
AcDbRegAppTableRecord
  2
ACAD
 70
     0
  0
APPID
  5
230
330
9
100
AcDbSymbolTableRecord
100
AcDbRegAppTableRecord
  2
TCAD
 70
     0
  0
APPID
  5
4142
330
9
100
AcDbSymbolTableRecord
100
AcDbRegAppTableRecord
  2
CONTENTBLOCKICON
 70
     0
  0
APPID
  5
5D91
330
9
100
AcDbSymbolTableRecord
100
AcDbRegAppTableRecord
  2
pntflag
 70
     0
  0
ENDTAB
  0
TABLE
  2
DIMSTYLE
  5
A
330
0
100
AcDbSymbolTable
 70
     1
100
AcDbDimStyleTable
 71
     1
340
3C9D
  0
DIMSTYLE
105
3C9D
330
A
100
AcDbSymbolTableRecord
100
AcDbDimStyleTableRecord
  2
Standard
 70
     0
340
11
  0
ENDTAB
  0
TABLE
  2
BLOCK_RECORD
  5
1
330
0
100
AcDbSymbolTable
 70
     2
  0
BLOCK_RECORD
  5
1E
102
{ACAD_XDICTIONARY
360
3D1E
102
}
330
1
100
AcDbSymbolTableRecord
100
AcDbBlockTableRecord
  2
*Model_Space
340
21
  0
BLOCK_RECORD
  5
1A
102
{ACAD_XDICTIONARY
360
3D20
102
}
330
1
100
AcDbSymbolTableRecord
100
AcDbBlockTableRecord
  2
*Paper_Space
340
1D
  0
BLOCK_RECORD
  5
69B7
102
{ACAD_XDICTIONARY
360
69B8
102
}
330
1
100
AcDbSymbolTableRecord
100
AcDbBlockTableRecord
  2
A$C51E2538E
340
0
102
{BLKREFS
331
9B2A
102
}
  0
BLOCK_RECORD
  5
69CB
102
{ACAD_XDICTIONARY
360
69CC
102
}
330
1
100
AcDbSymbolTableRecord
100
AcDbBlockTableRecord
  2
A$C3310154B
340
0
  0
ENDTAB
  0
ENDSEC
  0
SECTION
  2
BLOCKS
  0
BLOCK
  5
254
330
1E
100
AcDbEntity
  8
0
100
AcDbBlockBegin
  2
*Model_Space
 70
     0
 10
0.0
 20
0.0
 30
0.0
  3
*Model_Space
  1

  0
ENDBLK
  5
255
330
1E
100
AcDbEntity
  8
0
100
AcDbBlockEnd
  0
BLOCK
  5
252
330
1A
100
AcDbEntity
 67
     1
  8
0
100
AcDbBlockBegin
  2
*Paper_Space
 70
     0
 10
0.0
 20
0.0
 30
0.0
  3
*Paper_Space
  1

  0
ENDBLK
  5
253
330
1A
100
AcDbEntity
 67
     1
  8
0
100
AcDbBlockEnd
  0
BLOCK
  5
69BA
330
69B7
100
AcDbEntity
  8
0
 62
     1
 48
0.27
100
AcDbBlockBegin
  2
A$C51E2538E
 70
     0
 10
0.0
 20
0.0
 30
0.0
  3
A$C51E2538E
  1

  0
LINE
  5
69BB
330
69B7
100
AcDbEntity
  8
虛線
 48
0.25
100
AcDbLine
 10
9.230939415452212
 20
1.99838789798423
 30
0.0
 11
2.230939415459943
 21
1.998387897983548
 31
0.0
  0
LINE
  5
69BC
330
69B7
100
AcDbEntity
  8
虛線
 48
0.25
100
AcDbLine
 10
9.230939415453576
 20
15.79841841556197
 30
0.0
 11
9.230939415452212
 21
1.99838789798423
 31
0.0
  0
LINE
  5
69BD
330
69B7
100
AcDbEntity
  8
虛線
 48
0.25
100
AcDbLine
 10
0.2309394154581241
 20
24.698418415562
 30
0.0
 11
0.2309394154590336
 21
16.09842604495623
 31
0.0
  0
LINE
  5
69BE
330
69B7
100
AcDbEntity
  8
虛線
 48
0.25
100
AcDbLine
 10
2.230939415453576
 20
15.79841841556191
 30
0.0
 11
2.230939415459943
 21
1.998387897983576
 31
0.0
  0
LINE
  5
69BF
330
69B7
100
AcDbEntity
  8
虛線
 48
0.25
100
AcDbLine
 10
0.2309394154590336
 20
16.09835738040544
 30
0.0
 11
11.23093941545221
 21
16.09835738040573
 31
0.0
  0
LINE
  5
69C0
330
69B7
100
AcDbEntity
  8
中心線
 48
0.25
100
AcDbLine
 10
5.730939415455679
 20
27.09841841556201
 30
0.0
 11
5.730939415449938
 21
0.0
 31
0.0
  0
LINE
  5
69C1
330
69B7
100
AcDbEntity
  8
虛線
 48
0.25
100
AcDbLine
 10
2.230939415459943
 20
1.998387897983548
 30
0.0
 11
1.730939415460852
 21
1.498387897984002
 31
0.0
  0
LINE
  5
69C2
330
69B7
100
AcDbEntity
  8
虛線
 48
0.25
100
AcDbLine
 10
9.230939415452212
 20
1.99838789798423
 30
0.0
 11
9.730939415451302
 21
1.498387897984287
 31
0.0
  0
LINE
  5
69C3
330
69B7
100
AcDbEntity
  8
虛線
 48
0.25
100
AcDbLine
 10
11.23093941545358
 20
24.698418415562
 30
0.0
 11
11.23093941545221
 21
16.09835738040573
 31
0.0
  0
LINE
  5
69C4
330
69B7
100
AcDbEntity
  8
虛線
 48
0.25
100
AcDbLine
 10
0.2309394154535767
 20
24.698418415562
 30
0.0
 11
11.23093941545358
 21
24.698418415562
 31
0.0
  0
LINE
  5
69C5
330
69B7
100
AcDbEntity
  8
虛線
 48
0.25
100
AcDbLine
 10
2.230939415453576
 20
15.79841841556197
 30
0.0
 11
9.230939415453576
 21
15.79841841556197
 31
0.0
  0
LINE
  5
69C6
330
69B7
100
AcDbEntity
  8
虛線
 48
0.25
100
AcDbLine
 10
1.930939415453394
 20
16.09841841556192
 30
0.0
 11
2.230939415453576
 21
15.79841841556191
 31
0.0
  0
LINE
  5
69C7
330
69B7
100
AcDbEntity
  8
虛線
 48
0.25
100
AcDbLine
 10
0.2309394154535767
 20
24.698418415562
 30
0.0
 11
-0.0000006922223292
 21
25.09841841556204
 31
0.0
  0
LINE
  5
69C8
330
69B7
100
AcDbEntity
  8
虛線
 48
0.25
100
AcDbLine
 10
9.230939415453576
 20
15.79841841556197
 30
0.0
 11
9.530939415453758
 21
16.09841841556198
 31
0.0
  0
LINE
  5
69C9
330
69B7
100
AcDbEntity
  8
虛線
 48
0.25
100
AcDbLine
 10
11.23093941545358
 20
24.698418415562
 30
0.0
 11
11.46187952312948
 21
25.09841841556204
 31
0.0
  0
ENDBLK
  5
69CA
330
69B7
100
AcDbEntity
  8
0
 62
     1
 48
0.27
100
AcDbBlockEnd
  0
BLOCK
  5
69CE
330
69CB
100
AcDbEntity
  8
0
 62
     1
 48
0.27
100
AcDbBlockBegin
  2
A$C3310154B
 70
     0
 10
0.0
 20
0.0
 30
0.0
  3
A$C3310154B
  1

  0
LINE
  5
69CF
330
69CB
100
AcDbEntity
  8
虛線
 48
0.2
100
AcDbLine
 10
0.4999707651827521
 20
12.80115016654724
 30
0.0
 11
0.4999707651836616
 21
5.30113016654775
 31
0.0
  0
LINE
  5
69D0
330
69CB
100
AcDbEntity
  8
虛線
 48
0.2
100
AcDbLine
 10
6.499970765181842
 20
12.80111016654831
 30
0.0
 11
6.499970765183661
 21
5.301130166548432
 31
0.0
  0
LINE
  5
69D1
330
69CB
100
AcDbEntity
  8
虛線
 48
0.2
100
AcDbLine
 10
6.499970765183661
 20
5.301130166548432
 30
0.0
 11
0.4999707651836616
 21
5.30113016654775
 31
0.0
  0
LINE
  5
69D2
330
69CB
100
AcDbEntity
  8
中心線
 48
0.25
100
AcDbLine
 10
3.49999076518344
 20
15.30112016654811
 30
0.0
 11
3.499990765177699
 21
0.000000166540076
 31
0.0
  0
LINE
  5
69D3
330
69CB
100
AcDbEntity
  8
虛線
 48
0.2
100
AcDbLine
 10
5.999980765182044
 20
12.30112016654846
 30
0.0
 11
5.999980765187501
 21
2.30113016655747
 31
0.0
  0
LINE
  5
69D4
330
69CB
100
AcDbEntity
  8
虛線
 48
0.2
100
AcDbLine
 10
1.000000765181994
 20
12.30112016654812
 30
0.0
 11
1.000000765187905
 21
2.301130166554685
 31
0.0
  0
LINE
  5
69D5
330
69CB
100
AcDbEntity
  8
虛線
 48
0.2
100
AcDbLine
 10
5.999980765187501
 20
2.30113016655747
 30
0.0
 11
1.000000765187905
 21
2.301130166554685
 31
0.0
  0
LINE
  5
69D6
330
69CB
100
AcDbEntity
  8
虛線
 48
0.2
100
AcDbLine
 10
5.999980765182499
 20
12.3011201665484
 30
0.0
 11
1.000000765181994
 21
12.30112016654817
 31
0.0
  0
LINE
  5
69D7
330
69CB
100
AcDbEntity
  8
虛線
 48
0.2
100
AcDbLine
 10
5.999980765182044
 20
12.3011201665484
 30
0.0
 11
6.999980765182499
 21
13.30112016654863
 31
0.0
  0
LINE
  5
69D8
330
69CB
100
AcDbEntity
  8
虛線
 48
0.2
100
AcDbLine
 10
5.999980765187956
 20
2.301130166557413
 30
0.0
 11
3.499990765183611
 21
0.801130166544965
 31
0.0
  0
LINE
  5
69D9
330
69CB
100
AcDbEntity
  8
虛線
 48
0.2
100
AcDbLine
 10
1.000000765187905
 20
2.30113016657259
 30
0.0
 11
3.499990765178154
 21
0.801130166544965
 31
0.0
  0
LINE
  5
69DA
330
69CB
100
AcDbEntity
  8
虛線
 48
0.2
100
AcDbLine
 10
1.00000076518495
 20
12.30112016654834
 30
0.0
 11
0.0000007651844385
 21
13.30112016654854
 31
0.0
  0
ENDBLK
  5
69DB
330
69CB
100
AcDbEntity
  8
0
 62
     1
 48
0.27
100
AcDbBlockEnd
  0
ENDSEC
  0
SECTION
  2
ENTITIES
  0
CIRCLE
  5
9AA3
330
1E
100
AcDbEntity
  8
0
  6
Continuous
 62
     7
100
AcDbCircle
 10
2432.090018383086
 20
1248.877892760259
 30
0.0
 40
0.5
  0
CIRCLE
  5
9AA4
330
1E
100
AcDbEntity
  8
0
  6
Continuous
 62
     7
100
AcDbCircle
 10
2432.090018383086
 20
1248.877892760259
 30
0.0
 40
5.15
  0
CIRCLE
  5
9AA5
330
1E
100
AcDbEntity
  8
0
  6
Continuous
 62
     7
100
AcDbCircle
 10
2339.090018383086
 20
1248.877892760259
 30
0.0
 40
0.5
  0
CIRCLE
  5
9AA6
330
1E
100
AcDbEntity
  8
0
  6
Continuous
 62
     7
100
AcDbCircle
 10
2339.090018383086
 20
1248.877892760259
 30
0.0
 40
5.15
  0
CIRCLE
  5
9AA7
330
1E
100
AcDbEntity
  8
0
  6
Continuous
 62
     7
100
AcDbCircle
 10
2337.840018383086
 20
1160.210806203117
 30
0.0
 40
2.9999563091
  0
CIRCLE
  5
9AA8
330
1E
100
AcDbEntity
  8
0
  6
Continuous
 62
     7
100
AcDbCircle
 10
2337.840018383086
 20
1160.210806203117
 30
0.0
 40
0.75
  0
CIRCLE
  5
9AA9
330
1E
100
AcDbEntity
  8
0
  6
Continuous
 62
     7
100
AcDbCircle
 10
2337.840018383086
 20
1160.210806203117
 30
0.0
 40
2.5
  0
CIRCLE
  5
9AAA
330
1E
100
AcDbEntity
  8
0
  6
Continuous
 62
     7
100
AcDbCircle
 10
2433.340018383086
 20
1160.210806203117
 30
0.0
 40
2.9999563091
  0
CIRCLE
  5
9AAB
330
1E
100
AcDbEntity
  8
0
  6
Continuous
 62
     7
100
AcDbCircle
 10
2433.340018383086
 20
1160.210806203117
 30
0.0
 40
0.75
  0
CIRCLE
  5
9AAC
330
1E
100
AcDbEntity
  8
0
  6
Continuous
 62
     7
100
AcDbCircle
 10
2433.340018383086
 20
1160.210806203117
 30
0.0
 40
2.5
  0
LINE
  5
9AAD
330
1E
100
AcDbEntity
  8
0
  6
Continuous
 62
     7
100
AcDbLine
 10
2442.790018383086
 20
1225.37792276026
 30
0.0
 11
2442.790018383086
 21
1272.377862760259
 31
0.0
  0
LINE
  5
9AAE
330
1E
100
AcDbEntity
  8
0
  6
Continuous
 62
     7
100
AcDbLine
 10
2440.590018383086
 20
1272.377862760259
 30
0.0
 11
2440.590018383086
 21
1225.37792276026
 31
0.0
  0
LINE
  5
9AAF
330
1E
100
AcDbEntity
  8
0
  6
Continuous
 62
     7
100
AcDbLine
 10
2426.090018383086
 20
1283.877922760261
 30
0.0
 11
2426.090018383086
 21
1213.877922760261
 31
0.0
  0
LINE
  5
9AB0
330
1E
100
AcDbEntity
  8
0
  6
Continuous
 62
     7
100
AcDbLine
 10
2440.590018383086
 20
1272.377862760259
 30
0.0
 11
2442.790018383086
 21
1272.377862760259
 31
0.0
  0
LINE
  5
9AB1
330
1E
100
AcDbEntity
  8
0
  6
Continuous
 62
     7
100
AcDbLine
 10
2426.090018383086
 20
1272.377862760259
 30
0.0
 11
2440.090018383086
 21
1272.377862760259
 31
0.0
  0
LINE
  5
9AB2
330
1E
100
AcDbEntity
  8
0
  6
Continuous
 62
     7
100
AcDbLine
 10
2330.590018383086
 20
1272.377862760259
 30
0.0
 11
2328.390018383085
 21
1272.377862760259
 31
0.0
  0
LINE
  5
9AB3
330
1E
100
AcDbEntity
  8
0
  6
Continuous
 62
     7
100
AcDbLine
 10
2345.090018383086
 20
1272.377862760259
 30
0.0
 11
2330.590018383086
 21
1272.377862760259
 31
0.0
  0
LINE
  5
9AB4
330
1E
100
AcDbEntity
  8
0
  6
Continuous
 62
     7
100
AcDbLine
 10
2440.590018383086
 20
1272.377862760259
 30
0.0
 11
2440.090018383086
 21
1272.377862760259
 31
0.0
  0
LINE
  5
9AB5
330
1E
100
AcDbEntity
  8
0
  6
Continuous
 62
     7
100
AcDbLine
 10
2440.590018383086
 20
1271.27786276026
 30
0.0
 11
2442.790018383086
 21
1271.27786276026
 31
0.0
  0
LINE
  5
9AB6
330
1E
100
AcDbEntity
  8
0
  6
Continuous
 62
     7
100
AcDbLine
 10
2426.090018383086
 20
1271.27786276026
 30
0.0
 11
2440.590018383086
 21
1271.27786276026
 31
0.0
  0
LINE
  5
9AB7
330
1E
100
AcDbEntity
  8
0
  6
Continuous
 62
     7
100
AcDbLine
 10
2330.590018383086
 20
1271.27786276026
 30
0.0
 11
2328.390018383085
 21
1271.27786276026
 31
0.0
  0
LINE
  5
9AB8
330
1E
100
AcDbEntity
  8
0
  6
Continuous
 62
     7
100
AcDbLine
 10
2345.090018383086
 20
1271.27786276026
 30
0.0
 11
2330.590018383086
 21
1271.27786276026
 31
0.0
  0
LINE
  5
9AB9
330
1E
100
AcDbEntity
  8
0
  6
Continuous
 62
     7
100
AcDbLine
 10
2442.790018383086
 20
1260.377915130859
 30
0.0
 11
2495.590018383086
 21
1260.37791513086
 31
0.0
  0
LINE
  5
9ABA
330
1E
100
AcDbEntity
  8
0
  6
Continuous
 62
     7
100
AcDbLine
 10
2275.590018383086
 20
1260.37791513086
 30
0.0
 11
2328.390018383085
 21
1260.37791513086
 31
0.0
  0
LINE
  5
9ABD
330
1E
100
AcDbEntity
  8
0
  6
Continuous
 62
     7
100
AcDbLine
 10
2426.090018383086
 20
1256.37789276026
 30
0.0
 11
2440.590018383086
 21
1256.377884858381
 31
0.0
  0
LINE
  5
9ABE
330
1E
100
AcDbEntity
  8
0
  6
Continuous
 62
     7
100
AcDbLine
 10
2345.090018383086
 20
1256.37788894556
 30
0.0
 11
2330.590018383086
 21
1256.37788499462
 31
0.0
  0
LINE
  5
9ABF
330
1E
100
AcDbEntity
  8
0
  6
Continuous
 62
     7
100
AcDbLine
 10
2426.090018383086
 20
1255.877898959159
 30
0.0
 11
2440.590018383086
 21
1255.877883155402
 31
0.0
  0
LINE
  5
9AC0
330
1E
100
AcDbEntity
  8
0
  6
Continuous
 62
     7
100
AcDbLine
 10
2345.090018383086
 20
1255.87789276026
 30
0.0
 11
2330.590018383086
 21
1255.877883376792
 31
0.0
  0
LINE
  5
9AC1
330
1E
100
AcDbEntity
  8
0
  6
Continuous
 62
     7
100
AcDbLine
 10
2426.090018383086
 20
1241.87789276026
 30
0.0
 11
2440.590018383086
 21
1241.877902143831
 31
0.0
  0
LINE
  5
9AC2
330
1E
100
AcDbEntity
  8
0
  6
Continuous
 62
     7
100
AcDbLine
 10
2345.090018383086
 20
1241.87788656136
 30
0.0
 11
2330.590018383086
 21
1241.87790236522
 31
0.0
  0
LINE
  5
9AC3
330
1E
100
AcDbEntity
  8
0
  6
Continuous
 62
     7
100
AcDbLine
 10
2426.090018383086
 20
1241.37789657496
 30
0.0
 11
2440.590018383086
 21
1241.377900525899
 31
0.0
  0
LINE
  5
9AC4
330
1E
100
AcDbEntity
  8
0
  6
Continuous
 62
     7
100
AcDbLine
 10
2345.090018383086
 20
1241.37789276026
 30
0.0
 11
2330.590018383086
 21
1241.377900662138
 31
0.0
  0
LINE
  5
9AC7
330
1E
100
AcDbEntity
  8
0
  6
Continuous
 62
     7
100
AcDbLine
 10
2442.790018383086
 20
1237.37793038966
 30
0.0
 11
2495.590018383086
 21
1237.37793038966
 31
0.0
  0
LINE
  5
9AC8
330
1E
100
AcDbEntity
  8
0
  6
Continuous
 62
     7
100
AcDbLine
 10
2275.590018383086
 20
1237.37793038966
 30
0.0
 11
2317.434819525451
 21
1237.37793038966
 31
0.0
  0
LINE
  5
9AC9
330
1E
100
AcDbEntity
  8
0
  6
Continuous
 62
     7
100
AcDbLine
 10
2440.590018383086
 20
1226.47792276026
 30
0.0
 11
2442.790018383086
 21
1226.47792276026
 31
0.0
  0
LINE
  5
9ACA
330
1E
100
AcDbEntity
  8
0
  6
Continuous
 62
     7
100
AcDbLine
 10
2426.090018383086
 20
1226.47792276026
 30
0.0
 11
2440.590018383086
 21
1226.47792276026
 31
0.0
  0
LINE
  5
9ACB
330
1E
100
AcDbEntity
  8
0
  6
Continuous
 62
     7
100
AcDbLine
 10
2330.590018383086
 20
1226.47792276026
 30
0.0
 11
2328.390018383085
 21
1226.47792276026
 31
0.0
  0
LINE
  5
9ACC
330
1E
100
AcDbEntity
  8
0
  6
Continuous
 62
     7
100
AcDbLine
 10
2345.090018383086
 20
1226.47792276026
 30
0.0
 11
2330.590018383086
 21
1226.47792276026
 31
0.0
  0
LINE
  5
9ACD
330
1E
100
AcDbEntity
  8
0
  6
Continuous
 62
     7
100
AcDbLine
 10
2440.590018383086
 20
1225.37792276026
 30
0.0
 11
2442.790018383086
 21
1225.37792276026
 31
0.0
  0
LINE
  5
9ACE
330
1E
100
AcDbEntity
  8
0
  6
Continuous
 62
     7
100
AcDbLine
 10
2426.090018383086
 20
1225.37792276026
 30
0.0
 11
2440.590018383086
 21
1225.37792276026
 31
0.0
  0
LINE
  5
9ACF
330
1E
100
AcDbEntity
  8
0
  6
Continuous
 62
     7
100
AcDbLine
 10
2330.590018383086
 20
1225.37792276026
 30
0.0
 11
2328.390018383085
 21
1225.37792276026
 31
0.0
  0
LINE
  5
9AD0
330
1E
100
AcDbEntity
  8
0
  6
Continuous
 62
     7
100
AcDbLine
 10
2345.090018383086
 20
1225.37792276026
 30
0.0
 11
2330.590018383086
 21
1225.37792276026
 31
0.0
  0
LINE
  5
9AD1
330
1E
100
AcDbEntity
  8
0
  6
Continuous
 62
     7
100
AcDbLine
 10
2345.090018383086
 20
1213.877922760261
 30
0.0
 11
2345.090018383086
 21
1283.877922760261
 31
0.0
  0
LINE
  5
9AD2
330
1E
100
AcDbEntity
  8
0
  6
Continuous
 62
     7
100
AcDbLine
 10
2330.590018383086
 20
1225.37792276026
 30
0.0
 11
2330.590018383086
 21
1272.377862760259
 31
0.0
  0
LINE
  5
9AD3
330
1E
100
AcDbEntity
  8
0
  6
Continuous
 62
     7
100
AcDbLine
 10
2328.390018383085
 20
1225.37792276026
 30
0.0
 11
2328.390018383085
 21
1272.377862760259
 31
0.0
  0
LINE
  5
9AD4
330
1E
100
AcDbEntity
  8
0
  6
Continuous
 62
     7
100
AcDbLine
 10
2442.790018383086
 20
1135.710826203117
 30
0.0
 11
2442.790018383086
 21
1165.310806203117
 31
0.0
  0
LINE
  5
9AD5
330
1E
100
AcDbEntity
  8
0
  6
Continuous
 62
     7
100
AcDbLine
 10
2440.590018383086
 20
1135.710826203117
 30
0.0
 11
2440.590018383085
 21
1165.810806203117
 31
0.0
  0
LINE
  5
9AD6
330
1E
100
AcDbEntity
  8
0
  6
Continuous
 62
     7
100
AcDbLine
 10
2437.590018383086
 20
1142.295286510417
 30
0.0
 11
2437.590018383086
 21
1146.895286510417
 31
0.0
  0
LINE
  5
9AD7
330
1E
100
AcDbEntity
  8
0
  6
Continuous
 62
     7
100
AcDbLine
 10
2426.090018383086
 20
1166.210806203117
 30
0.0
 11
2426.090018383086
 21
1135.710836203117
 31
0.0
  0
LINE
  5
9AD8
330
1E
100
AcDbEntity
  8
0
  6
Continuous
 62
     7
100
AcDbLine
 10
2426.090018383086
 20
1165.810806203117
 30
0.0
 11
2440.590018383085
 21
1165.810806203117
 31
0.0
  0
LINE
  5
9AD9
330
1E
100
AcDbEntity
  8
0
  6
Continuous
 62
     7
100
AcDbLine
 10
2345.090018383086
 20
1165.810790944317
 30
0.0
 11
2330.590018383086
 21
1165.810806748074
 31
0.0
  0
LINE
  5
9ADA
330
1E
100
AcDbEntity
  8
0
  6
Continuous
 62
     7
100
AcDbLine
 10
2440.590018383086
 20
1165.310806203117
 30
0.0
 11
2442.790018383086
 21
1165.310806203117
 31
0.0
  0
LINE
  5
9ADB
330
1E
100
AcDbEntity
  8
0
  6
Continuous
 62
     7
100
AcDbLine
 10
2426.090018383086
 20
1165.310806203117
 30
0.0
 11
2440.590018383086
 21
1165.310806203117
 31
0.0
  0
LINE
  5
9ADC
330
1E
100
AcDbEntity
  8
0
  6
Continuous
 62
     7
100
AcDbLine
 10
2330.590018383086
 20
1165.310806203117
 30
0.0
 11
2328.390018383085
 21
1165.310806203117
 31
0.0
  0
LINE
  5
9ADD
330
1E
100
AcDbEntity
  8
0
  6
Continuous
 62
     7
100
AcDbLine
 10
2345.090018383086
 20
1165.310806203117
 30
0.0
 11
2330.590018383086
 21
1165.310806203117
 31
0.0
  0
LINE
  5
9ADE
330
1E
100
AcDbEntity
  8
0
  6
Continuous
 62
     7
100
AcDbLine
 10
2440.590018383086
 20
1164.210806203117
 30
0.0
 11
2442.790018383086
 21
1164.210806203117
 31
0.0
  0
LINE
  5
9ADF
330
1E
100
AcDbEntity
  8
0
  6
Continuous
 62
     7
100
AcDbLine
 10
2426.090018383086
 20
1164.210806203117
 30
0.0
 11
2440.590018383086
 21
1164.210806203117
 31
0.0
  0
LINE
  5
9AE0
330
1E
100
AcDbEntity
  8
0
  6
Continuous
 62
     7
100
AcDbLine
 10
2330.590018383086
 20
1164.210806203117
 30
0.0
 11
2328.390018383085
 21
1164.210806203117
 31
0.0
  0
LINE
  5
9AE1
330
1E
100
AcDbEntity
  8
0
  6
Continuous
 62
     7
100
AcDbLine
 10
2345.090018383086
 20
1164.210806203117
 30
0.0
 11
2330.590018383086
 21
1164.210806203117
 31
0.0
  0
LINE
  5
9AE2
330
1E
100
AcDbEntity
  8
0
  6
Continuous
 62
     7
100
AcDbLine
 10
2443.79505696847
 20
1153.810836720717
 30
0.0
 11
2495.590018383086
 21
1153.810836720717
 31
0.0
  0
LINE
  5
9AE3
330
1E
100
AcDbEntity
  8
0
  6
Continuous
 62
     7
100
AcDbLine
 10
2275.590018383086
 20
1153.810836720717
 30
0.0
 11
2327.384979797702
 21
1153.810836720717
 31
0.0
  0
LINE
  5
9AF6
330
1E
100
AcDbEntity
  8
0
  6
Continuous
 62
     7
100
AcDbLine
 10
2437.590018383086
 20
1146.895286510417
 30
0.0
 11
2440.590018383086
 21
1146.895286510417
 31
0.0
  0
LINE
  5
9AF7
330
1E
100
AcDbEntity
  8
0
  6
Continuous
 62
     7
100
AcDbLine
 10
2330.590018383086
 20
1146.895286510417
 30
0.0
 11
2333.590018383086
 21
1146.895286510417
 31
0.0
  0
LINE
  5
9AF8
330
1E
100
AcDbEntity
  8
0
  6
Continuous
 62
     7
100
AcDbLine
 10
2333.590018383086
 20
1142.295286510417
 30
0.0
 11
2330.590018383086
 21
1142.295286510417
 31
0.0
  0
LINE
  5
9AF9
330
1E
100
AcDbEntity
  8
0
  6
Continuous
 62
     7
100
AcDbLine
 10
2440.590018383086
 20
1142.295286510417
 30
0.0
 11
2437.590018383086
 21
1142.295286510417
 31
0.0
  0
LINE
  5
9B04
330
1E
100
AcDbEntity
  8
0
  6
Continuous
 62
     7
100
AcDbLine
 10
2426.090018383086
 20
1136.710836203117
 30
0.0
 11
2442.790018383086
 21
1136.710836203117
 31
0.0
  0
LINE
  5
9B05
330
1E
100
AcDbEntity
  8
0
  6
Continuous
 62
     7
100
AcDbLine
 10
2345.090018383086
 20
1136.710836203117
 30
0.0
 11
2328.390018383085
 21
1136.710836203117
 31
0.0
  0
LINE
  5
9B0C
330
1E
100
AcDbEntity
  8
0
  6
Continuous
 62
     7
100
AcDbLine
 10
2328.390018383085
 20
1135.710826203117
 30
0.0
 11
2442.790018383086
 21
1135.710826203117
 31
0.0
  0
LINE
  5
9B0E
330
1E
100
AcDbEntity
  8
0
  6
Continuous
 62
     7
100
AcDbLine
 10
2275.590018383086
 20
1130.210806203117
 30
0.0
 11
2495.590018383087
 21
1130.210806203117
 31
0.0
  0
LINE
  5
9B0F
330
1E
100
AcDbEntity
  8
0
  6
Continuous
 62
     7
100
AcDbLine
 10
2345.090018383086
 20
1166.210806203117
 30
0.0
 11
2345.090018383086
 21
1135.710826203117
 31
0.0
  0
LINE
  5
9B10
330
1E
100
AcDbEntity
  8
0
  6
Continuous
 62
     7
100
AcDbLine
 10
2333.590018383086
 20
1146.895286510417
 30
0.0
 11
2333.590018383086
 21
1142.295286510417
 31
0.0
  0
LINE
  5
9B11
330
1E
100
AcDbEntity
  8
0
  6
Continuous
 62
     7
100
AcDbLine
 10
2330.590018383086
 20
1135.710826203117
 30
0.0
 11
2330.590018383086
 21
1165.810806748074
 31
0.0
  0
LINE
  5
9B12
330
1E
100
AcDbEntity
  8
0
  6
Continuous
 62
     7
100
AcDbLine
 10
2328.390018383085
 20
1135.710826203117
 30
0.0
 11
2328.390018383085
 21
1165.310806203117
 31
0.0
  0
LINE
  5
9B15
330
1E
100
AcDbEntity
  8
0
 62
     0
 48
0.27
100
AcDbLine
 10
2275.590018383086
 20
1153.810836720717
 30
0.0
 11
2275.590018383086
 21
1130.210806203117
 31
0.0
  0
LINE
  5
9B16
330
1E
100
AcDbEntity
  8
0
 62
     0
 48
0.27
100
AcDbLine
 10
2495.590018383086
 20
1153.810836720717
 30
0.0
 11
2495.590018383087
 21
1130.210806203117
 31
0.0
  0
LINE
  5
9B18
330
1E
100
AcDbEntity
  8
虛線
 48
0.25
100
AcDbLine
 10
2359.090018383088
 20
1130.71080620312
 30
0.0
 11
2352.090018383095
 21
1130.710806203119
 31
0.0
  0
LINE
  5
9B19
330
1E
100
AcDbEntity
  8
虛線
 48
0.25
100
AcDbLine
 10
2359.090018383089
 20
1135.710836203118
 30
0.0
 11
2359.090018383088
 21
1130.71080620312
 31
0.0
  0
LINE
  5
9B1A
330
1E
100
AcDbEntity
  8
虛線
 48
0.25
100
AcDbLine
 10
2352.090018383094
 20
1135.710836203118
 30
0.0
 11
2352.090018383095
 21
1130.710806203119
 31
0.0
  0
LINE
  5
9B1B
330
1E
100
AcDbEntity
  8
中心線
 48
0.25
100
AcDbLine
 10
2355.590018383087
 20
1135.710836203118
 30
0.0
 11
2355.590018383086
 21
1128.712418305136
 31
0.0
  0
LINE
  5
9B1C
330
1E
100
AcDbEntity
  8
虛線
 48
0.25
100
AcDbLine
 10
2352.090018383095
 20
1130.710806203119
 30
0.0
 11
2351.590018383097
 21
1130.21080620312
 31
0.0
  0
LINE
  5
9B1D
330
1E
100
AcDbEntity
  8
虛線
 48
0.25
100
AcDbLine
 10
2359.090018383088
 20
1130.71080620312
 30
0.0
 11
2359.590018383087
 21
1130.210806203121
 31
0.0
  0
LINE
  5
9B1E
330
1E
100
AcDbEntity
  8
虛線
 48
0.25
100
AcDbLine
 10
2389.090018383088
 20
1130.71080620312
 30
0.0
 11
2382.090018383095
 21
1130.710806203119
 31
0.0
  0
LINE
  5
9B1F
330
1E
100
AcDbEntity
  8
虛線
 48
0.25
100
AcDbLine
 10
2389.090018383089
 20
1135.710836203118
 30
0.0
 11
2389.090018383088
 21
1130.71080620312
 31
0.0
  0
LINE
  5
9B20
330
1E
100
AcDbEntity
  8
虛線
 48
0.25
100
AcDbLine
 10
2382.090018383093
 20
1135.710836203118
 30
0.0
 11
2382.090018383095
 21
1130.710806203119
 31
0.0
  0
LINE
  5
9B21
330
1E
100
AcDbEntity
  8
中心線
 48
0.25
100
AcDbLine
 10
2385.590018383087
 20
1135.710836203118
 30
0.0
 11
2385.590018383085
 21
1128.712418305136
 31
0.0
  0
LINE
  5
9B22
330
1E
100
AcDbEntity
  8
虛線
 48
0.25
100
AcDbLine
 10
2382.090018383095
 20
1130.710806203119
 30
0.0
 11
2381.590018383096
 21
1130.21080620312
 31
0.0
  0
LINE
  5
9B23
330
1E
100
AcDbEntity
  8
虛線
 48
0.25
100
AcDbLine
 10
2389.090018383088
 20
1130.71080620312
 30
0.0
 11
2389.590018383087
 21
1130.210806203121
 31
0.0
  0
LINE
  5
9B24
330
1E
100
AcDbEntity
  8
虛線
 48
0.25
100
AcDbLine
 10
2419.090018383088
 20
1130.71080620312
 30
0.0
 11
2412.090018383096
 21
1130.710806203119
 31
0.0
  0
LINE
  5
9B25
330
1E
100
AcDbEntity
  8
虛線
 48
0.25
100
AcDbLine
 10
2419.090018383089
 20
1135.710836203118
 30
0.0
 11
2419.090018383088
 21
1130.71080620312
 31
0.0
  0
LINE
  5
9B26
330
1E
100
AcDbEntity
  8
虛線
 48
0.25
100
AcDbLine
 10
2412.090018383094
 20
1135.710836203118
 30
0.0
 11
2412.090018383096
 21
1130.710806203119
 31
0.0
  0
LINE
  5
9B27
330
1E
100
AcDbEntity
  8
中心線
 48
0.25
100
AcDbLine
 10
2415.590018383087
 20
1135.710836203118
 30
0.0
 11
2415.590018383086
 21
1128.712418305136
 31
0.0
  0
LINE
  5
9B28
330
1E
100
AcDbEntity
  8
虛線
 48
0.25
100
AcDbLine
 10
2412.090018383096
 20
1130.710806203119
 30
0.0
 11
2411.590018383096
 21
1130.21080620312
 31
0.0
  0
LINE
  5
9B29
330
1E
100
AcDbEntity
  8
虛線
 48
0.25
100
AcDbLine
 10
2419.090018383088
 20
1130.71080620312
 30
0.0
 11
2419.590018383087
 21
1130.210806203121
 31
0.0
  0
INSERT
  5
9B2A
330
1E
100
AcDbEntity
  8
0
 62
     1
 48
0.27
100
AcDbBlockReference
  2
A$C51E2538E
 10
2469.859078967636
 20
1128.712418305132
 30
0.0
  0
LINE
  5
9B2B
330
1E
100
AcDbEntity
  8
0
 62
     0
 48
0.27
100
AcDbLine
 10
2275.590018383086
 20
1237.37793038966
 30
0.0
 11
2275.590018383086
 21
1260.37791513086
 31
0.0
  0
LINE
  5
9B2C
330
1E
100
AcDbEntity
  8
0
 62
     0
 48
0.27
100
AcDbLine
 10
2495.590018383086
 20
1237.37793038966
 30
0.0
 11
2495.590018383086
 21
1260.37791513086
 31
0.0
  0
CIRCLE
  5
9B2D
330
1E
100
AcDbEntity
  8
0
 48
0.27
100
AcDbCircle
 10
2295.590018383091
 20
1248.877922760259
 30
0.0
 40
3.5
  0
CIRCLE
  5
9B2E
330
1E
100
AcDbEntity
  8
0
 48
0.27
100
AcDbCircle
 10
2295.590018383091
 20
1248.877922760259
 30
0.0
 40
5.5
  0
LINE
  5
9B2F
330
1E
100
AcDbEntity
  8
中心線
 48
0.2
100
AcDbLine
 10
2288.343100877365
 20
1248.877922760259
 30
0.0
 11
2302.836935888818
 21
1248.877922760259
 31
0.0
  0
LINE
  5
9B30
330
1E
100
AcDbEntity
  8
中心線
 48
0.2
100
AcDbLine
 10
2295.590018383091
 20
1241.631005254533
 30
0.0
 11
2295.590018383091
 21
1256.124840265986
 31
0.0
  0
ARC
  5
9B32
330
1E
100
AcDbEntity
  8
0
 48
0.27
100
AcDbCircle
 10
2325.590018383091
 20
1248.877922760259
 30
0.0
 40
5.5
100
AcDbArc
 50
59.39670539185569
 51
133.3422135659853
  0
ARC
  5
9B35
330
1E
100
AcDbEntity
  8
0
 48
0.27
100
AcDbCircle
 10
2445.590018383092
 20
1248.877922760259
 30
0.0
 40
3.5
100
AcDbArc
 50
216.8698976456955
 51
143.1301023543045
  0
ARC
  5
9B36
330
1E
100
AcDbEntity
  8
0
 48
0.27
100
AcDbCircle
 10
2445.590018383092
 20
1248.877922760259
 30
0.0
 40
5.5
100
AcDbArc
 50
239.3967053917328
 51
120.6032946082671
  0
LINE
  5
9B37
330
1E
100
AcDbEntity
  8
中心線
 48
0.2
100
AcDbLine
 10
2442.790018383086
 20
1248.877922760259
 30
0.0
 11
2452.836935888818
 21
1248.877922760259
 31
0.0
  0
LINE
  5
9B38
330
1E
100
AcDbEntity
  8
中心線
 48
0.2
100
AcDbLine
 10
2445.590018383092
 20
1241.631005254533
 30
0.0
 11
2445.590018383092
 21
1256.124840265986
 31
0.0
  0
CIRCLE
  5
9B39
330
1E
100
AcDbEntity
  8
0
 48
0.27
100
AcDbCircle
 10
2475.590018383091
 20
1248.877922760259
 30
0.0
 40
3.5
  0
CIRCLE
  5
9B3A
330
1E
100
AcDbEntity
  8
0
 48
0.27
100
AcDbCircle
 10
2475.590018383091
 20
1248.877922760259
 30
0.0
 40
5.5
  0
LINE
  5
9B3B
330
1E
100
AcDbEntity
  8
中心線
 48
0.2
100
AcDbLine
 10
2468.343100877365
 20
1248.877922760259
 30
0.0
 11
2482.836935888818
 21
1248.877922760259
 31
0.0
  0
LINE
  5
9B3C
330
1E
100
AcDbEntity
  8
中心線
 48
0.2
100
AcDbLine
 10
2475.590018383091
 20
1241.631005254533
 30
0.0
 11
2475.590018383091
 21
1256.124840265986
 31
0.0
  0
LINE
  5
9B3D
330
1E
100
AcDbEntity
  8
0
  6
Continuous
 62
     7
100
AcDbLine
 10
2438.290018383086
 20
1142.345286510417
 30
0.0
 11
2437.590018383086
 21
1142.345286510417
 31
0.0
  0
LINE
  5
9B3E
330
1E
100
AcDbEntity
  8
0
  6
Continuous
 62
     7
100
AcDbLine
 10
2437.590018383086
 20
1146.845286510417
 30
0.0
 11
2438.290018383086
 21
1146.845286510417
 31
0.0
  0
ARC
  5
9B3F
330
1E
100
AcDbEntity
  8
0
 62
     0
 48
0.27
100
AcDbCircle
 10
2438.290018383086
 20
1145.845286510417
 30
0.0
 40
1.000000000000028
100
AcDbArc
 50
0.0
 51
89.99999999998697
  0
ARC
  5
9B40
330
1E
100
AcDbEntity
  8
0
 62
     0
 48
0.27
100
AcDbCircle
 10
2438.290018383086
 20
1143.345286510417
 30
0.0
 40
1.000000000000014
100
AcDbArc
 50
270.0
 51
0.0
  0
LINE
  5
9B41
330
1E
100
AcDbEntity
  8
0
 62
     0
 48
0.27
100
AcDbLine
 10
2439.290018383086
 20
1145.845286510417
 30
0.0
 11
2439.290018383086
 21
1143.345286510417
 31
0.0
  0
LINE
  5
9B42
330
1E
100
AcDbEntity
  8
0
  6
Continuous
 62
     7
100
AcDbLine
 10
2332.890018383086
 20
1142.345286510417
 30
0.0
 11
2333.590018383086
 21
1142.345286510417
 31
0.0
  0
LINE
  5
9B43
330
1E
100
AcDbEntity
  8
0
  6
Continuous
 62
     7
100
AcDbLine
 10
2333.590018383086
 20
1146.845286510417
 30
0.0
 11
2332.890018383086
 21
1146.845286510417
 31
0.0
  0
ARC
  5
9B44
330
1E
100
AcDbEntity
  8
0
 62
     0
 48
0.27
100
AcDbCircle
 10
2332.890018383086
 20
1145.845286510417
 30
0.0
 40
1.000000000000028
100
AcDbArc
 50
90.0
 51
180.0
  0
ARC
  5
9B45
330
1E
100
AcDbEntity
  8
0
 62
     0
 48
0.27
100
AcDbCircle
 10
2332.890018383086
 20
1143.345286510417
 30
0.0
 40
1.000000000000014
100
AcDbArc
 50
180.0
 51
270.0
  0
LINE
  5
9B46
330
1E
100
AcDbEntity
  8
0
 62
     0
 48
0.27
100
AcDbLine
 10
2331.890018383086
 20
1145.845286510417
 30
0.0
 11
2331.890018383086
 21
1143.345286510417
 31
0.0
  0
ARC
  5
9B47
330
1E
100
AcDbEntity
  8
0
 62
     0
 48
0.27
100
AcDbCircle
 10
2440.290018383086
 20
1154.996039030439
 30
0.0
 40
3.700000000000045
100
AcDbArc
 50
312.506642302704
 51
47.49335769729603
  0
ARC
  5
9B48
330
1E
100
AcDbEntity
  8
0
 62
     0
 48
0.27
100
AcDbCircle
 10
2330.890018383086
 20
1154.996039030439
 30
0.0
 40
3.700000000000045
100
AcDbArc
 50
132.5066423027039
 51
227.493357697296
  0
LINE
  5
9B49
330
1E
100
AcDbEntity
  8
中心線
 48
0.2
100
AcDbLine
 10
2325.726291684707
 20
1154.99603903049
 30
0.0
 11
2331.390018383086
 21
1154.99603903049
 31
0.0
  0
LINE
  5
9B4A
330
1E
100
AcDbEntity
  8
中心線
 48
0.2
100
AcDbLine
 10
2445.453745081464
 20
1154.99603903049
 30
0.0
 11
2439.790018383086
 21
1154.99603903049
 31
0.0
  0
ARC
  5
9B4B
330
1E
100
AcDbEntity
  8
0
 62
     0
 48
0.27
100
AcDbCircle
 10
2440.290018383086
 20
1230.377922760209
 30
0.0
 40
3.700000000000045
100
AcDbArc
 50
312.506642302704
 51
47.49335769729603
  0
LINE
  5
9B4C
330
1E
100
AcDbEntity
  8
中心線
 48
0.2
100
AcDbLine
 10
2445.453745081464
 20
1230.37792276026
 30
0.0
 11
2439.790018383086
 21
1230.37792276026
 31
0.0
  0
ARC
  5
9B4D
330
1E
100
AcDbEntity
  8
0
 62
     0
 48
0.27
100
AcDbCircle
 10
2440.290018383086
 20
1267.377922760209
 30
0.0
 40
3.700000000000045
100
AcDbArc
 50
312.506642302704
 51
47.49335769729603
  0
LINE
  5
9B4E
330
1E
100
AcDbEntity
  8
中心線
 48
0.2
100
AcDbLine
 10
2445.453745081464
 20
1267.37792276026
 30
0.0
 11
2439.790018383086
 21
1267.37792276026
 31
0.0
  0
ARC
  5
9B4F
330
1E
100
AcDbEntity
  8
0
 62
     0
 48
0.27
100
AcDbCircle
 10
2330.890018383086
 20
1230.377922760209
 30
0.0
 40
3.700000000000045
100
AcDbArc
 50
132.5066423027039
 51
227.493357697296
  0
LINE
  5
9B50
330
1E
100
AcDbEntity
  8
中心線
 48
0.2
100
AcDbLine
 10
2325.726291684707
 20
1230.37792276026
 30
0.0
 11
2331.390018383086
 21
1230.37792276026
 31
0.0
  0
ARC
  5
9B51
330
1E
100
AcDbEntity
  8
0
 62
     0
 48
0.27
100
AcDbCircle
 10
2330.890018383086
 20
1267.377922760209
 30
0.0
 40
3.700000000000045
100
AcDbArc
 50
132.5066423027039
 51
227.493357697296
  0
LINE
  5
9B52
330
1E
100
AcDbEntity
  8
中心線
 48
0.2
100
AcDbLine
 10
2325.726291684707
 20
1267.37792276026
 30
0.0
 11
2331.390018383086
 21
1267.37792276026
 31
0.0
  0
LINE
  5
9B53
330
1E
100
AcDbEntity
  8
虛線
 48
0.25
100
AcDbLine
 10
2449.090018383088
 20
1130.710806203116
 30
0.0
 11
2442.090018383096
 21
1130.710806203115
 31
0.0
  0
LINE
  5
9B54
330
1E
100
AcDbEntity
  8
虛線
 48
0.25
100
AcDbLine
 10
2449.090018383089
 20
1144.510836720694
 30
0.0
 11
2449.090018383088
 21
1130.710806203116
 31
0.0
  0
LINE
  5
9B55
330
1E
100
AcDbEntity
  8
虛線
 48
0.25
100
AcDbLine
 10
2442.090018383094
 20
1135.710826203117
 30
0.0
 11
2442.090018383096
 21
1130.710806203115
 31
0.0
  0
LINE
  5
9B56
330
1E
100
AcDbEntity
  8
虛線
 48
0.25
100
AcDbLine
 10
2442.790018383086
 20
1144.810775685537
 30
0.0
 11
2451.090018383088
 21
1144.810775685538
 31
0.0
  0
LINE
  5
9B57
330
1E
100
AcDbEntity
  8
中心線
 48
0.25
100
AcDbLine
 10
2445.590018383092
 20
1155.810836720694
 30
0.0
 11
2445.590018383086
 21
1128.712418305132
 31
0.0
  0
LINE
  5
9B58
330
1E
100
AcDbEntity
  8
虛線
 48
0.25
100
AcDbLine
 10
2442.090018383096
 20
1130.710806203115
 30
0.0
 11
2441.590018383096
 21
1130.210806203116
 31
0.0
  0
LINE
  5
9B59
330
1E
100
AcDbEntity
  8
虛線
 48
0.25
100
AcDbLine
 10
2449.090018383088
 20
1130.710806203116
 30
0.0
 11
2449.590018383088
 21
1130.210806203116
 31
0.0
  0
LINE
  5
9B5A
330
1E
100
AcDbEntity
  8
虛線
 48
0.25
100
AcDbLine
 10
2451.090018383089
 20
1153.410836720694
 30
0.0
 11
2451.090018383088
 21
1144.810775685538
 31
0.0
  0
LINE
  5
9B5B
330
1E
100
AcDbEntity
  8
虛線
 48
0.25
100
AcDbLine
 10
2443.633240427339
 20
1153.410836720694
 30
0.0
 11
2451.090018383089
 21
1153.410836720694
 31
0.0
  0
LINE
  5
9B5C
330
1E
100
AcDbEntity
  8
虛線
 48
0.25
100
AcDbLine
 10
2442.790018383086
 20
1144.510836720694
 30
0.0
 11
2449.090018383089
 21
1144.510836720694
 31
0.0
  0
LINE
  5
9B5D
330
1E
100
AcDbEntity
  8
虛線
 48
0.25
100
AcDbLine
 10
2449.090018383089
 20
1144.510836720694
 30
0.0
 11
2449.390018383089
 21
1144.810836720694
 31
0.0
  0
LINE
  5
9B5E
330
1E
100
AcDbEntity
  8
虛線
 48
0.25
100
AcDbLine
 10
2451.090018383089
 20
1153.410836720694
 30
0.0
 11
2451.320958490766
 21
1153.810836720694
 31
0.0
  0
LINE
  5
9B5F
330
1E
100
AcDbEntity
  8
虛線
 48
0.25
100
AcDbLine
 10
2329.090018383088
 20
1130.710806203116
 30
0.0
 11
2322.090018383096
 21
1130.710806203115
 31
0.0
  0
LINE
  5
9B60
330
1E
100
AcDbEntity
  8
虛線
 48
0.25
100
AcDbLine
 10
2329.090018383089
 20
1135.710826203117
 30
0.0
 11
2329.090018383088
 21
1130.710806203116
 31
0.0
  0
LINE
  5
9B61
330
1E
100
AcDbEntity
  8
虛線
 48
0.25
100
AcDbLine
 10
2320.090018383094
 20
1153.410836720694
 30
0.0
 11
2320.090018383095
 21
1144.810844350088
 31
0.0
  0
LINE
  5
9B62
330
1E
100
AcDbEntity
  8
虛線
 48
0.25
100
AcDbLine
 10
2322.090018383089
 20
1144.510836720694
 30
0.0
 11
2322.090018383096
 21
1130.710806203115
 31
0.0
  0
LINE
  5
9B63
330
1E
100
AcDbEntity
  8
虛線
 48
0.25
100
AcDbLine
 10
2320.090018383095
 20
1144.810775685537
 30
0.0
 11
2328.390018383085
 21
1144.810775685538
 31
0.0
  0
LINE
  5
9B64
330
1E
100
AcDbEntity
  8
中心線
 48
0.25
100
AcDbLine
 10
2325.590018383091
 20
1155.810836720694
 30
0.0
 11
2325.590018383085
 21
1128.712418305132
 31
0.0
  0
LINE
  5
9B65
330
1E
100
AcDbEntity
  8
虛線
 48
0.25
100
AcDbLine
 10
2322.090018383096
 20
1130.710806203115
 30
0.0
 11
2321.590018383096
 21
1130.210806203116
 31
0.0
  0
LINE
  5
9B66
330
1E
100
AcDbEntity
  8
虛線
 48
0.25
100
AcDbLine
 10
2329.090018383088
 20
1130.710806203116
 30
0.0
 11
2329.590018383087
 21
1130.210806203116
 31
0.0
  0
LINE
  5
9B67
330
1E
100
AcDbEntity
  8
虛線
 48
0.25
100
AcDbLine
 10
2320.090018383089
 20
1153.410836720694
 30
0.0
 11
2327.546796338833
 21
1153.410836720694
 31
0.0
  0
LINE
  5
9B68
330
1E
100
AcDbEntity
  8
虛線
 48
0.25
100
AcDbLine
 10
2322.090018383089
 20
1144.510836720694
 30
0.0
 11
2328.390018383085
 21
1144.510836720694
 31
0.0
  0
LINE
  5
9B69
330
1E
100
AcDbEntity
  8
虛線
 48
0.25
100
AcDbLine
 10
2321.790018383089
 20
1144.810836720694
 30
0.0
 11
2322.090018383089
 21
1144.510836720694
 31
0.0
  0
LINE
  5
9B6A
330
1E
100
AcDbEntity
  8
虛線
 48
0.25
100
AcDbLine
 10
2320.090018383089
 20
1153.410836720694
 30
0.0
 11
2319.859078275413
 21
1153.810836720694
 31
0.0
  0
LINE
  5
9B8F
330
1E
100
AcDbEntity
  8
0
  6
Continuous
 62
     7
100
AcDbLine
 10
2345.090018383086
 20
1283.877922760261
 30
0.0
 11
2426.090018383086
 21
1283.877922760261
 31
0.0
  0
LINE
  5
9B90
330
1E
100
AcDbEntity
  8
0
  6
Continuous
 62
     7
100
AcDbLine
 10
2345.090018383086
 20
1282.377922760261
 30
0.0
 11
2426.090018383086
 21
1282.377922760261
 31
0.0
  0
LINE
  5
9B91
330
1E
100
AcDbEntity
  8
0
  6
Continuous
 62
     7
100
AcDbLine
 10
2345.090018383086
 20
1215.377922760261
 30
0.0
 11
2426.090018383086
 21
1215.377922760261
 31
0.0
  0
LINE
  5
9B92
330
1E
100
AcDbEntity
  8
0
  6
Continuous
 62
     7
100
AcDbLine
 10
2345.090018383086
 20
1213.877922760261
 30
0.0
 11
2426.090018383086
 21
1213.877922760261
 31
0.0
  0
LINE
  5
9B93
330
1E
100
AcDbEntity
  8
0
100
AcDbLine
 10
2426.090018383086
 20
1241.37792657496
 30
0.0
 11
2345.090018383086
 21
1241.377926574959
 31
0.0
  0
LINE
  5
9B94
330
1E
100
AcDbEntity
  8
0
100
AcDbLine
 10
2426.090018383086
 20
1256.377922760262
 30
0.0
 11
2345.090018383086
 21
1256.377922760261
 31
0.0
  0
LINE
  5
9B95
330
1E
100
AcDbEntity
  8
0
100
AcDbLine
 10
2426.090018383086
 20
1242.077932392431
 30
0.0
 11
2345.090018383086
 21
1242.077932392428
 31
0.0
  0
LINE
  5
9B96
330
1E
100
AcDbEntity
  8
0
100
AcDbLine
 10
2426.090018383086
 20
1255.677913128096
 30
0.0
 11
2345.090018383086
 21
1255.677913128095
 31
0.0
  0
LINE
  5
9B97
330
1E
100
AcDbEntity
  8
0
  6
Continuous
 62
     7
100
AcDbLine
 10
2345.090018383086
 20
1229.377882705859
 30
0.0
 11
2426.090018383086
 21
1229.377882705858
 31
0.0
  0
LINE
  5
9B98
330
1E
100
AcDbEntity
  8
0
  6
Continuous
 62
     7
100
AcDbLine
 10
2345.090018383086
 20
1268.377953277758
 30
0.0
 11
2426.090018383086
 21
1268.377953277758
 31
0.0
  0
LINE
  5
9B99
330
1E
100
AcDbEntity
  8
0
100
AcDbLine
 10
2426.090018383086
 20
1228.677887665011
 30
0.0
 11
2345.090018383086
 21
1228.677887665013
 31
0.0
  0
LINE
  5
9B9A
330
1E
100
AcDbEntity
  8
0
100
AcDbLine
 10
2426.090018383086
 20
1269.077957855506
 30
0.0
 11
2345.090018383086
 21
1269.077957855504
 31
0.0
  0
SPLINE
  5
9B9D
330
1E
100
AcDbEntity
  8
0
  6
Continuous
 62
     7
100
AcDbSpline
210
0.0
220
0.0
230
1.0
 70
     8
 71
     3
 72
    11
 73
     7
 74
     5
 42
0.0000000001
 43
0.0000000001
 44
0.0000000001
 12
-0.7566477034361324
 22
0.653822799300259
 32
0.0
 13
0.0
 23
1.0
 33
0.0
 40
0.0
 40
0.0
 40
0.0
 40
0.0
 40
1.064889630837393
 40
2.203781782065658
 40
3.426488467257014
 40
4.71075547675829
 40
4.71075547675829
 40
4.71075547675829
 40
4.71075547675829
 10
2404.243992986986
 20
1135.710826203117
 30
0.0
 10
2403.975410889124
 20
1135.94290924291
 30
0.0
 10
2403.464902391744
 20
1136.478564508001
 30
0.0
 10
2402.853533507447
 20
1137.452787369871
 30
0.0
 10
2402.438485020182
 20
1138.605302871325
 30
0.0
 10
2402.340018383086
 20
1139.44429956895
 30
0.0
 10
2402.340018383086
 20
1139.872388572117
 30
0.0
 11
2404.243992986986
 21
1135.710826203117
 31
0.0
 11
2403.509433822886
 21
1136.481807889217
 31
0.0
 11
2402.903959630485
 21
1137.446419901617
 31
0.0
 11
2402.489958542386
 21
1138.596904467817
 31
0.0
 11
2402.340018383086
 21
1139.872388572117
 31
0.0
  0
SPLINE
  5
9B9E
330
1E
100
AcDbEntity
  8
0
  6
Continuous
 62
     7
100
AcDbSpline
210
0.0
220
0.0
230
1.0
 70
     8
 71
     3
 72
    11
 73
     7
 74
     5
 42
0.0000000001
 43
0.0000000001
 44
0.0000000001
 12
-0.7566477034361324
 22
0.653822799300259
 32
0.0
 13
0.0
 23
1.0
 33
0.0
 40
0.0
 40
0.0
 40
0.0
 40
0.0
 40
1.064889630837393
 40
2.203781782065658
 40
3.426488467257014
 40
4.71075547675829
 40
4.71075547675829
 40
4.71075547675829
 40
4.71075547675829
 10
2359.243992986986
 20
1135.710826203117
 30
0.0
 10
2358.975410889124
 20
1135.94290924291
 30
0.0
 10
2358.464902391744
 20
1136.478564508001
 30
0.0
 10
2357.853533507448
 20
1137.452787369871
 30
0.0
 10
2357.438485020182
 20
1138.605302871325
 30
0.0
 10
2357.340018383086
 20
1139.44429956895
 30
0.0
 10
2357.340018383086
 20
1139.872388572117
 30
0.0
 11
2359.243992986986
 21
1135.710826203117
 31
0.0
 11
2358.509433822886
 21
1136.481807889217
 31
0.0
 11
2357.903959630486
 21
1137.446419901617
 31
0.0
 11
2357.489958542386
 21
1138.596904467817
 31
0.0
 11
2357.340018383086
 21
1139.872388572117
 31
0.0
  0
SPLINE
  5
9B9F
330
1E
100
AcDbEntity
  8
0
  6
Continuous
 62
     7
100
AcDbSpline
210
0.0
220
0.0
230
1.0
 70
     8
 71
     3
 72
    11
 73
     7
 74
     5
 42
0.0000000001
 43
0.0000000001
 44
0.0000000001
 12
0.0
 22
-1.0
 32
0.0
 13
-0.7566477034384361
 23
-0.6538227992975929
 33
0.0
 40
0.0
 40
0.0
 40
0.0
 40
0.0
 40
1.28553211595979
 40
2.508832503090588
 40
3.647012039059273
 40
4.710752318783889
 40
4.710752318783889
 40
4.710752318783889
 40
4.710752318783889
 10
2368.840018383086
 20
1139.872388572117
 30
0.0
 10
2368.840018383086
 20
1139.443877866797
 30
0.0
 10
2368.741379646024
 20
1138.604251883185
 30
0.0
 10
2368.325866473991
 20
1137.451484281489
 30
0.0
 10
2367.714460882113
 20
1136.4777994371
 30
0.0
 10
2367.204335992522
 20
1135.942658752256
 30
0.0
 10
2366.936043779286
 20
1135.710826203117
 30
0.0
 11
2368.840018383086
 21
1139.872388572117
 31
0.0
 11
2368.689782672086
 21
1138.595665402317
 31
0.0
 11
2368.275251477186
 21
1137.444740676017
 31
0.0
 11
2367.669890968286
 21
1136.480898723017
 31
0.0
 11
2366.936043779286
 21
1135.710826203117
 31
0.0
  0
SPLINE
  5
9BA0
330
1E
100
AcDbEntity
  8
0
  6
Continuous
 62
     7
100
AcDbSpline
210
0.0
220
0.0
230
1.0
 70
     8
 71
     3
 72
    11
 73
     7
 74
     5
 42
0.0000000001
 43
0.0000000001
 44
0.0000000001
 12
0.0
 22
-1.0
 32
0.0
 13
-0.7566477034384361
 23
-0.6538227992975929
 33
0.0
 40
0.0
 40
0.0
 40
0.0
 40
0.0
 40
1.28553211595979
 40
2.508832503090588
 40
3.647012039059273
 40
4.710752318783889
 40
4.710752318783889
 40
4.710752318783889
 40
4.710752318783889
 10
2413.840018383086
 20
1139.872388572117
 30
0.0
 10
2413.840018383086
 20
1139.443877866797
 30
0.0
 10
2413.741379646025
 20
1138.604251883185
 30
0.0
 10
2413.325866473991
 20
1137.451484281489
 30
0.0
 10
2412.714460882114
 20
1136.4777994371
 30
0.0
 10
2412.204335992522
 20
1135.942658752256
 30
0.0
 10
2411.936043779286
 20
1135.710826203117
 30
0.0
 11
2413.840018383086
 21
1139.872388572117
 31
0.0
 11
2413.689782672086
 21
1138.595665402317
 31
0.0
 11
2413.275251477186
 21
1137.444740676017
 31
0.0
 11
2412.669890968286
 21
1136.480898723017
 31
0.0
 11
2411.936043779286
 21
1135.710826203117
 31
0.0
  0
LINE
  5
9BA1
330
1E
100
AcDbEntity
  8
0
  6
Continuous
 62
     7
100
AcDbLine
 10
2413.840018383086
 20
1139.872388572117
 30
0.0
 11
2413.840018383086
 21
1156.210806203117
 31
0.0
  0
LINE
  5
9BA2
330
1E
100
AcDbEntity
  8
0
  6
Continuous
 62
     7
100
AcDbLine
 10
2402.340018383086
 20
1139.872388572117
 30
0.0
 11
2402.340018383086
 21
1156.210806203117
 31
0.0
  0
LINE
  5
9BA3
330
1E
100
AcDbEntity
  8
0
  6
Continuous
 62
     7
100
AcDbLine
 10
2345.090018383086
 20
1164.710806203117
 30
0.0
 11
2426.090018383086
 21
1164.710806203117
 31
0.0
  0
LINE
  5
9BA4
330
1E
100
AcDbEntity
  8
0
  6
Continuous
 62
     7
100
AcDbLine
 10
2402.340018383086
 20
1156.210806203117
 30
0.0
 11
2413.840018383086
 21
1156.210806203117
 31
0.0
  0
LINE
  5
9BA5
330
1E
100
AcDbEntity
  8
0
  6
Continuous
 62
     7
100
AcDbLine
 10
2357.340018383086
 20
1156.210806203117
 30
0.0
 11
2368.840018383086
 21
1156.210806203117
 31
0.0
  0
LINE
  5
9BA6
330
1E
100
AcDbEntity
  8
0
  6
Continuous
 62
     7
100
AcDbLine
 10
2413.840018383086
 20
1146.372388572117
 30
0.0
 11
2426.090018383086
 21
1146.372388572117
 31
0.0
  0
LINE
  5
9BA7
330
1E
100
AcDbEntity
  8
0
  6
Continuous
 62
     7
100
AcDbLine
 10
2368.840018383086
 20
1146.372388572117
 30
0.0
 11
2402.340018383086
 21
1146.372388572117
 31
0.0
  0
LINE
  5
9BA8
330
1E
100
AcDbEntity
  8
0
  6
Continuous
 62
     7
100
AcDbLine
 10
2345.090018383086
 20
1146.372388572117
 30
0.0
 11
2357.340018383086
 21
1146.372388572117
 31
0.0
  0
LINE
  5
9BA9
330
1E
100
AcDbEntity
  8
0
  6
Continuous
 62
     7
100
AcDbLine
 10
2368.840018383086
 20
1139.872388572117
 30
0.0
 11
2368.840018383086
 21
1156.210806203117
 31
0.0
  0
LINE
  5
9BAA
330
1E
100
AcDbEntity
  8
0
  6
Continuous
 62
     7
100
AcDbLine
 10
2357.340018383086
 20
1139.872388572117
 30
0.0
 11
2357.340018383086
 21
1156.210806203117
 31
0.0
  0
LINE
  5
9BAB
330
1E
100
AcDbEntity
  8
虛線
 48
0.3
100
AcDbLine
 10
2412.089993969024
 20
1166.035781789056
 30
0.0
 11
2412.089993969026
 21
1156.210806203117
 31
0.0
  0
LINE
  5
9BAC
330
1E
100
AcDbEntity
  8
虛線
 48
0.3
100
AcDbLine
 10
2411.465018383087
 20
1165.410806203117
 30
0.0
 11
2411.465018383089
 21
1156.210806203117
 31
0.0
  0
LINE
  5
9BAD
330
1E
100
AcDbEntity
  8
虛線
 48
0.3
100
AcDbLine
 10
2411.465018383085
 20
1165.410806203117
 30
0.0
 11
2412.265018383085
 21
1166.210806203118
 31
0.0
  0
LINE
  5
9BAE
330
1E
100
AcDbEntity
  8
虛線
 48
0.3
100
AcDbLine
 10
2411.465018383087
 20
1165.410806203117
 30
0.0
 11
2404.715018383086
 21
1165.410806203117
 31
0.0
  0
LINE
  5
9BAF
330
1E
100
AcDbEntity
  8
虛線
 48
0.3
100
AcDbLine
 10
2404.090042797148
 20
1166.035781789054
 30
0.0
 11
2404.09004279715
 21
1156.210806203117
 31
0.0
  0
LINE
  5
9BB0
330
1E
100
AcDbEntity
  8
虛線
 48
0.3
100
AcDbLine
 10
2404.715018383086
 20
1165.410806203116
 30
0.0
 11
2404.715018383088
 21
1156.210806203117
 31
0.0
  0
LINE
  5
9BB1
330
1E
100
AcDbEntity
  8
虛線
 48
0.3
100
AcDbLine
 10
2404.715018383086
 20
1165.410806203117
 30
0.0
 11
2403.915018383085
 21
1166.210806203117
 31
0.0
  0
LINE
  5
9BB2
330
1E
100
AcDbEntity
  8
虛線
 48
0.3
100
AcDbLine
 10
2367.089993969024
 20
1166.035781789056
 30
0.0
 11
2367.089993969026
 21
1156.210806203117
 31
0.0
  0
LINE
  5
9BB3
330
1E
100
AcDbEntity
  8
虛線
 48
0.3
100
AcDbLine
 10
2366.465018383087
 20
1165.410806203117
 30
0.0
 11
2366.465018383089
 21
1156.210806203117
 31
0.0
  0
LINE
  5
9BB4
330
1E
100
AcDbEntity
  8
虛線
 48
0.3
100
AcDbLine
 10
2366.465018383085
 20
1165.410806203117
 30
0.0
 11
2367.265018383085
 21
1166.210806203118
 31
0.0
  0
LINE
  5
9BB5
330
1E
100
AcDbEntity
  8
虛線
 48
0.3
100
AcDbLine
 10
2366.465018383086
 20
1165.410806203117
 30
0.0
 11
2359.715018383086
 21
1165.410806203117
 31
0.0
  0
LINE
  5
9BB6
330
1E
100
AcDbEntity
  8
虛線
 48
0.3
100
AcDbLine
 10
2359.090042797149
 20
1166.035781789054
 30
0.0
 11
2359.09004279715
 21
1156.210806203117
 31
0.0
  0
LINE
  5
9BB7
330
1E
100
AcDbEntity
  8
虛線
 48
0.3
100
AcDbLine
 10
2359.715018383086
 20
1165.410806203116
 30
0.0
 11
2359.715018383088
 21
1156.210806203117
 31
0.0
  0
LINE
  5
9BB8
330
1E
100
AcDbEntity
  8
虛線
 48
0.3
100
AcDbLine
 10
2359.715018383086
 20
1165.410806203117
 30
0.0
 11
2358.915018383084
 21
1166.210806203117
 31
0.0
  0
LINE
  5
9BB9
330
1E
100
AcDbEntity
  8
虛線
 48
0.3
100
AcDbLine
 10
2411.340018383086
 20
1155.210870290017
 30
0.0
 11
2411.340018383086
 21
1161.210821461817
 31
0.0
  0
LINE
  5
9BBA
330
1E
100
AcDbEntity
  8
虛線
 48
0.3
100
AcDbLine
 10
2399.840018383086
 20
1155.210870290017
 30
0.0
 11
2399.840018383086
 21
1161.210821461817
 31
0.0
  0
LINE
  5
9BBB
330
1E
100
AcDbEntity
  8
虛線
 48
0.3
100
AcDbLine
 10
2371.340018383086
 20
1161.210821461817
 30
0.0
 11
2359.840018383086
 21
1161.210821461817
 31
0.0
  0
LINE
  5
9BBC
330
1E
100
AcDbEntity
  8
虛線
 48
0.3
100
AcDbLine
 10
2411.340018383086
 20
1161.210821461817
 30
0.0
 11
2399.840018383086
 21
1161.210821461817
 31
0.0
  0
LINE
  5
9BBD
330
1E
100
AcDbEntity
  8
虛線
 48
0.3
100
AcDbLine
 10
2371.340018383086
 20
1155.210870290017
 30
0.0
 11
2371.340018383086
 21
1161.210821461817
 31
0.0
  0
LINE
  5
9BBE
330
1E
100
AcDbEntity
  8
虛線
 48
0.3
100
AcDbLine
 10
2359.840018383086
 20
1155.210870290017
 30
0.0
 11
2359.840018383086
 21
1161.210821461817
 31
0.0
  0
LINE
  5
9BBF
330
1E
100
AcDbEntity
  8
虛線
 48
0.2
100
AcDbLine
 10
2345.090018383086
 20
1155.210870290017
 30
0.0
 11
2426.090018383086
 21
1155.210870290017
 31
0.0
  0
LINE
  5
9BC0
330
1E
100
AcDbEntity
  8
虛線
 48
0.3
100
AcDbLine
 10
2369.589993969024
 20
1166.035781789056
 30
0.0
 11
2369.589993969024
 21
1161.210821461817
 31
0.0
  0
LINE
  5
9BC1
330
1E
100
AcDbEntity
  8
虛線
 48
0.3
100
AcDbLine
 10
2368.965018383087
 20
1165.410806203117
 30
0.0
 11
2368.965018383088
 21
1161.210821461817
 31
0.0
  0
LINE
  5
9BC2
330
1E
100
AcDbEntity
  8
虛線
 48
0.3
100
AcDbLine
 10
2368.965018383085
 20
1165.410806203117
 30
0.0
 11
2369.765018383084
 21
1166.210806203118
 31
0.0
  0
LINE
  5
9BC3
330
1E
100
AcDbEntity
  8
虛線
 48
0.3
100
AcDbLine
 10
2368.965018383086
 20
1165.410806203117
 30
0.0
 11
2362.215018383086
 21
1165.410806203117
 31
0.0
  0
LINE
  5
9BC4
330
1E
100
AcDbEntity
  8
虛線
 48
0.3
100
AcDbLine
 10
2361.590042797148
 20
1166.035781789054
 30
0.0
 11
2361.590042797149
 21
1161.210821461817
 31
0.0
  0
LINE
  5
9BC5
330
1E
100
AcDbEntity
  8
虛線
 48
0.3
100
AcDbLine
 10
2362.215018383086
 20
1165.410806203116
 30
0.0
 11
2362.215018383087
 21
1161.210821461817
 31
0.0
  0
LINE
  5
9BC6
330
1E
100
AcDbEntity
  8
虛線
 48
0.3
100
AcDbLine
 10
2362.215018383085
 20
1165.410806203117
 30
0.0
 11
2361.415018383084
 21
1166.210806203117
 31
0.0
  0
LINE
  5
9BC7
330
1E
100
AcDbEntity
  8
中心線
 48
0.2
100
AcDbLine
 10
2363.090018383086
 20
1168.210806203117
 30
0.0
 11
2363.090018383083
 21
1135.710826203117
 31
0.0
  0
LINE
  5
9BC8
330
1E
100
AcDbEntity
  8
中心線
 48
0.2
100
AcDbLine
 10
2365.590018383086
 20
1168.210806203117
 30
0.0
 11
2365.590018383084
 21
1153.25094411983
 31
0.0
  0
LINE
  5
9BC9
330
1E
100
AcDbEntity
  8
中心線
 48
0.2
100
AcDbLine
 10
2408.090018383086
 20
1168.210806203117
 30
0.0
 11
2408.090018383089
 21
1135.710826203117
 31
0.0
  0
LINE
  5
9BCA
330
1E
100
AcDbEntity
  8
中心線
 48
0.2
100
AcDbLine
 10
2405.590018383085
 20
1168.210806203117
 30
0.0
 11
2405.590018383087
 21
1153.25094411983
 31
0.0
  0
LINE
  5
9BCB
330
1E
100
AcDbEntity
  8
虛線
 48
0.3
100
AcDbLine
 10
2409.589993969025
 20
1166.03578178906
 30
0.0
 11
2409.589993969025
 21
1161.210821461817
 31
0.0
  0
LINE
  5
9BCC
330
1E
100
AcDbEntity
  8
虛線
 48
0.3
100
AcDbLine
 10
2408.965018383089
 20
1165.410806203121
 30
0.0
 11
2408.965018383089
 21
1161.210821461817
 31
0.0
  0
LINE
  5
9BCD
330
1E
100
AcDbEntity
  8
虛線
 48
0.3
100
AcDbLine
 10
2408.965018383086
 20
1165.410806203121
 30
0.0
 11
2409.765018383086
 21
1166.210806203122
 31
0.0
  0
LINE
  5
9BCE
330
1E
100
AcDbEntity
  8
虛線
 48
0.3
100
AcDbLine
 10
2408.965018383087
 20
1165.410806203121
 30
0.0
 11
2402.215018383087
 21
1165.410806203121
 31
0.0
  0
LINE
  5
9BCF
330
1E
100
AcDbEntity
  8
虛線
 48
0.3
100
AcDbLine
 10
2401.590042797149
 20
1166.035781789058
 30
0.0
 11
2401.59004279715
 21
1161.210821461817
 31
0.0
  0
LINE
  5
9BD0
330
1E
100
AcDbEntity
  8
虛線
 48
0.3
100
AcDbLine
 10
2402.215018383087
 20
1165.41080620312
 30
0.0
 11
2402.215018383088
 21
1161.210821461817
 31
0.0
  0
LINE
  5
9BD1
330
1E
100
AcDbEntity
  8
虛線
 48
0.3
100
AcDbLine
 10
2402.215018383087
 20
1165.410806203121
 30
0.0
 11
2401.415018383085
 21
1166.210806203121
 31
0.0
  0
LINE
  5
9BD2
330
1E
100
AcDbEntity
  8
0
  6
Continuous
 62
     7
100
AcDbLine
 10
2345.090018383086
 20
1166.210806203117
 30
0.0
 11
2426.090018383086
 21
1166.210806203117
 31
0.0
  0
LINE
  5
9BD3
330
1E
100
AcDbEntity
  8
0
  6
Continuous
100
AcDbLine
 10
2210.764758659822
 20
1130.210806203117
 30
0.0
 11
2210.264759032603
 21
1130.710806203117
 31
0.0
  0
LINE
  5
9BD4
330
1E
100
AcDbEntity
  8
0
  6
Continuous
100
AcDbLine
 10
2208.764761386984
 20
1130.710806203117
 30
0.0
 11
2208.264761538625
 21
1130.210806203117
 31
0.0
  0
LINE
  5
9BD5
330
1E
100
AcDbEntity
  8
0
  6
Continuous
100
AcDbLine
 10
2208.264761538625
 20
1130.210806203117
 30
0.0
 11
2203.76471274959
 21
1130.210806203117
 31
0.0
  0
LINE
  5
9BD6
330
1E
100
AcDbEntity
  8
虛線
 48
0.25
100
AcDbLine
 10
2207.264712749582
 20
1130.710806203117
 30
0.0
 11
2200.26471274959
 21
1130.710806203116
 31
0.0
  0
LINE
  5
9BD7
330
1E
100
AcDbEntity
  8
0
  6
Continuous
100
AcDbLine
 10
2213.764705120196
 20
1130.210806203118
 30
0.0
 11
2210.764758659822
 21
1130.210806203117
 31
0.0
  0
LINE
  5
9BD8
330
1E
100
AcDbEntity
  8
0
  6
Continuous
100
AcDbLine
 10
2210.264759032603
 20
1130.710806203117
 30
0.0
 11
2208.764761386984
 21
1130.710806203117
 31
0.0
  0
LINE
  5
9BD9
330
1E
100
AcDbEntity
  8
0
  6
Continuous
100
AcDbLine
 10
2214.864705120191
 20
1153.810836720699
 30
0.0
 11
2203.764712749588
 21
1153.810836720695
 31
0.0
  0
LINE
  5
9BDA
330
1E
100
AcDbEntity
  8
0
100
AcDbLine
 10
2215.264705120192
 20
1153.410836720699
 30
0.0
 11
2214.864705120191
 21
1153.810836720699
 31
0.0
  0
LINE
  5
9BDB
330
1E
100
AcDbEntity
  8
0
100
AcDbLine
 10
2215.664705120192
 20
1153.576522145649
 30
0.0
 11
2214.680390545147
 21
1154.560836720691
 31
0.0
  0
LINE
  5
9BDC
330
1E
100
AcDbEntity
  8
0
100
AcDbLine
 10
2216.864705120192
 20
1154.073578420497
 30
0.0
 11
2215.177446819994
 21
1155.760836720691
 31
0.0
  0
LINE
  5
9BDD
330
1E
100
AcDbEntity
  8
0
  6
Continuous
100
AcDbLine
 10
2227.264682749586
 20
1164.210806203118
 30
0.0
 11
2227.264682749589
 21
1136.710836203119
 31
0.0
  0
LINE
  5
9BDE
330
1E
100
AcDbEntity
  8
0
100
AcDbLine
 10
2226.164682749586
 20
1165.310806203118
 30
0.0
 11
2227.264682749586
 21
1164.210806203118
 31
0.0
  0
LINE
  5
9BDF
330
1E
100
AcDbEntity
  8
0
  6
Continuous
100
AcDbLine
 10
2228.103132899104
 20
1135.710838721552
 30
0.0
 11
2215.264705120194
 21
1135.710821134609
 31
0.0
  0
LINE
  5
9BE0
330
1E
100
AcDbEntity
  8
0
  6
Continuous
100
AcDbLine
 10
2216.864705120193
 20
1136.210823326397
 30
0.0
 11
2215.664705120194
 21
1136.210821682556
 31
0.0
  0
LINE
  5
9BE1
330
1E
100
AcDbEntity
  8
0
100
AcDbLine
 10
2215.264705120193
 20
1137.254210692292
 30
0.0
 11
2215.264705120195
 21
1131.710806203118
 31
0.0
  0
LINE
  5
9BE2
330
1E
100
AcDbEntity
  8
0
100
AcDbLine
 10
2215.664705120194
 20
1137.419896117411
 30
0.0
 11
2215.664705120194
 21
1136.210821682556
 31
0.0
  0
LINE
  5
9BE3
330
1E
100
AcDbEntity
  8
0
100
AcDbLine
 10
2216.864705120193
 20
1137.916952392769
 30
0.0
 11
2216.864705120193
 21
1136.210823326397
 31
0.0
  0
LINE
  5
9BE4
330
1E
100
AcDbEntity
  8
0
  6
Continuous
100
AcDbLine
 10
2213.764705120196
 20
1130.210806203118
 30
0.0
 11
2215.264705120195
 21
1131.710806203118
 31
0.0
  0
LINE
  5
9BE5
330
1E
100
AcDbEntity
  8
0
100
AcDbLine
 10
2215.264705120194
 20
1151.936362328671
 30
0.0
 11
2211.114712749582
 21
1147.786369964073
 31
0.0
  0
LINE
  5
9BE6
330
1E
100
AcDbEntity
  8
0
100
AcDbLine
 10
2215.664705120194
 20
1151.770676903552
 30
0.0
 11
2211.514712749582
 21
1147.620684538953
 31
0.0
  0
LINE
  5
9BE7
330
1E
100
AcDbEntity
  8
0
100
AcDbLine
 10
2216.864705120195
 20
1151.273620628195
 30
0.0
 11
2212.714712749582
 21
1147.123628263597
 31
0.0
  0
LINE
  5
9BE8
330
1E
100
AcDbEntity
  8
0
100
AcDbLine
 10
2215.264705120194
 20
1151.936362328671
 30
0.0
 11
2215.264705120192
 21
1153.410836720699
 31
0.0
  0
LINE
  5
9BE9
330
1E
100
AcDbEntity
  8
0
100
AcDbLine
 10
2215.664705120194
 20
1151.770676903552
 30
0.0
 11
2215.664705120192
 21
1153.576522145649
 31
0.0
  0
LINE
  5
9BEA
330
1E
100
AcDbEntity
  8
0
100
AcDbLine
 10
2216.864705120195
 20
1151.273620628195
 30
0.0
 11
2216.864705120192
 21
1154.073578420497
 31
0.0
  0
LINE
  5
9BEC
330
1E
100
AcDbEntity
  8
虛線
 48
0.25
100
AcDbLine
 10
2207.264712749584
 20
1144.510836720695
 30
0.0
 11
2207.264712749582
 21
1130.710806203117
 31
0.0
  0
LINE
  5
9BED
330
1E
100
AcDbEntity
  8
0
100
AcDbLine
 10
2211.114712749582
 20
1147.786369964073
 30
0.0
 11
2211.114712749581
 21
1141.404203056884
 31
0.0
  0
LINE
  5
9BEE
330
1E
100
AcDbEntity
  8
0
100
AcDbLine
 10
2211.514712749582
 20
1147.620684538953
 30
0.0
 11
2211.514712749582
 21
1141.569888482003
 31
0.0
  0
LINE
  5
9BEF
330
1E
100
AcDbEntity
  8
0
100
AcDbLine
 10
2212.714712749582
 20
1147.123628263597
 30
0.0
 11
2212.714712749582
 21
1142.066944757361
 31
0.0
  0
LINE
  5
9BF3
330
1E
100
AcDbEntity
  8
0
  6
Continuous
100
AcDbLine
 10
2199.264663960494
 20
1130.210806203117
 30
0.0
 11
2203.764712749582
 21
1130.210806203117
 31
0.0
  0
LINE
  5
9BF4
330
1E
100
AcDbEntity
  8
0
  6
Continuous
100
AcDbLine
 10
2193.764720378978
 20
1130.210806203117
 30
0.0
 11
2196.764666839471
 21
1130.210806203117
 31
0.0
  0
LINE
  5
9BF5
330
1E
100
AcDbEntity
  8
0
  6
Continuous
100
AcDbLine
 10
2192.264720378978
 20
1131.710806203117
 30
0.0
 11
2193.764720378978
 21
1130.210806203117
 31
0.0
  0
LINE
  5
9BF6
330
1E
100
AcDbEntity
  8
0
  6
Continuous
100
AcDbLine
 10
2192.664720378983
 20
1153.810836720698
 30
0.0
 11
2203.764712749584
 21
1153.810836720695
 31
0.0
  0
LINE
  5
9BF7
330
1E
100
AcDbEntity
  8
0
  6
Continuous
100
AcDbLine
 10
2192.849034954035
 20
1154.560836720698
 30
0.0
 11
2214.680390545147
 21
1154.560836720691
 31
0.0
  0
LINE
  5
9BF8
330
1E
100
AcDbEntity
  8
0
  6
Continuous
100
AcDbLine
 10
2192.351978679187
 20
1155.760836720698
 30
0.0
 11
2215.177446819994
 21
1155.760836720691
 31
0.0
  0
LINE
  5
9BF9
330
1E
100
AcDbEntity
  8
0
100
AcDbLine
 10
2192.264720378982
 20
1153.410836720698
 30
0.0
 11
2192.664720378983
 21
1153.810836720698
 31
0.0
  0
LINE
  5
9BFA
330
1E
100
AcDbEntity
  8
0
100
AcDbLine
 10
2191.864720378982
 20
1153.576522145648
 30
0.0
 11
2192.849034954035
 21
1154.560836720698
 31
0.0
  0
LINE
  5
9BFB
330
1E
100
AcDbEntity
  8
0
100
AcDbLine
 10
2190.664720378983
 20
1154.073578420497
 30
0.0
 11
2192.351978679187
 21
1155.760836720698
 31
0.0
  0
LINE
  5
9BFC
330
1E
100
AcDbEntity
  8
0
  6
Continuous
100
AcDbLine
 10
2180.264742749584
 20
1164.210806203118
 30
0.0
 11
2181.364742749584
 21
1165.310806203118
 31
0.0
  0
LINE
  5
9BFD
330
1E
100
AcDbEntity
  8
0
  6
Continuous
100
AcDbLine
 10
2180.264742749586
 20
1136.710829536435
 30
0.0
 11
2181.264752749583
 21
1135.710826203118
 31
0.0
  0
LINE
  5
9BFE
330
1E
100
AcDbEntity
  8
0
  6
Continuous
100
AcDbLine
 10
2180.264742749584
 20
1164.210806203118
 30
0.0
 11
2180.264742749586
 21
1136.710829536435
 31
0.0
  0
LINE
  5
9BFF
330
1E
100
AcDbEntity
  8
虛線
 48
0.25
100
AcDbLine
 10
2198.264712749589
 20
1153.410836720695
 30
0.0
 11
2198.26471274959
 21
1144.810844350089
 31
0.0
  0
LINE
  5
9C00
330
1E
100
AcDbEntity
  8
虛線
 48
0.25
100
AcDbLine
 10
2200.264712749584
 20
1144.510836720695
 30
0.0
 11
2200.26471274959
 21
1130.710806203116
 31
0.0
  0
LINE
  5
9C01
330
1E
100
AcDbEntity
  8
虛線
 48
0.25
100
AcDbLine
 10
2198.26471274959
 20
1144.810775685538
 30
0.0
 11
2209.264712749582
 21
1144.810775685538
 31
0.0
  0
LINE
  5
9C09
330
1E
100
AcDbEntity
  8
0
100
AcDbLine
 10
2215.264705120193
 20
1137.254210692292
 30
0.0
 11
2211.114712749581
 21
1141.404203056884
 31
0.0
  0
LINE
  5
9C0A
330
1E
100
AcDbEntity
  8
0
100
AcDbLine
 10
2215.664705120194
 20
1137.419896117411
 30
0.0
 11
2211.514712749582
 21
1141.569888482003
 31
0.0
  0
LINE
  5
9C0B
330
1E
100
AcDbEntity
  8
0
100
AcDbLine
 10
2216.864705120193
 20
1137.916952392769
 30
0.0
 11
2212.714712749582
 21
1142.066944757361
 31
0.0
  0
LINE
  5
9C11
330
1E
100
AcDbEntity
  8
0
100
AcDbLine
 10
2192.264720378981
 20
1137.254210692292
 30
0.0
 11
2192.264720378978
 21
1131.710806203117
 31
0.0
  0
LINE
  5
9C12
330
1E
100
AcDbEntity
  8
0
100
AcDbLine
 10
2191.864720378981
 20
1137.419896117411
 30
0.0
 11
2191.86472037898
 21
1136.210821682554
 31
0.0
  0
LINE
  5
9C13
330
1E
100
AcDbEntity
  8
0
100
AcDbLine
 10
2190.664720378982
 20
1137.916952392771
 30
0.0
 11
2190.66472037898
 21
1136.210823326395
 31
0.0
  0
LINE
  5
9C15
330
1E
100
AcDbEntity
  8
0
100
AcDbLine
 10
2192.264720378981
 20
1151.936362328669
 30
0.0
 11
2196.414712749592
 21
1147.786369964072
 31
0.0
  0
LINE
  5
9C16
330
1E
100
AcDbEntity
  8
0
100
AcDbLine
 10
2191.864720378981
 20
1151.770676903551
 30
0.0
 11
2196.014712749591
 21
1147.620684538953
 31
0.0
  0
LINE
  5
9C17
330
1E
100
AcDbEntity
  8
0
100
AcDbLine
 10
2190.66472037898
 20
1151.273620628194
 30
0.0
 11
2194.814712749591
 21
1147.123628263596
 31
0.0
  0
LINE
  5
9C18
330
1E
100
AcDbEntity
  8
0
100
AcDbLine
 10
2192.264720378981
 20
1151.936362328669
 30
0.0
 11
2192.264720378982
 21
1153.410836720698
 31
0.0
  0
LINE
  5
9C19
330
1E
100
AcDbEntity
  8
0
100
AcDbLine
 10
2191.864720378981
 20
1151.770676903551
 30
0.0
 11
2191.864720378982
 21
1153.576522145648
 31
0.0
  0
LINE
  5
9C1A
330
1E
100
AcDbEntity
  8
0
100
AcDbLine
 10
2190.66472037898
 20
1151.273620628194
 30
0.0
 11
2190.664720378983
 21
1154.073578420497
 31
0.0
  0
LINE
  5
9C1B
330
1E
100
AcDbEntity
  8
0
100
AcDbLine
 10
2196.414712749592
 20
1147.786369964072
 30
0.0
 11
2196.414712749592
 21
1141.404203056883
 31
0.0
  0
LINE
  5
9C1C
330
1E
100
AcDbEntity
  8
0
100
AcDbLine
 10
2196.014712749591
 20
1147.620684538953
 30
0.0
 11
2196.014712749592
 21
1141.569888482003
 31
0.0
  0
LINE
  5
9C1D
330
1E
100
AcDbEntity
  8
0
100
AcDbLine
 10
2194.814712749591
 20
1147.123628263596
 30
0.0
 11
2194.814712749592
 21
1142.06694475736
 31
0.0
  0
LINE
  5
9C21
330
1E
100
AcDbEntity
  8
0
100
AcDbLine
 10
2192.264720378981
 20
1137.254210692292
 30
0.0
 11
2196.414712749592
 21
1141.404203056883
 31
0.0
  0
LINE
  5
9C22
330
1E
100
AcDbEntity
  8
0
100
AcDbLine
 10
2191.864720378981
 20
1137.419896117411
 30
0.0
 11
2196.014712749592
 21
1141.569888482003
 31
0.0
  0
LINE
  5
9C23
330
1E
100
AcDbEntity
  8
0
100
AcDbLine
 10
2190.664720378982
 20
1137.916952392771
 30
0.0
 11
2194.814712749592
 21
1142.06694475736
 31
0.0
  0
LINE
  5
9C25
330
1E
100
AcDbEntity
  8
中心線
 48
0.27
100
AcDbLine
 10
2203.764712749586
 20
1168.914327989075
 30
0.0
 11
2203.76471274958
 21
1128.712418305133
 31
0.0
  0
LINE
  5
9C31
330
1E
100
AcDbEntity
  8
0
  6
Continuous
100
AcDbLine
 10
2179.426305118492
 20
1135.710826203113
 30
0.0
 11
2192.26472037898
 21
1135.710826203131
 31
0.0
  0
LINE
  5
9C32
330
1E
100
AcDbEntity
  8
虛線
 48
0.25
100
AcDbLine
 10
2200.26471274959
 20
1130.710806203116
 30
0.0
 11
2199.764712749591
 21
1130.210806203117
 31
0.0
  0
LINE
  5
9C33
330
1E
100
AcDbEntity
  8
虛線
 48
0.25
100
AcDbLine
 10
2207.264712749582
 20
1130.710806203117
 30
0.0
 11
2207.764712749581
 21
1130.210806203117
 31
0.0
  0
LINE
  5
9C34
330
1E
100
AcDbEntity
  8
0
  6
Continuous
100
AcDbLine
 10
2196.764666839471
 20
1130.210806203117
 30
0.0
 11
2197.264666466582
 21
1130.710806203023
 31
0.0
  0
LINE
  5
9C35
330
1E
100
AcDbEntity
  8
0
  6
Continuous
100
AcDbLine
 10
2198.764664112193
 20
1130.710806203044
 30
0.0
 11
2199.264663960494
 21
1130.210806203117
 31
0.0
  0
LINE
  5
9C36
330
1E
100
AcDbEntity
  8
0
  6
Continuous
100
AcDbLine
 10
2197.264666466582
 20
1130.710806203023
 30
0.0
 11
2198.764664112193
 21
1130.710806203044
 31
0.0
  0
LINE
  5
9C37
330
1E
100
AcDbEntity
  8
虛線
 48
0.25
100
AcDbLine
 10
2209.264712749584
 20
1153.410836720695
 30
0.0
 11
2209.264712749582
 21
1144.810775685538
 31
0.0
  0
LINE
  5
9C38
330
1E
100
AcDbEntity
  8
虛線
 48
0.25
100
AcDbLine
 10
2198.264712749584
 20
1153.410836720695
 30
0.0
 11
2209.264712749584
 21
1153.410836720695
 31
0.0
  0
LINE
  5
9C39
330
1E
100
AcDbEntity
  8
虛線
 48
0.25
100
AcDbLine
 10
2200.264712749584
 20
1144.510836720695
 30
0.0
 11
2207.264712749584
 21
1144.510836720695
 31
0.0
  0
LINE
  5
9C3A
330
1E
100
AcDbEntity
  8
虛線
 48
0.25
100
AcDbLine
 10
2199.964712749584
 20
1144.810836720695
 30
0.0
 11
2200.264712749584
 21
1144.510836720695
 31
0.0
  0
LINE
  5
9C3B
330
1E
100
AcDbEntity
  8
虛線
 48
0.25
100
AcDbLine
 10
2198.264712749584
 20
1153.410836720695
 30
0.0
 11
2198.033772641908
 21
1153.810836720695
 31
0.0
  0
LINE
  5
9C3C
330
1E
100
AcDbEntity
  8
虛線
 48
0.25
100
AcDbLine
 10
2207.264712749584
 20
1144.510836720695
 30
0.0
 11
2207.564712749584
 21
1144.810836720695
 31
0.0
  0
LINE
  5
9C3D
330
1E
100
AcDbEntity
  8
虛線
 48
0.25
100
AcDbLine
 10
2209.264712749584
 20
1153.410836720695
 30
0.0
 11
2209.495652857259
 21
1153.810836720695
 31
0.0
  0
LINE
  5
9C44
330
1E
100
AcDbEntity
  8
0
 48
0.27
100
AcDbLine
 10
2201.455278434197
 20
1164.010863905599
 30
0.0
 11
2206.074147064979
 21
1164.010863905599
 31
0.0
  0
LINE
  5
9C45
330
1E
100
AcDbEntity
  8
0
 48
0.27
100
AcDbLine
 10
2206.074148400999
 20
1156.010747164688
 30
0.0
 11
2201.455278434197
 21
1156.010747164688
 31
0.0
  0
ARC
  5
9C46
330
1E
100
AcDbEntity
  8
0
 48
0.27
100
AcDbCircle
 10
2203.764712749588
 20
1160.010806203153
 30
0.0
 40
4.000057702445608
100
AcDbArc
 50
48.59037799889628
 51
311.4096220031896
  0
LINE
  5
9C47
330
1E
100
AcDbEntity
  8
0
 48
0.27
100
AcDbLine
 10
2201.455278434197
 20
1164.010863905599
 30
0.0
 11
2199.145844118805
 21
1160.010806203153
 31
0.0
  0
LINE
  5
9C48
330
1E
100
AcDbEntity
  8
0
 48
0.27
100
AcDbLine
 10
2199.145844118805
 20
1160.010806203153
 30
0.0
 11
2201.455278434197
 21
1156.010747164688
 31
0.0
  0
LWPOLYLINE
  5
9C49
330
1E
100
AcDbEntity
  8
0
 48
0.27
100
AcDbPolyline
 90
       17
 70
     0
 43
0.0
 10
2212.716531105411
 20
1160.010806203153
 10
2212.750079896367
 20
1159.793765793512
 10
2212.782971365533
 20
1159.730860641575
 10
2212.81954223299
 20
1159.701318573786
 10
2212.853519886206
 20
1159.70162585827
 10
2212.890013264531
 20
1159.73183059183
 10
2212.921357622921
 20
1159.791601441529
 10
2212.950744712449
 20
1159.921676320334
 10
2212.955712033734
 20
1160.010806203153
 10
2212.922164578797
 20
1160.227845276774
 10
2212.889271773612
 20
1160.290750428712
 10
2212.852700906155
 20
1160.320292496501
 10
2212.818724588959
 20
1160.319985211917
 10
2212.782229874613
 20
1160.289780478358
 10
2212.750886852242
 20
1160.230009628657
 10
2212.721498426696
 20
1160.099934749952
 10
2212.716531105411
 20
1160.010806203153
  0
LINE
  5
9C4A
330
1E
100
AcDbEntity
  8
0
 48
0.27
100
AcDbLine
 10
2213.508597069555
 20
1159.661264702903
 30
0.0
 11
2213.521771559902
 21
1160.010806203153
 31
0.0
  0
LINE
  5
9C4B
330
1E
100
AcDbEntity
  8
0
 48
0.27
100
AcDbLine
 10
2213.46957995
 20
1159.325155544864
 30
0.0
 11
2213.508597069555
 21
1159.661264702903
 31
0.0
  0
LINE
  5
9C4C
330
1E
100
AcDbEntity
  8
0
 48
0.27
100
AcDbLine
 10
2213.521771559902
 20
1160.010806203153
 30
0.0
 11
2213.508597069555
 21
1160.360347703403
 31
0.0
  0
LINE
  5
9C4D
330
1E
100
AcDbEntity
  8
0
 48
0.27
100
AcDbLine
 10
2213.406219215316
 20
1159.015396703439
 30
0.0
 11
2213.46957995
 21
1159.325155544864
 31
0.0
  0
LINE
  5
9C4E
330
1E
100
AcDbEntity
  8
0
 48
0.27
100
AcDbLine
 10
2213.508597069555
 20
1160.360347703403
 30
0.0
 11
2213.46957995
 21
1160.696455525423
 31
0.0
  0
LINE
  5
9C4F
330
1E
100
AcDbEntity
  8
0
 48
0.27
100
AcDbLine
 10
2213.32094909342
 20
1158.743889442396
 30
0.0
 11
2213.406219215316
 21
1159.015396703439
 31
0.0
  0
LINE
  5
9C50
330
1E
100
AcDbEntity
  8
0
 48
0.27
100
AcDbLine
 10
2212.561583547753
 20
1158.372473291442
 30
0.0
 11
2212.563482031757
 21
1158.373401825092
 31
0.0
  0
LINE
  5
9C51
330
1E
100
AcDbEntity
  8
0
 48
0.27
100
AcDbLine
 10
2213.46957995
 20
1160.696455525423
 30
0.0
 11
2213.406219215316
 21
1161.006215702868
 31
0.0
  0
LINE
  5
9C52
330
1E
100
AcDbEntity
  8
0
 48
0.27
100
AcDbLine
 10
2213.217048176757
 20
1158.521069411416
 30
0.0
 11
2213.32094909342
 21
1158.743889442396
 31
0.0
  0
LINE
  5
9C53
330
1E
100
AcDbEntity
  8
0
 48
0.27
100
AcDbLine
 10
2213.406219215316
 20
1161.006215702868
 30
0.0
 11
2213.32094909342
 21
1161.277721627891
 31
0.0
  0
LINE
  5
9C54
330
1E
100
AcDbEntity
  8
0
 48
0.27
100
AcDbLine
 10
2209.643326387375
 20
1157.974235208893
 30
0.0
 11
2209.884452560284
 21
1158.072639740451
 31
0.0
  0
LINE
  5
9C55
330
1E
100
AcDbEntity
  8
0
 48
0.27
100
AcDbLine
 10
2209.643326387375
 20
1162.047375861394
 30
0.0
 11
2209.884452560284
 21
1161.948972665856
 31
0.0
  0
LINE
  5
9C56
330
1E
100
AcDbEntity
  8
0
 48
0.27
100
AcDbLine
 10
2213.098508492178
 20
1158.355500497068
 30
0.0
 11
2213.217048176757
 21
1158.521069411416
 31
0.0
  0
LINE
  5
9C57
330
1E
100
AcDbEntity
  8
0
 48
0.27
100
AcDbLine
 10
2213.32094909342
 20
1161.277721627891
 30
0.0
 11
2213.217048176757
 21
1161.50054165887
 31
0.0
  0
LINE
  5
9C58
330
1E
100
AcDbEntity
  8
0
 48
0.27
100
AcDbLine
 10
2209.884452560284
 20
1158.072639740451
 30
0.0
 11
2210.099379386783
 21
1158.063512053856
 31
0.0
  0
LINE
  5
9C59
330
1E
100
AcDbEntity
  8
0
 48
0.27
100
AcDbLine
 10
2209.884452560284
 20
1161.948972665856
 30
0.0
 11
2210.099379386783
 21
1161.95809901643
 31
0.0
  0
LINE
  5
9C5A
330
1E
100
AcDbEntity
  8
0
 48
0.27
100
AcDbLine
 10
2211.719392796268
 20
1157.506441268256
 30
0.0
 11
2212.969885866765
 21
1158.253542153052
 31
0.0
  0
LINE
  5
9C5B
330
1E
100
AcDbEntity
  8
0
 48
0.27
100
AcDbLine
 10
2212.969885866765
 20
1158.253542153052
 30
0.0
 11
2213.098508492178
 21
1158.355500497068
 31
0.0
  0
LINE
  5
9C5C
330
1E
100
AcDbEntity
  8
0
 48
0.27
100
AcDbLine
 10
2213.217048176757
 20
1161.50054165887
 30
0.0
 11
2213.098508492178
 21
1161.666110573218
 31
0.0
  0
LINE
  5
9C5D
330
1E
100
AcDbEntity
  8
0
 48
0.27
100
AcDbLine
 10
2211.52876015218
 20
1157.457377280495
 30
0.0
 11
2211.719392796268
 21
1157.506441268256
 31
0.0
  0
LINE
  5
9C5E
330
1E
100
AcDbEntity
  8
0
 48
0.27
100
AcDbLine
 10
2211.167922605294
 20
1157.48526134779
 30
0.0
 11
2211.52876015218
 21
1157.457377280495
 31
0.0
  0
LINE
  5
9C5F
330
1E
100
AcDbEntity
  8
0
 48
0.27
100
AcDbLine
 10
2210.099379386783
 20
1158.063512053856
 30
0.0
 11
2210.653334574419
 21
1157.698289690285
 31
0.0
  0
LINE
  5
9C60
330
1E
100
AcDbEntity
  8
0
 48
0.27
100
AcDbLine
 10
2212.836122237531
 20
1158.219115597186
 30
0.0
 11
2212.969885866765
 21
1158.253542153052
 31
0.0
  0
LINE
  5
9C61
330
1E
100
AcDbEntity
  8
0
 48
0.27
100
AcDbLine
 10
2211.719392796268
 20
1162.51517113805
 30
0.0
 11
2212.969885866765
 21
1161.768068917236
 31
0.0
  0
LINE
  5
9C62
330
1E
100
AcDbEntity
  8
0
 48
0.27
100
AcDbLine
 10
2212.969885866765
 20
1161.768068917236
 30
0.0
 11
2213.098508492178
 21
1161.666110573218
 31
0.0
  0
LINE
  5
9C63
330
1E
100
AcDbEntity
  8
0
 48
0.27
100
AcDbLine
 10
2211.52876015218
 20
1162.564233789792
 30
0.0
 11
2211.719392796268
 21
1162.51517113805
 31
0.0
  0
LINE
  5
9C64
330
1E
100
AcDbEntity
  8
0
 48
0.27
100
AcDbLine
 10
2211.167922605294
 20
1162.536351058416
 30
0.0
 11
2211.52876015218
 21
1162.564233789792
 31
0.0
  0
LINE
  5
9C65
330
1E
100
AcDbEntity
  8
0
 48
0.27
100
AcDbLine
 10
2209.908540995693
 20
1158.208017281535
 30
0.0
 11
2210.04862399804
 21
1158.096975339466
 31
0.0
  0
LINE
  5
9C66
330
1E
100
AcDbEntity
  8
0
 48
0.27
100
AcDbLine
 10
2210.653334574419
 20
1157.698289690285
 30
0.0
 11
2210.979371479881
 21
1157.533788255714
 31
0.0
  0
LINE
  5
9C67
330
1E
100
AcDbEntity
  8
0
 48
0.27
100
AcDbLine
 10
2210.979371479881
 20
1157.533788255714
 30
0.0
 11
2211.167922605294
 21
1157.48526134779
 31
0.0
  0
LINE
  5
9C68
330
1E
100
AcDbEntity
  8
0
 48
0.27
100
AcDbLine
 10
2210.099379386783
 20
1161.95809901643
 30
0.0
 11
2210.653334574419
 21
1162.323321380002
 31
0.0
  0
LINE
  5
9C69
330
1E
100
AcDbEntity
  8
0
 48
0.27
100
AcDbLine
 10
2209.908540995693
 20
1161.813593788753
 30
0.0
 11
2210.04862399804
 21
1161.924635730821
 31
0.0
  0
LINE
  5
9C6A
330
1E
100
AcDbEntity
  8
0
 48
0.27
100
AcDbLine
 10
2211.338126172073
 20
1157.506441268256
 30
0.0
 11
2211.52876015218
 21
1157.457377280495
 31
0.0
  0
LINE
  5
9C6B
330
1E
100
AcDbEntity
  8
0
 48
0.27
100
AcDbLine
 10
2210.979371479881
 20
1162.487822814572
 30
0.0
 11
2211.167922605294
 21
1162.536351058416
 31
0.0
  0
LINE
  5
9C6C
330
1E
100
AcDbEntity
  8
0
 48
0.27
100
AcDbLine
 10
2210.653334574419
 20
1162.323321380002
 30
0.0
 11
2210.979371479881
 21
1162.487822814572
 31
0.0
  0
LINE
  5
9C6D
330
1E
100
AcDbEntity
  8
0
 48
0.27
100
AcDbLine
 10
2209.908540995693
 20
1158.208017281535
 30
0.0
 11
2209.779438739182
 21
1158.388338525455
 31
0.0
  0
LINE
  5
9C6E
330
1E
100
AcDbEntity
  8
0
 48
0.27
100
AcDbLine
 10
2212.7023586084
 20
1158.253542153052
 30
0.0
 11
2212.836122237531
 21
1158.219115597186
 31
0.0
  0
LINE
  5
9C6F
330
1E
100
AcDbEntity
  8
0
 48
0.27
100
AcDbLine
 10
2212.836122237531
 20
1161.802495473102
 30
0.0
 11
2212.969885866765
 21
1161.768068917236
 31
0.0
  0
LINE
  5
9C70
330
1E
100
AcDbEntity
  8
0
 48
0.27
100
AcDbLine
 10
2211.338126172073
 20
1162.51517113805
 30
0.0
 11
2211.52876015218
 21
1162.564233789792
 31
0.0
  0
LINE
  5
9C71
330
1E
100
AcDbEntity
  8
0
 48
0.27
100
AcDbLine
 10
2210.484068893526
 20
1162.189147592684
 30
0.0
 11
2210.653334574419
 21
1162.323321380002
 31
0.0
  0
LINE
  5
9C72
330
1E
100
AcDbEntity
  8
0
 48
0.27
100
AcDbLine
 10
2209.779438739182
 20
1161.633272544833
 30
0.0
 11
2209.908540995693
 21
1161.813593788753
 31
0.0
  0
LINE
  5
9C73
330
1E
100
AcDbEntity
  8
0
 48
0.27
100
AcDbLine
 10
2209.779438739182
 20
1158.388338525455
 30
0.0
 11
2209.666280542031
 21
1158.631010473221
 31
0.0
  0
LINE
  5
9C74
330
1E
100
AcDbEntity
  8
0
 48
0.27
100
AcDbLine
 10
2211.15481892398
 20
1157.651745435692
 30
0.0
 11
2211.338126172073
 21
1157.506441268256
 31
0.0
  0
LINE
  5
9C75
330
1E
100
AcDbEntity
  8
0
 48
0.27
100
AcDbLine
 10
2209.666280542031
 20
1161.390600597066
 30
0.0
 11
2209.779438739182
 21
1161.633272544833
 31
0.0
  0
LINE
  5
9C76
330
1E
100
AcDbEntity
  8
0
 48
0.27
100
AcDbLine
 10
2212.573734646967
 20
1158.355500497068
 30
0.0
 11
2212.7023586084
 21
1158.253542153052
 31
0.0
  0
LINE
  5
9C77
330
1E
100
AcDbEntity
  8
0
 48
0.27
100
AcDbLine
 10
2211.15481892398
 20
1162.369865634594
 30
0.0
 11
2211.338126172073
 21
1162.51517113805
 31
0.0
  0
LINE
  5
9C78
330
1E
100
AcDbEntity
  8
0
 48
0.27
100
AcDbLine
 10
2212.7023586084
 20
1161.768068917236
 30
0.0
 11
2212.836122237531
 21
1161.802495473102
 31
0.0
  0
LINE
  5
9C79
330
1E
100
AcDbEntity
  8
0
 48
0.27
100
AcDbLine
 10
2209.666280542031
 20
1158.631010473221
 30
0.0
 11
2209.573413812083
 21
1158.926707707153
 31
0.0
  0
LINE
  5
9C7A
330
1E
100
AcDbEntity
  8
0
 48
0.27
100
AcDbLine
 10
2209.573413812083
 20
1161.094903363133
 30
0.0
 11
2209.666280542031
 21
1161.390600597066
 31
0.0
  0
LINE
  5
9C7B
330
1E
100
AcDbEntity
  8
0
 48
0.27
100
AcDbLine
 10
2211.15481892398
 20
1157.651745435692
 30
0.0
 11
2210.985881903984
 21
1157.887707892451
 31
0.0
  0
LINE
  5
9C7C
330
1E
100
AcDbEntity
  8
0
 48
0.27
100
AcDbLine
 10
2209.573413812083
 20
1158.926707707153
 30
0.0
 11
2209.504408394128
 21
1159.264066043722
 31
0.0
  0
LINE
  5
9C7D
330
1E
100
AcDbEntity
  8
0
 48
0.27
100
AcDbLine
 10
2212.573734646967
 20
1161.666110573218
 30
0.0
 11
2212.7023586084
 21
1161.768068917236
 31
0.0
  0
LINE
  5
9C7E
330
1E
100
AcDbEntity
  8
0
 48
0.27
100
AcDbLine
 10
2212.573734646967
 20
1158.355500497068
 30
0.0
 11
2212.455194962388
 21
1158.521069411416
 31
0.0
  0
LINE
  5
9C7F
330
1E
100
AcDbEntity
  8
0
 48
0.27
100
AcDbLine
 10
2210.985881903984
 20
1162.133903177835
 30
0.0
 11
2211.15481892398
 21
1162.369865634594
 31
0.0
  0
LINE
  5
9C80
330
1E
100
AcDbEntity
  8
0
 48
0.27
100
AcDbLine
 10
2209.504408394128
 20
1160.757545026566
 30
0.0
 11
2209.573413812083
 21
1161.094903363133
 31
0.0
  0
LINE
  5
9C81
330
1E
100
AcDbEntity
  8
0
 48
0.27
100
AcDbLine
 10
2209.504408394128
 20
1159.264066043722
 30
0.0
 11
2209.461913615327
 21
1159.630120747538
 31
0.0
  0
LINE
  5
9C82
330
1E
100
AcDbEntity
  8
0
 48
0.27
100
AcDbLine
 10
2209.461913615327
 20
1160.391490322749
 30
0.0
 11
2209.504408394128
 21
1160.757545026566
 31
0.0
  0
LINE
  5
9C83
330
1E
100
AcDbEntity
  8
0
 48
0.27
100
AcDbLine
 10
2209.461913615327
 20
1159.630120747538
 30
0.0
 11
2209.447566099662
 21
1160.010806203153
 31
0.0
  0
LINE
  5
9C84
330
1E
100
AcDbEntity
  8
0
 48
0.27
100
AcDbLine
 10
2209.447566099662
 20
1160.010806203153
 30
0.0
 11
2209.461913615327
 21
1160.391490322749
 31
0.0
  0
LINE
  5
9C85
330
1E
100
AcDbEntity
  8
0
 48
0.27
100
AcDbLine
 10
2210.985881903984
 20
1157.887707892451
 30
0.0
 11
2210.837806831612
 21
1158.205259736796
 31
0.0
  0
LINE
  5
9C86
330
1E
100
AcDbEntity
  8
0
 48
0.27
100
AcDbLine
 10
2212.455194962388
 20
1161.50054165887
 30
0.0
 11
2212.573734646967
 21
1161.666110573218
 31
0.0
  0
LINE
  5
9C87
330
1E
100
AcDbEntity
  8
0
 48
0.27
100
AcDbLine
 10
2212.455194962388
 20
1158.521069411416
 30
0.0
 11
2212.351294045725
 21
1158.743889442396
 31
0.0
  0
LINE
  5
9C88
330
1E
100
AcDbEntity
  8
0
 48
0.27
100
AcDbLine
 10
2210.837806831612
 20
1161.816352669511
 30
0.0
 11
2210.985881903984
 21
1162.133903177835
 31
0.0
  0
LINE
  5
9C89
330
1E
100
AcDbEntity
  8
0
 48
0.27
100
AcDbLine
 10
2212.351294045725
 20
1161.277721627891
 30
0.0
 11
2212.455194962388
 21
1161.50054165887
 31
0.0
  0
LINE
  5
9C8A
330
1E
100
AcDbEntity
  8
0
 48
0.27
100
AcDbLine
 10
2210.837806831612
 20
1158.205259736796
 30
0.0
 11
2210.716285151019
 21
1158.592196428631
 31
0.0
  0
LINE
  5
9C8B
330
1E
100
AcDbEntity
  8
0
 48
0.27
100
AcDbLine
 10
2212.351294045725
 20
1158.743889442396
 30
0.0
 11
2212.266025259848
 21
1159.015396703439
 31
0.0
  0
LINE
  5
9C8C
330
1E
100
AcDbEntity
  8
0
 48
0.27
100
AcDbLine
 10
2210.716285151019
 20
1161.429414641556
 30
0.0
 11
2210.837806831612
 21
1161.816352669511
 31
0.0
  0
LINE
  5
9C8D
330
1E
100
AcDbEntity
  8
0
 48
0.27
100
AcDbLine
 10
2212.266025259848
 20
1161.006215702868
 30
0.0
 11
2212.351294045725
 21
1161.277721627891
 31
0.0
  0
LINE
  5
9C8E
330
1E
100
AcDbEntity
  8
0
 48
0.27
100
AcDbLine
 10
2210.716285151019
 20
1158.592196428631
 30
0.0
 11
2210.625986250942
 21
1159.033650740709
 31
0.0
  0
LINE
  5
9C8F
330
1E
100
AcDbEntity
  8
0
 48
0.27
100
AcDbLine
 10
2212.266025259848
 20
1159.015396703439
 30
0.0
 11
2212.202664525163
 21
1159.325155544864
 31
0.0
  0
LINE
  5
9C90
330
1E
100
AcDbEntity
  8
0
 48
0.27
100
AcDbLine
 10
2210.625986250942
 20
1160.987960329578
 30
0.0
 11
2210.716285151019
 21
1161.429414641556
 31
0.0
  0
LINE
  5
9C91
330
1E
100
AcDbEntity
  8
0
 48
0.27
100
AcDbLine
 10
2212.202664525163
 20
1160.696455525423
 30
0.0
 11
2212.266025259848
 21
1161.006215702868
 31
0.0
  0
LINE
  5
9C92
330
1E
100
AcDbEntity
  8
0
 48
0.27
100
AcDbLine
 10
2210.625986250942
 20
1159.033650740709
 30
0.0
 11
2210.570381110729
 21
1159.512656558754
 31
0.0
  0
LINE
  5
9C93
330
1E
100
AcDbEntity
  8
0
 48
0.27
100
AcDbLine
 10
2212.202664525163
 20
1159.325155544864
 30
0.0
 11
2212.16364606959
 21
1159.661264702903
 31
0.0
  0
LINE
  5
9C94
330
1E
100
AcDbEntity
  8
0
 48
0.27
100
AcDbLine
 10
2210.570381110729
 20
1160.508954511533
 30
0.0
 11
2210.625986250942
 21
1160.987960329578
 31
0.0
  0
LINE
  5
9C95
330
1E
100
AcDbEntity
  8
0
 48
0.27
100
AcDbLine
 10
2212.16364606959
 20
1160.360347703403
 30
0.0
 11
2212.202664525163
 21
1160.696455525423
 31
0.0
  0
LINE
  5
9C96
330
1E
100
AcDbEntity
  8
0
 48
0.27
100
AcDbLine
 10
2210.570381110729
 20
1159.512656558754
 30
0.0
 11
2210.551604689736
 21
1160.010806203153
 31
0.0
  0
LINE
  5
9C97
330
1E
100
AcDbEntity
  8
0
 48
0.27
100
AcDbLine
 10
2212.16364606959
 20
1159.661264702903
 30
0.0
 11
2212.150471579243
 21
1160.010806203153
 31
0.0
  0
LINE
  5
9C98
330
1E
100
AcDbEntity
  8
0
 48
0.27
100
AcDbLine
 10
2212.150471579243
 20
1160.010806203153
 30
0.0
 11
2212.16364606959
 21
1160.360347703403
 31
0.0
  0
LINE
  5
9C99
330
1E
100
AcDbEntity
  8
0
 48
0.27
100
AcDbLine
 10
2210.551604689736
 20
1160.010806203153
 30
0.0
 11
2210.570381110729
 21
1160.508954511533
 31
0.0
  0
LINE
  5
9C9A
330
1E
100
AcDbEntity
  8
0
 48
0.27
100
AcDbLine
 10
2210.04862399804
 20
1158.096975339466
 30
0.0
 11
2210.099379386783
 21
1158.063512053856
 31
0.0
  0
LINE
  5
9C9B
330
1E
100
AcDbEntity
  8
0
 48
0.27
100
AcDbLine
 10
2209.836097999076
 20
1158.074693202816
 30
0.0
 11
2209.884452560284
 21
1158.072639740451
 31
0.0
  0
LINE
  5
9C9C
330
1E
100
AcDbEntity
  8
0
 48
0.27
100
AcDbLine
 10
2210.04862399804
 20
1161.924635730821
 30
0.0
 11
2210.099379386783
 21
1161.95809901643
 31
0.0
  0
LINE
  5
9C9D
330
1E
100
AcDbEntity
  8
0
 48
0.27
100
AcDbLine
 10
2206.651506645842
 20
1157.010761924304
 30
0.0
 11
2206.074148400999
 21
1156.010747164688
 31
0.0
  0
LINE
  5
9C9E
330
1E
100
AcDbEntity
  8
0
 48
0.27
100
AcDbLine
 10
2205.066237764962
 20
1157.010761924304
 30
0.0
 11
2208.080350331302
 21
1157.010761924304
 31
0.0
  0
LINE
  5
9C9F
330
1E
100
AcDbEntity
  8
0
 48
0.27
100
AcDbLine
 10
2208.143250139161
 20
1162.726158042356
 30
0.0
 11
2208.080350331302
 21
1163.010849145982
 31
0.0
  0
LINE
  5
9CA0
330
1E
100
AcDbEntity
  8
0
 48
0.27
100
AcDbLine
 10
2208.080350331302
 20
1157.010761924304
 30
0.0
 11
2208.143250139161
 21
1157.295453027931
 31
0.0
  0
LINE
  5
9CA1
330
1E
100
AcDbEntity
  8
0
 48
0.27
100
AcDbLine
 10
2205.066237764962
 20
1163.010849145982
 30
0.0
 11
2208.080350331302
 21
1163.010849145982
 31
0.0
  0
LINE
  5
9CA2
330
1E
100
AcDbEntity
  8
0
 48
0.27
100
AcDbLine
 10
2207.417513545522
 20
1157.010761924304
 30
0.0
 11
2207.641490569484
 21
1157.068407166687
 31
0.0
  0
LINE
  5
9CA3
330
1E
100
AcDbEntity
  8
0
 48
0.27
100
AcDbLine
 10
2207.417513545522
 20
1163.010849145982
 30
0.0
 11
2207.641490569484
 21
1162.9532039036
 31
0.0
  0
LINE
  5
9CA4
330
1E
100
AcDbEntity
  8
0
 48
0.27
100
AcDbLine
 10
2207.193536521559
 20
1157.068407166687
 30
0.0
 11
2207.417513545522
 21
1157.010761924304
 31
0.0
  0
LINE
  5
9CA5
330
1E
100
AcDbEntity
  8
0
 48
0.27
100
AcDbLine
 10
2207.193536521559
 20
1162.9532039036
 30
0.0
 11
2207.417513545522
 21
1163.010849145982
 31
0.0
  0
LINE
  5
9CA6
330
1E
100
AcDbEntity
  8
0
 48
0.27
100
AcDbLine
 10
2206.978167472508
 20
1157.239126436991
 30
0.0
 11
2207.193536521559
 21
1157.068407166687
 31
0.0
  0
LINE
  5
9CA7
330
1E
100
AcDbEntity
  8
0
 48
0.27
100
AcDbLine
 10
2206.978167472508
 20
1162.782484633296
 30
0.0
 11
2207.193536521559
 21
1162.9532039036
 31
0.0
  0
LINE
  5
9CA8
330
1E
100
AcDbEntity
  8
0
 48
0.27
100
AcDbLine
 10
2204.403400979183
 20
1160.010806203153
 30
0.0
 11
2205.066237764962
 21
1163.010849145982
 31
0.0
  0
LINE
  5
9CA9
330
1E
100
AcDbEntity
  8
0
 48
0.27
100
AcDbLine
 10
2204.403400979183
 20
1160.010806203153
 30
0.0
 11
2206.091839973961
 21
1160.010806203153
 31
0.0
  0
LINE
  5
9CAA
330
1E
100
AcDbEntity
  8
0
 48
0.27
100
AcDbLine
 10
2205.066237764962
 20
1157.010761924304
 30
0.0
 11
2204.403400979183
 21
1160.010806203153
 31
0.0
  0
LINE
  5
9CAB
330
1E
100
AcDbEntity
  8
0
 48
0.27
100
AcDbLine
 10
2206.978167472508
 20
1157.239126436991
 30
0.0
 11
2206.779681704624
 21
1157.516359878592
 31
0.0
  0
LINE
  5
9CAC
330
1E
100
AcDbEntity
  8
0
 48
0.27
100
AcDbLine
 10
2206.779681704624
 20
1162.505251191694
 30
0.0
 11
2206.978167472508
 21
1162.782484633296
 31
0.0
  0
LINE
  5
9CAD
330
1E
100
AcDbEntity
  8
0
 48
0.27
100
AcDbLine
 10
2206.779681704624
 20
1157.516359878592
 30
0.0
 11
2206.605707890227
 21
1157.889454070232
 31
0.0
  0
LINE
  5
9CAE
330
1E
100
AcDbEntity
  8
0
 48
0.27
100
AcDbLine
 10
2206.605707890227
 20
1162.132157000054
 30
0.0
 11
2206.779681704624
 21
1162.505251191694
 31
0.0
  0
LINE
  5
9CAF
330
1E
100
AcDbEntity
  8
0
 48
0.27
100
AcDbLine
 10
2206.754676759741
 20
1157.010761924304
 30
0.0
 11
2206.091839973961
 21
1160.010806203153
 31
0.0
  0
LINE
  5
9CB0
330
1E
100
AcDbEntity
  8
0
 48
0.27
100
AcDbLine
 10
2206.091839973961
 20
1160.010806203153
 30
0.0
 11
2206.754676759741
 21
1163.010849145982
 31
0.0
  0
LINE
  5
9CB1
330
1E
100
AcDbEntity
  8
0
 48
0.27
100
AcDbLine
 10
2206.605707890227
 20
1157.889454070232
 30
0.0
 11
2206.462930136058
 21
1158.344070848483
 31
0.0
  0
LINE
  5
9CB2
330
1E
100
AcDbEntity
  8
0
 48
0.27
100
AcDbLine
 10
2206.462930136058
 20
1161.677540221804
 30
0.0
 11
2206.605707890227
 21
1162.132157000054
 31
0.0
  0
LINE
  5
9CB3
330
1E
100
AcDbEntity
  8
0
 48
0.27
100
AcDbLine
 10
2206.462930136058
 20
1158.344070848483
 30
0.0
 11
2206.356838147121
 21
1158.862739083597
 31
0.0
  0
LINE
  5
9CB4
330
1E
100
AcDbEntity
  8
0
 48
0.27
100
AcDbLine
 10
2206.356838147121
 20
1161.158873322709
 30
0.0
 11
2206.462930136058
 21
1161.677540221804
 31
0.0
  0
LINE
  5
9CB5
330
1E
100
AcDbEntity
  8
0
 48
0.27
100
AcDbLine
 10
2206.356838147121
 20
1158.862739083597
 30
0.0
 11
2206.291506783379
 21
1159.42552669742
 31
0.0
  0
LINE
  5
9CB6
330
1E
100
AcDbEntity
  8
0
 48
0.27
100
AcDbLine
 10
2206.291506783379
 20
1160.596085708786
 30
0.0
 11
2206.356838147121
 21
1161.158873322709
 31
0.0
  0
LINE
  5
9CB7
330
1E
100
AcDbEntity
  8
0
 48
0.27
100
AcDbLine
 10
2206.291506783379
 20
1159.42552669742
 30
0.0
 11
2206.269446425966
 21
1160.010806203153
 31
0.0
  0
LINE
  5
9CB8
330
1E
100
AcDbEntity
  8
0
 48
0.27
100
AcDbLine
 10
2206.269446425966
 20
1160.010806203153
 30
0.0
 11
2206.291506783379
 21
1160.596085708786
 31
0.0
  0
LINE
  5
9CB9
330
1E
100
AcDbEntity
  8
0
 48
0.27
100
AcDbLine
 10
2207.641490569484
 20
1157.068407166687
 30
0.0
 11
2209.643326387375
 21
1157.974235208893
 31
0.0
  0
LINE
  5
9CBA
330
1E
100
AcDbEntity
  8
0
 48
0.27
100
AcDbLine
 10
2207.641490569484
 20
1162.9532039036
 30
0.0
 11
2209.643326387375
 21
1162.047375861394
 31
0.0
  0
LINE
  5
9CBB
330
1E
100
AcDbEntity
  8
0
 48
0.27
100
AcDbLine
 10
2206.651506645842
 20
1163.010849145982
 30
0.0
 11
2206.074147064979
 21
1164.010863905599
 31
0.0
  0
LINE
  5
9CBC
330
1E
100
AcDbEntity
  8
中心線
 48
0.27
100
AcDbLine
 10
2214.499267718077
 20
1160.010806203153
 30
0.0
 11
2198.13172741762
 21
1160.010806203153
 31
0.0
  0
LINE
  5
9CBD
330
1E
100
AcDbEntity
  8
0
 48
0.27
100
AcDbLine
 10
2181.364742749584
 20
1165.310806203118
 30
0.0
 11
2226.164682749586
 21
1165.310806203118
 31
0.0
  0
LINE
  5
9CBE
330
1E
100
AcDbEntity
  8
0
  6
Continuous
100
AcDbLine
 10
2190.66472037898
 20
1136.210823326395
 30
0.0
 11
2191.86472037898
 21
1136.210821682554
 31
0.0
  0
LINE
  5
9CC3
330
1E
100
AcDbEntity
  8
指線
 48
0.27
100
AcDbLine
 10
2186.654187574618
 20
1155.829717925472
 30
0.0
 11
2186.098401644605
 21
1156.385503855485
 31
0.0
  0
LINE
  5
9CC4
330
1E
100
AcDbEntity
  8
指線
 48
0.27
100
AcDbLine
 10
2184.431043854568
 20
1156.385503855485
 30
0.0
 11
2183.875257924556
 21
1155.829717925472
 31
0.0
  0
LINE
  5
9CC5
330
1E
100
AcDbEntity
  8
指線
 48
0.27
100
AcDbLine
 10
2186.098401644605
 20
1153.606574205421
 30
0.0
 11
2185.264722749586
 21
1154.44025310044
 31
0.0
  0
LINE
  5
9CC6
330
1E
100
AcDbEntity
  8
指線
 48
0.27
100
AcDbLine
 10
2184.431043854567
 20
1153.606574205421
 30
0.0
 11
2185.264722749586
 21
1154.44025310044
 31
0.0
  0
LINE
  5
9CC7
330
1E
100
AcDbEntity
  8
指線
 48
0.27
100
AcDbLine
 10
2183.875257924556
 20
1154.162360135434
 30
0.0
 11
2184.708936819574
 21
1154.996039030453
 31
0.0
  0
LINE
  5
9CC8
330
1E
100
AcDbEntity
  8
指線
 48
0.27
100
AcDbLine
 10
2186.654187574618
 20
1154.162360135434
 30
0.0
 11
2185.820508679599
 21
1154.996039030453
 31
0.0
  0
LINE
  5
9CC9
330
1E
100
AcDbEntity
  8
指線
 48
0.27
100
AcDbLine
 10
2186.098401644605
 20
1153.606574205421
 30
0.0
 11
2186.654187574618
 21
1154.162360135434
 31
0.0
  0
LINE
  5
9CCA
330
1E
100
AcDbEntity
  8
指線
 48
0.27
100
AcDbLine
 10
2183.875257924556
 20
1154.162360135434
 30
0.0
 11
2184.431043854567
 21
1153.606574205421
 31
0.0
  0
LINE
  5
9CCB
330
1E
100
AcDbEntity
  8
指線
 48
0.27
100
AcDbLine
 10
2185.264722749586
 20
1155.551824960466
 30
0.0
 11
2184.431043854568
 21
1156.385503855485
 31
0.0
  0
LINE
  5
9CCC
330
1E
100
AcDbEntity
  8
指線
 48
0.27
100
AcDbLine
 10
2183.875257924556
 20
1155.829717925472
 30
0.0
 11
2184.708936819574
 21
1154.996039030453
 31
0.0
  0
LINE
  5
9CCD
330
1E
100
AcDbEntity
  8
指線
 48
0.27
100
AcDbLine
 10
2185.820508679599
 20
1154.996039030453
 30
0.0
 11
2186.654187574618
 21
1155.829717925472
 31
0.0
  0
LINE
  5
9CCE
330
1E
100
AcDbEntity
  8
指線
 48
0.27
100
AcDbLine
 10
2185.264722749586
 20
1155.551824960466
 30
0.0
 11
2186.098401644605
 21
1156.385503855485
 31
0.0
  0
CIRCLE
  5
9CCF
330
1E
100
AcDbEntity
  8
指線
 48
0.27
100
AcDbCircle
 10
2185.264722749586
 20
1154.996039030453
 30
0.0
 40
2.75
  0
LINE
  5
9CD0
330
1E
100
AcDbEntity
  8
指線
 48
0.27
100
AcDbLine
 10
2223.654167574613
 20
1155.829717925459
 30
0.0
 11
2223.098381644601
 21
1156.385503855471
 31
0.0
  0
LINE
  5
9CD1
330
1E
100
AcDbEntity
  8
指線
 48
0.27
100
AcDbLine
 10
2221.431023854563
 20
1156.385503855471
 30
0.0
 11
2220.87523792455
 21
1155.829717925459
 31
0.0
  0
LINE
  5
9CD2
330
1E
100
AcDbEntity
  8
指線
 48
0.27
100
AcDbLine
 10
2223.098381644601
 20
1153.606574205408
 30
0.0
 11
2222.264702749582
 21
1154.440253100426
 31
0.0
  0
LINE
  5
9CD3
330
1E
100
AcDbEntity
  8
指線
 48
0.27
100
AcDbLine
 10
2221.431023854562
 20
1153.606574205408
 30
0.0
 11
2222.264702749582
 21
1154.440253100426
 31
0.0
  0
LINE
  5
9CD4
330
1E
100
AcDbEntity
  8
指線
 48
0.27
100
AcDbLine
 10
2220.87523792455
 20
1154.16236013542
 30
0.0
 11
2221.708916819569
 21
1154.996039030439
 31
0.0
  0
LINE
  5
9CD5
330
1E
100
AcDbEntity
  8
指線
 48
0.27
100
AcDbLine
 10
2223.654167574613
 20
1154.16236013542
 30
0.0
 11
2222.820488679594
 21
1154.996039030439
 31
0.0
  0
LINE
  5
9CD6
330
1E
100
AcDbEntity
  8
指線
 48
0.27
100
AcDbLine
 10
2223.098381644601
 20
1153.606574205408
 30
0.0
 11
2223.654167574613
 21
1154.16236013542
 31
0.0
  0
LINE
  5
9CD7
330
1E
100
AcDbEntity
  8
指線
 48
0.27
100
AcDbLine
 10
2220.87523792455
 20
1154.16236013542
 30
0.0
 11
2221.431023854562
 21
1153.606574205408
 31
0.0
  0
LINE
  5
9CD8
330
1E
100
AcDbEntity
  8
指線
 48
0.27
100
AcDbLine
 10
2222.264702749582
 20
1155.551824960452
 30
0.0
 11
2221.431023854563
 21
1156.385503855471
 31
0.0
  0
LINE
  5
9CD9
330
1E
100
AcDbEntity
  8
指線
 48
0.27
100
AcDbLine
 10
2220.87523792455
 20
1155.829717925459
 30
0.0
 11
2221.708916819569
 21
1154.996039030439
 31
0.0
  0
LINE
  5
9CDA
330
1E
100
AcDbEntity
  8
指線
 48
0.27
100
AcDbLine
 10
2222.820488679594
 20
1154.996039030439
 30
0.0
 11
2223.654167574613
 21
1155.829717925459
 31
0.0
  0
LINE
  5
9CDB
330
1E
100
AcDbEntity
  8
指線
 48
0.27
100
AcDbLine
 10
2222.264702749582
 20
1155.551824960452
 30
0.0
 11
2223.098381644601
 21
1156.385503855471
 31
0.0
  0
CIRCLE
  5
9CDC
330
1E
100
AcDbEntity
  8
指線
 48
0.27
100
AcDbCircle
 10
2222.264702749582
 20
1154.996039030439
 30
0.0
 40
2.75
  0
LINE
  5
9CDD
330
1E
100
AcDbEntity
  8
虛線
 48
0.3
100
AcDbLine
 10
2226.514712749586
 20
1156.210836203119
 30
0.0
 11
2238.764712749584
 21
1156.21083620312
 31
0.0
  0
LINE
  5
9CDE
330
1E
100
AcDbEntity
  8
虛線
 48
0.3
100
AcDbLine
 10
2226.514712749586
 20
1156.210836203119
 30
0.0
 11
2226.514712749586
 21
1135.710856203119
 31
0.0
  0
LINE
  5
9CDF
330
1E
100
AcDbEntity
  8
虛線
 48
0.3
100
AcDbLine
 10
2181.014712749583
 20
1156.210836203118
 30
0.0
 11
2169.264712749584
 21
1156.210836203118
 31
0.0
  0
LINE
  5
9CE0
330
1E
100
AcDbEntity
  8
虛線
 48
0.3
100
AcDbLine
 10
2181.014712749583
 20
1156.210836203118
 30
0.0
 11
2181.014712749584
 21
1135.710856203115
 31
0.0
  0
LINE
  5
9CE1
330
1E
100
AcDbEntity
  8
虛線
 48
0.3
100
AcDbLine
 10
2207.13818879669
 20
1165.410836203118
 30
0.0
 11
2207.13818879669
 21
1161.210836203116
 31
0.0
  0
LINE
  5
9CE2
330
1E
100
AcDbEntity
  8
虛線
 48
0.3
100
AcDbLine
 10
2209.263188796688
 20
1161.210836203116
 30
0.0
 11
2209.263188796691
 21
1155.210870290017
 31
0.0
  0
LINE
  5
9CE3
330
1E
100
AcDbEntity
  8
虛線
 48
0.3
100
AcDbLine
 10
2207.138188796689
 20
1165.410836203117
 30
0.0
 11
2207.938188796688
 21
1166.210836203116
 31
0.0
  0
LINE
  5
9CE4
330
1E
100
AcDbEntity
  8
虛線
 48
0.3
100
AcDbLine
 10
2200.388188796694
 20
1165.410836203116
 30
0.0
 11
2207.13818879669
 21
1165.410836203118
 31
0.0
  0
LINE
  5
9CE5
330
1E
100
AcDbEntity
  8
虛線
 48
0.3
100
AcDbLine
 10
2209.263188796688
 20
1161.210836203116
 30
0.0
 11
2198.263188796693
 21
1161.210836203116
 31
0.0
  0
LINE
  5
9CE6
330
1E
100
AcDbEntity
  8
虛線
 48
0.3
100
AcDbLine
 10
2198.263188796693
 20
1161.210836203116
 30
0.0
 11
2198.263188796692
 21
1155.210870290017
 31
0.0
  0
LINE
  5
9CE7
330
1E
100
AcDbEntity
  8
虛線
 48
0.3
100
AcDbLine
 10
2199.763188796694
 20
1166.035836203114
 30
0.0
 11
2199.763188796695
 21
1161.210836203116
 31
0.0
  0
LINE
  5
9CE8
330
1E
100
AcDbEntity
  8
虛線
 48
0.3
100
AcDbLine
 10
2200.388188796694
 20
1165.410836203116
 30
0.0
 11
2200.388188796694
 21
1161.210836203116
 31
0.0
  0
LINE
  5
9CE9
330
1E
100
AcDbEntity
  8
虛線
 48
0.3
100
AcDbLine
 10
2200.388188796693
 20
1165.410836203115
 30
0.0
 11
2199.58818879669
 21
1166.210836203117
 31
0.0
  0
LINE
  5
9CEA
330
1E
100
AcDbEntity
  8
0
100
AcDbLine
 10
2223.264743267162
 20
1165.710836203119
 30
0.0
 11
2211.264712749583
 21
1165.710836203118
 31
0.0
  0
LINE
  5
9CEC
330
1E
100
AcDbEntity
  8
0
100
AcDbLine
 10
2223.764743267162
 20
1166.210832388421
 30
0.0
 11
2223.264752803904
 21
1165.710843832513
 31
0.0
  0
LINE
  5
9CED
330
1E
100
AcDbEntity
  8
0
100
AcDbLine
 10
2210.764718948466
 20
1166.210820944328
 30
0.0
 11
2211.264708934886
 21
1165.71083238842
 31
0.0
  0
LINE
  5
9CEE
330
1E
100
AcDbEntity
  8
0
100
AcDbLine
 10
2210.764712749583
 20
1166.210836203117
 30
0.0
 11
2203.764712749583
 21
1166.210836203116
 31
0.0
  0
LINE
  5
9CF0
330
1E
100
AcDbEntity
  8
0
100
AcDbLine
 10
2238.764712749584
 20
1164.710836203121
 30
0.0
 11
2238.764712749584
 21
1146.372418572054
 31
0.0
  0
LINE
  5
9CF1
330
1E
100
AcDbEntity
  8
0
100
AcDbLine
 10
2237.264712749584
 20
1166.21083620312
 30
0.0
 11
2238.764712749584
 21
1164.710836203121
 31
0.0
  0
LINE
  5
9CF2
330
1E
100
AcDbEntity
  8
0
100
AcDbLine
 10
2238.764712749584
 20
1146.372418572054
 30
0.0
 11
2228.103132899104
 21
1135.710838721552
 31
0.0
  0
LINE
  5
9CF3
330
1E
100
AcDbEntity
  8
0
100
AcDbLine
 10
2184.264682232004
 20
1165.710836203118
 30
0.0
 11
2196.264712749582
 21
1165.710836203117
 31
0.0
  0
LINE
  5
9CF4
330
1E
100
AcDbEntity
  8
0
100
AcDbLine
 10
2183.764682232004
 20
1166.210832388421
 30
0.0
 11
2184.264672695261
 21
1165.710843832512
 31
0.0
  0
LINE
  5
9CF5
330
1E
100
AcDbEntity
  8
0
100
AcDbLine
 10
2196.764706550699
 20
1166.210820944328
 30
0.0
 11
2196.264716564279
 21
1165.71083238842
 31
0.0
  0
LINE
  5
9CF6
330
1E
100
AcDbEntity
  8
0
100
AcDbLine
 10
2196.764712749582
 20
1166.210836203117
 30
0.0
 11
2203.764712749582
 21
1166.210836203116
 31
0.0
  0
LINE
  5
9CF7
330
1E
100
AcDbEntity
  8
0
100
AcDbLine
 10
2168.764712749582
 20
1164.710836203119
 30
0.0
 11
2168.764712749583
 21
1156.710786612067
 31
0.0
  0
LINE
  5
9CF8
330
1E
100
AcDbEntity
  8
0
100
AcDbLine
 10
2170.264712749582
 20
1166.210836203119
 30
0.0
 11
2168.764712749582
 21
1164.710836203119
 31
0.0
  0
LINE
  5
9CF9
330
1E
100
AcDbEntity
  8
0
100
AcDbLine
 10
2169.264712749581
 20
1145.872418572059
 30
0.0
 11
2179.426305118492
 21
1135.710826203113
 31
0.0
  0
LINE
  5
9CFA
330
1E
100
AcDbEntity
  8
0
 62
     0
 48
0.27
100
AcDbLine
 10
2227.264682749589
 20
1136.710836203119
 30
0.0
 11
2226.264682749589
 21
1135.710836203119
 31
0.0
  0
LINE
  5
9CFB
330
1E
100
AcDbEntity
  8
虛線
 48
0.3
100
AcDbLine
 10
2179.26468833552
 20
1166.035810376202
 30
0.0
 11
2179.264688335521
 21
1156.210836203118
 31
0.0
  0
LINE
  5
9CFC
330
1E
100
AcDbEntity
  8
虛線
 48
0.3
100
AcDbLine
 10
2178.639712749584
 20
1165.410834790265
 30
0.0
 11
2178.639712749582
 21
1156.210836203118
 31
0.0
  0
LINE
  5
9CFD
330
1E
100
AcDbEntity
  8
虛線
 48
0.3
100
AcDbLine
 10
2178.639712749583
 20
1165.410834790265
 30
0.0
 11
2179.439712749584
 21
1166.210834790264
 31
0.0
  0
LINE
  5
9CFE
330
1E
100
AcDbEntity
  8
虛線
 48
0.3
100
AcDbLine
 10
2178.639712749583
 20
1165.410834790265
 30
0.0
 11
2171.889712749583
 21
1165.410834790265
 31
0.0
  0
LINE
  5
9CFF
330
1E
100
AcDbEntity
  8
虛線
 48
0.3
100
AcDbLine
 10
2171.264737163645
 20
1166.035810376201
 30
0.0
 11
2171.264737163648
 21
1156.210836203119
 31
0.0
  0
LINE
  5
9D00
330
1E
100
AcDbEntity
  8
虛線
 48
0.3
100
AcDbLine
 10
2171.889712749582
 20
1165.410834790265
 30
0.0
 11
2171.889712749586
 21
1156.210836203118
 31
0.0
  0
LINE
  5
9D01
330
1E
100
AcDbEntity
  8
虛線
 48
0.3
100
AcDbLine
 10
2171.889712749583
 20
1165.410834790264
 30
0.0
 11
2171.089712749581
 21
1166.210834790265
 31
0.0
  0
LINE
  5
9D02
330
1E
100
AcDbEntity
  8
中心線
 48
0.27
100
AcDbLine
 10
2175.264712749583
 20
1168.914327989075
 30
0.0
 11
2175.264712749581
 21
1135.750957448277
 31
0.0
  0
LINE
  5
9D03
330
1E
100
AcDbEntity
  8
0
 62
     0
 48
0.27
100
AcDbLine
 10
2170.264712749582
 20
1166.210836203119
 30
0.0
 11
2183.764682232004
 21
1166.210832388421
 31
0.0
  0
LINE
  5
9D04
330
1E
100
AcDbEntity
  8
虛線
 48
0.3
100
AcDbLine
 10
2236.264688335521
 20
1166.035810376205
 30
0.0
 11
2236.264688335522
 21
1156.21083620312
 31
0.0
  0
LINE
  5
9D05
330
1E
100
AcDbEntity
  8
虛線
 48
0.3
100
AcDbLine
 10
2235.639712749584
 20
1165.410834790266
 30
0.0
 11
2235.639712749586
 21
1156.21083620312
 31
0.0
  0
LINE
  5
9D06
330
1E
100
AcDbEntity
  8
虛線
 48
0.3
100
AcDbLine
 10
2235.639712749582
 20
1165.410834790266
 30
0.0
 11
2236.439712749581
 21
1166.210834790267
 31
0.0
  0
LINE
  5
9D07
330
1E
100
AcDbEntity
  8
虛線
 48
0.3
100
AcDbLine
 10
2235.639712749583
 20
1165.410834790266
 30
0.0
 11
2228.889712749583
 21
1165.410834790266
 31
0.0
  0
LINE
  5
9D08
330
1E
100
AcDbEntity
  8
虛線
 48
0.3
100
AcDbLine
 10
2228.264737163645
 20
1166.035810376203
 30
0.0
 11
2228.264737163647
 21
1156.210836203119
 31
0.0
  0
LINE
  5
9D09
330
1E
100
AcDbEntity
  8
虛線
 48
0.3
100
AcDbLine
 10
2228.889712749583
 20
1165.410834790265
 30
0.0
 11
2228.889712749585
 21
1156.210836203119
 31
0.0
  0
LINE
  5
9D0A
330
1E
100
AcDbEntity
  8
虛線
 48
0.3
100
AcDbLine
 10
2228.889712749582
 20
1165.410834790266
 30
0.0
 11
2228.089712749581
 21
1166.210834790265
 31
0.0
  0
LINE
  5
9D0B
330
1E
100
AcDbEntity
  8
中心線
 48
0.27
100
AcDbLine
 10
2232.264712749583
 20
1168.914327989076
 30
0.0
 11
2232.264712749581
 21
1135.750957448278
 31
0.0
  0
LINE
  5
9D0C
330
1E
100
AcDbEntity
  8
0
 62
     0
 48
0.27
100
AcDbLine
 10
2223.764743267162
 20
1166.210832388421
 30
0.0
 11
2237.264712749584
 21
1166.21083620312
 31
0.0
  0
LINE
  5
9D0D
330
1E
100
AcDbEntity
  8
虛線
 48
0.3
100
AcDbLine
 10
2207.766236702472
 20
1166.035836203141
 30
0.0
 11
2207.766236702503
 21
1161.210836203144
 31
0.0
  0
LINE
  5
A185
330
1E
100
AcDbEntity
  8
0
100
AcDbLine
 10
2196.764721809485
 20
1165.810806203027
 30
0.0
 11
2196.264720378986
 21
1165.310806203026
 31
0.0
  0
LINE
  5
A186
330
1E
100
AcDbEntity
  8
0
100
AcDbLine
 10
2210.764712749586
 20
1165.810806203027
 30
0.0
 11
2196.764712749586
 21
1165.810806203027
 31
0.0
  0
LINE
  5
A187
330
1E
100
AcDbEntity
  8
0
100
AcDbLine
 10
2211.264705120186
 20
1165.310806203026
 30
0.0
 11
2210.764703689585
 21
1165.810806203027
 31
0.0
  0
LINE
  5
C77E
330
1E
100
AcDbEntity
  8
0
100
AcDbLine
 10
2301.09001838309
 20
1153.410836720694
 30
0.0
 11
2301.320958490766
 21
1153.810836720695
 31
0.0
  0
LINE
  5
C77F
330
1E
100
AcDbEntity
  8
0
100
AcDbLine
 10
2299.09001838309
 20
1144.510836720695
 30
0.0
 11
2299.39001838309
 21
1144.810836720695
 31
0.0
  0
LINE
  5
C780
330
1E
100
AcDbEntity
  8
0
100
AcDbLine
 10
2290.09001838309
 20
1153.410836720694
 30
0.0
 11
2289.859078275414
 21
1153.810836720695
 31
0.0
  0
LINE
  5
C781
330
1E
100
AcDbEntity
  8
0
100
AcDbLine
 10
2291.79001838309
 20
1144.810836720695
 30
0.0
 11
2292.09001838309
 21
1144.510836720694
 31
0.0
  0
LINE
  5
C782
330
1E
100
AcDbEntity
  8
0
100
AcDbLine
 10
2292.09001838309
 20
1144.510836720695
 30
0.0
 11
2299.09001838309
 21
1144.510836720695
 31
0.0
  0
LINE
  5
C783
330
1E
100
AcDbEntity
  8
0
100
AcDbLine
 10
2290.09001838309
 20
1153.410836720694
 30
0.0
 11
2301.09001838309
 21
1153.410836720694
 31
0.0
  0
LINE
  5
C784
330
1E
100
AcDbEntity
  8
0
100
AcDbLine
 10
2301.09001838309
 20
1153.410836720694
 30
0.0
 11
2301.090018383089
 21
1144.810775685538
 31
0.0
  0
LINE
  5
C785
330
1E
100
AcDbEntity
  8
0
100
AcDbLine
 10
2299.090018383088
 20
1130.710806203117
 30
0.0
 11
2299.590018383088
 21
1130.210806203117
 31
0.0
  0
LINE
  5
C786
330
1E
100
AcDbEntity
  8
0
100
AcDbLine
 10
2292.090018383096
 20
1130.710806203116
 30
0.0
 11
2291.590018383097
 21
1130.210806203117
 31
0.0
  0
LINE
  5
C787
330
1E
100
AcDbEntity
  8
中心線
 48
0.25
100
AcDbLine
 10
2295.590018383092
 20
1155.810836720695
 30
0.0
 11
2295.590018383086
 21
1128.712418305133
 31
0.0
  0
LINE
  5
C788
330
1E
100
AcDbEntity
  8
0
100
AcDbLine
 10
2290.090018383096
 20
1144.810775685538
 30
0.0
 11
2301.090018383089
 21
1144.810775685538
 31
0.0
  0
LINE
  5
C789
330
1E
100
AcDbEntity
  8
0
100
AcDbLine
 10
2292.09001838309
 20
1144.510836720694
 30
0.0
 11
2292.090018383096
 21
1130.710806203116
 31
0.0
  0
LINE
  5
C78A
330
1E
100
AcDbEntity
  8
0
100
AcDbLine
 10
2290.090018383095
 20
1153.410836720694
 30
0.0
 11
2290.090018383096
 21
1144.810844350089
 31
0.0
  0
LINE
  5
C78B
330
1E
100
AcDbEntity
  8
0
100
AcDbLine
 10
2299.09001838309
 20
1144.510836720695
 30
0.0
 11
2299.090018383088
 21
1130.710806203117
 31
0.0
  0
LINE
  5
C78C
330
1E
100
AcDbEntity
  8
0
100
AcDbLine
 10
2299.090018383088
 20
1130.710806203117
 30
0.0
 11
2292.090018383096
 21
1130.710806203116
 31
0.0
  0
LINE
  5
C78D
330
1E
100
AcDbEntity
  8
0
100
AcDbLine
 10
2311.336530142245
 20
1134.092504610037
 30
0.0
 11
2309.932892006739
 21
1130.210806203117
 31
0.0
  0
LINE
  5
C78E
330
1E
100
AcDbEntity
  8
0
100
AcDbLine
 10
2308.728623471868
 20
1139.649030070414
 30
0.0
 11
2311.336530142245
 21
1134.092504610037
 31
0.0
  0
LINE
  5
C78F
330
1E
100
AcDbEntity
  8
0
100
AcDbLine
 10
2310.922598117195
 20
1144.603402132654
 30
0.0
 11
2308.728623471868
 21
1139.649030070414
 31
0.0
  0
LINE
  5
C790
330
1E
100
AcDbEntity
  8
0
100
AcDbLine
 10
2308.657837266563
 20
1149.268136851172
 30
0.0
 11
2310.922598117195
 21
1144.603402132654
 31
0.0
  0
LINE
  5
C791
330
1E
100
AcDbEntity
  8
0
100
AcDbLine
 10
2309.963228094549
 20
1153.810836720717
 30
0.0
 11
2308.657837266563
 21
1149.268136851172
 31
0.0
  0
LINE
  5
CAA1
330
1E
100
AcDbEntity
  8
中心線
 48
0.27
100
AcDbLine
 10
2334.240018383086
 20
1160.210806203117
 30
0.0
 11
2341.440018383086
 21
1160.210806203117
 31
0.0
  0
LINE
  5
CAA2
330
1E
100
AcDbEntity
  8
中心線
 48
0.27
100
AcDbLine
 10
2337.840018383086
 20
1156.610806203117
 30
0.0
 11
2337.840018383086
 21
1163.810806203117
 31
0.0
  0
LINE
  5
CAAA
330
1E
100
AcDbEntity
  8
中心線
 48
0.27
100
AcDbLine
 10
2429.740018383086
 20
1160.210806203117
 30
0.0
 11
2436.940018383086
 21
1160.210806203117
 31
0.0
  0
LINE
  5
CAAB
330
1E
100
AcDbEntity
  8
中心線
 48
0.27
100
AcDbLine
 10
2433.340018383086
 20
1156.610806203117
 30
0.0
 11
2433.340018383086
 21
1163.810806203117
 31
0.0
  0
LINE
  5
CABE
330
1E
100
AcDbEntity
  8
0
100
AcDbLine
 10
2169.264712749584
 20
1156.21083620313
 30
0.0
 11
2169.264712749581
 21
1145.872418572059
 31
0.0
  0
LINE
  5
CABF
330
1E
100
AcDbEntity
  8
0
100
AcDbLine
 10
2168.764712749583
 20
1156.710786612067
 30
0.0
 11
2169.264655529125
 21
1156.210843832524
 31
0.0
  0
ARC
  5
CADF
330
1E
100
AcDbEntity
  8
標註線
 62
     1
100
AcDbCircle
 10
2363.090018383086
 20
1277.377922760262
 30
0.0
 40
4.0
100
AcDbArc
 50
169.9999999988309
 51
100.0000000011691
  0
ARC
  5
CAE0
330
1E
100
AcDbEntity
  8
標註線
 62
     1
100
AcDbCircle
 10
2365.590018383086
 20
1248.877922760258
 30
0.0
 40
4.0
100
AcDbArc
 50
169.9999999988309
 51
100.0000000011691
  0
ARC
  5
CAE1
330
1E
100
AcDbEntity
  8
標註線
 62
     1
100
AcDbCircle
 10
2363.090018383086
 20
1220.377922760261
 30
0.0
 40
4.0
100
AcDbArc
 50
169.9999999988309
 51
100.0000000011691
  0
ARC
  5
CAE2
330
1E
100
AcDbEntity
  8
標註線
 62
     1
100
AcDbCircle
 10
2408.090018383086
 20
1220.377922760261
 30
0.0
 40
4.0
100
AcDbArc
 50
169.9999999988309
 51
100.0000000011691
  0
ARC
  5
CAE3
330
1E
100
AcDbEntity
  8
標註線
 62
     1
100
AcDbCircle
 10
2405.590018383086
 20
1248.877922760258
 30
0.0
 40
4.0
100
AcDbArc
 50
169.9999999988309
 51
100.0000000011691
  0
LINE
  5
CAE4
330
1E
100
AcDbEntity
  8
中心線
 48
0.2
100
AcDbLine
 10
2401.590018383086
 20
1277.377922760262
 30
0.0
 11
2414.590018383086
 21
1277.377922760262
 31
0.0
  0
LINE
  5
CAE5
330
1E
100
AcDbEntity
  8
中心線
 48
0.2
100
AcDbLine
 10
2408.090018383086
 20
1283.877922760262
 30
0.0
 11
2408.090018383086
 21
1270.877922760262
 31
0.0
  0
LINE
  5
CAE6
330
1E
100
AcDbEntity
  8
中心線
 48
0.2
100
AcDbLine
 10
2401.590018383086
 20
1220.377922760261
 30
0.0
 11
2414.590018383086
 21
1220.377922760261
 31
0.0
  0
LINE
  5
CAE7
330
1E
100
AcDbEntity
  8
中心線
 48
0.2
100
AcDbLine
 10
2408.090018383086
 20
1226.877922760261
 30
0.0
 11
2408.090018383086
 21
1213.877922760261
 31
0.0
  0
LINE
  5
CAE8
330
1E
100
AcDbEntity
  8
中心線
 48
0.2
100
AcDbLine
 10
2356.590018383086
 20
1220.377922760261
 30
0.0
 11
2369.590018383086
 21
1220.377922760261
 31
0.0
  0
LINE
  5
CAE9
330
1E
100
AcDbEntity
  8
中心線
 48
0.2
100
AcDbLine
 10
2363.090018383086
 20
1226.877922760261
 30
0.0
 11
2363.090018383086
 21
1213.877922760261
 31
0.0
  0
LINE
  5
CAEA
330
1E
100
AcDbEntity
  8
中心線
 48
0.2
100
AcDbLine
 10
2356.590018383086
 20
1277.377922760262
 30
0.0
 11
2369.590018383086
 21
1277.377922760262
 31
0.0
  0
LINE
  5
CAEB
330
1E
100
AcDbEntity
  8
中心線
 48
0.2
100
AcDbLine
 10
2363.090018383086
 20
1283.877922760262
 30
0.0
 11
2363.090018383086
 21
1270.877922760262
 31
0.0
  0
CIRCLE
  5
CAEC
330
1E
100
AcDbEntity
  8
0
 62
     0
100
AcDbCircle
 10
2405.590018383086
 20
1248.877922760258
 30
0.0
 40
3.375
  0
LINE
  5
CAED
330
1E
100
AcDbEntity
  8
中心線
 48
0.2
100
AcDbLine
 10
2405.590018383086
 20
1256.89070047879
 30
0.0
 11
2405.590018383086
 21
1240.865145041726
 31
0.0
  0
CIRCLE
  5
CAEE
330
1E
100
AcDbEntity
  8
0
 62
     0
100
AcDbCircle
 10
2408.090018383086
 20
1277.377922760259
 30
0.0
 40
3.375
  0
ARC
  5
CAEF
330
1E
100
AcDbEntity
  8
標註線
 62
     1
100
AcDbCircle
 10
2408.090018383087
 20
1277.377922760265
 30
0.0
 40
4.0
100
AcDbArc
 50
169.9999999988309
 51
100.0000000011691
  0
CIRCLE
  5
CAF0
330
1E
100
AcDbEntity
  8
0
 62
     0
100
AcDbCircle
 10
2408.090018383086
 20
1220.377922760259
 30
0.0
 40
3.375
  0
CIRCLE
  5
CAF1
330
1E
100
AcDbEntity
  8
0
 62
     0
100
AcDbCircle
 10
2363.090018383086
 20
1220.377922760259
 30
0.0
 40
3.375
  0
CIRCLE
  5
CAF2
330
1E
100
AcDbEntity
  8
0
 62
     0
100
AcDbCircle
 10
2365.590018383086
 20
1248.877922760259
 30
0.0
 40
3.375
  0
LINE
  5
CAF3
330
1E
100
AcDbEntity
  8
中心線
 48
0.2
100
AcDbLine
 10
2365.590018383086
 20
1255.377922760259
 30
0.0
 11
2365.590018383086
 21
1242.377922760259
 31
0.0
  0
CIRCLE
  5
CAF4
330
1E
100
AcDbEntity
  8
0
 62
     0
100
AcDbCircle
 10
2363.090018383086
 20
1277.377922760259
 30
0.0
 40
3.375
  0
LINE
  5
CAF9
330
1E
100
AcDbEntity
  8
0
  6
Continuous
100
AcDbLine
 10
2317.25611597322
 20
1245.028343595806
 30
0.0
 11
2317.828193241736
 21
1246.409460296181
 31
0.0
  0
LINE
  5
CAFA
330
1E
100
AcDbEntity
  8
0
  6
Continuous
100
AcDbLine
 10
2315.396808253021
 20
1245.798494070137
 30
0.0
 11
2315.968885521536
 21
1247.179610770513
 31
0.0
  0
ARC
  5
CAFB
330
1E
100
AcDbEntity
  8
0
  6
Continuous
100
AcDbCircle
 10
2316.302590997134
 20
1245.355789316443
 30
0.0
 40
1.854133729915247
100
AcDbArc
 50
34.63277999893215
 51
100.3672200010575
  0
ARC
  5
CAFC
330
1E
100
AcDbEntity
  8
0
  6
Continuous
100
AcDbCircle
 10
2316.922410175582
 20
1246.85216518327
 30
0.0
 40
1.854133729915247
100
AcDbArc
 50
214.6327799989322
 51
280.3672200010575
  0
ARC
  5
CAFD
330
1E
100
AcDbEntity
  8
0
  6
Continuous
100
AcDbCircle
 10
2314.123298256942
 20
1244.11890113327
 30
0.0
 40
2.059673609817605
100
AcDbArc
 50
335.8479011650615
 51
45.8479011650646
  0
LINE
  5
CAFE
330
1E
100
AcDbEntity
  8
0
  6
Continuous
100
AcDbLine
 10
2316.212863915754
 20
1245.139168979662
 30
0.0
 11
2321.790786754311
 21
1242.828717690061
 31
0.0
  0
LINE
  5
CAFF
330
1E
100
AcDbEntity
  8
0
  6
Continuous
100
AcDbLine
 10
2317.012137256962
 20
1247.068785520051
 30
0.0
 11
2322.59006009552
 21
1244.75833423045
 31
0.0
  0
ARC
  5
CB00
330
1E
100
AcDbEntity
  8
0
  6
Continuous
100
AcDbCircle
 10
2317.133219316581
 20
1239.472729342384
 30
0.0
 40
6.971504732179473
100
AcDbArc
 50
50.72134999791543
 51
84.27865000208244
  0
ARC
  5
CB01
330
1E
100
AcDbEntity
  8
0
  6
Continuous
100
AcDbCircle
 10
2321.669704694693
 20
1250.424773867728
 30
0.0
 40
6.971504732179473
100
AcDbArc
 50
230.7213499979154
 51
264.2786500020954
  0
ARC
  5
CB02
330
1E
100
AcDbEntity
  8
0
  6
Continuous
100
AcDbCircle
 10
2326.746534360132
 20
1252.327892859853
 30
0.0
 40
2.119009977045996
100
AcDbArc
 50
147.1327799989424
 51
212.8672200010575
  0
LINE
  5
CB03
330
1E
100
AcDbEntity
  8
0
  6
Continuous
100
AcDbLine
 10
2321.0289655606
 20
1252.87789276026
 30
0.0
 11
2324.7001464711
 21
1252.87789276026
 31
0.0
  0
LINE
  5
CB04
330
1E
100
AcDbEntity
  8
0
  6
Continuous
100
AcDbLine
 10
2324.966776925195
 20
1251.177892561074
 30
0.0
 11
2328.390018383085
 21
1251.177892561074
 31
0.0
  0
LINE
  5
CB05
330
1E
100
AcDbEntity
  8
0
  6
Continuous
100
AcDbLine
 10
2324.966776925195
 20
1253.47789276026
 30
0.0
 11
2328.390018383085
 21
1253.47789276026
 31
0.0
  0
LINE
  5
CB06
330
1E
100
AcDbEntity
  8
0
  6
Continuous
100
AcDbLine
 10
2322.83399623769
 20
1242.717849660328
 30
0.0
 11
2323.406116131056
 21
1244.099069266195
 31
0.0
  0
ARC
  5
CB07
330
1E
100
AcDbEntity
  8
0
  6
Continuous
100
AcDbCircle
 10
2322.500333014139
 20
1244.541713893668
 30
0.0
 40
1.854133729915247
100
AcDbArc
 50
214.6327799989322
 51
280.3672200010575
  0
LINE
  5
CB08
330
1E
100
AcDbEntity
  8
0
  6
Continuous
100
AcDbLine
 10
2320.974730769537
 20
1243.48804291393
 30
0.0
 11
2321.546808038053
 21
1244.869159614306
 31
0.0
  0
LINE
  5
CB09
330
1E
100
AcDbEntity
  8
0
  6
Continuous
100
AcDbLine
 10
2322.301420271354
 20
1244.87789276026
 30
0.0
 11
2324.7001464711
 21
1244.87789276026
 31
0.0
  0
ARC
  5
CB0A
330
1E
100
AcDbEntity
  8
0
  6
Continuous
100
AcDbCircle
 10
2321.880513835692
 20
1243.045338026842
 30
0.0
 40
1.854133729915247
100
AcDbArc
 50
34.63277999893215
 51
100.3672200010575
  0
ARC
  5
CB0B
330
1E
100
AcDbEntity
  8
0
  6
Continuous
100
AcDbCircle
 10
2326.746534360132
 20
1245.427892660667
 30
0.0
 40
2.119009977045996
100
AcDbArc
 50
147.1327799989424
 51
212.8672200010575
  0
LINE
  5
CB0C
330
1E
100
AcDbEntity
  8
0
  6
Continuous
100
AcDbLine
 10
2324.966776925195
 20
1244.27789276026
 30
0.0
 11
2328.390018383085
 21
1244.27789276026
 31
0.0
  0
LINE
  5
CB0D
330
1E
100
AcDbEntity
  8
0
  6
Continuous
100
AcDbLine
 10
2324.966776925195
 20
1246.577892959446
 30
0.0
 11
2328.390018383085
 21
1246.577892959446
 31
0.0
  0
LINE
  5
CB0E
330
1E
100
AcDbEntity
  8
0
  6
Continuous
100
AcDbLine
 10
2324.627524383085
 20
1245.427892660667
 30
0.0
 11
2324.627524383085
 21
1252.327892859853
 31
0.0
  0
ARC
  5
CB0F
330
1E
100
AcDbEntity
  8
0
  6
Continuous
100
AcDbCircle
 10
2332.594958362719
 20
1248.87789276026
 30
0.0
 40
7.96743397963368
100
AcDbArc
 50
163.2213499979083
 51
196.7786500020917
  0
ARC
  5
CB10
330
1E
100
AcDbEntity
  8
0
  6
Continuous
100
AcDbCircle
 10
2321.0289655606
 20
1248.87789276026
 30
0.0
 40
4.0
100
AcDbArc
 50
90.0
 51
210.8352048940814
  0
LINE
  5
CB11
330
1E
100
AcDbEntity
  8
0
  6
Continuous
100
AcDbLine
 10
2314.627524383086
 20
1241.572746073597
 30
0.0
 11
2320.389949266886
 21
1239.185871534571
 31
0.0
  0
LINE
  5
CB12
330
1E
100
AcDbEntity
  8
0
  6
Continuous
100
AcDbLine
 10
2314.627524383086
 20
1238.540750111212
 30
0.0
 11
2318.246004361353
 21
1237.041926629038
 31
0.0
  0
LINE
  5
CB13
330
1E
100
AcDbEntity
  8
0
  6
Continuous
100
AcDbLine
 10
2314.627524383086
 20
1238.540750111212
 30
0.0
 11
2314.627524383086
 21
1241.572746073597
 31
0.0
  0
LINE
  5
CB14
330
1E
100
AcDbEntity
  8
0
  6
Continuous
100
AcDbLine
 10
2318.246004361353
 20
1237.041926629038
 30
0.0
 11
2320.389949266886
 21
1239.185871534571
 31
0.0
  0
ARC
  5
CB15
330
1E
100
AcDbEntity
  8
0
  6
Continuous
100
AcDbCircle
 10
2317.371306609326
 20
1240.764503774374
 30
0.0
 40
2.860349020536762
100
AcDbArc
 50
118.5864858262542
 51
163.5864858262599
  0
ARC
  5
CB16
330
1E
100
AcDbEntity
  8
0
  6
Continuous
100
AcDbCircle
 10
2317.87828863799
 20
1240.554504942222
 30
0.0
 40
2.860349020536762
100
AcDbArc
 50
331.4135141737343
 51
16.41351417374012
  0
LINE
  5
CB17
330
1E
100
AcDbEntity
  8
0
  6
Continuous
100
AcDbLine
 10
2316.187449108177
 20
1243.199627716797
 30
0.0
 11
2320.437294957729
 21
1241.439283927918
 31
0.0
  0
ARC
  5
CB18
330
1E
100
AcDbEntity
  8
0
  6
Continuous
100
AcDbCircle
 10
2322.546894488581
 20
1240.62973333017
 30
0.0
 40
2.059673609817604
100
AcDbArc
 50
89.15209883494581
 51
159.1520988349398
  0
ARC
  5
CB19
330
1E
100
AcDbEntity
  8
0
 48
0.27
100
AcDbCircle
 10
2325.590018383091
 20
1248.877922760259
 30
0.0
 40
5.5
100
AcDbArc
 50
245.5320287697178
 51
300.6032946081443
  0
LINE
  5
CB1A
330
1E
100
AcDbEntity
  8
0
  6
Continuous
 62
     7
100
AcDbLine
 10
2318.582008121975
 20
1237.37793038966
 30
0.0
 11
2328.390018383085
 21
1237.37793038966
 31
0.0
  0
LINE
  5
CB1D
330
1E
100
AcDbEntity
  8
中心線
 48
0.2
100
AcDbLine
 10
2325.590018383091
 20
1241.631005254533
 30
0.0
 11
2325.590018383092
 21
1244.27789276026
 31
0.0
  0
LINE
  5
CB1E
330
1E
100
AcDbEntity
  8
中心線
 48
0.2
100
AcDbLine
 10
2325.590018383092
 20
1253.47789276026
 30
0.0
 11
2325.590018383091
 21
1256.124840265986
 31
0.0
  0
LINE
  5
CBA1
330
1E
100
AcDbEntity
  8
中心線
 48
0.27
100
AcDbLine
 10
2313.390020142102
 20
1160.010806203117
 30
-0.0000000000000009
 11
2328.694488256639
 21
1160.010806203117
 31
-0.0000000000000009
  0
ARC
  5
CBA2
330
1E
100
AcDbEntity
  8
0
 48
0.27
100
AcDbCircle
 10
2327.581635383085
 20
1158.010825534217
 30
-0.0000000000000009
 40
2.954110999999976
100
AcDbArc
 50
137.3885930045096
 51
222.6114069976016
  0
ARC
  5
CBA3
330
1E
100
AcDbEntity
  8
0
 48
0.27
100
AcDbCircle
 10
2327.581636383085
 20
1162.010825534217
 30
-0.0000000000000009
 40
2.954111999999976
100
AcDbArc
 50
137.3885980021923
 51
222.6114019998916
  0
LWPOLYLINE
  5
CBA4
330
1E
100
AcDbEntity
  8
0
 48
0.27
100
AcDbPolyline
 90
       31
 70
     0
 43
0.0
 10
2317.298807383085
 20
1160.010825534217
 10
2317.265989383085
 20
1160.221080534217
 10
2317.221842383085
 20
1160.326567534217
 10
2317.158809383085
 20
1160.424346534217
 10
2317.079333383086
 20
1160.508459534217
 10
2316.987842383085
 20
1160.574332534217
 10
2316.889922383085
 20
1160.619613534217
 10
2316.757286383085
 20
1160.648554534217
 10
2316.634277383085
 20
1160.645895534217
 10
2316.527353383085
 20
1160.620389534217
 10
2316.411148383085
 20
1160.564621534217
 10
2316.300578383085
 20
1160.475132534217
 10
2316.212348383085
 20
1160.360582534217
 10
2316.155714383085
 20
1160.240743534217
 10
2316.127863383085
 20
1160.137087534217
 10
2316.116242383085
 20
1160.010825534217
 10
2316.149060383085
 20
1159.800570534217
 10
2316.193208383085
 20
1159.695082534217
 10
2316.256240383085
 20
1159.597304534217
 10
2316.335716383085
 20
1159.513191534217
 10
2316.427207383085
 20
1159.447318534217
 10
2316.525127383085
 20
1159.402037534217
 10
2316.657763383085
 20
1159.373095534217
 10
2316.780772383085
 20
1159.375755534217
 10
2316.887696383085
 20
1159.401260534217
 10
2317.003901383085
 20
1159.457028534217
 10
2317.114471383086
 20
1159.546518534217
 10
2317.202701383085
 20
1159.661067534217
 10
2317.259335383085
 20
1159.780906534217
 10
2317.287187383085
 20
1159.884563534217
 10
2317.298807383085
 20
1160.010825534217
  0
ARC
  5
CBA5
330
1E
100
AcDbEntity
  8
0
 48
0.27
100
AcDbCircle
 10
2320.879184383085
 20
1160.010825534217
 30
-0.0000000000000009
 40
3.999999999999968
100
AcDbArc
 50
90.0
 51
131.4096219996085
  0
ARC
  5
CBA6
330
1E
100
AcDbEntity
  8
0
 48
0.27
100
AcDbCircle
 10
2320.879184383085
 20
1160.010825534217
 30
-0.0000000000000009
 40
3.999999999999968
100
AcDbArc
 50
228.5903779972994
 51
270.0
  0
LINE
  5
CBA7
330
1E
100
AcDbEntity
  8
0
 48
0.27
100
AcDbLine
 10
2328.390018383085
 20
1164.010825534217
 30
-0.0000000000000009
 11
2320.879184383085
 21
1164.010825534217
 31
-0.0000000000000009
  0
LINE
  5
CBA8
330
1E
100
AcDbEntity
  8
0
 48
0.27
100
AcDbLine
 10
2325.407520383086
 20
1160.010825534217
 30
-0.0000000000000009
 11
2328.390018383085
 21
1160.010825534217
 31
-0.0000000000000009
  0
LINE
  5
CBA9
330
1E
100
AcDbEntity
  8
0
 48
0.27
100
AcDbLine
 10
2320.879184383085
 20
1156.010825534217
 30
-0.0000000000000009
 11
2327.331899729674
 21
1156.010825534217
 31
-0.0000000000000009
  0
LINE
  5
CBAA
330
1E
100
AcDbEntity
  8
0
 48
0.27
100
AcDbLine
 10
2324.627524383085
 20
1164.010825534217
 30
-0.0000000000000009
 11
2324.627524383085
 21
1156.010825534217
 31
-0.0000000000000009
  0
LINE
  5
CBAB
330
1E
100
AcDbEntity
  8
0
 48
0.27
100
AcDbLine
 10
2317.351747383085
 20
1163.010825534217
 30
-0.0000000000000009
 11
2321.251523383085
 21
1163.010825534217
 31
-0.0000000000000009
  0
LINE
  5
CBAC
330
1E
100
AcDbEntity
  8
0
 48
0.27
100
AcDbLine
 10
2317.105354383085
 20
1157.472752534217
 30
-0.0000000000000009
 11
2317.351747383085
 21
1157.010825534217
 31
-0.0000000000000009
  0
LINE
  5
CBAD
330
1E
100
AcDbEntity
  8
0
 48
0.27
100
AcDbLine
 10
2317.351747383085
 20
1163.010825534217
 30
-0.0000000000000009
 11
2317.105354383085
 21
1162.548898534217
 31
-0.0000000000000009
  0
LINE
  5
CBAE
330
1E
100
AcDbEntity
  8
0
 48
0.27
100
AcDbLine
 10
2322.152365383085
 20
1160.010825534217
 30
-0.0000000000000009
 11
2322.851729383085
 21
1160.010825534217
 31
-0.0000000000000009
  0
LINE
  5
CBAF
330
1E
100
AcDbEntity
  8
0
 48
0.27
100
AcDbLine
 10
2321.251523383085
 20
1163.010825534217
 30
-0.0000000000000009
 11
2322.851729383085
 21
1160.010825534217
 31
-0.0000000000000009
  0
LINE
  5
CBB0
330
1E
100
AcDbEntity
  8
0
 48
0.27
100
AcDbLine
 10
2321.251523383085
 20
1157.010825534217
 30
-0.0000000000000009
 11
2317.351747383085
 21
1157.010825534217
 31
-0.0000000000000009
  0
LINE
  5
CBB1
330
1E
100
AcDbEntity
  8
0
 48
0.27
100
AcDbLine
 10
2322.851729383085
 20
1160.010825534217
 30
-0.0000000000000009
 11
2321.251523383085
 21
1157.010825534217
 31
-0.0000000000000009
  0
LINE
  5
CBB2
330
1E
100
AcDbEntity
  8
0
 48
0.27
100
AcDbLine
 10
2317.472826383085
 20
1162.540359534217
 30
-0.0000000000000009
 11
2317.891293383085
 21
1162.782463534217
 31
-0.0000000000000009
  0
LINE
  5
CBB3
330
1E
100
AcDbEntity
  8
0
 48
0.27
100
AcDbLine
 10
2317.472826383085
 20
1157.481290534217
 30
-0.0000000000000009
 11
2317.891293383085
 21
1157.239186534217
 31
-0.0000000000000009
  0
LINE
  5
CBB4
330
1E
100
AcDbEntity
  8
0
 48
0.27
100
AcDbLine
 10
2317.891293383085
 20
1162.782463534217
 30
-0.0000000000000009
 11
2318.411233383085
 21
1162.953181534217
 31
-0.0000000000000009
  0
LINE
  5
CBB5
330
1E
100
AcDbEntity
  8
0
 48
0.27
100
AcDbLine
 10
2317.891293383085
 20
1157.239186534217
 30
-0.0000000000000009
 11
2318.411233383085
 21
1157.068469534217
 31
-0.0000000000000009
  0
LINE
  5
CBB6
330
1E
100
AcDbEntity
  8
0
 48
0.27
100
AcDbLine
 10
2318.411233383085
 20
1162.953181534217
 30
-0.0000000000000009
 11
2318.951953383086
 21
1163.010825534217
 31
-0.0000000000000009
  0
LINE
  5
CBB7
330
1E
100
AcDbEntity
  8
0
 48
0.27
100
AcDbLine
 10
2318.411233383085
 20
1157.068469534217
 30
-0.0000000000000009
 11
2318.951953383086
 21
1157.010825534217
 31
-0.0000000000000009
  0
LINE
  5
CBB8
330
1E
100
AcDbEntity
  8
0
 48
0.27
100
AcDbLine
 10
2318.951953383086
 20
1163.010825534217
 30
-0.0000000000000009
 11
2319.492673383086
 21
1162.953181534217
 31
-0.0000000000000009
  0
LINE
  5
CBB9
330
1E
100
AcDbEntity
  8
0
 48
0.27
100
AcDbLine
 10
2318.951953383086
 20
1157.010825534217
 30
-0.0000000000000009
 11
2319.492673383086
 21
1157.068469534217
 31
-0.0000000000000009
  0
LINE
  5
CBBA
330
1E
100
AcDbEntity
  8
0
 48
0.27
100
AcDbLine
 10
2319.492673383086
 20
1162.953181534217
 30
-0.0000000000000009
 11
2320.012613383085
 21
1162.782463534217
 31
-0.0000000000000009
  0
LINE
  5
CBBB
330
1E
100
AcDbEntity
  8
0
 48
0.27
100
AcDbLine
 10
2319.492673383086
 20
1157.068469534217
 30
-0.0000000000000009
 11
2320.012613383085
 21
1157.239186534217
 31
-0.0000000000000009
  0
LINE
  5
CBBC
330
1E
100
AcDbEntity
  8
0
 48
0.27
100
AcDbLine
 10
2320.012613383085
 20
1162.782463534217
 30
-0.0000000000000009
 11
2320.491793383085
 21
1162.505234534217
 31
-0.0000000000000009
  0
LINE
  5
CBBD
330
1E
100
AcDbEntity
  8
0
 48
0.27
100
AcDbLine
 10
2320.012613383085
 20
1157.239186534217
 30
-0.0000000000000009
 11
2320.491793383085
 21
1157.516416534217
 31
-0.0000000000000009
  0
LINE
  5
CBBE
330
1E
100
AcDbEntity
  8
0
 48
0.27
100
AcDbLine
 10
2320.491793383085
 20
1162.505234534217
 30
-0.0000000000000009
 11
2320.911797383085
 21
1162.132145534217
 31
-0.0000000000000009
  0
LINE
  5
CBBF
330
1E
100
AcDbEntity
  8
0
 48
0.27
100
AcDbLine
 10
2320.491793383085
 20
1157.516416534217
 30
-0.0000000000000009
 11
2320.911797383085
 21
1157.889504534217
 31
-0.0000000000000009
  0
LINE
  5
CBC0
330
1E
100
AcDbEntity
  8
0
 48
0.27
100
AcDbLine
 10
2320.552159383086
 20
1163.010825534217
 30
-0.0000000000000009
 11
2322.152365383085
 21
1160.010825534217
 31
-0.0000000000000009
  0
LINE
  5
CBC1
330
1E
100
AcDbEntity
  8
0
 48
0.27
100
AcDbLine
 10
2322.152365383085
 20
1160.010825534217
 30
-0.0000000000000009
 11
2320.552159383086
 21
1157.010825534217
 31
-0.0000000000000009
  0
LINE
  5
CBC2
330
1E
100
AcDbEntity
  8
0
 48
0.27
100
AcDbLine
 10
2320.911797383085
 20
1162.132145534217
 30
-0.0000000000000009
 11
2321.256486383085
 21
1161.677535534217
 31
-0.0000000000000009
  0
LINE
  5
CBC3
330
1E
100
AcDbEntity
  8
0
 48
0.27
100
AcDbLine
 10
2321.256486383085
 20
1158.344114534217
 30
-0.0000000000000009
 11
2320.911797383085
 21
1157.889504534217
 31
-0.0000000000000009
  0
LINE
  5
CBC4
330
1E
100
AcDbEntity
  8
0
 48
0.27
100
AcDbLine
 10
2321.256486383085
 20
1161.677535534217
 30
-0.0000000000000009
 11
2321.512613383085
 21
1161.158875534217
 31
-0.0000000000000009
  0
LINE
  5
CBC5
330
1E
100
AcDbEntity
  8
0
 48
0.27
100
AcDbLine
 10
2321.512613383085
 20
1158.862774534217
 30
-0.0000000000000009
 11
2321.256486383085
 21
1158.344114534217
 31
-0.0000000000000009
  0
LINE
  5
CBC6
330
1E
100
AcDbEntity
  8
0
 48
0.27
100
AcDbLine
 10
2321.512613383085
 20
1161.158875534217
 30
-0.0000000000000009
 11
2321.670335383085
 21
1160.596096534217
 31
-0.0000000000000009
  0
LINE
  5
CBC7
330
1E
100
AcDbEntity
  8
0
 48
0.27
100
AcDbLine
 10
2321.670335383085
 20
1159.425554534217
 30
-0.0000000000000009
 11
2321.512613383085
 21
1158.862774534217
 31
-0.0000000000000009
  0
LINE
  5
CBC8
330
1E
100
AcDbEntity
  8
0
 48
0.27
100
AcDbLine
 10
2321.670335383085
 20
1160.596096534217
 30
-0.0000000000000009
 11
2321.723591383085
 21
1160.010825534217
 31
-0.0000000000000009
  0
LINE
  5
CBC9
330
1E
100
AcDbEntity
  8
0
 48
0.27
100
AcDbLine
 10
2321.723591383085
 20
1160.010825534217
 30
-0.0000000000000009
 11
2321.670335383085
 21
1159.425554534217
 31
-0.0000000000000009
  0
LINE
  5
CBCA
330
1E
100
AcDbEntity
  8
0
 48
0.27
100
AcDbLine
 10
2316.048056383085
 20
1161.651052534217
 30
-0.0000000000000009
 11
2316.051027383085
 21
1161.649437534217
 31
-0.0000000000000009
  0
LINE
  5
CBCB
330
1E
100
AcDbEntity
  8
0
 48
0.27
100
AcDbLine
 10
2316.048056383085
 20
1158.370597534217
 30
-0.0000000000000009
 11
2316.051027383085
 21
1158.372213534217
 31
-0.0000000000000009
  0
LINE
  5
CBCC
330
1E
100
AcDbEntity
  8
0
 48
0.27
100
AcDbLine
 10
2314.935346383085
 20
1160.508967534217
 30
-0.0000000000000009
 11
2314.890018383085
 21
1160.010825534217
 31
-0.0000000000000009
  0
LINE
  5
CBCD
330
1E
100
AcDbEntity
  8
0
 48
0.27
100
AcDbLine
 10
2315.069588383085
 20
1160.987965534217
 30
-0.0000000000000009
 11
2314.935346383085
 21
1160.508967534217
 31
-0.0000000000000009
  0
LINE
  5
CBCE
330
1E
100
AcDbEntity
  8
0
 48
0.27
100
AcDbLine
 10
2314.890018383085
 20
1160.010825534217
 30
-0.0000000000000009
 11
2314.935346383085
 21
1159.512683534217
 31
-0.0000000000000009
  0
LINE
  5
CBCF
330
1E
100
AcDbEntity
  8
0
 48
0.27
100
AcDbLine
 10
2315.287585383085
 20
1161.429413534217
 30
-0.0000000000000009
 11
2315.069588383085
 21
1160.987965534217
 31
-0.0000000000000009
  0
LINE
  5
CBD0
330
1E
100
AcDbEntity
  8
0
 48
0.27
100
AcDbLine
 10
2314.935346383085
 20
1159.512683534217
 30
-0.0000000000000009
 11
2315.069588383085
 21
1159.033684534217
 31
-0.0000000000000009
  0
LINE
  5
CBD1
330
1E
100
AcDbEntity
  8
0
 48
0.27
100
AcDbLine
 10
2315.580961383085
 20
1161.816345534217
 30
-0.0000000000000009
 11
2315.287585383085
 21
1161.429413534217
 31
-0.0000000000000009
  0
LINE
  5
CBD2
330
1E
100
AcDbEntity
  8
0
 48
0.27
100
AcDbLine
 10
2315.069588383085
 20
1159.033684534217
 30
-0.0000000000000009
 11
2315.287585383085
 21
1158.592237534217
 31
-0.0000000000000009
  0
LINE
  5
CBD3
330
1E
100
AcDbEntity
  8
0
 48
0.27
100
AcDbLine
 10
2315.580961383085
 20
1161.816345534217
 30
-0.0000000000000009
 11
2315.938439383085
 21
1162.133892534217
 31
-0.0000000000000009
  0
LINE
  5
CBD4
330
1E
100
AcDbEntity
  8
0
 48
0.27
100
AcDbLine
 10
2315.287585383085
 20
1158.592237534217
 30
-0.0000000000000009
 11
2315.580961383085
 21
1158.205305534217
 31
-0.0000000000000009
  0
LINE
  5
CBD5
330
1E
100
AcDbEntity
  8
0
 48
0.27
100
AcDbLine
 10
2315.084049383085
 20
1160.360361534217
 30
-0.0000000000000009
 11
2315.052243383085
 21
1160.010825534217
 31
-0.0000000000000009
  0
LINE
  5
CBD6
330
1E
100
AcDbEntity
  8
0
 48
0.27
100
AcDbLine
 10
2315.178244383085
 20
1160.696465534217
 30
-0.0000000000000009
 11
2315.084049383085
 21
1160.360361534217
 31
-0.0000000000000009
  0
LINE
  5
CBD7
330
1E
100
AcDbEntity
  8
0
 48
0.27
100
AcDbLine
 10
2315.052243383085
 20
1160.010825534217
 30
-0.0000000000000009
 11
2315.084049383085
 21
1159.661289534217
 31
-0.0000000000000009
  0
LINE
  5
CBD8
330
1E
100
AcDbEntity
  8
0
 48
0.27
100
AcDbLine
 10
2315.331208383085
 20
1161.006220534217
 30
-0.0000000000000009
 11
2315.178244383085
 21
1160.696465534217
 31
-0.0000000000000009
  0
LINE
  5
CBD9
330
1E
100
AcDbEntity
  8
0
 48
0.27
100
AcDbLine
 10
2315.084049383085
 20
1159.661289534217
 30
-0.0000000000000009
 11
2315.178244383085
 21
1159.325185534217
 31
-0.0000000000000009
  0
LINE
  5
CBDA
330
1E
100
AcDbEntity
  8
0
 48
0.27
100
AcDbLine
 10
2315.938439383085
 20
1162.133892534217
 30
-0.0000000000000009
 11
2316.346284383085
 21
1162.369851534217
 31
-0.0000000000000009
  0
LINE
  5
CBDB
330
1E
100
AcDbEntity
  8
0
 48
0.27
100
AcDbLine
 10
2315.580961383085
 20
1158.205305534217
 30
-0.0000000000000009
 11
2315.938439383085
 21
1157.887758534217
 31
-0.0000000000000009
  0
LINE
  5
CBDC
330
1E
100
AcDbEntity
  8
0
 48
0.27
100
AcDbLine
 10
2315.537064383085
 20
1161.277722534217
 30
-0.0000000000000009
 11
2315.331208383085
 21
1161.006220534217
 31
-0.0000000000000009
  0
LINE
  5
CBDD
330
1E
100
AcDbEntity
  8
0
 48
0.27
100
AcDbLine
 10
2315.178244383085
 20
1159.325185534217
 30
-0.0000000000000009
 11
2315.331208383085
 21
1159.015430534217
 31
-0.0000000000000009
  0
LINE
  5
CBDE
330
1E
100
AcDbEntity
  8
0
 48
0.27
100
AcDbLine
 10
2316.346284383085
 20
1162.369851534217
 30
-0.0000000000000009
 11
2316.788821383085
 21
1162.515153534217
 31
-0.0000000000000009
  0
LINE
  5
CBDF
330
1E
100
AcDbEntity
  8
0
 48
0.27
100
AcDbLine
 10
2315.938439383085
 20
1157.887758534217
 30
-0.0000000000000009
 11
2316.346284383085
 21
1157.651799534217
 31
-0.0000000000000009
  0
LINE
  5
CBE0
330
1E
100
AcDbEntity
  8
0
 48
0.27
100
AcDbLine
 10
2315.537064383085
 20
1161.277722534217
 30
-0.0000000000000009
 11
2315.787899383085
 21
1161.500539534217
 31
-0.0000000000000009
  0
LINE
  5
CBE1
330
1E
100
AcDbEntity
  8
0
 48
0.27
100
AcDbLine
 10
2315.331208383085
 20
1159.015430534217
 30
-0.0000000000000009
 11
2315.537064383085
 21
1158.743927534217
 31
-0.0000000000000009
  0
LINE
  5
CBE2
330
1E
100
AcDbEntity
  8
0
 48
0.27
100
AcDbLine
 10
2316.788821383085
 20
1162.515153534217
 30
-0.0000000000000009
 11
2317.249044383085
 21
1162.564216534217
 31
-0.0000000000000009
  0
LINE
  5
CBE3
330
1E
100
AcDbEntity
  8
0
 48
0.27
100
AcDbLine
 10
2316.346284383085
 20
1157.651799534217
 30
-0.0000000000000009
 11
2316.788821383085
 21
1157.506496534217
 31
-0.0000000000000009
  0
LINE
  5
CBE4
330
1E
100
AcDbEntity
  8
0
 48
0.27
100
AcDbLine
 10
2315.787899383085
 20
1161.500539534217
 30
-0.0000000000000009
 11
2316.074076383086
 21
1161.666106534217
 31
-0.0000000000000009
  0
LINE
  5
CBE5
330
1E
100
AcDbEntity
  8
0
 48
0.27
100
AcDbLine
 10
2315.537064383085
 20
1158.743927534217
 30
-0.0000000000000009
 11
2315.787899383085
 21
1158.521111534217
 31
-0.0000000000000009
  0
LINE
  5
CBE6
330
1E
100
AcDbEntity
  8
0
 48
0.27
100
AcDbLine
 10
2317.853703383085
 20
1162.487806534217
 30
-0.0000000000000009
 11
2318.291407383085
 21
1162.344090534217
 31
-0.0000000000000009
  0
LINE
  5
CBE7
330
1E
100
AcDbEntity
  8
0
 48
0.27
100
AcDbLine
 10
2316.074076383086
 20
1161.666106534217
 30
-0.0000000000000009
 11
2316.384595383085
 21
1161.768062534217
 31
-0.0000000000000009
  0
LINE
  5
CBE8
330
1E
100
AcDbEntity
  8
0
 48
0.27
100
AcDbLine
 10
2315.787899383085
 20
1158.521111534217
 30
-0.0000000000000009
 11
2316.074076383086
 21
1158.355543534217
 31
-0.0000000000000009
  0
LINE
  5
CBE9
330
1E
100
AcDbEntity
  8
0
 48
0.27
100
AcDbLine
 10
2317.709267383085
 20
1162.515153534217
 30
-0.0000000000000009
 11
2317.853703383085
 21
1162.487806534217
 31
-0.0000000000000009
  0
LINE
  5
CBEA
330
1E
100
AcDbEntity
  8
0
 48
0.27
100
AcDbLine
 10
2317.249044383085
 20
1162.564216534217
 30
-0.0000000000000009
 11
2317.709267383085
 21
1162.515153534217
 31
-0.0000000000000009
  0
LINE
  5
CBEB
330
1E
100
AcDbEntity
  8
0
 48
0.27
100
AcDbLine
 10
2316.788821383085
 20
1157.506496534217
 30
-0.0000000000000009
 11
2317.249044383085
 21
1157.457434534217
 31
-0.0000000000000009
  0
LINE
  5
CBEC
330
1E
100
AcDbEntity
  8
0
 48
0.27
100
AcDbLine
 10
2318.291407383085
 20
1162.344090534217
 30
-0.0000000000000009
 11
2318.694798383085
 21
1162.110708534217
 31
-0.0000000000000009
  0
LINE
  5
CBED
330
1E
100
AcDbEntity
  8
0
 48
0.27
100
AcDbLine
 10
2317.853703383085
 20
1157.533844534217
 30
-0.0000000000000009
 11
2318.291407383085
 21
1157.677560534217
 31
-0.0000000000000009
  0
LINE
  5
CBEE
330
1E
100
AcDbEntity
  8
0
 48
0.27
100
AcDbLine
 10
2318.694798383085
 20
1162.110708534217
 30
-0.0000000000000009
 11
2319.048373383085
 21
1161.796629534217
 31
-0.0000000000000009
  0
LINE
  5
CBEF
330
1E
100
AcDbEntity
  8
0
 48
0.27
100
AcDbLine
 10
2318.291407383085
 20
1157.677560534217
 30
-0.0000000000000009
 11
2318.694798383085
 21
1157.910942534217
 31
-0.0000000000000009
  0
LINE
  5
CBF0
330
1E
100
AcDbEntity
  8
0
 48
0.27
100
AcDbLine
 10
2316.384595383085
 20
1161.768062534217
 30
-0.0000000000000009
 11
2316.707525383085
 21
1161.802488534217
 31
-0.0000000000000009
  0
LINE
  5
CBF1
330
1E
100
AcDbEntity
  8
0
 48
0.27
100
AcDbLine
 10
2316.074076383086
 20
1158.355543534217
 30
-0.0000000000000009
 11
2316.384595383085
 21
1158.253587534217
 31
-0.0000000000000009
  0
LINE
  5
CBF2
330
1E
100
AcDbEntity
  8
0
 48
0.27
100
AcDbLine
 10
2317.709267383085
 20
1162.515153534217
 30
-0.0000000000000009
 11
2318.151804383085
 21
1162.369851534217
 31
-0.0000000000000009
  0
LINE
  5
CBF3
330
1E
100
AcDbEntity
  8
0
 48
0.27
100
AcDbLine
 10
2317.709267383085
 20
1157.506496534217
 30
-0.0000000000000009
 11
2317.853703383085
 21
1157.533844534217
 31
-0.0000000000000009
  0
LINE
  5
CBF4
330
1E
100
AcDbEntity
  8
0
 48
0.27
100
AcDbLine
 10
2317.249044383085
 20
1157.457434534217
 30
-0.0000000000000009
 11
2317.709267383085
 21
1157.506496534217
 31
-0.0000000000000009
  0
LINE
  5
CBF5
330
1E
100
AcDbEntity
  8
0
 48
0.27
100
AcDbLine
 10
2319.048373383085
 20
1161.796629534217
 30
-0.0000000000000009
 11
2319.338544383085
 21
1161.413922534217
 31
-0.0000000000000009
  0
LINE
  5
CBF6
330
1E
100
AcDbEntity
  8
0
 48
0.27
100
AcDbLine
 10
2318.694798383085
 20
1157.910942534217
 30
-0.0000000000000009
 11
2319.048373383085
 21
1158.225021534217
 31
-0.0000000000000009
  0
LINE
  5
CBF7
330
1E
100
AcDbEntity
  8
0
 48
0.27
100
AcDbLine
 10
2316.707525383085
 20
1161.802488534217
 30
-0.0000000000000009
 11
2317.030454383085
 21
1161.768062534217
 31
-0.0000000000000009
  0
LINE
  5
CBF8
330
1E
100
AcDbEntity
  8
0
 48
0.27
100
AcDbLine
 10
2316.384595383085
 20
1158.253587534217
 30
-0.0000000000000009
 11
2316.707525383085
 21
1158.219161534217
 31
-0.0000000000000009
  0
LINE
  5
CBF9
330
1E
100
AcDbEntity
  8
0
 48
0.27
100
AcDbLine
 10
2318.151804383085
 20
1162.369851534217
 30
-0.0000000000000009
 11
2318.559648383085
 21
1162.133892534217
 31
-0.0000000000000009
  0
LINE
  5
CBFA
330
1E
100
AcDbEntity
  8
0
 48
0.27
100
AcDbLine
 10
2317.709267383085
 20
1157.506496534217
 30
-0.0000000000000009
 11
2318.151804383085
 21
1157.651799534217
 31
-0.0000000000000009
  0
LINE
  5
CBFB
330
1E
100
AcDbEntity
  8
0
 48
0.27
100
AcDbLine
 10
2319.338544383085
 20
1161.413922534217
 30
-0.0000000000000009
 11
2319.554161383085
 21
1160.977295534217
 31
-0.0000000000000009
  0
LINE
  5
CBFC
330
1E
100
AcDbEntity
  8
0
 48
0.27
100
AcDbLine
 10
2319.338544383085
 20
1158.607728534217
 30
-0.0000000000000009
 11
2319.048373383085
 21
1158.225021534217
 31
-0.0000000000000009
  0
LINE
  5
CBFD
330
1E
100
AcDbEntity
  8
0
 48
0.27
100
AcDbLine
 10
2319.554161383085
 20
1160.977295534217
 30
-0.0000000000000009
 11
2319.686937383085
 21
1160.503527534217
 31
-0.0000000000000009
  0
LINE
  5
CBFE
330
1E
100
AcDbEntity
  8
0
 48
0.27
100
AcDbLine
 10
2319.554161383085
 20
1159.044355534217
 30
-0.0000000000000009
 11
2319.338544383085
 21
1158.607728534217
 31
-0.0000000000000009
  0
LINE
  5
CBFF
330
1E
100
AcDbEntity
  8
0
 48
0.27
100
AcDbLine
 10
2318.559648383085
 20
1162.133892534217
 30
-0.0000000000000009
 11
2318.917127383085
 21
1161.816345534217
 31
-0.0000000000000009
  0
LINE
  5
CC00
330
1E
100
AcDbEntity
  8
0
 48
0.27
100
AcDbLine
 10
2318.151804383085
 20
1157.651799534217
 30
-0.0000000000000009
 11
2318.559648383085
 21
1157.887758534217
 31
-0.0000000000000009
  0
LINE
  5
CC01
330
1E
100
AcDbEntity
  8
0
 48
0.27
100
AcDbLine
 10
2319.686937383085
 20
1160.503527534217
 30
-0.0000000000000009
 11
2319.731770383085
 21
1160.010825534217
 31
-0.0000000000000009
  0
LINE
  5
CC02
330
1E
100
AcDbEntity
  8
0
 48
0.27
100
AcDbLine
 10
2319.686937383085
 20
1159.518123534217
 30
-0.0000000000000009
 11
2319.554161383085
 21
1159.044355534217
 31
-0.0000000000000009
  0
LINE
  5
CC03
330
1E
100
AcDbEntity
  8
0
 48
0.27
100
AcDbLine
 10
2317.030454383085
 20
1161.768062534217
 30
-0.0000000000000009
 11
2317.340973383085
 21
1161.666106534217
 31
-0.0000000000000009
  0
LINE
  5
CC04
330
1E
100
AcDbEntity
  8
0
 48
0.27
100
AcDbLine
 10
2316.707525383085
 20
1158.219161534217
 30
-0.0000000000000009
 11
2317.030454383085
 21
1158.253587534217
 31
-0.0000000000000009
  0
LINE
  5
CC05
330
1E
100
AcDbEntity
  8
0
 48
0.27
100
AcDbLine
 10
2319.731770383085
 20
1160.010825534217
 30
-0.0000000000000009
 11
2319.686937383085
 21
1159.518123534217
 31
-0.0000000000000009
  0
LINE
  5
CC06
330
1E
100
AcDbEntity
  8
0
 48
0.27
100
AcDbLine
 10
2318.917127383085
 20
1161.816345534217
 30
-0.0000000000000009
 11
2319.210502383085
 21
1161.429413534217
 31
-0.0000000000000009
  0
LINE
  5
CC07
330
1E
100
AcDbEntity
  8
0
 48
0.27
100
AcDbLine
 10
2318.559648383085
 20
1157.887758534217
 30
-0.0000000000000009
 11
2318.917127383085
 21
1158.205305534217
 31
-0.0000000000000009
  0
LINE
  5
CC08
330
1E
100
AcDbEntity
  8
0
 48
0.27
100
AcDbLine
 10
2317.340973383085
 20
1161.666106534217
 30
-0.0000000000000009
 11
2317.627150383085
 21
1161.500539534217
 31
-0.0000000000000009
  0
LINE
  5
CC09
330
1E
100
AcDbEntity
  8
0
 48
0.27
100
AcDbLine
 10
2317.030454383085
 20
1158.253587534217
 30
-0.0000000000000009
 11
2317.340973383085
 21
1158.355543534217
 31
-0.0000000000000009
  0
LINE
  5
CC0A
330
1E
100
AcDbEntity
  8
0
 48
0.27
100
AcDbLine
 10
2319.210502383085
 20
1161.429413534217
 30
-0.0000000000000009
 11
2319.428499383085
 21
1160.987965534217
 31
-0.0000000000000009
  0
LINE
  5
CC0B
330
1E
100
AcDbEntity
  8
0
 48
0.27
100
AcDbLine
 10
2319.210502383085
 20
1158.592237534217
 30
-0.0000000000000009
 11
2318.917127383085
 21
1158.205305534217
 31
-0.0000000000000009
  0
LINE
  5
CC0C
330
1E
100
AcDbEntity
  8
0
 48
0.27
100
AcDbLine
 10
2319.428499383085
 20
1160.987965534217
 30
-0.0000000000000009
 11
2319.562742383085
 21
1160.508967534217
 31
-0.0000000000000009
  0
LINE
  5
CC0D
330
1E
100
AcDbEntity
  8
0
 48
0.27
100
AcDbLine
 10
2319.428499383085
 20
1159.033684534217
 30
-0.0000000000000009
 11
2319.210502383085
 21
1158.592237534217
 31
-0.0000000000000009
  0
LINE
  5
CC0E
330
1E
100
AcDbEntity
  8
0
 48
0.27
100
AcDbLine
 10
2317.627150383085
 20
1161.500539534217
 30
-0.0000000000000009
 11
2317.877985383085
 21
1161.277722534217
 31
-0.0000000000000009
  0
LINE
  5
CC0F
330
1E
100
AcDbEntity
  8
0
 48
0.27
100
AcDbLine
 10
2317.340973383085
 20
1158.355543534217
 30
-0.0000000000000009
 11
2317.627150383085
 21
1158.521111534217
 31
-0.0000000000000009
  0
LINE
  5
CC10
330
1E
100
AcDbEntity
  8
0
 48
0.27
100
AcDbLine
 10
2319.562742383085
 20
1160.508967534217
 30
-0.0000000000000009
 11
2319.608070383085
 21
1160.010825534217
 31
-0.0000000000000009
  0
LINE
  5
CC11
330
1E
100
AcDbEntity
  8
0
 48
0.27
100
AcDbLine
 10
2319.562742383085
 20
1159.512683534217
 30
-0.0000000000000009
 11
2319.428499383085
 21
1159.033684534217
 31
-0.0000000000000009
  0
LINE
  5
CC12
330
1E
100
AcDbEntity
  8
0
 48
0.27
100
AcDbLine
 10
2319.608070383085
 20
1160.010825534217
 30
-0.0000000000000009
 11
2319.562742383085
 21
1159.512683534217
 31
-0.0000000000000009
  0
LINE
  5
CC13
330
1E
100
AcDbEntity
  8
0
 48
0.27
100
AcDbLine
 10
2317.877985383085
 20
1161.277722534217
 30
-0.0000000000000009
 11
2318.083841383085
 21
1161.006220534217
 31
-0.0000000000000009
  0
LINE
  5
CC14
330
1E
100
AcDbEntity
  8
0
 48
0.27
100
AcDbLine
 10
2317.627150383085
 20
1158.521111534217
 30
-0.0000000000000009
 11
2317.877985383085
 21
1158.743927534217
 31
-0.0000000000000009
  0
LINE
  5
CC15
330
1E
100
AcDbEntity
  8
0
 48
0.27
100
AcDbLine
 10
2318.083841383085
 20
1161.006220534217
 30
-0.0000000000000009
 11
2318.236805383085
 21
1160.696465534217
 31
-0.0000000000000009
  0
LINE
  5
CC16
330
1E
100
AcDbEntity
  8
0
 48
0.27
100
AcDbLine
 10
2318.083841383085
 20
1159.015430534217
 30
-0.0000000000000009
 11
2317.877985383085
 21
1158.743927534217
 31
-0.0000000000000009
  0
LINE
  5
CC17
330
1E
100
AcDbEntity
  8
0
 48
0.27
100
AcDbLine
 10
2318.236805383085
 20
1160.696465534217
 30
-0.0000000000000009
 11
2318.331000383085
 21
1160.360361534217
 31
-0.0000000000000009
  0
LINE
  5
CC18
330
1E
100
AcDbEntity
  8
0
 48
0.27
100
AcDbLine
 10
2318.236805383085
 20
1159.325185534217
 30
-0.0000000000000009
 11
2318.083841383085
 21
1159.015430534217
 31
-0.0000000000000009
  0
LINE
  5
CC19
330
1E
100
AcDbEntity
  8
0
 48
0.27
100
AcDbLine
 10
2318.331000383085
 20
1160.360361534217
 30
-0.0000000000000009
 11
2318.362806383085
 21
1160.010825534217
 31
-0.0000000000000009
  0
LINE
  5
CC1A
330
1E
100
AcDbEntity
  8
0
 48
0.27
100
AcDbLine
 10
2318.331000383085
 20
1159.661289534217
 30
-0.0000000000000009
 11
2318.236805383085
 21
1159.325185534217
 31
-0.0000000000000009
  0
LINE
  5
CC1B
330
1E
100
AcDbEntity
  8
0
 48
0.27
100
AcDbLine
 10
2318.362806383085
 20
1160.010825534217
 30
-0.0000000000000009
 11
2318.331000383085
 21
1159.661289534217
 31
-0.0000000000000009
  0
POINT
  5
CC1C
330
1E
100
AcDbEntity
  8
0
100
AcDbPoint
 10
2314.890018383085
 20
1160.010825534217
 30
-0.0000000000000009
1001
pntflag
1000
endpoint
  0
MTEXT
  5
CD9E
330
1E
100
AcDbEntity
  8
0
100
AcDbMText
 10
2174.457973010747
 20
1117.87671741611
 30
0.0
 40
7.800000159341863
 41
100.6095
 71
     1
 72
     5
  1
\A1;{\fTimes New Roman|b0|i0|c0|p18;RGW25HC\PC : 3450 kgf\PC\fProxy 1|b0|i0|c0|p0;\H0.7x;\S^ 0;\fTimes New Roman|b0|i0|c0|p18;\H1.429x;: 7480 kgf}
 73
     1
 44
1.0
1001
ACAD
1000
MTEXTBEGIN
1070
    73
1070
     1
1070
    44
1040
1.0
1070
    74
1070
     0
1000
MTEXTEND
  0
LINE
  5
CDBD
330
1E
100
AcDbEntity
  8
中心線
 48
0.5
100
AcDbLine
 10
2342.090018383086
 20
1248.877922760261
 30
0.0
 11
2429.090018383086
 21
1248.877922760261
 31
0.0
  0
LINE
  5
CDBE
330
1E
100
AcDbEntity
  8
中心線
 48
0.5
100
AcDbLine
 10
2385.590018383086
 20
1286.877922760261
 30
0.0
 11
2385.590018383086
 21
1210.877922760261
 31
0.0
  0
LINE
  5
DECD
330
1E
100
AcDbEntity
  8
虛線
 48
0.3
100
AcDbLine
 10
2209.76318879669
 20
1155.210870290017
 30
0.0
 11
2197.763188796692
 21
1155.210870290017
 31
0.0
  0
LINE
  5
EAA1
330
1E
100
AcDbEntity
  8
0
  6
Continuous
 62
     7
100
AcDbLine
 10
2495.590018383086
 20
1153.410836720699
 30
0.0
 11
2443.633240427341
 21
1153.410836720699
 31
0.0
  0
LINE
  5
EAA2
330
1E
100
AcDbEntity
  8
0
  6
Continuous
 62
     7
100
AcDbLine
 10
2495.590018383086
 20
1151.936362328671
 30
0.0
 11
2442.790018383086
 21
1151.936362328671
 31
0.0
  0
LINE
  5
EAA3
330
1E
100
AcDbEntity
  8
0
  6
Continuous
 62
     7
100
AcDbLine
 10
2495.590018383086
 20
1147.786369964073
 30
0.0
 11
2442.790018383086
 21
1147.786369964073
 31
0.0
  0
LINE
  5
EAA4
330
1E
100
AcDbEntity
  8
0
  6
Continuous
 62
     7
100
AcDbLine
 10
2495.590018383087
 20
1141.404203056884
 30
0.0
 11
2442.790018383086
 21
1141.404203056884
 31
0.0
  0
LINE
  5
EAA5
330
1E
100
AcDbEntity
  8
0
  6
Continuous
 62
     7
100
AcDbLine
 10
2495.590018383087
 20
1137.254210692292
 30
0.0
 11
2442.790018383086
 21
1137.254210692292
 31
0.0
  0
LINE
  5
EAA6
330
1E
100
AcDbEntity
  8
0
  6
Continuous
 62
     7
100
AcDbLine
 10
2495.590018383087
 20
1131.710806203118
 30
0.0
 11
2310.475298186339
 21
1131.710806203118
 31
0.0
  0
LINE
  5
EAA7
330
1E
100
AcDbEntity
  8
0
  6
Continuous
 62
     7
100
AcDbLine
 10
2327.546796338831
 20
1153.410836720699
 30
0.0
 11
2309.848284042287
 21
1153.410836720699
 31
0.0
  0
LINE
  5
EAA9
330
1E
100
AcDbEntity
  8
0
  6
Continuous
 62
     7
100
AcDbLine
 10
2328.390018383085
 20
1151.936362328671
 30
0.0
 11
2309.424578888362
 21
1151.936362328671
 31
0.0
  0
LINE
  5
EAAA
330
1E
100
AcDbEntity
  8
0
  6
Continuous
 62
     7
100
AcDbLine
 10
2328.390018383085
 20
1147.786369964073
 30
0.0
 11
2309.377245301138
 21
1147.786369964073
 31
0.0
  0
LINE
  5
EAAB
330
1E
100
AcDbEntity
  8
0
  6
Continuous
 62
     7
100
AcDbLine
 10
2328.390018383085
 20
1141.404203056884
 30
0.0
 11
2309.50587737652
 21
1141.404203056884
 31
0.0
  0
LINE
  5
EAAC
330
1E
100
AcDbEntity
  8
0
  6
Continuous
 62
     7
100
AcDbLine
 10
2328.390018383085
 20
1137.254210692292
 30
0.0
 11
2309.852611020397
 21
1137.254210692292
 31
0.0
  0
ENDSEC
  0
SECTION
  2
OBJECTS
  0
DICTIONARY
  5
C
330
0
100
AcDbDictionary
281
     1
  3
ACAD_COLOR
350
3D97
  3
ACAD_GROUP
350
D
  3
ACAD_LAYOUT
350
19
  3
ACAD_MATERIAL
350
3D96
  3
ACAD_MLINESTYLE
350
16
  3
ACAD_PLOTSETTINGS
350
18
  3
ACAD_PLOTSTYLENAME
350
E
  3
ACAD_TABLESTYLE
350
E7A3
  3
ACDBHEADERROUNDTRIPXREC
350
EACB
  3
AcDbVariableDictionary
350
3E63
  0
DICTIONARY
  5
43C2
330
2
100
AcDbDictionary
280
     1
281
     1
  3
ACAD_LAYERSTATES
360
43C3
  0
DICTIONARY
  5
3D1E
330
1E
100
AcDbDictionary
280
     1
281
     1
  3
ACAD_LAYOUTSELFREF
360
3D92
  3
ACAD_SORTENTS
360
EAA8
  0
DICTIONARY
  5
3D20
330
1A
100
AcDbDictionary
280
     1
281
     1
  3
ACAD_LAYOUTSELFREF
360
3D91
  0
DICTIONARY
  5
69B8
330
69B7
100
AcDbDictionary
280
     1
281
     1
  3
ACAD_SORTENTS
360
69B9
  0
DICTIONARY
  5
69CC
330
69CB
100
AcDbDictionary
280
     1
281
     1
  3
ACAD_SORTENTS
360
69CD
  0
DICTIONARY
  5
3D97
102
{ACAD_REACTORS
330
C
102
}
330
C
100
AcDbDictionary
281
     1
  0
DICTIONARY
  5
D
102
{ACAD_REACTORS
330
C
102
}
330
C
100
AcDbDictionary
281
     1
  3
*A1
350
4143
  3
*A10
350
4378
  3
*A11
350
43BF
  3
*A12
350
423A
  3
*A13
350
414C
  3
*A14
350
579E
  3
*A15
350
4235
  3
*A16
350
437C
  3
*A17
350
414F
  3
*A18
350
437E
  3
*A19
350
4149
  3
*A2
350
4241
  3
*A20
350
4239
  3
*A21
350
4237
  3
*A22
350
423C
  3
*A23
350
43B6
  3
*A24
350
423B
  3
*A25
350
43B8
  3
*A26
350
576A
  3
*A27
350
4240
  3
*A28
350
423E
  3
*A29
350
4374
  3
*A3
350
43BB
  3
*A30
350
4373
  3
*A31
350
43BD
  3
*A32
350
4236
  3
*A33
350
4377
  3
*A34
350
4145
  3
*A35
350
437A
  3
*A36
350
4379
  3
*A37
350
43C1
  3
*A38
350
423D
  3
*A39
350
437D
  3
*A4
350
414D
  3
*A40
350
4146
  3
*A41
350
437F
  3
*A42
350
414B
  3
*A43
350
4375
  3
*A44
350
43B7
  3
*A45
350
414E
  3
*A46
350
43B9
  3
*A47
350
57D9
  3
*A48
350
437B
  3
*A49
350
43BC
  3
*A5
350
4144
  3
*A50
350
43BE
  3
*A51
350
4238
  3
*A52
350
43B5
  3
*A53
350
43C0
  3
*A54
350
4148
  3
*A55
350
423F
  3
*A56
350
43BA
  3
*A6
350
414A
  3
*A7
350
5691
  3
*A8
350
4376
  3
*A9
350
4147
  0
DICTIONARY
  5
19
102
{ACAD_REACTORS
330
C
102
}
330
C
100
AcDbDictionary
281
     1
  3
Model
350
21
  3
配置1
350
1D
  0
DICTIONARY
  5
3D96
102
{ACAD_REACTORS
330
C
102
}
330
C
100
AcDbDictionary
281
     1
  0
DICTIONARY
  5
16
102
{ACAD_REACTORS
330
C
102
}
330
C
100
AcDbDictionary
281
     1
  3
Standard
350
17
  0
DICTIONARY
  5
18
102
{ACAD_REACTORS
330
C
102
}
330
C
100
AcDbDictionary
281
     1
  3
LANSRO
350
4150
  0
ACDBDICTIONARYWDFLT
  5
E
102
{ACAD_REACTORS
330
C
102
}
330
C
100
AcDbDictionary
281
     1
  3
Normal
350
F
100
AcDbDictionaryWithDefault
340
F
  0
DICTIONARY
  5
E7A3
102
{ACAD_REACTORS
330
C
102
}
330
C
100
AcDbDictionary
281
     1
  3
Standard
350
E7A4
  0
DICTIONARY
  5
EACB
102
{ACAD_REACTORS
330
C
102
}
330
C
100
AcDbDictionary
281
     1
  3
COLORDICT
350
EACD
  3
MATERIALDICT
350
EACC
  0
DICTIONARY
  5
3E63
102
{ACAD_REACTORS
330
C
102
}
330
C
100
AcDbDictionary
281
     1
  3
CTABLESTYLE
350
E8F8
  3
DIMASSOC
350
3E64
  3
PROJECTNAME
350
3E65
  0
DICTIONARY
  5
43C3
102
{ACAD_REACTORS
330
43C2
102
}
330
43C2
100
AcDbDictionary
281
     1
  0
XRECORD
  5
3D92
102
{ACAD_REACTORS
330
3D1E
102
}
330
3D1E
100
AcDbXrecord
280
     1
340
1E
  0
SORTENTSTABLE
  5
EAA8
102
{ACAD_REACTORS
330
3D1E
102
}
330
3D1E
100
AcDbSortentsTable
330
1E
331
EAA5
  5
EAAE
331
CC16
  5
CC16
331
9C18
  5
9C18
331
CBC9
  5
CBC9
331
9C67
  5
9C67
331
9C9E
  5
9C9E
331
9CDD
  5
9CDD
331
CB0A
  5
CB0A
331
9B10
  5
9B10
331
CB12
  5
CB12
331
CBD1
  5
CBD1
331
9C6F
  5
9C6F
331
9CA6
  5
9CA6
331
9CE5
  5
9CE5
331
9AD1
  5
9AD1
331
9B57
  5
9B57
331
9BA6
  5
9BA6
331
9AD9
  5
9AD9
331
CAE3
  5
CAE3
331
CB1A
  5
CB1A
331
CBD9
  5
CBD9
331
9CED
  5
9CED
331
9B18
  5
9B18
331
9C38
  5
9C38
331
9C77
  5
9C77
331
9CAE
  5
9CAE
331
9BE5
  5
9BE5
331
9BED
  5
9BED
331
9B20
  5
9B20
331
9B5F
  5
9B5F
331
9AE1
  5
9AE1
331
CBA2
  5
CBA2
331
9BAE
  5
9BAE
331
9CB6
  5
9CB6
331
C784
  5
C784
331
9BF5
  5
9BF5
331
9B28
  5
9B28
331
9AAA
  5
9AAA
331
9B67
  5
9B67
331
9BB6
  5
9BB6
331
9BBE
  5
9BBE
331
CD9E
  5
CD9E
331
CBE7
  5
CBE7
331
CDBE
  5
CDBE
331
CBEF
  5
CBEF
331
CBF7
  5
CBF7
331
CBFF
  5
CBFF
331
9BF9
  5
9BF9
331
C78C
  5
C78C
331
CAEB
  5
CAEB
331
9CBE
  5
9CBE
331
9CF5
  5
9CF5
331
CBAA
  5
CBAA
331
9C01
  5
9C01
331
9C48
  5
9C48
331
9C7F
  5
9C7F
331
9B30
  5
9B30
331
9AB2
  5
9AB2
331
CAF3
  5
CAF3
331
9C87
  5
9C87
331
9CC6
  5
9CC6
331
9C09
  5
9C09
331
9C50
  5
9C50
331
9CFD
  5
9CFD
331
CBB2
  5
CBB2
331
9BC6
  5
9BC6
331
9AF9
  5
9AF9
331
9B38
  5
9B38
331
CBBA
  5
CBBA
331
9ABA
  5
9ABA
331
9D05
  5
9D05
331
9C58
  5
9C58
331
9C8F
  5
9C8F
331
9C11
  5
9C11
331
9CCE
  5
9CCE
331
CAFB
  5
CAFB
331
9B8F
  5
9B8F
331
9BCE
  5
9BCE
331
9AC2
  5
9AC2
331
CB03
  5
CB03
331
9CD6
  5
9CD6
331
9D0D
  5
9D0D
331
CBC2
  5
CBC2
331
9C97
  5
9C97
331
9B40
  5
9B40
331
9B48
  5
9B48
331
9ACA
  5
9ACA
331
9B97
  5
9B97
331
9BD6
  5
9BD6
331
9BDE
  5
9BDE
331
9B9F
  5
9B9F
331
CC07
  5
CC07
331
CC0F
  5
CC0F
331
CC17
  5
CC17
331
EAA6
  5
EAB1
331
9C60
  5
9C60
331
9C19
  5
9C19
331
CB0B
  5
CB0B
331
9CDE
  5
9CDE
331
A185
  5
A185
331
CBCA
  5
CBCA
331
9C21
  5
9C21
331
9C68
  5
9C68
331
9C9F
  5
9C9F
331
9B11
  5
9B11
331
9B50
  5
9B50
331
9AD2
  5
9AD2
331
9C70
  5
9C70
331
9CA7
  5
9CA7
331
9C31
  5
9C31
331
9CE6
  5
9CE6
331
CB13
  5
CB13
331
CBD2
  5
CBD2
331
9BA7
  5
9BA7
331
9BE6
  5
9BE6
331
9B19
  5
9B19
331
9B58
  5
9B58
331
9ADA
  5
9ADA
331
CAE4
  5
CAE4
331
CBDA
  5
CBDA
331
9CAF
  5
9CAF
331
9C39
  5
9C39
331
9CEE
  5
9CEE
331
9B60
  5
9B60
331
9BAF
  5
9BAF
331
9B21
  5
9B21
331
9BEE
  5
9BEE
331
CBA3
  5
CBA3
331
C785
  5
C785
331
9AA3
  5
9AA3
331
9CB7
  5
9CB7
331
9AE2
  5
9AE2
331
9BF6
  5
9BF6
331
9BB7
  5
9BB7
331
9B29
  5
9B29
331
9AAB
  5
9AAB
331
9BBF
  5
9BBF
331
CBE0
  5
CBE0
331
CBE8
  5
CBE8
331
CBF0
  5
CBF0
331
CBF8
  5
CBF8
331
9C78
  5
9C78
331
9BFA
  5
9BFA
331
CBAB
  5
CBAB
331
9CF6
  5
9CF6
331
9C49
  5
9C49
331
9C80
  5
9C80
331
C78D
  5
C78D
331
CAEC
  5
CAEC
331
9AB3
  5
9AB3
331
9B68
  5
9B68
331
CAF4
  5
CAF4
331
9CC7
  5
9CC7
331
9CFE
  5
9CFE
331
CBB3
  5
CBB3
331
9C0A
  5
9C0A
331
9C51
  5
9C51
331
9C88
  5
9C88
331
9B39
  5
9B39
331
CAFC
  5
CAFC
331
9CCF
  5
9CCF
331
9D06
  5
9D06
331
CBBB
  5
CBBB
331
9BC7
  5
9BC7
331
9C12
  5
9C12
331
9C59
  5
9C59
331
9C90
  5
9C90
331
9BCF
  5
9BCF
331
9B41
  5
9B41
331
9AC3
  5
9AC3
331
9B90
  5
9B90
331
9CD7
  5
9CD7
331
CB04
  5
CB04
331
CBC3
  5
CBC3
331
9B98
  5
9B98
331
9BD7
  5
9BD7
331
9B49
  5
9B49
331
9ACB
  5
9ACB
331
9BDF
  5
9BDF
331
CC00
  5
CC00
331
CC08
  5
CC08
331
CC10
  5
CC10
331
EAA7
  5
EAA2
331
CC18
  5
CC18
331
9C98
  5
9C98
331
9C1A
  5
9C1A
331
9C61
  5
9C61
331
CBCB
  5
CBCB
331
A186
  5
A186
331
9C69
  5
9C69
331
9CA0
  5
9CA0
331
9C22
  5
9C22
331
9CDF
  5
9CDF
331
CB0C
  5
CB0C
331
9BA0
  5
9BA0
331
9AD3
  5
9AD3
331
9CE7
  5
9CE7
331
CB14
  5
CB14
331
CBD3
  5
CBD3
331
9B12
  5
9B12
331
9C71
  5
9C71
331
9CA8
  5
9CA8
331
9C32
  5
9C32
331
9B51
  5
9B51
331
9B59
  5
9B59
331
9BA8
  5
9BA8
331
9ADB
  5
9ADB
331
CAE5
  5
CAE5
331
CBDB
  5
CBDB
331
C77E
  5
C77E
331
9B1A
  5
9B1A
331
9BE7
  5
9BE7
331
9C3A
  5
9C3A
331
9CB0
  5
9CB0
331
9BEF
  5
9BEF
331
9B22
  5
9B22
331
9AA4
  5
9AA4
331
9AE3
  5
9AE3
331
CBA4
  5
CBA4
331
9B61
  5
9B61
331
9BB0
  5
9BB0
331
C786
  5
C786
331
9BB8
  5
9BB8
331
9B2A
  5
9B2A
331
9AAC
  5
9AAC
331
9BF7
  5
9BF7
331
CBE1
  5
CBE1
331
CBE9
  5
CBE9
331
CBF1
  5
CBF1
331
CBF9
  5
CBF9
331
9CB8
  5
9CB8
331
9BFB
  5
9BFB
331
9C79
  5
9C79
331
C78E
  5
C78E
331
CAED
  5
CAED
331
9C81
  5
9C81
331
9C4A
  5
9C4A
331
9CF7
  5
9CF7
331
CBAC
  5
CBAC
331
9BC0
  5
9BC0
331
9B32
  5
9B32
331
CBB4
  5
CBB4
331
9AB4
  5
9AB4
331
9B69
  5
9B69
331
9C89
  5
9C89
331
9CC8
  5
9CC8
331
9C0B
  5
9C0B
331
9C52
  5
9C52
331
9CFF
  5
9CFF
331
9BC8
  5
9BC8
331
CBBC
  5
CBBC
331
9B3A
  5
9B3A
331
9D07
  5
9D07
331
9C5A
  5
9C5A
331
9C91
  5
9C91
331
9C13
  5
9C13
331
9CD0
  5
9CD0
331
CAFD
  5
CAFD
331
9B42
  5
9B42
331
9AC4
  5
9AC4
331
9B91
  5
9B91
331
CB05
  5
CB05
331
CBC4
  5
CBC4
331
9BD0
  5
9BD0
331
9B4A
  5
9B4A
331
9ACC
  5
9ACC
331
9B99
  5
9B99
331
9BD8
  5
9BD8
331
CC01
  5
CC01
331
CC09
  5
CC09
331
CC11
  5
CC11
331
CC19
  5
CC19
331
9CD8
  5
9CD8
331
9C1B
  5
9C1B
331
9C62
  5
9C62
331
9C99
  5
9C99
331
CABE
  5
CABE
331
CB0D
  5
CB0D
331
9CE0
  5
9CE0
331
A187
  5
A187
331
CBCC
  5
CBCC
331
9C23
  5
9C23
331
9C6A
  5
9C6A
331
9CA1
  5
9CA1
331
9BE0
  5
9BE0
331
9B52
  5
9B52
331
9AD4
  5
9AD4
331
9BA1
  5
9BA1
331
CB15
  5
CB15
331
9C72
  5
9C72
331
9CA9
  5
9CA9
331
9C33
  5
9C33
331
9CE8
  5
9CE8
331
CBD4
  5
CBD4
331
9BA9
  5
9BA9
331
9BE8
  5
9BE8
331
9B1B
  5
9B1B
331
9B5A
  5
9B5A
331
9ADC
  5
9ADC
331
C77F
  5
C77F
331
9CB1
  5
9CB1
331
CAE6
  5
CAE6
331
9C3B
  5
9C3B
331
CB1D
  5
CB1D
331
CBDC
  5
CBDC
331
9B62
  5
9B62
331
9BB1
  5
9BB1
331
9B23
  5
9B23
331
CBA5
  5
CBA5
331
C787
  5
C787
331
9AA5
  5
9AA5
331
9BB9
  5
9BB9
331
9B2B
  5
9B2B
331
9AAD
  5
9AAD
331
CBE2
  5
CBE2
331
CBEA
  5
CBEA
331
CBF2
  5
CBF2
331
CBFA
  5
CBFA
331
9CF0
  5
9CF0
331
9C7A
  5
9C7A
331
9BFC
  5
9BFC
331
9CB9
  5
9CB9
331
CBAD
  5
CBAD
331
9CF8
  5
9CF8
331
9C4B
  5
9C4B
331
9C82
  5
9C82
331
C78F
  5
C78F
331
CAEE
  5
CAEE
331
9AB5
  5
9AB5
331
9B6A
  5
9B6A
331
9CC9
  5
9CC9
331
9D00
  5
9D00
331
CBB5
  5
CBB5
331
9C53
  5
9C53
331
9C8A
  5
9C8A
331
9BC1
  5
9BC1
331
9BC9
  5
9BC9
331
9B3B
  5
9B3B
331
9ABD
  5
9ABD
331
CAFE
  5
CAFE
331
9C92
  5
9C92
331
9CD1
  5
9CD1
331
9C5B
  5
9C5B
331
9D08
  5
9D08
331
CBBD
  5
CBBD
331
9BD1
  5
9BD1
331
CBC5
  5
CBC5
331
9B04
  5
9B04
331
9B43
  5
9B43
331
CB06
  5
CB06
331
9B92
  5
9B92
331
9B9A
  5
9B9A
331
9BD9
  5
9BD9
331
9B0C
  5
9B0C
331
9B4B
  5
9B4B
331
9ACD
  5
9ACD
331
CC02
  5
CC02
331
CC0A
  5
CC0A
331
EAA1
  5
EAA1
331
CC12
  5
CC12
331
CC1A
  5
CC1A
331
9C9A
  5
9C9A
331
9CD9
  5
9CD9
331
9C1C
  5
9C1C
331
9C63
  5
9C63
331
CBCD
  5
CBCD
331
CABF
  5
CABF
331
9C6B
  5
9C6B
331
9CA2
  5
9CA2
331
9CE1
  5
9CE1
331
CB0E
  5
CB0E
331
9B53
  5
9B53
331
9AD5
  5
9AD5
331
9BA2
  5
9BA2
331
CB16
  5
CB16
331
CBD5
  5
CBD5
331
9BE1
  5
9BE1
331
9CE9
  5
9CE9
331
9C34
  5
9C34
331
9C73
  5
9C73
331
9CAA
  5
9CAA
331
CADF
  5
CADF
331
9B5B
  5
9B5B
331
9BAA
  5
9BAA
331
9ADD
  5
9ADD
331
CAE7
  5
CAE7
331
CB1E
  5
CB1E
331
CBDD
  5
CBDD
331
C780
  5
C780
331
9B1C
  5
9B1C
331
9BE9
  5
9BE9
331
9C3C
  5
9C3C
331
9CB2
  5
9CB2
331
9B24
  5
9B24
331
9AA6
  5
9AA6
331
CBA6
  5
CBA6
331
9B63
  5
9B63
331
9BB2
  5
9BB2
331
9BBA
  5
9BBA
331
9B2C
  5
9B2C
331
9AAE
  5
9AAE
331
EAA9
  5
EAA5
331
CBE3
  5
CBE3
331
CBEB
  5
CBEB
331
CBF3
  5
CBF3
331
CBFB
  5
CBFB
331
9CBA
  5
9CBA
331
9CF1
  5
9CF1
331
9BFD
  5
9BFD
331
9C44
  5
9C44
331
9C7B
  5
9C7B
331
C788
  5
C788
331
C790
  5
C790
331
CAEF
  5
CAEF
331
9C83
  5
9C83
331
9C4C
  5
9C4C
331
9CF9
  5
9CF9
331
CBAE
  5
CBAE
331
9BC2
  5
9BC2
331
9D01
  5
9D01
331
CBB6
  5
CBB6
331
9C8B
  5
9C8B
331
9CCA
  5
9CCA
331
9AB6
  5
9AB6
331
9C54
  5
9C54
331
9BCA
  5
9BCA
331
9B3C
  5
9B3C
331
CBBE
  5
CBBE
331
9ABE
  5
9ABE
331
9D09
  5
9D09
331
9C5C
  5
9C5C
331
9C93
  5
9C93
331
9C15
  5
9C15
331
9CD2
  5
9CD2
331
CAFF
  5
CAFF
331
9B44
  5
9B44
331
9B93
  5
9B93
331
CB07
  5
CB07
331
CBC6
  5
CBC6
331
9B05
  5
9B05
331
9BD2
  5
9BD2
331
9BDA
  5
9BDA
331
9B4C
  5
9B4C
331
9ACE
  5
9ACE
331
CC03
  5
CC03
331
CC0B
  5
CC0B
331
CC13
  5
CC13
331
EAA2
  5
EAA4
331
CC1B
  5
CC1B
331
9CDA
  5
9CDA
331
9C1D
  5
9C1D
331
9C64
  5
9C64
331
9C9B
  5
9C9B
331
9CA3
  5
9CA3
331
9CE2
  5
9CE2
331
CB0F
  5
CB0F
331
9C25
  5
9C25
331
9C6C
  5
9C6C
331
CBCE
  5
CBCE
331
9BE2
  5
9BE2
331
9B15
  5
9B15
331
9B54
  5
9B54
331
CBD6
  5
CBD6
331
9AD6
  5
9AD6
331
CAE0
  5
CAE0
331
CB17
  5
CB17
331
9C74
  5
9C74
331
9CAB
  5
9CAB
331
9C35
  5
9C35
331
9CEA
  5
9CEA
331
9BA3
  5
9BA3
331
9BAB
  5
9BAB
331
9BEA
  5
9BEA
331
9B1D
  5
9B1D
331
9B5C
  5
9B5C
331
9ADE
  5
9ADE
331
C781
  5
C781
331
9CB3
  5
9CB3
331
9C3D
  5
9C3D
331
CBDE
  5
CBDE
331
9B64
  5
9B64
331
9BB3
  5
9BB3
331
9B25
  5
9B25
331
CBA7
  5
CBA7
331
9AA7
  5
9AA7
331
9BBB
  5
9BBB
331
9B2D
  5
9B2D
331
9AAF
  5
9AAF
331
EAAA
  5
EAA9
331
CBE4
  5
CBE4
331
CBEC
  5
CBEC
331
CBF4
  5
CBF4
331
CBFC
  5
CBFC
331
9CF2
  5
9CF2
331
C789
  5
C789
331
9C45
  5
9C45
331
9C7C
  5
9C7C
331
9BFE
  5
9BFE
331
9CBB
  5
9CBB
331
CAE8
  5
CAE8
331
CAF0
  5
CAF0
331
CBAF
  5
CBAF
331
9CFA
  5
9CFA
331
C791
  5
C791
331
9C4D
  5
9C4D
331
9C84
  5
9C84
331
9CC3
  5
9CC3
331
9B35
  5
9B35
331
9AB7
  5
9AB7
331
CBB7
  5
CBB7
331
9AF6
  5
9AF6
331
9BC3
  5
9BC3
331
9CCB
  5
9CCB
331
9D02
  5
9D02
331
9C55
  5
9C55
331
9C8C
  5
9C8C
331
CAA1
  5
CAA1
331
9BCB
  5
9BCB
331
9B3D
  5
9B3D
331
9ABF
  5
9ABF
331
CB00
  5
CB00
331
9C94
  5
9C94
331
9CD3
  5
9CD3
331
9C16
  5
9C16
331
9C5D
  5
9C5D
331
9D0A
  5
9D0A
331
CBBF
  5
CBBF
331
9BD3
  5
9BD3
331
9B45
  5
9B45
331
CBC7
  5
CBC7
331
9AC7
  5
9AC7
331
9B94
  5
9B94
331
9BDB
  5
9BDB
331
9B0E
  5
9B0E
331
9B4D
  5
9B4D
331
9ACF
  5
9ACF
331
CC04
  5
CC04
331
CC0C
  5
CC0C
331
EAA3
  5
EAA7
331
CC14
  5
CC14
331
CC1C
  5
CC1C
331
9C9C
  5
9C9C
331
9CDB
  5
9CDB
331
CB08
  5
CB08
331
9C65
  5
9C65
331
CBCF
  5
CBCF
331
9C6D
  5
9C6D
331
9CA4
  5
9CA4
331
9CE3
  5
9CE3
331
CB10
  5
CB10
331
9B55
  5
9B55
331
9BA4
  5
9BA4
331
9AD7
  5
9AD7
331
CAE1
  5
CAE1
331
CB18
  5
CB18
331
CBD7
  5
CBD7
331
9B16
  5
9B16
331
9C36
  5
9C36
331
9C75
  5
9C75
331
9CAC
  5
9CAC
331
9BE3
  5
9BE3
331
9B5D
  5
9B5D
331
9BAC
  5
9BAC
331
9ADF
  5
9ADF
331
CBDF
  5
CBDF
331
9CB4
  5
9CB4
331
C782
  5
C782
331
9B1E
  5
9B1E
331
9BF3
  5
9BF3
331
9B26
  5
9B26
331
9AA8
  5
9AA8
331
9B65
  5
9B65
331
9BB4
  5
9BB4
331
9BBC
  5
9BBC
331
9B2E
  5
9B2E
331
EAAB
  5
EAAC
331
CBE5
  5
CBE5
331
CBED
  5
CBED
331
CBF5
  5
CBF5
331
CBFD
  5
CBFD
331
CAE9
  5
CAE9
331
CBA8
  5
CBA8
331
9CBC
  5
9CBC
331
9CF3
  5
9CF3
331
9BFF
  5
9BFF
331
9C46
  5
9C46
331
9C7D
  5
9C7D
331
C78A
  5
C78A
331
9AB0
  5
9AB0
331
CAF1
  5
CAF1
331
9C85
  5
9C85
331
9CC4
  5
9CC4
331
9C4E
  5
9C4E
331
9CFB
  5
9CFB
331
CBB0
  5
CBB0
331
9BC4
  5
9BC4
331
9AF7
  5
9AF7
331
9B36
  5
9B36
331
CBB8
  5
CBB8
331
9AB8
  5
9AB8
331
9D03
  5
9D03
331
CAA2
  5
CAA2
331
9C56
  5
9C56
331
9C8D
  5
9C8D
331
9CCC
  5
9CCC
331
CAF9
  5
CAF9
331
9BCC
  5
9BCC
331
9B3E
  5
9B3E
331
CB01
  5
CB01
331
CBC0
  5
CBC0
331
9D0B
  5
9D0B
331
CAAA
  5
CAAA
331
9AC0
  5
9AC0
331
9C5E
  5
9C5E
331
9C95
  5
9C95
331
9C17
  5
9C17
331
9CD4
  5
9CD4
331
9B46
  5
9B46
331
9AC8
  5
9AC8
331
9B95
  5
9B95
331
9BD4
  5
9BD4
331
9BDC
  5
9BDC
331
9B0F
  5
9B0F
331
9B4E
  5
9B4E
331
9B9D
  5
9B9D
331
CC05
  5
CC05
331
CC0D
  5
CC0D
331
CC15
  5
CC15
331
EAA4
  5
EAAB
331
9CDC
  5
9CDC
331
CB09
  5
CB09
331
CBC8
  5
CBC8
331
9C66
  5
9C66
331
9C9D
  5
9C9D
331
9AD0
  5
9AD0
331
9CA5
  5
9CA5
331
9CE4
  5
9CE4
331
CB11
  5
CB11
331
9C6E
  5
9C6E
331
CBD0
  5
CBD0
331
9BE4
  5
9BE4
331
9B56
  5
9B56
331
9AD8
  5
9AD8
331
CAE2
  5
CAE2
331
CB19
  5
CB19
331
CBD8
  5
CBD8
331
9C76
  5
9C76
331
9CAD
  5
9CAD
331
9C37
  5
9C37
331
9CEC
  5
9CEC
331
9BA5
  5
9BA5
331
9BAD
  5
9BAD
331
9BEC
  5
9BEC
331
9B1F
  5
9B1F
331
9B5E
  5
9B5E
331
9AE0
  5
9AE0
331
C783
  5
C783
331
9CB5
  5
9CB5
331
CBA1
  5
CBA1
331
9BF4
  5
9BF4
331
9B66
  5
9B66
331
9BB5
  5
9BB5
331
9B27
  5
9B27
331
9AA9
  5
9AA9
331
9BBD
  5
9BBD
331
9B2F
  5
9B2F
331
EAAC
  5
EAAF
331
CBE6
  5
CBE6
331
CBEE
  5
CBEE
331
CDBD
  5
CDBD
331
DECD
  5
DECD
331
CBF6
  5
CBF6
331
CBFE
  5
CBFE
331
9BF8
  5
9BF8
331
CBA9
  5
CBA9
331
9CF4
  5
9CF4
331
C78B
  5
C78B
331
9C47
  5
9C47
331
9C7E
  5
9C7E
331
9C00
  5
9C00
331
9CBD
  5
9CBD
331
CAEA
  5
CAEA
331
9AB1
  5
9AB1
331
CAF2
  5
CAF2
331
9CC5
  5
9CC5
331
9CFC
  5
9CFC
331
CBB1
  5
CBB1
331
9C4F
  5
9C4F
331
9C86
  5
9C86
331
9B37
  5
9B37
331
9AB9
  5
9AB9
331
CAFA
  5
CAFA
331
9CCD
  5
9CCD
331
9D04
  5
9D04
331
CBB9
  5
CBB9
331
9AF8
  5
9AF8
331
9C57
  5
9C57
331
9C8E
  5
9C8E
331
9BC5
  5
9BC5
331
9BCD
  5
9BCD
331
9B3F
  5
9B3F
331
9AC1
  5
9AC1
331
CAAB
  5
CAAB
331
CB02
  5
CB02
331
9C96
  5
9C96
331
9CD5
  5
9CD5
331
9C5F
  5
9C5F
331
9D0C
  5
9D0C
331
CBC1
  5
CBC1
331
9B96
  5
9B96
331
9BD5
  5
9BD5
331
9B47
  5
9B47
331
9AC9
  5
9AC9
331
9B9E
  5
9B9E
331
9BDD
  5
9BDD
331
9B4F
  5
9B4F
331
CC06
  5
CC06
331
CC0E
  5
CC0E
  0
XRECORD
  5
3D91
102
{ACAD_REACTORS
330
3D20
102
}
330
3D20
100
AcDbXrecord
280
     1
340
1A
  0
SORTENTSTABLE
  5
69B9
102
{ACAD_REACTORS
330
69B8
102
}
330
69B8
100
AcDbSortentsTable
330
69B7
  0
SORTENTSTABLE
  5
69CD
102
{ACAD_REACTORS
330
69CC
102
}
330
69CC
100
AcDbSortentsTable
330
69CB
  0
GROUP
  5
4143
102
{ACAD_REACTORS
330
D
102
}
330
D
100
AcDbGroup
300

 70
     1
 71
     1
  0
GROUP
  5
4378
102
{ACAD_REACTORS
330
D
102
}
330
D
100
AcDbGroup
300

 70
     1
 71
     1
  0
GROUP
  5
43BF
102
{ACAD_REACTORS
330
D
102
}
330
D
100
AcDbGroup
300

 70
     1
 71
     1
  0
GROUP
  5
423A
102
{ACAD_REACTORS
330
D
102
}
330
D
100
AcDbGroup
300

 70
     1
 71
     1
  0
GROUP
  5
414C
102
{ACAD_REACTORS
330
D
102
}
330
D
100
AcDbGroup
300

 70
     1
 71
     1
  0
GROUP
  5
579E
102
{ACAD_REACTORS
330
D
102
}
330
D
100
AcDbGroup
300

 70
     1
 71
     1
  0
GROUP
  5
4235
102
{ACAD_REACTORS
330
D
102
}
330
D
100
AcDbGroup
300

 70
     1
 71
     1
  0
GROUP
  5
437C
102
{ACAD_REACTORS
330
D
102
}
330
D
100
AcDbGroup
300

 70
     1
 71
     1
  0
GROUP
  5
414F
102
{ACAD_REACTORS
330
D
102
}
330
D
100
AcDbGroup
300

 70
     1
 71
     1
  0
GROUP
  5
437E
102
{ACAD_REACTORS
330
D
102
}
330
D
100
AcDbGroup
300

 70
     1
 71
     1
  0
GROUP
  5
4149
102
{ACAD_REACTORS
330
D
102
}
330
D
100
AcDbGroup
300

 70
     1
 71
     1
  0
GROUP
  5
4241
102
{ACAD_REACTORS
330
D
102
}
330
D
100
AcDbGroup
300

 70
     1
 71
     1
  0
GROUP
  5
4239
102
{ACAD_REACTORS
330
D
102
}
330
D
100
AcDbGroup
300

 70
     1
 71
     1
  0
GROUP
  5
4237
102
{ACAD_REACTORS
330
D
102
}
330
D
100
AcDbGroup
300

 70
     1
 71
     1
  0
GROUP
  5
423C
102
{ACAD_REACTORS
330
D
102
}
330
D
100
AcDbGroup
300

 70
     1
 71
     1
  0
GROUP
  5
43B6
102
{ACAD_REACTORS
330
D
102
}
330
D
100
AcDbGroup
300

 70
     1
 71
     1
  0
GROUP
  5
423B
102
{ACAD_REACTORS
330
D
102
}
330
D
100
AcDbGroup
300

 70
     1
 71
     1
  0
GROUP
  5
43B8
102
{ACAD_REACTORS
330
D
102
}
330
D
100
AcDbGroup
300

 70
     1
 71
     1
  0
GROUP
  5
576A
102
{ACAD_REACTORS
330
D
102
}
330
D
100
AcDbGroup
300

 70
     1
 71
     1
  0
GROUP
  5
4240
102
{ACAD_REACTORS
330
D
102
}
330
D
100
AcDbGroup
300

 70
     1
 71
     1
  0
GROUP
  5
423E
102
{ACAD_REACTORS
330
D
102
}
330
D
100
AcDbGroup
300

 70
     1
 71
     1
  0
GROUP
  5
4374
102
{ACAD_REACTORS
330
D
102
}
330
D
100
AcDbGroup
300

 70
     1
 71
     1
  0
GROUP
  5
43BB
102
{ACAD_REACTORS
330
D
102
}
330
D
100
AcDbGroup
300

 70
     1
 71
     1
  0
GROUP
  5
4373
102
{ACAD_REACTORS
330
D
102
}
330
D
100
AcDbGroup
300

 70
     1
 71
     1
  0
GROUP
  5
43BD
102
{ACAD_REACTORS
330
D
102
}
330
D
100
AcDbGroup
300

 70
     1
 71
     1
  0
GROUP
  5
4236
102
{ACAD_REACTORS
330
D
102
}
330
D
100
AcDbGroup
300

 70
     1
 71
     1
  0
GROUP
  5
4377
102
{ACAD_REACTORS
330
D
102
}
330
D
100
AcDbGroup
300

 70
     1
 71
     1
  0
GROUP
  5
4145
102
{ACAD_REACTORS
330
D
102
}
330
D
100
AcDbGroup
300

 70
     1
 71
     1
  0
GROUP
  5
437A
102
{ACAD_REACTORS
330
D
102
}
330
D
100
AcDbGroup
300

 70
     1
 71
     1
  0
GROUP
  5
4379
102
{ACAD_REACTORS
330
D
102
}
330
D
100
AcDbGroup
300

 70
     1
 71
     1
  0
GROUP
  5
43C1
102
{ACAD_REACTORS
330
D
102
}
330
D
100
AcDbGroup
300

 70
     1
 71
     1
  0
GROUP
  5
423D
102
{ACAD_REACTORS
330
D
102
}
330
D
100
AcDbGroup
300

 70
     1
 71
     1
  0
GROUP
  5
437D
102
{ACAD_REACTORS
330
D
102
}
330
D
100
AcDbGroup
300

 70
     1
 71
     1
  0
GROUP
  5
414D
102
{ACAD_REACTORS
330
D
102
}
330
D
100
AcDbGroup
300

 70
     1
 71
     1
  0
GROUP
  5
4146
102
{ACAD_REACTORS
330
D
102
}
330
D
100
AcDbGroup
300

 70
     1
 71
     1
  0
GROUP
  5
437F
102
{ACAD_REACTORS
330
D
102
}
330
D
100
AcDbGroup
300

 70
     1
 71
     1
  0
GROUP
  5
414B
102
{ACAD_REACTORS
330
D
102
}
330
D
100
AcDbGroup
300

 70
     1
 71
     1
  0
GROUP
  5
4375
102
{ACAD_REACTORS
330
D
102
}
330
D
100
AcDbGroup
300

 70
     1
 71
     1
  0
GROUP
  5
43B7
102
{ACAD_REACTORS
330
D
102
}
330
D
100
AcDbGroup
300

 70
     1
 71
     1
  0
GROUP
  5
414E
102
{ACAD_REACTORS
330
D
102
}
330
D
100
AcDbGroup
300

 70
     1
 71
     1
  0
GROUP
  5
43B9
102
{ACAD_REACTORS
330
D
102
}
330
D
100
AcDbGroup
300

 70
     1
 71
     1
  0
GROUP
  5
57D9
102
{ACAD_REACTORS
330
D
102
}
330
D
100
AcDbGroup
300

 70
     1
 71
     1
  0
GROUP
  5
437B
102
{ACAD_REACTORS
330
D
102
}
330
D
100
AcDbGroup
300

 70
     1
 71
     1
  0
GROUP
  5
43BC
102
{ACAD_REACTORS
330
D
102
}
330
D
100
AcDbGroup
300

 70
     1
 71
     1
  0
GROUP
  5
4144
102
{ACAD_REACTORS
330
D
102
}
330
D
100
AcDbGroup
300

 70
     1
 71
     1
  0
GROUP
  5
43BE
102
{ACAD_REACTORS
330
D
102
}
330
D
100
AcDbGroup
300

 70
     1
 71
     1
  0
GROUP
  5
4238
102
{ACAD_REACTORS
330
D
102
}
330
D
100
AcDbGroup
300

 70
     1
 71
     1
  0
GROUP
  5
43B5
102
{ACAD_REACTORS
330
D
102
}
330
D
100
AcDbGroup
300

 70
     1
 71
     1
  0
GROUP
  5
43C0
102
{ACAD_REACTORS
330
D
102
}
330
D
100
AcDbGroup
300

 70
     1
 71
     1
  0
GROUP
  5
4148
102
{ACAD_REACTORS
330
D
102
}
330
D
100
AcDbGroup
300

 70
     1
 71
     1
  0
GROUP
  5
423F
102
{ACAD_REACTORS
330
D
102
}
330
D
100
AcDbGroup
300

 70
     1
 71
     1
  0
GROUP
  5
43BA
102
{ACAD_REACTORS
330
D
102
}
330
D
100
AcDbGroup
300

 70
     1
 71
     1
  0
GROUP
  5
414A
102
{ACAD_REACTORS
330
D
102
}
330
D
100
AcDbGroup
300

 70
     1
 71
     1
  0
GROUP
  5
5691
102
{ACAD_REACTORS
330
D
102
}
330
D
100
AcDbGroup
300

 70
     1
 71
     1
  0
GROUP
  5
4376
102
{ACAD_REACTORS
330
D
102
}
330
D
100
AcDbGroup
300

 70
     1
 71
     1
  0
GROUP
  5
4147
102
{ACAD_REACTORS
330
D
102
}
330
D
100
AcDbGroup
300

 70
     1
 71
     1
  0
LAYOUT
  5
21
102
{ACAD_XDICTIONARY
360
EAD0
102
}
102
{ACAD_REACTORS
330
19
102
}
330
19
100
AcDbPlotSettings
  1

  2
HP 2200
  4

  6

 40
0.0
 41
0.0
 42
0.0
 43
0.0
 44
0.0
 45
0.0
 46
0.0
 47
0.0
 48
0.0
 49
0.0
140
0.0
141
0.0
142
1.0
143
1.0
 70
  1712
 72
     0
 73
     0
 74
     0
  7
AAA.ctb
 75
     0
147
1.0
148
0.0
149
0.0
100
AcDbLayout
  1
Model
 70
     1
 71
     0
 10
0.0
 20
0.0
 11
12.0
 21
9.0
 12
0.0
 22
0.0
 32
0.0
 14
0.0
 24
0.0
 34
0.0
 15
0.0
 25
0.0
 35
0.0
146
0.0
 13
0.0
 23
0.0
 33
0.0
 16
1.0
 26
0.0
 36
0.0
 17
0.0
 27
1.0
 37
0.0
 76
     0
330
1E
  0
LAYOUT
  5
1D
102
{ACAD_XDICTIONARY
360
EACE
102
}
102
{ACAD_REACTORS
330
19
102
}
330
19
100
AcDbPlotSettings
  1

  2
HP 2200
  4

  6

 40
0.0
 41
0.0
 42
0.0
 43
0.0
 44
0.0
 45
0.0
 46
0.0
 47
0.0
 48
0.0
 49
0.0
140
0.0
141
0.0
142
1.0
143
1.0
 70
   688
 72
     0
 73
     0
 74
     5
  7
AAA.ctb
 75
    16
147
1.0
148
0.0
149
0.0
100
AcDbLayout
  1
配置1
 70
     0
 71
     1
 10
0.0
 20
0.0
 11
12.0
 21
9.0
 12
0.0
 22
0.0
 32
0.0
 14
1.000000000000000E+20
 24
1.000000000000000E+20
 34
1.000000000000000E+20
 15
-1.000000000000000E+20
 25
-1.000000000000000E+20
 35
-1.000000000000000E+20
146
0.0
 13
0.0
 23
0.0
 33
0.0
 16
1.0
 26
0.0
 36
0.0
 17
0.0
 27
1.0
 37
0.0
 76
     0
330
1A
  0
MLINESTYLE
  5
17
102
{ACAD_REACTORS
330
16
102
}
330
16
100
AcDbMlineStyle
  2
STANDARD
 70
     0
  3

 62
   256
 51
90.0
 52
90.0
 71
     2
 49
0.5
 62
   256
  6
BYLAYER
 49
-0.5
 62
   256
  6
BYLAYER
  0
PLOTSETTINGS
  5
4150
102
{ACAD_XDICTIONARY
360
EAD2
102
}
102
{ACAD_REACTORS
330
18
102
}
330
18
100
AcDbPlotSettings
  1
LANSRO
  2
\\1260\HP2200
  4
A4
  6

 40
6.043083190917968
 41
6.762742042541503
 42
7.736419677734375
 43
5.027069091796875
 44
209.9733276367187
 45
296.9683227539062
 46
5.15
 47
0.0
 48
0.0
 49
0.0
140
0.0
141
0.0
142
1.0
143
0.8829829263240881
 70
  1716
 72
     1
 73
     1
 74
     0
  7
AAA.ctb
 75
     0
147
1.132524729739748
148
-132.297014905803
149
-71.78507365635891
  0
ACDBPLACEHOLDER
  5
F
102
{ACAD_REACTORS
330
E
102
}
330
E
  0
ACAD_PROXY_OBJECT
  5
E7A4
102
{ACAD_REACTORS
330
E7A3
102
}
330
E7A3
100
AcDbProxyObject
 90
      499
 91
      514
 95
   983063
 70
     0
 93
     1841
310
4214DD185B99185C9928B81E85EB51B8AE3F2E07A17AD46E2B8FC02B5E8DC0F42B1CFD028000000C1008070000C3001FDFF8000000C1003FBFF000000182007F7FE00000030400FEFFC00000060801FDFF8000000C1003FBFF00000018200000000000000681FA0B0000001820100E000186003FBFF000000182007F7FE000
310
00030400FEFFC00000060801FDFF8000000C1003FBFF000000182007F7FE000000304000AD7A3703D0AC73F4160000003040201C00030C007F7FE00000030400FEFFC00000060801FDFF8000000C1003FBFF000000182007F7FE00000030400FEFFC00000060801B
340
11
340
11
340
11
 94
        0
1001
ACAD
1000
AcRTDxfName
1000
TABLESTYLE
  0
XRECORD
  5
EACD
102
{ACAD_REACTORS
330
EACB
102
}
330
EACB
100
AcDbXrecord
280
     1
340
3D97
  0
XRECORD
  5
EACC
102
{ACAD_REACTORS
330
EACB
102
}
330
EACB
100
AcDbXrecord
280
     1
340
3D96
  0
DICTIONARYVAR
  5
E8F8
102
{ACAD_REACTORS
330
3E63
102
}
330
3E63
100
DictionaryVariables
280
     0
  1
STANDARD
  0
DICTIONARYVAR
  5
3E64
102
{ACAD_REACTORS
330
3E63
102
}
330
3E63
100
DictionaryVariables
280
     0
  1
1
  0
DICTIONARYVAR
  5
3E65
102
{ACAD_REACTORS
330
3E63
102
}
330
3E63
100
DictionaryVariables
280
     0
  1

  0
DICTIONARY
  5
EAD0
330
21
100
AcDbDictionary
280
     1
281
     1
  3
ACAD_XREC_ROUNDTRIP
360
EAD1
  0
DICTIONARY
  5
EACE
330
1D
100
AcDbDictionary
280
     1
281
     1
  3
ACAD_XREC_ROUNDTRIP
360
EACF
  0
DICTIONARY
  5
EAD2
330
4150
100
AcDbDictionary
280
     1
281
     1
  3
ACAD_XREC_ROUNDTRIP
360
EAD3
  0
XRECORD
  5
EAD1
102
{ACAD_REACTORS
330
EAD0
102
}
330
EAD0
100
AcDbXrecord
280
     1
102
SHADEPLOT
 70
     0
102
SHADEPLOTRESLEVEL
 70
     2
102
SHADEPLOTCUSTOMDPI
 70
   300
  0
XRECORD
  5
EACF
102
{ACAD_REACTORS
330
EACE
102
}
330
EACE
100
AcDbXrecord
280
     1
102
SHADEPLOT
 70
     0
102
SHADEPLOTRESLEVEL
 70
     2
102
SHADEPLOTCUSTOMDPI
 70
   300
  0
XRECORD
  5
EAD3
102
{ACAD_REACTORS
330
EAD2
102
}
330
EAD2
100
AcDbXrecord
280
     1
102
SHADEPLOT
 70
     0
102
SHADEPLOTRESLEVEL
 70
     2
102
SHADEPLOTCUSTOMDPI
 70
   300
  0
ENDSEC
  0
EOF
