  0
SECTION
  2
HEADER
  9
$ACADVER
  1
AC1015
  9
$ACADMAINTVER
 70
    20
  9
$DWGCODEPAGE
  3
ANSI_950
  9
$INSBASE
 10
0.0
 20
0.0
 30
0.0
  9
$EXTMIN
 10
900.3033160445186
 20
1079.482877205168
 30
-0.0000000000000009
  9
$EXTMAX
 10
1238.625032833818
 20
1286.87792276026
 30
0.0
  9
$LIMMIN
 10
-10.0
 20
-15.0
  9
$LIMMAX
 10
120.0
 20
90.0
  9
$ORTHOMODE
 70
     1
  9
$REGENMODE
 70
     0
  9
$FILLMODE
 70
     1
  9
$QTEXTMODE
 70
     0
  9
$MIRRTEXT
 70
     0
  9
$LTSCALE
 40
3.0
  9
$ATTMODE
 70
     1
  9
$TEXTSIZE
 40
3.0
  9
$TRACEWID
 40
1.0
  9
$TEXTSTYLE
  7
STANDARD
  9
$CLAYER
  8
0
  9
$CELTYPE
  6
ByLayer
  9
$CECOLOR
 62
   256
  9
$CELTSCALE
 40
1.0
  9
$DISPSILH
 70
     0
  9
$DIMSCALE
 40
1.0
  9
$DIMASZ
 40
3.0
  9
$DIMEXO
 40
1.0
  9
$DIMDLI
 40
6.0
  9
$DIMRND
 40
0.0
  9
$DIMDLE
 40
0.0
  9
$DIMEXE
 40
1.0
  9
$DIMTP
 40
0.0
  9
$DIMTM
 40
0.0
  9
$DIMTXT
 40
3.0
  9
$DIMCEN
 40
1.5
  9
$DIMTSZ
 40
0.0
  9
$DIMTOL
 70
     0
  9
$DIMLIM
 70
     0
  9
$DIMTIH
 70
     1
  9
$DIMTOH
 70
     1
  9
$DIMSE1
 70
     0
  9
$DIMSE2
 70
     0
  9
$DIMTAD
 70
     0
  9
$DIMZIN
 70
     0
  9
$DIMBLK
  1

  9
$DIMASO
 70
     1
  9
$DIMSHO
 70
     0
  9
$DIMPOST
  1

  9
$DIMAPOST
  1

  9
$DIMALT
 70
     0
  9
$DIMALTD
 70
     2
  9
$DIMALTF
 40
25.4
  9
$DIMLFAC
 40
1.0
  9
$DIMTOFL
 70
     1
  9
$DIMTVP
 40
0.0
  9
$DIMTIX
 70
     0
  9
$DIMSOXD
 70
     0
  9
$DIMSAH
 70
     0
  9
$DIMBLK1
  1

  9
$DIMBLK2
  1

  9
$DIMSTYLE
  2
Standard
  9
$DIMCLRD
 70
     0
  9
$DIMCLRE
 70
     0
  9
$DIMCLRT
 70
     0
  9
$DIMTFAC
 40
1.0
  9
$DIMGAP
 40
0.09
  9
$DIMJUST
 70
     0
  9
$DIMSD1
 70
     0
  9
$DIMSD2
 70
     0
  9
$DIMTOLJ
 70
     1
  9
$DIMTZIN
 70
     0
  9
$DIMALTZ
 70
     0
  9
$DIMALTTZ
 70
     0
  9
$DIMUPT
 70
     0
  9
$DIMDEC
 70
     4
  9
$DIMTDEC
 70
     8
  9
$DIMALTU
 70
     2
  9
$DIMALTTD
 70
     2
  9
$DIMTXSTY
  7
STANDARD
  9
$DIMAUNIT
 70
     0
  9
$DIMADEC
 70
     0
  9
$DIMALTRND
 40
0.0
  9
$DIMAZIN
 70
     0
  9
$DIMDSEP
 70
    46
  9
$DIMATFIT
 70
     3
  9
$DIMFRAC
 70
     0
  9
$DIMLDRBLK
  1

  9
$DIMLUNIT
 70
     2
  9
$DIMLWD
 70
    -2
  9
$DIMLWE
 70
    -2
  9
$DIMTMOVE
 70
     2
  9
$LUNITS
 70
     2
  9
$LUPREC
 70
     4
  9
$SKETCHINC
 40
0.5
  9
$FILLETRAD
 40
0.0
  9
$AUNITS
 70
     0
  9
$AUPREC
 70
     0
  9
$MENU
  1
ACAD
  9
$ELEVATION
 40
0.0
  9
$PELEVATION
 40
0.0
  9
$THICKNESS
 40
0.0
  9
$LIMCHECK
 70
     0
  9
$CHAMFERA
 40
0.0
  9
$CHAMFERB
 40
0.0
  9
$CHAMFERC
 40
0.0
  9
$CHAMFERD
 40
0.0
  9
$SKPOLY
 70
     0
  9
$TDCREATE
 40
2444975.333333334
  9
$TDUCREATE
 40
2444975.000000000
  9
$TDUPDATE
 40
2454042.453309213
  9
$TDUUPDATE
 40
2454042.119975880
  9
$TDINDWG
 40
0.3138752083
  9
$TDUSRTIMER
 40
0.0000000000
  9
$USRTIMER
 70
     0
  9
$ANGBASE
 50
0.0
  9
$ANGDIR
 70
     0
  9
$PDMODE
 70
     0
  9
$PDSIZE
 40
0.001
  9
$PLINEWID
 40
0.0
  9
$SPLFRAME
 70
     0
  9
$SPLINETYPE
 70
     6
  9
$SPLINESEGS
 70
  8000
  9
$HANDSEED
  5
EAD9
  9
$SURFTAB1
 70
     6
  9
$SURFTAB2
 70
     6
  9
$SURFTYPE
 70
     6
  9
$SURFU
 70
     6
  9
$SURFV
 70
     6
  9
$UCSBASE
  2

  9
$UCSNAME
  2

  9
$UCSORG
 10
0.0
 20
0.0
 30
0.0
  9
$UCSXDIR
 10
1.0
 20
0.0
 30
0.0
  9
$UCSYDIR
 10
0.0
 20
1.0
 30
0.0
  9
$UCSORTHOREF
  2

  9
$UCSORTHOVIEW
 70
     0
  9
$UCSORGTOP
 10
0.0
 20
0.0
 30
0.0
  9
$UCSORGBOTTOM
 10
0.0
 20
0.0
 30
0.0
  9
$UCSORGLEFT
 10
0.0
 20
0.0
 30
0.0
  9
$UCSORGRIGHT
 10
0.0
 20
0.0
 30
0.0
  9
$UCSORGFRONT
 10
0.0
 20
0.0
 30
0.0
  9
$UCSORGBACK
 10
0.0
 20
0.0
 30
0.0
  9
$PUCSBASE
  2

  9
$PUCSNAME
  2

  9
$PUCSORG
 10
0.0
 20
0.0
 30
0.0
  9
$PUCSXDIR
 10
1.0
 20
0.0
 30
0.0
  9
$PUCSYDIR
 10
0.0
 20
1.0
 30
0.0
  9
$PUCSORTHOREF
  2

  9
$PUCSORTHOVIEW
 70
     0
  9
$PUCSORGTOP
 10
0.0
 20
0.0
 30
0.0
  9
$PUCSORGBOTTOM
 10
0.0
 20
0.0
 30
0.0
  9
$PUCSORGLEFT
 10
0.0
 20
0.0
 30
0.0
  9
$PUCSORGRIGHT
 10
0.0
 20
0.0
 30
0.0
  9
$PUCSORGFRONT
 10
0.0
 20
0.0
 30
0.0
  9
$PUCSORGBACK
 10
0.0
 20
0.0
 30
0.0
  9
$USERI1
 70
     0
  9
$USERI2
 70
     0
  9
$USERI3
 70
     0
  9
$USERI4
 70
     0
  9
$USERI5
 70
     0
  9
$USERR1
 40
0.0
  9
$USERR2
 40
0.0
  9
$USERR3
 40
0.0
  9
$USERR4
 40
0.0
  9
$USERR5
 40
0.0
  9
$WORLDVIEW
 70
     1
  9
$SHADEDGE
 70
     3
  9
$SHADEDIF
 70
    70
  9
$TILEMODE
 70
     1
  9
$MAXACTVP
 70
    48
  9
$PINSBASE
 10
0.0
 20
0.0
 30
0.0
  9
$PLIMCHECK
 70
     0
  9
$PEXTMIN
 10
1.000000000000000E+20
 20
1.000000000000000E+20
 30
1.000000000000000E+20
  9
$PEXTMAX
 10
-1.000000000000000E+20
 20
-1.000000000000000E+20
 30
-1.000000000000000E+20
  9
$PLIMMIN
 10
0.0
 20
0.0
  9
$PLIMMAX
 10
12.0
 20
9.0
  9
$UNITMODE
 70
     0
  9
$VISRETAIN
 70
     1
  9
$PLINEGEN
 70
     0
  9
$PSLTSCALE
 70
     0
  9
$TREEDEPTH
 70
  3020
  9
$CMLSTYLE
  2
Standard
  9
$CMLJUST
 70
     0
  9
$CMLSCALE
 40
1.0
  9
$PROXYGRAPHICS
 70
     1
  9
$MEASUREMENT
 70
     0
  9
$CELWEIGHT
370
    -1
  9
$ENDCAPS
280
     0
  9
$JOINSTYLE
280
     0
  9
$LWDISPLAY
290
     0
  9
$INSUNITS
 70
     0
  9
$HYPERLINKBASE
  1

  9
$STYLESHEET
  1

  9
$XEDIT
290
     1
  9
$CEPSNTYPE
380
     0
  9
$PSTYLEMODE
290
     1
  9
$FINGERPRINTGUID
  2
{77095E5F-9CE7-11D7-970D-0040F4541FA8}
  9
$VERSIONGUID
  2
{AF7387E0-BCCA-4F7A-BF35-CC61F0D4BF18}
  9
$EXTNAMES
290
     1
  9
$PSVPSCALE
 40
0.0
  9
$OLESTARTUP
290
     0
  0
ENDSEC
  0
SECTION
  2
CLASSES
  0
CLASS
  1
ACDBDICTIONARYWDFLT
  2
AcDbDictionaryWithDefault
  3
ObjectDBX Classes
 90
        0
280
     0
281
     0
  0
CLASS
  1
ACDBPLACEHOLDER
  2
AcDbPlaceHolder
  3
ObjectDBX Classes
 90
        0
280
     0
281
     0
  0
CLASS
  1
LAYOUT
  2
AcDbLayout
  3
ObjectDBX Classes
 90
        0
280
     0
281
     0
  0
CLASS
  1
LONG_TRANSACTION
  2
AcDbLongTransaction
  3
ObjectDBX Classes
 90
    32768
280
     0
281
     0
  0
CLASS
  1
LWPOLYLINE
  2
AcDbPolyline
  3
ObjectDBX Classes
 90
        0
280
     0
281
     1
  0
CLASS
  1
HATCH
  2
AcDbHatch
  3
ObjectDBX Classes
 90
    32768
280
     0
281
     1
  0
CLASS
  1
XRECORD
  2
AcDbXrecord
  3
ObjectDBX Classes
 90
        0
280
     0
281
     0
  0
CLASS
  1
LONG_TRANSACTION
  2
AcDbLongTransaction
  3
ObjectDBX Classes
 90
    32768
280
     0
281
     0
  0
CLASS
  1
LWPOLYLINE
  2
AcDbPolyline
  3
ObjectDBX Classes
 90
        0
280
     0
281
     1
  0
CLASS
  1
HATCH
  2
AcDbHatch
  3
ObjectDBX Classes
 90
    32768
280
     0
281
     1
  0
CLASS
  1
XRECORD
  2
AcDbXrecord
  3
ObjectDBX Classes
 90
        0
280
     0
281
     0
  0
CLASS
  1
DICTIONARYVAR
  2
AcDbDictionaryVar
  3
ObjectDBX Classes
 90
        0
280
     0
281
     0
  0
CLASS
  1
PLOTSETTINGS
  2
AcDbPlotSettings
  3
ObjectDBX Classes
 90
        0
280
     0
281
     0
  0
CLASS
  1
SORTENTSTABLE
  2
AcDbSortentsTable
  3
ObjectDBX Classes
 90
        0
280
     0
281
     0
  0
CLASS
  1
TABLESTYLE
  2
AcDbTableStyle
  3
ObjectDBX Classes
 90
     2047
280
     0
281
     0
  0
ENDSEC
  0
SECTION
  2
TABLES
  0
TABLE
  2
VPORT
  5
8
330
0
100
AcDbSymbolTable
 70
     3
  0
VPORT
  5
EACF
330
8
100
AcDbSymbolTableRecord
100
AcDbViewportTableRecord
  2
*Active
 70
     0
 10
0.0
 20
0.0
 11
1.0
 21
1.0
 12
1071.985368172688
 22
1187.636506602895
 13
457.9999999999997
 23
1082.0
 14
10.0
 24
10.0
 15
10.0
 25
10.0
 16
0.0
 26
0.0
 36
1.0
 17
0.0
 27
0.0
 37
0.0
 40
236.5337483081526
 41
1.530456852791878
 42
1.0
 43
0.0
 44
0.0
 50
0.0
 51
0.0
 71
     0
 72
  2000
 73
     1
 74
     1
 75
     0
 76
     0
 77
     0
 78
     0
281
     0
 65
     1
110
0.0
120
0.0
130
0.0
111
1.0
121
0.0
131
0.0
112
0.0
122
1.0
132
0.0
 79
     0
146
0.0
  0
ENDTAB
  0
TABLE
  2
LTYPE
  5
5
330
0
100
AcDbSymbolTable
 70
     6
  0
LTYPE
  5
13
330
5
100
AcDbSymbolTableRecord
100
AcDbLinetypeTableRecord
  2
ByBlock
 70
     0
  3

 72
    65
 73
     0
 40
0.0
  0
LTYPE
  5
14
330
5
100
AcDbSymbolTableRecord
100
AcDbLinetypeTableRecord
  2
ByLayer
 70
     0
  3

 72
    65
 73
     0
 40
0.0
  0
LTYPE
  5
15
330
5
100
AcDbSymbolTableRecord
100
AcDbLinetypeTableRecord
  2
CONTINUOUS
 70
     0
  3
連續線 ________________________
 72
    65
 73
     0
 40
0.0
  0
LTYPE
  5
225
330
5
100
AcDbSymbolTableRecord
100
AcDbLinetypeTableRecord
  2
BYBLOCK
 70
     0
  3
Solid line
 72
    65
 73
     0
 40
0.0
  0
LTYPE
  5
226
330
5
100
AcDbSymbolTableRecord
100
AcDbLinetypeTableRecord
  2
BYLAYER
 70
     0
  3
Solid line
 72
    65
 73
     0
 40
0.0
  0
LTYPE
  5
413C
330
5
100
AcDbSymbolTableRecord
100
AcDbLinetypeTableRecord
  2
CENTER2
 70
     0
  3
Center (.5x) ___ _ ___ _ ___ _ ___ _ ___ _ ___
 72
    65
 73
     4
 40
28.575
 49
19.05
 74
     0
 49
-3.174999999999999
 74
     0
 49
3.174999999999999
 74
     0
 49
-3.174999999999999
 74
     0
  0
LTYPE
  5
413D
330
5
100
AcDbSymbolTableRecord
100
AcDbLinetypeTableRecord
  2
DASHED2
 70
     0
  3
Dashed (.5x) _ _ _ _ _ _ _ _ _ _ _ _ _ _ _ _ _
 72
    65
 73
     2
 40
9.524999999999998
 49
6.349999999999999
 74
     0
 49
-3.174999999999999
 74
     0
  0
LTYPE
  5
69DC
330
5
100
AcDbSymbolTableRecord
100
AcDbLinetypeTableRecord
  2
DASHED
 70
     0
  3
__ __ __ __ __ __ __ __ __ __ __ __ __ __ __
 72
    65
 73
     2
 40
4.0
 49
3.0
 74
     0
 49
-1.0
 74
     0
  0
ENDTAB
  0
TABLE
  2
LAYER
  5
2
102
{ACAD_XDICTIONARY
360
43C2
102
}
330
0
100
AcDbSymbolTable
 70
     7
  0
LAYER
  5
10
330
2
100
AcDbSymbolTableRecord
100
AcDbLayerTableRecord
  2
0
 70
     0
 62
     7
  6
CONTINUOUS
370
    -3
390
F
  0
LAYER
  5
413E
330
2
100
AcDbSymbolTableRecord
100
AcDbLayerTableRecord
  2
指線
 70
     0
 62
     3
  6
CONTINUOUS
370
    15
390
F
  0
LAYER
  5
413F
330
2
100
AcDbSymbolTableRecord
100
AcDbLayerTableRecord
  2
中心線
 70
     0
 62
     4
  6
CENTER2
370
    20
390
F
  0
LAYER
  5
4140
330
2
100
AcDbSymbolTableRecord
100
AcDbLayerTableRecord
  2
虛線
 70
     0
 62
     6
  6
DASHED2
290
     0
370
    -3
390
F
  0
LAYER
  5
43B4
330
2
100
AcDbSymbolTableRecord
100
AcDbLayerTableRecord
  2
建構線
 70
     0
 62
     1
  6
CONTINUOUS
370
    -3
390
F
  0
LAYER
  5
69DF
330
2
100
AcDbSymbolTableRecord
100
AcDbLayerTableRecord
  2
標註線
 70
     0
 62
     3
  6
CONTINUOUS
370
    13
390
F
  0
LAYER
  5
C701
330
2
100
AcDbSymbolTableRecord
100
AcDbLayerTableRecord
  2
Defpoints
 70
     0
 62
     7
  6
CONTINUOUS
290
     0
370
    -3
390
F
  0
ENDTAB
  0
TABLE
  2
STYLE
  5
3
330
0
100
AcDbSymbolTable
 70
     1
  0
STYLE
  5
11
330
3
100
AcDbSymbolTableRecord
100
AcDbTextStyleTableRecord
  2
STANDARD
 70
     0
 40
0.0
 41
1.0
 50
0.0
 71
     0
 42
3.0
  3

  4

  0
ENDTAB
  0
TABLE
  2
VIEW
  5
6
330
0
100
AcDbSymbolTable
 70
     0
  0
ENDTAB
  0
TABLE
  2
UCS
  5
7
330
0
100
AcDbSymbolTable
 70
     0
  0
ENDTAB
  0
TABLE
  2
APPID
  5
9
330
0
100
AcDbSymbolTable
 70
     4
  0
APPID
  5
12
330
9
100
AcDbSymbolTableRecord
100
AcDbRegAppTableRecord
  2
ACAD
 70
     0
  0
APPID
  5
230
330
9
100
AcDbSymbolTableRecord
100
AcDbRegAppTableRecord
  2
TCAD
 70
     0
  0
APPID
  5
4142
330
9
100
AcDbSymbolTableRecord
100
AcDbRegAppTableRecord
  2
CONTENTBLOCKICON
 70
     0
  0
APPID
  5
5D91
330
9
100
AcDbSymbolTableRecord
100
AcDbRegAppTableRecord
  2
pntflag
 70
     0
  0
ENDTAB
  0
TABLE
  2
DIMSTYLE
  5
A
330
0
100
AcDbSymbolTable
 70
     1
100
AcDbDimStyleTable
 71
     1
340
3C9D
  0
DIMSTYLE
105
3C9D
330
A
100
AcDbSymbolTableRecord
100
AcDbDimStyleTableRecord
  2
Standard
 70
     0
340
11
  0
ENDTAB
  0
TABLE
  2
BLOCK_RECORD
  5
1
330
0
100
AcDbSymbolTable
 70
     2
  0
BLOCK_RECORD
  5
1E
102
{ACAD_XDICTIONARY
360
3D1E
102
}
330
1
100
AcDbSymbolTableRecord
100
AcDbBlockTableRecord
  2
*Model_Space
340
21
  0
BLOCK_RECORD
  5
1A
102
{ACAD_XDICTIONARY
360
3D20
102
}
330
1
100
AcDbSymbolTableRecord
100
AcDbBlockTableRecord
  2
*Paper_Space
340
1D
  0
BLOCK_RECORD
  5
69B7
102
{ACAD_XDICTIONARY
360
69B8
102
}
330
1
100
AcDbSymbolTableRecord
100
AcDbBlockTableRecord
  2
A$C51E2538E
340
0
102
{BLKREFS
331
9DA0
331
9DA1
331
9DB4
102
}
  0
BLOCK_RECORD
  5
69CB
102
{ACAD_XDICTIONARY
360
69CC
102
}
330
1
100
AcDbSymbolTableRecord
100
AcDbBlockTableRecord
  2
A$C3310154B
340
0
  0
ENDTAB
  0
ENDSEC
  0
SECTION
  2
BLOCKS
  0
BLOCK
  5
254
330
1E
100
AcDbEntity
  8
0
100
AcDbBlockBegin
  2
*Model_Space
 70
     0
 10
0.0
 20
0.0
 30
0.0
  3
*Model_Space
  1

  0
ENDBLK
  5
255
330
1E
100
AcDbEntity
  8
0
100
AcDbBlockEnd
  0
BLOCK
  5
252
330
1A
100
AcDbEntity
 67
     1
  8
0
100
AcDbBlockBegin
  2
*Paper_Space
 70
     0
 10
0.0
 20
0.0
 30
0.0
  3
*Paper_Space
  1

  0
ENDBLK
  5
253
330
1A
100
AcDbEntity
 67
     1
  8
0
100
AcDbBlockEnd
  0
BLOCK
  5
69BA
330
69B7
100
AcDbEntity
  8
0
 62
     1
 48
0.27
100
AcDbBlockBegin
  2
A$C51E2538E
 70
     0
 10
0.0
 20
0.0
 30
0.0
  3
A$C51E2538E
  1

  0
LINE
  5
69BB
330
69B7
100
AcDbEntity
  8
虛線
 48
0.25
100
AcDbLine
 10
9.230939415452212
 20
1.99838789798423
 30
0.0
 11
2.230939415459943
 21
1.998387897983548
 31
0.0
  0
LINE
  5
69BC
330
69B7
100
AcDbEntity
  8
虛線
 48
0.25
100
AcDbLine
 10
9.230939415453576
 20
15.79841841556197
 30
0.0
 11
9.230939415452212
 21
1.99838789798423
 31
0.0
  0
LINE
  5
69BD
330
69B7
100
AcDbEntity
  8
虛線
 48
0.25
100
AcDbLine
 10
0.2309394154581241
 20
24.698418415562
 30
0.0
 11
0.2309394154590336
 21
16.09842604495623
 31
0.0
  0
LINE
  5
69BE
330
69B7
100
AcDbEntity
  8
虛線
 48
0.25
100
AcDbLine
 10
2.230939415453576
 20
15.79841841556191
 30
0.0
 11
2.230939415459943
 21
1.998387897983576
 31
0.0
  0
LINE
  5
69BF
330
69B7
100
AcDbEntity
  8
虛線
 48
0.25
100
AcDbLine
 10
0.2309394154590336
 20
16.09835738040544
 30
0.0
 11
11.23093941545221
 21
16.09835738040573
 31
0.0
  0
LINE
  5
69C0
330
69B7
100
AcDbEntity
  8
中心線
 48
0.25
100
AcDbLine
 10
5.730939415455679
 20
27.09841841556201
 30
0.0
 11
5.730939415449938
 21
0.0
 31
0.0
  0
LINE
  5
69C1
330
69B7
100
AcDbEntity
  8
虛線
 48
0.25
100
AcDbLine
 10
2.230939415459943
 20
1.998387897983548
 30
0.0
 11
1.730939415460852
 21
1.498387897984002
 31
0.0
  0
LINE
  5
69C2
330
69B7
100
AcDbEntity
  8
虛線
 48
0.25
100
AcDbLine
 10
9.230939415452212
 20
1.99838789798423
 30
0.0
 11
9.730939415451302
 21
1.498387897984287
 31
0.0
  0
LINE
  5
69C3
330
69B7
100
AcDbEntity
  8
虛線
 48
0.25
100
AcDbLine
 10
11.23093941545358
 20
24.698418415562
 30
0.0
 11
11.23093941545221
 21
16.09835738040573
 31
0.0
  0
LINE
  5
69C4
330
69B7
100
AcDbEntity
  8
虛線
 48
0.25
100
AcDbLine
 10
0.2309394154535767
 20
24.698418415562
 30
0.0
 11
11.23093941545358
 21
24.698418415562
 31
0.0
  0
LINE
  5
69C5
330
69B7
100
AcDbEntity
  8
虛線
 48
0.25
100
AcDbLine
 10
2.230939415453576
 20
15.79841841556197
 30
0.0
 11
9.230939415453576
 21
15.79841841556197
 31
0.0
  0
LINE
  5
69C6
330
69B7
100
AcDbEntity
  8
虛線
 48
0.25
100
AcDbLine
 10
1.930939415453394
 20
16.09841841556192
 30
0.0
 11
2.230939415453576
 21
15.79841841556191
 31
0.0
  0
LINE
  5
69C7
330
69B7
100
AcDbEntity
  8
虛線
 48
0.25
100
AcDbLine
 10
0.2309394154535767
 20
24.698418415562
 30
0.0
 11
-0.0000006922223292
 21
25.09841841556204
 31
0.0
  0
LINE
  5
69C8
330
69B7
100
AcDbEntity
  8
虛線
 48
0.25
100
AcDbLine
 10
9.230939415453576
 20
15.79841841556197
 30
0.0
 11
9.530939415453758
 21
16.09841841556198
 31
0.0
  0
LINE
  5
69C9
330
69B7
100
AcDbEntity
  8
虛線
 48
0.25
100
AcDbLine
 10
11.23093941545358
 20
24.698418415562
 30
0.0
 11
11.46187952312948
 21
25.09841841556204
 31
0.0
  0
ENDBLK
  5
69CA
330
69B7
100
AcDbEntity
  8
0
 62
     1
 48
0.27
100
AcDbBlockEnd
  0
BLOCK
  5
69CE
330
69CB
100
AcDbEntity
  8
0
 62
     1
 48
0.27
100
AcDbBlockBegin
  2
A$C3310154B
 70
     0
 10
0.0
 20
0.0
 30
0.0
  3
A$C3310154B
  1

  0
LINE
  5
69CF
330
69CB
100
AcDbEntity
  8
虛線
 48
0.2
100
AcDbLine
 10
0.4999707651827521
 20
12.80115016654724
 30
0.0
 11
0.4999707651836616
 21
5.30113016654775
 31
0.0
  0
LINE
  5
69D0
330
69CB
100
AcDbEntity
  8
虛線
 48
0.2
100
AcDbLine
 10
6.499970765181842
 20
12.80111016654831
 30
0.0
 11
6.499970765183661
 21
5.301130166548432
 31
0.0
  0
LINE
  5
69D1
330
69CB
100
AcDbEntity
  8
虛線
 48
0.2
100
AcDbLine
 10
6.499970765183661
 20
5.301130166548432
 30
0.0
 11
0.4999707651836616
 21
5.30113016654775
 31
0.0
  0
LINE
  5
69D2
330
69CB
100
AcDbEntity
  8
中心線
 48
0.25
100
AcDbLine
 10
3.49999076518344
 20
15.30112016654811
 30
0.0
 11
3.499990765177699
 21
0.000000166540076
 31
0.0
  0
LINE
  5
69D3
330
69CB
100
AcDbEntity
  8
虛線
 48
0.2
100
AcDbLine
 10
5.999980765182044
 20
12.30112016654846
 30
0.0
 11
5.999980765187501
 21
2.30113016655747
 31
0.0
  0
LINE
  5
69D4
330
69CB
100
AcDbEntity
  8
虛線
 48
0.2
100
AcDbLine
 10
1.000000765181994
 20
12.30112016654812
 30
0.0
 11
1.000000765187905
 21
2.301130166554685
 31
0.0
  0
LINE
  5
69D5
330
69CB
100
AcDbEntity
  8
虛線
 48
0.2
100
AcDbLine
 10
5.999980765187501
 20
2.30113016655747
 30
0.0
 11
1.000000765187905
 21
2.301130166554685
 31
0.0
  0
LINE
  5
69D6
330
69CB
100
AcDbEntity
  8
虛線
 48
0.2
100
AcDbLine
 10
5.999980765182499
 20
12.3011201665484
 30
0.0
 11
1.000000765181994
 21
12.30112016654817
 31
0.0
  0
LINE
  5
69D7
330
69CB
100
AcDbEntity
  8
虛線
 48
0.2
100
AcDbLine
 10
5.999980765182044
 20
12.3011201665484
 30
0.0
 11
6.999980765182499
 21
13.30112016654863
 31
0.0
  0
LINE
  5
69D8
330
69CB
100
AcDbEntity
  8
虛線
 48
0.2
100
AcDbLine
 10
5.999980765187956
 20
2.301130166557413
 30
0.0
 11
3.499990765183611
 21
0.801130166544965
 31
0.0
  0
LINE
  5
69D9
330
69CB
100
AcDbEntity
  8
虛線
 48
0.2
100
AcDbLine
 10
1.000000765187905
 20
2.30113016657259
 30
0.0
 11
3.499990765178154
 21
0.801130166544965
 31
0.0
  0
LINE
  5
69DA
330
69CB
100
AcDbEntity
  8
虛線
 48
0.2
100
AcDbLine
 10
1.00000076518495
 20
12.30112016654834
 30
0.0
 11
0.0000007651844385
 21
13.30112016654854
 31
0.0
  0
ENDBLK
  5
69DB
330
69CB
100
AcDbEntity
  8
0
 62
     1
 48
0.27
100
AcDbBlockEnd
  0
ENDSEC
  0
SECTION
  2
ENTITIES
  0
LINE
  5
9D10
330
1E
100
AcDbEntity
  8
0
100
AcDbLine
 10
1160.875032833818
 20
1269.077957855504
 30
0.0
 11
1096.375032833818
 21
1269.077957855502
 31
0.0
  0
LINE
  5
9D11
330
1E
100
AcDbEntity
  8
0
100
AcDbLine
 10
1160.875032833818
 20
1228.677887665009
 30
0.0
 11
1096.375032833818
 21
1228.677887665011
 31
0.0
  0
LINE
  5
9D12
330
1E
100
AcDbEntity
  8
0
  6
Continuous
 62
     7
100
AcDbLine
 10
1096.375032833818
 20
1268.377953277757
 30
0.0
 11
1160.875032833818
 21
1268.377953277757
 31
0.0
  0
LINE
  5
9D13
330
1E
100
AcDbEntity
  8
0
  6
Continuous
 62
     7
100
AcDbLine
 10
1096.375032833818
 20
1229.377882705857
 30
0.0
 11
1160.875032833818
 21
1229.377882705856
 31
0.0
  0
LINE
  5
9D14
330
1E
100
AcDbEntity
  8
0
100
AcDbLine
 10
1160.875032833818
 20
1255.677913128094
 30
0.0
 11
1096.375032833818
 21
1255.677913128093
 31
0.0
  0
LINE
  5
9D15
330
1E
100
AcDbEntity
  8
0
100
AcDbLine
 10
1160.875032833818
 20
1242.077932392429
 30
0.0
 11
1096.375032833818
 21
1242.077932392427
 31
0.0
  0
LINE
  5
9D16
330
1E
100
AcDbEntity
  8
0
100
AcDbLine
 10
1160.875032833818
 20
1256.37792276026
 30
0.0
 11
1096.375032833818
 21
1256.37792276026
 31
0.0
  0
LINE
  5
9D17
330
1E
100
AcDbEntity
  8
0
100
AcDbLine
 10
1160.875032833818
 20
1241.377926574958
 30
0.0
 11
1096.375032833818
 21
1241.377926574958
 31
0.0
  0
CIRCLE
  5
9D19
330
1E
100
AcDbEntity
  8
0
 62
     0
100
AcDbCircle
 10
1106.125032833818
 20
1277.377922760258
 30
0.0
 40
3.375
  0
LINE
  5
9D1B
330
1E
100
AcDbEntity
  8
中心線
 48
0.2
100
AcDbLine
 10
1108.625032833818
 20
1255.377922760258
 30
0.0
 11
1108.625032833818
 21
1242.377922760258
 31
0.0
  0
CIRCLE
  5
9D1C
330
1E
100
AcDbEntity
  8
0
 62
     0
100
AcDbCircle
 10
1108.625032833818
 20
1248.877922760258
 30
0.0
 40
3.375
  0
CIRCLE
  5
9D1E
330
1E
100
AcDbEntity
  8
0
 62
     0
100
AcDbCircle
 10
1106.125032833818
 20
1220.377922760258
 30
0.0
 40
3.375
  0
CIRCLE
  5
9D20
330
1E
100
AcDbEntity
  8
0
 62
     0
100
AcDbCircle
 10
1151.125032833818
 20
1220.377922760258
 30
0.0
 40
3.375
  0
ARC
  5
9D21
330
1E
100
AcDbEntity
  8
標註線
 62
     1
100
AcDbCircle
 10
1151.125032833818
 20
1277.377922760264
 30
0.0
 40
4.0
100
AcDbArc
 50
169.9999999988309
 51
100.0000000011691
  0
CIRCLE
  5
9D22
330
1E
100
AcDbEntity
  8
0
 62
     0
100
AcDbCircle
 10
1151.125032833818
 20
1277.377922760258
 30
0.0
 40
3.375
  0
LINE
  5
9D24
330
1E
100
AcDbEntity
  8
中心線
 48
0.2
100
AcDbLine
 10
1148.625032833818
 20
1256.890700478789
 30
0.0
 11
1148.625032833818
 21
1240.865145041725
 31
0.0
  0
CIRCLE
  5
9D25
330
1E
100
AcDbEntity
  8
0
 62
     0
100
AcDbCircle
 10
1148.625032833818
 20
1248.877922760257
 30
0.0
 40
3.375
  0
LINE
  5
9D30
330
1E
100
AcDbEntity
  8
中心線
 48
0.2
100
AcDbLine
 10
1106.125032833818
 20
1283.877922760261
 30
0.0
 11
1106.125032833818
 21
1270.87792276026
 31
0.0
  0
LINE
  5
9D31
330
1E
100
AcDbEntity
  8
中心線
 48
0.2
100
AcDbLine
 10
1099.625032833818
 20
1277.37792276026
 30
0.0
 11
1112.625032833818
 21
1277.37792276026
 31
0.0
  0
LINE
  5
9D32
330
1E
100
AcDbEntity
  8
中心線
 48
0.2
100
AcDbLine
 10
1106.125032833818
 20
1226.877922760259
 30
0.0
 11
1106.125032833818
 21
1213.87792276026
 31
0.0
  0
LINE
  5
9D33
330
1E
100
AcDbEntity
  8
中心線
 48
0.2
100
AcDbLine
 10
1099.625032833818
 20
1220.37792276026
 30
0.0
 11
1112.625032833818
 21
1220.37792276026
 31
0.0
  0
LINE
  5
9D34
330
1E
100
AcDbEntity
  8
中心線
 48
0.2
100
AcDbLine
 10
1151.125032833818
 20
1226.877922760259
 30
0.0
 11
1151.125032833818
 21
1213.87792276026
 31
0.0
  0
LINE
  5
9D35
330
1E
100
AcDbEntity
  8
中心線
 48
0.2
100
AcDbLine
 10
1144.625032833818
 20
1220.37792276026
 30
0.0
 11
1157.625032833818
 21
1220.37792276026
 31
0.0
  0
LINE
  5
9D36
330
1E
100
AcDbEntity
  8
中心線
 48
0.2
100
AcDbLine
 10
1151.125032833818
 20
1283.877922760261
 30
0.0
 11
1151.125032833818
 21
1270.87792276026
 31
0.0
  0
LINE
  5
9D37
330
1E
100
AcDbEntity
  8
中心線
 48
0.2
100
AcDbLine
 10
1144.625032833818
 20
1277.37792276026
 30
0.0
 11
1157.625032833818
 21
1277.37792276026
 31
0.0
  0
LINE
  5
9D3C
330
1E
100
AcDbEntity
  8
0
  6
Continuous
 62
     7
100
AcDbLine
 10
1096.375032833818
 20
1213.87792276026
 30
0.0
 11
1160.875032833818
 21
1213.87792276026
 31
0.0
  0
LINE
  5
9D3D
330
1E
100
AcDbEntity
  8
0
  6
Continuous
 62
     7
100
AcDbLine
 10
1096.375032833818
 20
1215.37792276026
 30
0.0
 11
1160.875032833818
 21
1215.37792276026
 31
0.0
  0
LINE
  5
9D3E
330
1E
100
AcDbEntity
  8
0
  6
Continuous
 62
     7
100
AcDbLine
 10
1096.375032833818
 20
1213.87792276026
 30
0.0
 11
1096.375032833818
 21
1283.87792276026
 31
0.0
  0
LINE
  5
9D3F
330
1E
100
AcDbEntity
  8
0
  6
Continuous
 62
     7
100
AcDbLine
 10
1160.875032833818
 20
1213.87792276026
 30
0.0
 11
1160.875032833818
 21
1283.87792276026
 31
0.0
  0
LINE
  5
9D40
330
1E
100
AcDbEntity
  8
0
  6
Continuous
 62
     7
100
AcDbLine
 10
1096.375032833818
 20
1282.37792276026
 30
0.0
 11
1160.875032833818
 21
1282.37792276026
 31
0.0
  0
LINE
  5
9D41
330
1E
100
AcDbEntity
  8
0
  6
Continuous
 62
     7
100
AcDbLine
 10
1096.375032833818
 20
1283.87792276026
 30
0.0
 11
1160.875032833818
 21
1283.87792276026
 31
0.0
  0
LINE
  5
9D42
330
1E
100
AcDbEntity
  8
0
  6
Continuous
 62
     7
100
AcDbLine
 10
1096.375032833818
 20
1166.210806203117
 30
0.0
 11
1160.875032833818
 21
1166.210806203117
 31
0.0
  0
LINE
  5
9D43
330
1E
100
AcDbEntity
  8
虛線
 48
0.3
100
AcDbLine
 10
1145.250032833818
 20
1165.410806203121
 30
0.0
 11
1144.450032833817
 21
1166.210806203121
 31
0.0
  0
LINE
  5
9D44
330
1E
100
AcDbEntity
  8
虛線
 48
0.3
100
AcDbLine
 10
1145.250032833819
 20
1165.41080620312
 30
0.0
 11
1145.25003283382
 21
1161.210821461817
 31
0.0
  0
LINE
  5
9D45
330
1E
100
AcDbEntity
  8
虛線
 48
0.3
100
AcDbLine
 10
1144.625057247881
 20
1166.035781789058
 30
0.0
 11
1144.625057247882
 21
1161.210821461817
 31
0.0
  0
LINE
  5
9D46
330
1E
100
AcDbEntity
  8
虛線
 48
0.3
100
AcDbLine
 10
1152.000032833819
 20
1165.410806203121
 30
0.0
 11
1145.250032833819
 21
1165.410806203121
 31
0.0
  0
LINE
  5
9D47
330
1E
100
AcDbEntity
  8
虛線
 48
0.3
100
AcDbLine
 10
1152.000032833818
 20
1165.410806203121
 30
0.0
 11
1152.800032833817
 21
1166.210806203122
 31
0.0
  0
LINE
  5
9D48
330
1E
100
AcDbEntity
  8
虛線
 48
0.3
100
AcDbLine
 10
1152.00003283382
 20
1165.410806203121
 30
0.0
 11
1152.000032833821
 21
1161.210821461817
 31
0.0
  0
LINE
  5
9D49
330
1E
100
AcDbEntity
  8
虛線
 48
0.3
100
AcDbLine
 10
1152.625008419757
 20
1166.03578178906
 30
0.0
 11
1152.625008419757
 21
1161.210821461817
 31
0.0
  0
LINE
  5
9D4A
330
1E
100
AcDbEntity
  8
中心線
 48
0.2
100
AcDbLine
 10
1148.625032833817
 20
1168.210806203117
 30
0.0
 11
1148.625032833819
 21
1153.25094411983
 31
0.0
  0
LINE
  5
9D4B
330
1E
100
AcDbEntity
  8
中心線
 48
0.2
100
AcDbLine
 10
1151.125032833817
 20
1168.210806203117
 30
0.0
 11
1151.12503283382
 21
1135.710826203117
 31
0.0
  0
LINE
  5
9D4C
330
1E
100
AcDbEntity
  8
中心線
 48
0.2
100
AcDbLine
 10
1108.625032833818
 20
1168.210806203117
 30
0.0
 11
1108.625032833816
 21
1153.25094411983
 31
0.0
  0
LINE
  5
9D4D
330
1E
100
AcDbEntity
  8
中心線
 48
0.2
100
AcDbLine
 10
1106.125032833818
 20
1168.210806203117
 30
0.0
 11
1106.125032833815
 21
1135.710826203117
 31
0.0
  0
LINE
  5
9D4E
330
1E
100
AcDbEntity
  8
虛線
 48
0.3
100
AcDbLine
 10
1105.250032833817
 20
1165.410806203117
 30
0.0
 11
1104.450032833816
 21
1166.210806203117
 31
0.0
  0
LINE
  5
9D4F
330
1E
100
AcDbEntity
  8
虛線
 48
0.3
100
AcDbLine
 10
1105.250032833818
 20
1165.410806203116
 30
0.0
 11
1105.250032833819
 21
1161.210821461817
 31
0.0
  0
LINE
  5
9D50
330
1E
100
AcDbEntity
  8
虛線
 48
0.3
100
AcDbLine
 10
1104.62505724788
 20
1166.035781789054
 30
0.0
 11
1104.625057247881
 21
1161.210821461817
 31
0.0
  0
LINE
  5
9D51
330
1E
100
AcDbEntity
  8
虛線
 48
0.3
100
AcDbLine
 10
1112.000032833818
 20
1165.410806203117
 30
0.0
 11
1105.250032833818
 21
1165.410806203117
 31
0.0
  0
LINE
  5
9D52
330
1E
100
AcDbEntity
  8
虛線
 48
0.3
100
AcDbLine
 10
1112.000032833817
 20
1165.410806203117
 30
0.0
 11
1112.800032833816
 21
1166.210806203118
 31
0.0
  0
LINE
  5
9D53
330
1E
100
AcDbEntity
  8
虛線
 48
0.3
100
AcDbLine
 10
1112.000032833819
 20
1165.410806203117
 30
0.0
 11
1112.00003283382
 21
1161.210821461817
 31
0.0
  0
LINE
  5
9D54
330
1E
100
AcDbEntity
  8
虛線
 48
0.3
100
AcDbLine
 10
1112.625008419756
 20
1166.035781789056
 30
0.0
 11
1112.625008419756
 21
1161.210821461817
 31
0.0
  0
LINE
  5
9D55
330
1E
100
AcDbEntity
  8
虛線
 48
0.2
100
AcDbLine
 10
1096.375032833818
 20
1155.210870290017
 30
0.0
 11
1160.875032833818
 21
1155.210870290017
 31
0.0
  0
LINE
  5
9D56
330
1E
100
AcDbEntity
  8
虛線
 48
0.3
100
AcDbLine
 10
1102.875032833818
 20
1155.210870290017
 30
0.0
 11
1102.875032833818
 21
1161.210821461817
 31
0.0
  0
LINE
  5
9D57
330
1E
100
AcDbEntity
  8
虛線
 48
0.3
100
AcDbLine
 10
1114.375032833818
 20
1155.210870290017
 30
0.0
 11
1114.375032833818
 21
1161.210821461817
 31
0.0
  0
LINE
  5
9D58
330
1E
100
AcDbEntity
  8
虛線
 48
0.3
100
AcDbLine
 10
1154.375032833818
 20
1161.210821461817
 30
0.0
 11
1142.875032833818
 21
1161.210821461817
 31
0.0
  0
LINE
  5
9D59
330
1E
100
AcDbEntity
  8
虛線
 48
0.3
100
AcDbLine
 10
1114.375032833818
 20
1161.210821461817
 30
0.0
 11
1102.875032833818
 21
1161.210821461817
 31
0.0
  0
LINE
  5
9D5A
330
1E
100
AcDbEntity
  8
虛線
 48
0.3
100
AcDbLine
 10
1142.875032833818
 20
1155.210870290017
 30
0.0
 11
1142.875032833818
 21
1161.210821461817
 31
0.0
  0
LINE
  5
9D5B
330
1E
100
AcDbEntity
  8
虛線
 48
0.3
100
AcDbLine
 10
1154.375032833818
 20
1155.210870290017
 30
0.0
 11
1154.375032833818
 21
1161.210821461817
 31
0.0
  0
LINE
  5
9D5C
330
1E
100
AcDbEntity
  8
虛線
 48
0.3
100
AcDbLine
 10
1102.750032833817
 20
1165.410806203117
 30
0.0
 11
1101.950032833816
 21
1166.210806203117
 31
0.0
  0
LINE
  5
9D5D
330
1E
100
AcDbEntity
  8
虛線
 48
0.3
100
AcDbLine
 10
1102.750032833818
 20
1165.410806203116
 30
0.0
 11
1102.75003283382
 21
1156.210806203117
 31
0.0
  0
LINE
  5
9D5E
330
1E
100
AcDbEntity
  8
虛線
 48
0.3
100
AcDbLine
 10
1102.12505724788
 20
1166.035781789054
 30
0.0
 11
1102.125057247882
 21
1156.210806203117
 31
0.0
  0
LINE
  5
9D5F
330
1E
100
AcDbEntity
  8
虛線
 48
0.3
100
AcDbLine
 10
1109.500032833818
 20
1165.410806203117
 30
0.0
 11
1102.750032833818
 21
1165.410806203117
 31
0.0
  0
LINE
  5
9D60
330
1E
100
AcDbEntity
  8
虛線
 48
0.3
100
AcDbLine
 10
1109.500032833817
 20
1165.410806203117
 30
0.0
 11
1110.300032833816
 21
1166.210806203118
 31
0.0
  0
LINE
  5
9D61
330
1E
100
AcDbEntity
  8
虛線
 48
0.3
100
AcDbLine
 10
1109.500032833819
 20
1165.410806203117
 30
0.0
 11
1109.500032833821
 21
1156.210806203117
 31
0.0
  0
LINE
  5
9D62
330
1E
100
AcDbEntity
  8
虛線
 48
0.3
100
AcDbLine
 10
1110.125008419756
 20
1166.035781789056
 30
0.0
 11
1110.125008419757
 21
1156.210806203117
 31
0.0
  0
LINE
  5
9D63
330
1E
100
AcDbEntity
  8
虛線
 48
0.3
100
AcDbLine
 10
1147.750032833817
 20
1165.410806203117
 30
0.0
 11
1146.950032833816
 21
1166.210806203117
 31
0.0
  0
LINE
  5
9D64
330
1E
100
AcDbEntity
  8
虛線
 48
0.3
100
AcDbLine
 10
1147.750032833818
 20
1165.410806203116
 30
0.0
 11
1147.75003283382
 21
1156.210806203117
 31
0.0
  0
LINE
  5
9D65
330
1E
100
AcDbEntity
  8
虛線
 48
0.3
100
AcDbLine
 10
1147.12505724788
 20
1166.035781789054
 30
0.0
 11
1147.125057247882
 21
1156.210806203117
 31
0.0
  0
LINE
  5
9D66
330
1E
100
AcDbEntity
  8
虛線
 48
0.3
100
AcDbLine
 10
1154.500032833818
 20
1165.410806203117
 30
0.0
 11
1147.750032833818
 21
1165.410806203117
 31
0.0
  0
LINE
  5
9D67
330
1E
100
AcDbEntity
  8
虛線
 48
0.3
100
AcDbLine
 10
1154.500032833817
 20
1165.410806203117
 30
0.0
 11
1155.300032833816
 21
1166.210806203118
 31
0.0
  0
LINE
  5
9D68
330
1E
100
AcDbEntity
  8
虛線
 48
0.3
100
AcDbLine
 10
1154.500032833819
 20
1165.410806203117
 30
0.0
 11
1154.500032833821
 21
1156.210806203117
 31
0.0
  0
LINE
  5
9D69
330
1E
100
AcDbEntity
  8
虛線
 48
0.3
100
AcDbLine
 10
1155.125008419756
 20
1166.035781789056
 30
0.0
 11
1155.125008419757
 21
1156.210806203117
 31
0.0
  0
LINE
  5
9D6A
330
1E
100
AcDbEntity
  8
0
  6
Continuous
 62
     7
100
AcDbLine
 10
1100.375032833818
 20
1139.872388572117
 30
0.0
 11
1100.375032833818
 21
1156.210806203117
 31
0.0
  0
LINE
  5
9D6B
330
1E
100
AcDbEntity
  8
0
  6
Continuous
 62
     7
100
AcDbLine
 10
1111.875032833818
 20
1139.872388572117
 30
0.0
 11
1111.875032833818
 21
1156.210806203117
 31
0.0
  0
LINE
  5
9D6C
330
1E
100
AcDbEntity
  8
0
  6
Continuous
 62
     7
100
AcDbLine
 10
1096.375032833818
 20
1146.372388572117
 30
0.0
 11
1100.375032833818
 21
1146.372388572117
 31
0.0
  0
LINE
  5
9D6D
330
1E
100
AcDbEntity
  8
0
  6
Continuous
 62
     7
100
AcDbLine
 10
1111.875032833818
 20
1146.372388572117
 30
0.0
 11
1145.375032833818
 21
1146.372388572117
 31
0.0
  0
LINE
  5
9D6E
330
1E
100
AcDbEntity
  8
0
  6
Continuous
 62
     7
100
AcDbLine
 10
1156.875032833818
 20
1146.372388572117
 30
0.0
 11
1160.875032833818
 21
1146.372388572117
 31
0.0
  0
LINE
  5
9D6F
330
1E
100
AcDbEntity
  8
0
  6
Continuous
 62
     7
100
AcDbLine
 10
1100.375032833818
 20
1156.210806203117
 30
0.0
 11
1111.875032833818
 21
1156.210806203117
 31
0.0
  0
LINE
  5
9D70
330
1E
100
AcDbEntity
  8
0
  6
Continuous
 62
     7
100
AcDbLine
 10
1145.375032833818
 20
1156.210806203117
 30
0.0
 11
1156.875032833818
 21
1156.210806203117
 31
0.0
  0
LINE
  5
9D71
330
1E
100
AcDbEntity
  8
0
  6
Continuous
 62
     7
100
AcDbLine
 10
1096.375032833818
 20
1164.710806203117
 30
0.0
 11
1160.875032833818
 21
1164.710806203117
 31
0.0
  0
LINE
  5
9D72
330
1E
100
AcDbEntity
  8
0
  6
Continuous
 62
     7
100
AcDbLine
 10
1145.375032833818
 20
1139.872388572117
 30
0.0
 11
1145.375032833818
 21
1156.210806203117
 31
0.0
  0
LINE
  5
9D73
330
1E
100
AcDbEntity
  8
0
  6
Continuous
 62
     7
100
AcDbLine
 10
1156.875032833818
 20
1139.872388572117
 30
0.0
 11
1156.875032833818
 21
1156.210806203117
 31
0.0
  0
SPLINE
  5
9D74
330
1E
100
AcDbEntity
  8
0
  6
Continuous
 62
     7
100
AcDbSpline
210
0.0
220
0.0
230
1.0
 70
     8
 71
     3
 72
    11
 73
     7
 74
     5
 42
0.0000000001
 43
0.0000000001
 44
0.0000000001
 12
0.0
 22
-1.0
 32
0.0
 13
-0.7566477034384361
 23
-0.6538227992975929
 33
0.0
 40
0.0
 40
0.0
 40
0.0
 40
0.0
 40
1.285532115959816
 40
2.50883250309046
 40
3.647012039059266
 40
4.710752318783725
 40
4.710752318783725
 40
4.710752318783725
 40
4.710752318783725
 10
1156.875032833818
 20
1139.872388572117
 30
0.0
 10
1156.875032833818
 20
1139.443877866797
 30
0.0
 10
1156.776394096755
 20
1138.604251883185
 30
0.0
 10
1156.360880924723
 20
1137.451484281489
 30
0.0
 10
1155.749475332845
 20
1136.477799437101
 30
0.0
 10
1155.239350443254
 20
1135.942658752256
 30
0.0
 10
1154.971058230018
 20
1135.710826203117
 30
0.0
 11
1156.875032833818
 21
1139.872388572117
 31
0.0
 11
1156.724797122818
 21
1138.595665402317
 31
0.0
 11
1156.310265927918
 21
1137.444740676017
 31
0.0
 11
1155.704905419018
 21
1136.480898723017
 31
0.0
 11
1154.971058230018
 21
1135.710826203117
 31
0.0
  0
SPLINE
  5
9D75
330
1E
100
AcDbEntity
  8
0
  6
Continuous
 62
     7
100
AcDbSpline
210
0.0
220
0.0
230
1.0
 70
     8
 71
     3
 72
    11
 73
     7
 74
     5
 42
0.0000000001
 43
0.0000000001
 44
0.0000000001
 12
0.0
 22
-1.0
 32
0.0
 13
-0.7566477034384361
 23
-0.6538227992975929
 33
0.0
 40
0.0
 40
0.0
 40
0.0
 40
0.0
 40
1.285532115959816
 40
2.50883250309046
 40
3.647012039059266
 40
4.710752318783725
 40
4.710752318783725
 40
4.710752318783725
 40
4.710752318783725
 10
1111.875032833818
 20
1139.872388572117
 30
0.0
 10
1111.875032833818
 20
1139.443877866797
 30
0.0
 10
1111.776394096755
 20
1138.604251883185
 30
0.0
 10
1111.360880924724
 20
1137.451484281489
 30
0.0
 10
1110.749475332845
 20
1136.477799437101
 30
0.0
 10
1110.239350443254
 20
1135.942658752256
 30
0.0
 10
1109.971058230018
 20
1135.710826203117
 30
0.0
 11
1111.875032833818
 21
1139.872388572117
 31
0.0
 11
1111.724797122818
 21
1138.595665402317
 31
0.0
 11
1111.310265927917
 21
1137.444740676017
 31
0.0
 11
1110.704905419018
 21
1136.480898723017
 31
0.0
 11
1109.971058230018
 21
1135.710826203117
 31
0.0
  0
SPLINE
  5
9D76
330
1E
100
AcDbEntity
  8
0
  6
Continuous
 62
     7
100
AcDbSpline
210
0.0
220
0.0
230
1.0
 70
     8
 71
     3
 72
    11
 73
     7
 74
     5
 42
0.0000000001
 43
0.0000000001
 44
0.0000000001
 12
-0.7566477034361324
 22
0.653822799300259
 32
0.0
 13
0.0
 23
1.0
 33
0.0
 40
0.0
 40
0.0
 40
0.0
 40
0.0
 40
1.064889630837236
 40
2.20378178206538
 40
3.426488467256814
 40
4.710755476758089
 40
4.710755476758089
 40
4.710755476758089
 40
4.710755476758089
 10
1102.279007437718
 20
1135.710826203117
 30
0.0
 10
1102.010425339856
 20
1135.94290924291
 30
0.0
 10
1101.499916842476
 20
1136.478564508001
 30
0.0
 10
1100.88854795818
 20
1137.452787369871
 30
0.0
 10
1100.473499470913
 20
1138.605302871325
 30
0.0
 10
1100.375032833817
 20
1139.44429956895
 30
0.0
 10
1100.375032833817
 20
1139.872388572117
 30
0.0
 11
1102.279007437718
 21
1135.710826203117
 31
0.0
 11
1101.544448273618
 21
1136.481807889217
 31
0.0
 11
1100.938974081218
 21
1137.446419901617
 31
0.0
 11
1100.524972993118
 21
1138.596904467817
 31
0.0
 11
1100.375032833817
 21
1139.872388572117
 31
0.0
  0
SPLINE
  5
9D77
330
1E
100
AcDbEntity
  8
0
  6
Continuous
 62
     7
100
AcDbSpline
210
0.0
220
0.0
230
1.0
 70
     8
 71
     3
 72
    11
 73
     7
 74
     5
 42
0.0000000001
 43
0.0000000001
 44
0.0000000001
 12
-0.7566477034361324
 22
0.653822799300259
 32
0.0
 13
0.0
 23
1.0
 33
0.0
 40
0.0
 40
0.0
 40
0.0
 40
0.0
 40
1.064889630837236
 40
2.20378178206538
 40
3.426488467256814
 40
4.710755476758089
 40
4.710755476758089
 40
4.710755476758089
 40
4.710755476758089
 10
1147.279007437718
 20
1135.710826203117
 30
0.0
 10
1147.010425339856
 20
1135.94290924291
 30
0.0
 10
1146.499916842476
 20
1136.478564508001
 30
0.0
 10
1145.88854795818
 20
1137.452787369871
 30
0.0
 10
1145.473499470913
 20
1138.605302871325
 30
0.0
 10
1145.375032833818
 20
1139.44429956895
 30
0.0
 10
1145.375032833818
 20
1139.872388572117
 30
0.0
 11
1147.279007437718
 21
1135.710826203117
 31
0.0
 11
1146.544448273618
 21
1136.481807889217
 31
0.0
 11
1145.938974081218
 21
1137.446419901617
 31
0.0
 11
1145.524972993118
 21
1138.596904467817
 31
0.0
 11
1145.375032833818
 21
1139.872388572117
 31
0.0
  0
LINE
  5
9D78
330
1E
100
AcDbEntity
  8
中心線
 48
0.2
100
AcDbLine
 10
1077.011306135439
 20
1267.37792276026
 30
0.0
 11
1082.675032833818
 21
1267.37792276026
 31
0.0
  0
ARC
  5
9D79
330
1E
100
AcDbEntity
  8
0
 62
     0
 48
0.27
100
AcDbCircle
 10
1082.175032833817
 20
1267.377922760209
 30
0.0
 40
3.700000000000045
100
AcDbArc
 50
132.5066423027087
 51
227.4933576972912
  0
LINE
  5
9D7A
330
1E
100
AcDbEntity
  8
中心線
 48
0.2
100
AcDbLine
 10
1077.011306135439
 20
1230.37792276026
 30
0.0
 11
1082.675032833818
 21
1230.37792276026
 31
0.0
  0
ARC
  5
9D7B
330
1E
100
AcDbEntity
  8
0
 62
     0
 48
0.27
100
AcDbCircle
 10
1082.175032833817
 20
1230.377922760209
 30
0.0
 40
3.700000000000045
100
AcDbArc
 50
132.5066423027087
 51
227.4933576972912
  0
LINE
  5
9D7C
330
1E
100
AcDbEntity
  8
中心線
 48
0.2
100
AcDbLine
 10
1180.238759532196
 20
1267.37792276026
 30
0.0
 11
1174.575032833818
 21
1267.37792276026
 31
0.0
  0
ARC
  5
9D7D
330
1E
100
AcDbEntity
  8
0
 62
     0
 48
0.27
100
AcDbCircle
 10
1175.075032833818
 20
1267.377922760209
 30
0.0
 40
3.700000000000045
100
AcDbArc
 50
312.5066423027088
 51
47.49335769729123
  0
LINE
  5
9D7E
330
1E
100
AcDbEntity
  8
中心線
 48
0.2
100
AcDbLine
 10
1180.238759532196
 20
1230.37792276026
 30
0.0
 11
1174.575032833818
 21
1230.37792276026
 31
0.0
  0
ARC
  5
9D7F
330
1E
100
AcDbEntity
  8
0
 62
     0
 48
0.27
100
AcDbCircle
 10
1175.075032833818
 20
1230.377922760209
 30
0.0
 40
3.700000000000045
100
AcDbArc
 50
312.5066423027088
 51
47.49335769729123
  0
LINE
  5
9D80
330
1E
100
AcDbEntity
  8
中心線
 48
0.2
100
AcDbLine
 10
1180.238759532196
 20
1154.99603903049
 30
0.0
 11
1174.575032833818
 21
1154.99603903049
 31
0.0
  0
LINE
  5
9D81
330
1E
100
AcDbEntity
  8
中心線
 48
0.2
100
AcDbLine
 10
1077.011306135439
 20
1154.99603903049
 30
0.0
 11
1082.675032833818
 21
1154.99603903049
 31
0.0
  0
ARC
  5
9D82
330
1E
100
AcDbEntity
  8
0
 62
     0
 48
0.27
100
AcDbCircle
 10
1082.175032833817
 20
1154.996039030439
 30
0.0
 40
3.700000000000045
100
AcDbArc
 50
132.5066423027087
 51
227.4933576972912
  0
ARC
  5
9D83
330
1E
100
AcDbEntity
  8
0
 62
     0
 48
0.27
100
AcDbCircle
 10
1175.075032833818
 20
1154.996039030439
 30
0.0
 40
3.700000000000045
100
AcDbArc
 50
312.5066423027088
 51
47.49335769729123
  0
LINE
  5
9D84
330
1E
100
AcDbEntity
  8
0
 62
     0
 48
0.27
100
AcDbLine
 10
1083.175032833818
 20
1145.845286510417
 30
0.0
 11
1083.175032833818
 21
1143.345286510417
 31
0.0
  0
ARC
  5
9D85
330
1E
100
AcDbEntity
  8
0
 62
     0
 48
0.27
100
AcDbCircle
 10
1084.175032833817
 20
1143.345286510417
 30
0.0
 40
1.000000000000014
100
AcDbArc
 50
180.0
 51
270.0
  0
ARC
  5
9D86
330
1E
100
AcDbEntity
  8
0
 62
     0
 48
0.27
100
AcDbCircle
 10
1084.175032833817
 20
1145.845286510417
 30
0.0
 40
1.000000000000028
100
AcDbArc
 50
90.0
 51
180.0
  0
LINE
  5
9D87
330
1E
100
AcDbEntity
  8
0
  6
Continuous
 62
     7
100
AcDbLine
 10
1084.875032833818
 20
1146.845286510417
 30
0.0
 11
1084.175032833817
 21
1146.845286510417
 31
0.0
  0
LINE
  5
9D88
330
1E
100
AcDbEntity
  8
0
  6
Continuous
 62
     7
100
AcDbLine
 10
1084.175032833817
 20
1142.345286510417
 30
0.0
 11
1084.875032833818
 21
1142.345286510417
 31
0.0
  0
LINE
  5
9D89
330
1E
100
AcDbEntity
  8
0
 62
     0
 48
0.27
100
AcDbLine
 10
1174.075032833818
 20
1145.845286510417
 30
0.0
 11
1174.075032833818
 21
1143.345286510417
 31
0.0
  0
ARC
  5
9D8A
330
1E
100
AcDbEntity
  8
0
 62
     0
 48
0.27
100
AcDbCircle
 10
1173.075032833818
 20
1143.345286510417
 30
0.0
 40
1.000000000000014
100
AcDbArc
 50
270.0
 51
0.0
  0
ARC
  5
9D8B
330
1E
100
AcDbEntity
  8
0
 62
     0
 48
0.27
100
AcDbCircle
 10
1173.075032833818
 20
1145.845286510417
 30
0.0
 40
1.000000000000028
100
AcDbArc
 50
0.0
 51
89.99999999998697
  0
LINE
  5
9D8C
330
1E
100
AcDbEntity
  8
0
  6
Continuous
 62
     7
100
AcDbLine
 10
1172.375032833818
 20
1146.845286510417
 30
0.0
 11
1173.075032833818
 21
1146.845286510417
 31
0.0
  0
LINE
  5
9D8D
330
1E
100
AcDbEntity
  8
0
  6
Continuous
 62
     7
100
AcDbLine
 10
1173.075032833818
 20
1142.345286510417
 30
0.0
 11
1172.375032833818
 21
1142.345286510417
 31
0.0
  0
LINE
  5
9D8E
330
1E
100
AcDbEntity
  8
中心線
 48
0.2
100
AcDbLine
 10
1218.625032833823
 20
1241.631005254533
 30
0.0
 11
1218.625032833823
 21
1256.124840265986
 31
0.0
  0
LINE
  5
9D8F
330
1E
100
AcDbEntity
  8
中心線
 48
0.2
100
AcDbLine
 10
1211.378115328097
 20
1248.877922760259
 30
0.0
 11
1225.871950339549
 21
1248.877922760259
 31
0.0
  0
CIRCLE
  5
9D90
330
1E
100
AcDbEntity
  8
0
 48
0.27
100
AcDbCircle
 10
1218.625032833823
 20
1248.877922760259
 30
0.0
 40
5.5
  0
CIRCLE
  5
9D91
330
1E
100
AcDbEntity
  8
0
 48
0.27
100
AcDbCircle
 10
1218.625032833823
 20
1248.877922760259
 30
0.0
 40
3.5
  0
LINE
  5
9D92
330
1E
100
AcDbEntity
  8
中心線
 48
0.2
100
AcDbLine
 10
1188.625032833823
 20
1241.631005254533
 30
0.0
 11
1188.625032833823
 21
1256.124840265986
 31
0.0
  0
LINE
  5
9D93
330
1E
100
AcDbEntity
  8
中心線
 48
0.2
100
AcDbLine
 10
1181.378115328097
 20
1248.877922760259
 30
0.0
 11
1195.871950339549
 21
1248.877922760259
 31
0.0
  0
CIRCLE
  5
9D94
330
1E
100
AcDbEntity
  8
0
 48
0.27
100
AcDbCircle
 10
1188.625032833823
 20
1248.877922760259
 30
0.0
 40
5.5
  0
CIRCLE
  5
9D95
330
1E
100
AcDbEntity
  8
0
 48
0.27
100
AcDbCircle
 10
1188.625032833823
 20
1248.877922760259
 30
0.0
 40
3.5
  0
LINE
  5
9D97
330
1E
100
AcDbEntity
  8
中心線
 48
0.2
100
AcDbLine
 10
1061.378115328097
 20
1248.877922760259
 30
0.0
 11
1068.313980011445
 21
1248.877922760259
 31
0.0
  0
ARC
  5
9D98
330
1E
100
AcDbEntity
  8
0
 48
0.27
100
AcDbCircle
 10
1068.625032833823
 20
1248.877922760259
 30
0.0
 40
5.5
100
AcDbArc
 50
46.65778643401472
 51
256.908598044017
  0
ARC
  5
9D99
330
1E
100
AcDbEntity
  8
0
 48
0.27
100
AcDbCircle
 10
1068.625032833823
 20
1248.877922760259
 30
0.0
 40
3.5
100
AcDbArc
 50
67.55610857292433
 51
237.3490782601302
  0
LINE
  5
9D9A
330
1E
100
AcDbEntity
  8
中心線
 48
0.2
100
AcDbLine
 10
1038.625032833823
 20
1241.631005254533
 30
0.0
 11
1038.625032833823
 21
1256.124840265986
 31
0.0
  0
LINE
  5
9D9B
330
1E
100
AcDbEntity
  8
中心線
 48
0.2
100
AcDbLine
 10
1031.378115328097
 20
1248.877922760259
 30
0.0
 11
1045.871950339549
 21
1248.877922760259
 31
0.0
  0
CIRCLE
  5
9D9C
330
1E
100
AcDbEntity
  8
0
 48
0.27
100
AcDbCircle
 10
1038.625032833823
 20
1248.877922760259
 30
0.0
 40
5.5
  0
CIRCLE
  5
9D9D
330
1E
100
AcDbEntity
  8
0
 48
0.27
100
AcDbCircle
 10
1038.625032833823
 20
1248.877922760259
 30
0.0
 40
3.5
  0
LINE
  5
9D9E
330
1E
100
AcDbEntity
  8
0
 62
     0
 48
0.27
100
AcDbLine
 10
1238.625032833817
 20
1237.37793038966
 30
0.0
 11
1238.625032833818
 21
1260.37791513086
 31
0.0
  0
LINE
  5
9D9F
330
1E
100
AcDbEntity
  8
0
 62
     0
 48
0.27
100
AcDbLine
 10
1018.625032833818
 20
1237.37793038966
 30
0.0
 11
1018.625032833818
 21
1260.37791513086
 31
0.0
  0
INSERT
  5
9DA0
330
1E
100
AcDbEntity
  8
0
 62
     1
 48
0.27
100
AcDbBlockReference
  2
A$C51E2538E
 10
1212.894093418367
 20
1128.712418305132
 30
0.0
  0
INSERT
  5
9DA1
330
1E
100
AcDbEntity
  8
0
 62
     1
 48
0.27
100
AcDbBlockReference
  2
A$C51E2538E
 10
1182.894093418368
 20
1128.712418305132
 30
0.0
  0
LINE
  5
9DA2
330
1E
100
AcDbEntity
  8
虛線
 48
0.25
100
AcDbLine
 10
1162.12503283382
 20
1130.71080620312
 30
0.0
 11
1162.625032833819
 21
1130.210806203121
 31
0.0
  0
LINE
  5
9DA3
330
1E
100
AcDbEntity
  8
虛線
 48
0.25
100
AcDbLine
 10
1155.125032833828
 20
1130.710806203119
 30
0.0
 11
1154.625032833828
 21
1130.21080620312
 31
0.0
  0
LINE
  5
9DA4
330
1E
100
AcDbEntity
  8
中心線
 48
0.25
100
AcDbLine
 10
1158.625032833819
 20
1135.710836203118
 30
0.0
 11
1158.625032833817
 21
1128.712418305136
 31
0.0
  0
LINE
  5
9DA5
330
1E
100
AcDbEntity
  8
虛線
 48
0.25
100
AcDbLine
 10
1155.125032833825
 20
1135.710836203118
 30
0.0
 11
1155.125032833828
 21
1130.710806203119
 31
0.0
  0
LINE
  5
9DA6
330
1E
100
AcDbEntity
  8
虛線
 48
0.25
100
AcDbLine
 10
1162.125032833821
 20
1135.710836203118
 30
0.0
 11
1162.12503283382
 21
1130.71080620312
 31
0.0
  0
LINE
  5
9DA7
330
1E
100
AcDbEntity
  8
虛線
 48
0.25
100
AcDbLine
 10
1162.12503283382
 20
1130.71080620312
 30
0.0
 11
1155.125032833828
 21
1130.710806203119
 31
0.0
  0
LINE
  5
9DA8
330
1E
100
AcDbEntity
  8
虛線
 48
0.25
100
AcDbLine
 10
1132.12503283382
 20
1130.71080620312
 30
0.0
 11
1132.625032833819
 21
1130.210806203121
 31
0.0
  0
LINE
  5
9DA9
330
1E
100
AcDbEntity
  8
虛線
 48
0.25
100
AcDbLine
 10
1125.125032833827
 20
1130.710806203119
 30
0.0
 11
1124.625032833828
 21
1130.21080620312
 31
0.0
  0
LINE
  5
9DAA
330
1E
100
AcDbEntity
  8
中心線
 48
0.25
100
AcDbLine
 10
1128.625032833819
 20
1135.710836203118
 30
0.0
 11
1128.625032833817
 21
1128.712418305136
 31
0.0
  0
LINE
  5
9DAB
330
1E
100
AcDbEntity
  8
虛線
 48
0.25
100
AcDbLine
 10
1125.125032833825
 20
1135.710836203118
 30
0.0
 11
1125.125032833827
 21
1130.710806203119
 31
0.0
  0
LINE
  5
9DAC
330
1E
100
AcDbEntity
  8
虛線
 48
0.25
100
AcDbLine
 10
1132.125032833821
 20
1135.710836203118
 30
0.0
 11
1132.12503283382
 21
1130.71080620312
 31
0.0
  0
LINE
  5
9DAD
330
1E
100
AcDbEntity
  8
虛線
 48
0.25
100
AcDbLine
 10
1132.12503283382
 20
1130.71080620312
 30
0.0
 11
1125.125032833827
 21
1130.710806203119
 31
0.0
  0
LINE
  5
9DAE
330
1E
100
AcDbEntity
  8
虛線
 48
0.25
100
AcDbLine
 10
1102.12503283382
 20
1130.71080620312
 30
0.0
 11
1102.625032833819
 21
1130.210806203121
 31
0.0
  0
LINE
  5
9DAF
330
1E
100
AcDbEntity
  8
虛線
 48
0.25
100
AcDbLine
 10
1095.125032833827
 20
1130.710806203119
 30
0.0
 11
1094.625032833828
 21
1130.21080620312
 31
0.0
  0
LINE
  5
9DB0
330
1E
100
AcDbEntity
  8
中心線
 48
0.25
100
AcDbLine
 10
1098.625032833819
 20
1135.710836203118
 30
0.0
 11
1098.625032833817
 21
1128.712418305136
 31
0.0
  0
LINE
  5
9DB1
330
1E
100
AcDbEntity
  8
虛線
 48
0.25
100
AcDbLine
 10
1095.125032833825
 20
1135.710836203118
 30
0.0
 11
1095.125032833827
 21
1130.710806203119
 31
0.0
  0
LINE
  5
9DB2
330
1E
100
AcDbEntity
  8
虛線
 48
0.25
100
AcDbLine
 10
1102.125032833821
 20
1135.710836203118
 30
0.0
 11
1102.12503283382
 21
1130.71080620312
 31
0.0
  0
LINE
  5
9DB3
330
1E
100
AcDbEntity
  8
虛線
 48
0.25
100
AcDbLine
 10
1102.12503283382
 20
1130.71080620312
 30
0.0
 11
1095.125032833827
 21
1130.710806203119
 31
0.0
  0
INSERT
  5
9DB4
330
1E
100
AcDbEntity
  8
0
 62
     1
 48
0.27
100
AcDbBlockReference
  2
A$C51E2538E
 10
1062.894093418367
 20
1128.712418305132
 30
0.0
  0
LINE
  5
9DB6
330
1E
100
AcDbEntity
  8
0
 62
     0
 48
0.27
100
AcDbLine
 10
1238.625032833818
 20
1153.810836720717
 30
0.0
 11
1238.625032833818
 21
1130.210806203117
 31
0.0
  0
LINE
  5
9DB7
330
1E
100
AcDbEntity
  8
0
 62
     0
 48
0.27
100
AcDbLine
 10
1018.625032833818
 20
1153.810836720717
 30
0.0
 11
1018.625032833818
 21
1130.210806203117
 31
0.0
  0
LINE
  5
9DBA
330
1E
100
AcDbEntity
  8
0
  6
Continuous
 62
     7
100
AcDbLine
 10
1079.675032833818
 20
1135.710826203117
 30
0.0
 11
1079.675032833818
 21
1165.310806203117
 31
0.0
  0
LINE
  5
9DBB
330
1E
100
AcDbEntity
  8
0
  6
Continuous
 62
     7
100
AcDbLine
 10
1081.875032833818
 20
1135.710826203117
 30
0.0
 11
1081.875032833818
 21
1165.810806748074
 31
0.0
  0
LINE
  5
9DBC
330
1E
100
AcDbEntity
  8
0
  6
Continuous
 62
     7
100
AcDbLine
 10
1084.875032833818
 20
1146.895286510417
 30
0.0
 11
1084.875032833818
 21
1142.295286510417
 31
0.0
  0
LINE
  5
9DBD
330
1E
100
AcDbEntity
  8
0
  6
Continuous
 62
     7
100
AcDbLine
 10
1096.375032833818
 20
1166.210806203117
 30
0.0
 11
1096.375032833818
 21
1135.710826203117
 31
0.0
  0
LINE
  5
9DBE
330
1E
100
AcDbEntity
  8
0
  6
Continuous
 62
     7
100
AcDbLine
 10
1018.625032833818
 20
1130.210806203117
 30
0.0
 11
1238.625032833818
 21
1130.210806203117
 31
0.0
  0
LINE
  5
9DC0
330
1E
100
AcDbEntity
  8
0
  6
Continuous
 62
     7
100
AcDbLine
 10
1079.675032833818
 20
1135.710826203117
 30
0.0
 11
1175.375032833818
 21
1135.710826203117
 31
0.0
  0
LINE
  5
9DC2
330
1E
100
AcDbEntity
  8
0
  6
Continuous
 62
     7
100
AcDbLine
 10
1175.375032833818
 20
1135.710826203117
 30
0.0
 11
1177.575032833817
 21
1135.710826203117
 31
0.0
  0
LINE
  5
9DC7
330
1E
100
AcDbEntity
  8
0
  6
Continuous
 62
     7
100
AcDbLine
 10
1096.375032833818
 20
1136.710836203117
 30
0.0
 11
1079.675032833818
 21
1136.710836203117
 31
0.0
  0
LINE
  5
9DC8
330
1E
100
AcDbEntity
  8
0
  6
Continuous
 62
     7
100
AcDbLine
 10
1160.875032833818
 20
1136.710836203117
 30
0.0
 11
1177.575032833817
 21
1136.710836203117
 31
0.0
  0
LINE
  5
9DD3
330
1E
100
AcDbEntity
  8
0
  6
Continuous
 62
     7
100
AcDbLine
 10
1175.375032833818
 20
1142.295286510417
 30
0.0
 11
1172.375032833818
 21
1142.295286510417
 31
0.0
  0
LINE
  5
9DD4
330
1E
100
AcDbEntity
  8
0
  6
Continuous
 62
     7
100
AcDbLine
 10
1084.875032833818
 20
1142.295286510417
 30
0.0
 11
1081.875032833818
 21
1142.295286510417
 31
0.0
  0
LINE
  5
9DD5
330
1E
100
AcDbEntity
  8
0
  6
Continuous
 62
     7
100
AcDbLine
 10
1081.875032833818
 20
1146.895286510417
 30
0.0
 11
1084.875032833818
 21
1146.895286510417
 31
0.0
  0
LINE
  5
9DD6
330
1E
100
AcDbEntity
  8
0
  6
Continuous
 62
     7
100
AcDbLine
 10
1172.375032833818
 20
1146.895286510417
 30
0.0
 11
1175.375032833818
 21
1146.895286510417
 31
0.0
  0
LINE
  5
9DE9
330
1E
100
AcDbEntity
  8
0
100
AcDbLine
 10
1018.625032833818
 20
1153.810836720717
 30
0.0
 11
1078.669994248434
 21
1153.810836720717
 31
0.0
  0
LINE
  5
9DEA
330
1E
100
AcDbEntity
  8
0
  6
Continuous
 62
     7
100
AcDbLine
 10
1178.580071419202
 20
1153.810836720717
 30
0.0
 11
1238.625032833818
 21
1153.810836720717
 31
0.0
  0
LINE
  5
9DEB
330
1E
100
AcDbEntity
  8
0
  6
Continuous
 62
     7
100
AcDbLine
 10
1096.375032833818
 20
1164.210806203117
 30
0.0
 11
1081.875032833818
 21
1164.210806203117
 31
0.0
  0
LINE
  5
9DEC
330
1E
100
AcDbEntity
  8
0
  6
Continuous
 62
     7
100
AcDbLine
 10
1081.875032833818
 20
1164.210806203117
 30
0.0
 11
1079.675032833818
 21
1164.210806203117
 31
0.0
  0
LINE
  5
9DED
330
1E
100
AcDbEntity
  8
0
  6
Continuous
 62
     7
100
AcDbLine
 10
1160.875032833818
 20
1164.210806203117
 30
0.0
 11
1175.375032833818
 21
1164.210806203117
 31
0.0
  0
LINE
  5
9DEE
330
1E
100
AcDbEntity
  8
0
  6
Continuous
 62
     7
100
AcDbLine
 10
1175.375032833818
 20
1164.210806203117
 30
0.0
 11
1177.575032833818
 21
1164.210806203117
 31
0.0
  0
LINE
  5
9DEF
330
1E
100
AcDbEntity
  8
0
  6
Continuous
 62
     7
100
AcDbLine
 10
1096.375032833818
 20
1165.310806203117
 30
0.0
 11
1081.875032833818
 21
1165.310806203117
 31
0.0
  0
LINE
  5
9DF0
330
1E
100
AcDbEntity
  8
0
  6
Continuous
 62
     7
100
AcDbLine
 10
1081.875032833818
 20
1165.310806203117
 30
0.0
 11
1079.675032833818
 21
1165.310806203117
 31
0.0
  0
LINE
  5
9DF1
330
1E
100
AcDbEntity
  8
0
  6
Continuous
 62
     7
100
AcDbLine
 10
1160.875032833818
 20
1165.310806203117
 30
0.0
 11
1175.375032833818
 21
1165.310806203117
 31
0.0
  0
LINE
  5
9DF2
330
1E
100
AcDbEntity
  8
0
  6
Continuous
 62
     7
100
AcDbLine
 10
1175.375032833818
 20
1165.310806203117
 30
0.0
 11
1177.575032833818
 21
1165.310806203117
 31
0.0
  0
LINE
  5
9DF3
330
1E
100
AcDbEntity
  8
0
  6
Continuous
 62
     7
100
AcDbLine
 10
1096.375032833818
 20
1165.810790944317
 30
0.0
 11
1081.875032833818
 21
1165.810806748074
 31
0.0
  0
LINE
  5
9DF4
330
1E
100
AcDbEntity
  8
0
  6
Continuous
 62
     7
100
AcDbLine
 10
1160.875032833818
 20
1165.810806203117
 30
0.0
 11
1175.375032833817
 21
1165.810806203117
 31
0.0
  0
LINE
  5
9DF5
330
1E
100
AcDbEntity
  8
0
  6
Continuous
 62
     7
100
AcDbLine
 10
1160.875032833818
 20
1166.210806203117
 30
0.0
 11
1160.875032833818
 21
1135.710836203117
 31
0.0
  0
LINE
  5
9DF6
330
1E
100
AcDbEntity
  8
0
  6
Continuous
 62
     7
100
AcDbLine
 10
1172.375032833818
 20
1142.295286510417
 30
0.0
 11
1172.375032833818
 21
1146.895286510417
 31
0.0
  0
LINE
  5
9DF7
330
1E
100
AcDbEntity
  8
0
  6
Continuous
 62
     7
100
AcDbLine
 10
1175.375032833818
 20
1135.710826203117
 30
0.0
 11
1175.375032833817
 21
1165.810806203117
 31
0.0
  0
LINE
  5
9DF8
330
1E
100
AcDbEntity
  8
0
  6
Continuous
 62
     7
100
AcDbLine
 10
1177.575032833817
 20
1135.710826203117
 30
0.0
 11
1177.575032833818
 21
1165.310806203117
 31
0.0
  0
LINE
  5
9DF9
330
1E
100
AcDbEntity
  8
0
  6
Continuous
 62
     7
100
AcDbLine
 10
1079.675032833818
 20
1225.37792276026
 30
0.0
 11
1079.675032833818
 21
1272.377862760259
 31
0.0
  0
LINE
  5
9DFA
330
1E
100
AcDbEntity
  8
0
  6
Continuous
 62
     7
100
AcDbLine
 10
1081.875032833818
 20
1225.37792276026
 30
0.0
 11
1081.875032833818
 21
1272.377862760259
 31
0.0
  0
LINE
  5
9DFB
330
1E
100
AcDbEntity
  8
0
  6
Continuous
 62
     7
100
AcDbLine
 10
1096.375032833818
 20
1224.87795276026
 30
0.0
 11
1096.375032833818
 21
1272.877892760259
 31
0.0
  0
LINE
  5
9DFC
330
1E
100
AcDbEntity
  8
0
  6
Continuous
 62
     7
100
AcDbLine
 10
1096.375032833818
 20
1225.37792276026
 30
0.0
 11
1081.875032833818
 21
1225.37792276026
 31
0.0
  0
LINE
  5
9DFD
330
1E
100
AcDbEntity
  8
0
  6
Continuous
 62
     7
100
AcDbLine
 10
1081.875032833818
 20
1225.37792276026
 30
0.0
 11
1079.675032833818
 21
1225.37792276026
 31
0.0
  0
LINE
  5
9DFE
330
1E
100
AcDbEntity
  8
0
  6
Continuous
 62
     7
100
AcDbLine
 10
1160.875032833818
 20
1225.37792276026
 30
0.0
 11
1175.375032833818
 21
1225.37792276026
 31
0.0
  0
LINE
  5
9DFF
330
1E
100
AcDbEntity
  8
0
  6
Continuous
 62
     7
100
AcDbLine
 10
1175.375032833818
 20
1225.37792276026
 30
0.0
 11
1177.575032833818
 21
1225.37792276026
 31
0.0
  0
LINE
  5
9E00
330
1E
100
AcDbEntity
  8
0
  6
Continuous
 62
     7
100
AcDbLine
 10
1096.375032833818
 20
1226.47792276026
 30
0.0
 11
1081.875032833818
 21
1226.47792276026
 31
0.0
  0
LINE
  5
9E01
330
1E
100
AcDbEntity
  8
0
  6
Continuous
 62
     7
100
AcDbLine
 10
1081.875032833818
 20
1226.47792276026
 30
0.0
 11
1079.675032833818
 21
1226.47792276026
 31
0.0
  0
LINE
  5
9E02
330
1E
100
AcDbEntity
  8
0
  6
Continuous
 62
     7
100
AcDbLine
 10
1160.875032833818
 20
1226.47792276026
 30
0.0
 11
1175.375032833818
 21
1226.47792276026
 31
0.0
  0
LINE
  5
9E03
330
1E
100
AcDbEntity
  8
0
  6
Continuous
 62
     7
100
AcDbLine
 10
1175.375032833818
 20
1226.47792276026
 30
0.0
 11
1177.575032833818
 21
1226.47792276026
 31
0.0
  0
LINE
  5
9E04
330
1E
100
AcDbEntity
  8
0
  6
Continuous
 62
     7
100
AcDbLine
 10
1018.625032833818
 20
1237.37793038966
 30
0.0
 11
1068.719833976184
 21
1237.37793038966
 31
0.0
  0
LINE
  5
9E05
330
1E
100
AcDbEntity
  8
0
  6
Continuous
 62
     7
100
AcDbLine
 10
1177.575032833818
 20
1237.37793038966
 30
0.0
 11
1238.625032833817
 21
1237.37793038966
 31
0.0
  0
LINE
  5
9E08
330
1E
100
AcDbEntity
  8
0
  6
Continuous
 62
     7
100
AcDbLine
 10
1096.375032833818
 20
1241.37789276026
 30
0.0
 11
1081.875032833818
 21
1241.377900662138
 31
0.0
  0
LINE
  5
9E09
330
1E
100
AcDbEntity
  8
0
  6
Continuous
 62
     7
100
AcDbLine
 10
1160.875032833818
 20
1241.37789657496
 30
0.0
 11
1175.375032833818
 21
1241.377900525899
 31
0.0
  0
LINE
  5
9E0A
330
1E
100
AcDbEntity
  8
0
  6
Continuous
 62
     7
100
AcDbLine
 10
1096.375032833818
 20
1241.87788656136
 30
0.0
 11
1081.875032833818
 21
1241.87790236522
 31
0.0
  0
LINE
  5
9E0B
330
1E
100
AcDbEntity
  8
0
  6
Continuous
 62
     7
100
AcDbLine
 10
1160.875032833818
 20
1241.87789276026
 30
0.0
 11
1175.375032833818
 21
1241.877902143831
 31
0.0
  0
LINE
  5
9E0C
330
1E
100
AcDbEntity
  8
0
  6
Continuous
 62
     7
100
AcDbLine
 10
1096.375032833818
 20
1255.87789276026
 30
0.0
 11
1081.875032833818
 21
1255.877883376792
 31
0.0
  0
LINE
  5
9E0D
330
1E
100
AcDbEntity
  8
0
  6
Continuous
 62
     7
100
AcDbLine
 10
1160.875032833818
 20
1255.877898959159
 30
0.0
 11
1175.375032833818
 21
1255.877883155402
 31
0.0
  0
LINE
  5
9E0E
330
1E
100
AcDbEntity
  8
0
  6
Continuous
 62
     7
100
AcDbLine
 10
1096.375032833818
 20
1256.37788894556
 30
0.0
 11
1081.875032833818
 21
1256.37788499462
 31
0.0
  0
LINE
  5
9E0F
330
1E
100
AcDbEntity
  8
0
  6
Continuous
 62
     7
100
AcDbLine
 10
1160.875032833818
 20
1256.37789276026
 30
0.0
 11
1175.375032833818
 21
1256.377884858381
 31
0.0
  0
LINE
  5
9E12
330
1E
100
AcDbEntity
  8
0
  6
Continuous
 62
     7
100
AcDbLine
 10
1018.625032833818
 20
1260.37791513086
 30
0.0
 11
1079.675032833818
 21
1260.37791513086
 31
0.0
  0
LINE
  5
9E13
330
1E
100
AcDbEntity
  8
0
  6
Continuous
 62
     7
100
AcDbLine
 10
1177.575032833818
 20
1260.37791513086
 30
0.0
 11
1238.625032833818
 21
1260.37791513086
 31
0.0
  0
LINE
  5
9E14
330
1E
100
AcDbEntity
  8
0
  6
Continuous
 62
     7
100
AcDbLine
 10
1096.375032833818
 20
1271.27786276026
 30
0.0
 11
1081.875032833818
 21
1271.27786276026
 31
0.0
  0
LINE
  5
9E15
330
1E
100
AcDbEntity
  8
0
  6
Continuous
 62
     7
100
AcDbLine
 10
1081.875032833818
 20
1271.27786276026
 30
0.0
 11
1079.675032833818
 21
1271.27786276026
 31
0.0
  0
LINE
  5
9E16
330
1E
100
AcDbEntity
  8
0
  6
Continuous
 62
     7
100
AcDbLine
 10
1160.875032833818
 20
1271.27786276026
 30
0.0
 11
1175.375032833818
 21
1271.27786276026
 31
0.0
  0
LINE
  5
9E17
330
1E
100
AcDbEntity
  8
0
  6
Continuous
 62
     7
100
AcDbLine
 10
1175.375032833818
 20
1271.27786276026
 30
0.0
 11
1177.575032833818
 21
1271.27786276026
 31
0.0
  0
LINE
  5
9E18
330
1E
100
AcDbEntity
  8
0
  6
Continuous
 62
     7
100
AcDbLine
 10
1175.375032833818
 20
1272.377862760259
 30
0.0
 11
1174.875032833818
 21
1272.377862760259
 31
0.0
  0
LINE
  5
9E19
330
1E
100
AcDbEntity
  8
0
  6
Continuous
 62
     7
100
AcDbLine
 10
1096.375032833818
 20
1272.377862760259
 30
0.0
 11
1081.875032833818
 21
1272.377862760259
 31
0.0
  0
LINE
  5
9E1A
330
1E
100
AcDbEntity
  8
0
  6
Continuous
 62
     7
100
AcDbLine
 10
1081.875032833818
 20
1272.377862760259
 30
0.0
 11
1079.675032833818
 21
1272.377862760259
 31
0.0
  0
LINE
  5
9E1B
330
1E
100
AcDbEntity
  8
0
  6
Continuous
 62
     7
100
AcDbLine
 10
1160.875032833818
 20
1272.377862760259
 30
0.0
 11
1174.875032833818
 21
1272.377862760259
 31
0.0
  0
LINE
  5
9E1C
330
1E
100
AcDbEntity
  8
0
  6
Continuous
 62
     7
100
AcDbLine
 10
1175.375032833818
 20
1272.377862760259
 30
0.0
 11
1177.575032833818
 21
1272.377862760259
 31
0.0
  0
LINE
  5
9E1D
330
1E
100
AcDbEntity
  8
0
  6
Continuous
 62
     7
100
AcDbLine
 10
1160.875032833818
 20
1272.877892760259
 30
0.0
 11
1160.875032833818
 21
1224.87795276026
 31
0.0
  0
LINE
  5
9E1E
330
1E
100
AcDbEntity
  8
0
  6
Continuous
 62
     7
100
AcDbLine
 10
1175.375032833818
 20
1272.377862760259
 30
0.0
 11
1175.375032833818
 21
1225.37792276026
 31
0.0
  0
LINE
  5
9E1F
330
1E
100
AcDbEntity
  8
0
  6
Continuous
 62
     7
100
AcDbLine
 10
1177.575032833818
 20
1225.37792276026
 30
0.0
 11
1177.575032833818
 21
1272.377862760259
 31
0.0
  0
CIRCLE
  5
9E20
330
1E
100
AcDbEntity
  8
0
  6
Continuous
 62
     7
100
AcDbCircle
 10
1168.125032833818
 20
1160.210806203117
 30
0.0
 40
2.5
  0
CIRCLE
  5
9E21
330
1E
100
AcDbEntity
  8
0
  6
Continuous
 62
     7
100
AcDbCircle
 10
1168.125032833818
 20
1160.210806203117
 30
0.0
 40
0.75
  0
CIRCLE
  5
9E22
330
1E
100
AcDbEntity
  8
0
  6
Continuous
 62
     7
100
AcDbCircle
 10
1168.125032833818
 20
1160.210806203117
 30
0.0
 40
2.9999563091
  0
CIRCLE
  5
9E23
330
1E
100
AcDbEntity
  8
0
  6
Continuous
 62
     7
100
AcDbCircle
 10
1089.125032833818
 20
1160.210806203117
 30
0.0
 40
2.5
  0
CIRCLE
  5
9E24
330
1E
100
AcDbEntity
  8
0
  6
Continuous
 62
     7
100
AcDbCircle
 10
1089.125032833818
 20
1160.210806203117
 30
0.0
 40
0.75
  0
CIRCLE
  5
9E25
330
1E
100
AcDbEntity
  8
0
  6
Continuous
 62
     7
100
AcDbCircle
 10
1089.125032833818
 20
1160.210806203117
 30
0.0
 40
2.9999563091
  0
CIRCLE
  5
9E26
330
1E
100
AcDbEntity
  8
0
  6
Continuous
 62
     7
100
AcDbCircle
 10
1090.375032833818
 20
1248.877892760259
 30
0.0
 40
5.15
  0
CIRCLE
  5
9E27
330
1E
100
AcDbEntity
  8
0
  6
Continuous
 62
     7
100
AcDbCircle
 10
1090.375032833818
 20
1248.877892760259
 30
0.0
 40
0.5
  0
CIRCLE
  5
9E28
330
1E
100
AcDbEntity
  8
0
  6
Continuous
 62
     7
100
AcDbCircle
 10
1166.875032833818
 20
1248.877892760259
 30
0.0
 40
5.15
  0
CIRCLE
  5
9E29
330
1E
100
AcDbEntity
  8
0
  6
Continuous
 62
     7
100
AcDbCircle
 10
1166.875032833818
 20
1248.877892760259
 30
0.0
 40
0.5
  0
LINE
  5
9E2A
330
1E
100
AcDbEntity
  8
虛線
 48
0.3
100
AcDbLine
 10
931.3017959063316
 20
1166.035836203142
 30
0.0
 11
931.3017959062984
 21
1161.210836203145
 31
0.0
  0
LINE
  5
9E2B
330
1E
100
AcDbEntity
  8
0
 62
     0
 48
0.27
100
AcDbLine
 10
915.3032893416416
 20
1166.210832388427
 30
0.0
 11
901.8033198592195
 21
1166.21083620313
 31
0.0
  0
LINE
  5
9E2C
330
1E
100
AcDbEntity
  8
中心線
 48
0.27
100
AcDbLine
 10
906.8033198592209
 20
1168.914327989084
 30
0.0
 11
906.8033198592129
 21
1135.750957448286
 31
0.0
  0
LINE
  5
9E2D
330
1E
100
AcDbEntity
  8
虛線
 48
0.3
100
AcDbLine
 10
910.1783198592208
 20
1165.410834790273
 30
0.0
 11
910.9783198592221
 21
1166.210834790273
 31
0.0
  0
LINE
  5
9E2E
330
1E
100
AcDbEntity
  8
虛線
 48
0.3
100
AcDbLine
 10
910.1783198592199
 20
1165.410834790272
 30
0.0
 11
910.1783198592153
 21
1156.210836203127
 31
0.0
  0
LINE
  5
9E2F
330
1E
100
AcDbEntity
  8
虛線
 48
0.3
100
AcDbLine
 10
910.803295445158
 20
1166.03581037621
 30
0.0
 11
910.8032954451534
 21
1156.210836203126
 31
0.0
  0
LINE
  5
9E30
330
1E
100
AcDbEntity
  8
虛線
 48
0.3
100
AcDbLine
 10
903.4283198592198
 20
1165.410834790275
 30
0.0
 11
910.1783198592199
 21
1165.410834790273
 31
0.0
  0
LINE
  5
9E31
330
1E
100
AcDbEntity
  8
虛線
 48
0.3
100
AcDbLine
 10
903.4283198592207
 20
1165.410834790275
 30
0.0
 11
902.6283198592217
 21
1166.210834790276
 31
0.0
  0
LINE
  5
9E32
330
1E
100
AcDbEntity
  8
虛線
 48
0.3
100
AcDbLine
 10
903.428319859219
 20
1165.410834790275
 30
0.0
 11
903.4283198592143
 21
1156.21083620313
 31
0.0
  0
LINE
  5
9E33
330
1E
100
AcDbEntity
  8
虛線
 48
0.3
100
AcDbLine
 10
902.8033442732819
 20
1166.035810376214
 30
0.0
 11
902.8033442732782
 21
1156.21083620313
 31
0.0
  0
LINE
  5
9E34
330
1E
100
AcDbEntity
  8
0
 62
     0
 48
0.27
100
AcDbLine
 10
968.8033198592215
 20
1166.210836203109
 30
0.0
 11
955.3033503767995
 21
1166.210832388415
 31
0.0
  0
LINE
  5
9E35
330
1E
100
AcDbEntity
  8
中心線
 48
0.27
100
AcDbLine
 10
963.8033198592209
 20
1168.914327989066
 30
0.0
 11
963.8033198592129
 21
1135.750957448268
 31
0.0
  0
LINE
  5
9E36
330
1E
100
AcDbEntity
  8
虛線
 48
0.3
100
AcDbLine
 10
967.1783198592198
 20
1165.410834790255
 30
0.0
 11
967.978319859222
 21
1166.210834790256
 31
0.0
  0
LINE
  5
9E37
330
1E
100
AcDbEntity
  8
虛線
 48
0.3
100
AcDbLine
 10
967.1783198592207
 20
1165.410834790256
 30
0.0
 11
967.1783198592144
 21
1156.210836203109
 31
0.0
  0
LINE
  5
9E38
330
1E
100
AcDbEntity
  8
虛線
 48
0.3
100
AcDbLine
 10
967.803295445158
 20
1166.035810376192
 30
0.0
 11
967.8032954451524
 21
1156.210836203109
 31
0.0
  0
LINE
  5
9E39
330
1E
100
AcDbEntity
  8
虛線
 48
0.3
100
AcDbLine
 10
960.4283198592199
 20
1165.410834790257
 30
0.0
 11
967.1783198592198
 21
1165.410834790256
 31
0.0
  0
LINE
  5
9E3A
330
1E
100
AcDbEntity
  8
虛線
 48
0.3
100
AcDbLine
 10
960.4283198592199
 20
1165.410834790257
 30
0.0
 11
959.6283198592189
 21
1166.210834790257
 31
0.0
  0
LINE
  5
9E3B
330
1E
100
AcDbEntity
  8
虛線
 48
0.3
100
AcDbLine
 10
960.428319859219
 20
1165.410834790257
 30
0.0
 11
960.4283198592185
 21
1156.210836203111
 31
0.0
  0
LINE
  5
9E3C
330
1E
100
AcDbEntity
  8
虛線
 48
0.3
100
AcDbLine
 10
959.8033442732829
 20
1166.035810376195
 30
0.0
 11
959.8033442732791
 21
1156.210836203111
 31
0.0
  0
LINE
  5
9E3D
330
1E
100
AcDbEntity
  8
0
 62
     0
 48
0.27
100
AcDbLine
 10
911.8033498592057
 20
1136.710836203126
 30
0.0
 11
912.8033498592053
 21
1135.710836203126
 31
0.0
  0
LINE
  5
9E3E
330
1E
100
AcDbEntity
  8
0
100
AcDbLine
 10
970.3033198592148
 20
1146.372418572048
 30
0.0
 11
959.6417274903023
 21
1135.710826203106
 31
0.0
  0
LINE
  5
9E3F
330
1E
100
AcDbEntity
  8
0
100
AcDbLine
 10
968.8033198592215
 20
1166.210836203109
 30
0.0
 11
970.303319859221
 21
1164.710836203109
 31
0.0
  0
LINE
  5
9E40
330
1E
100
AcDbEntity
  8
0
100
AcDbLine
 10
970.303319859221
 20
1164.710836203109
 30
0.0
 11
970.3033198592148
 21
1146.372418572048
 31
0.0
  0
LINE
  5
9E41
330
1E
100
AcDbEntity
  8
0
100
AcDbLine
 10
942.3033198592214
 20
1166.210836203115
 30
0.0
 11
935.3033198592214
 21
1166.210836203116
 31
0.0
  0
LINE
  5
9E42
330
1E
100
AcDbEntity
  8
0
100
AcDbLine
 10
942.3033260581044
 20
1166.210820944326
 30
0.0
 11
942.803316044524
 21
1165.710832388417
 31
0.0
  0
LINE
  5
9E43
330
1E
100
AcDbEntity
  8
0
100
AcDbLine
 10
955.3033503767995
 20
1166.210832388415
 30
0.0
 11
954.8033599135425
 21
1165.710843832507
 31
0.0
  0
LINE
  5
9E44
330
1E
100
AcDbEntity
  8
0
100
AcDbLine
 10
954.8033503767994
 20
1165.710836203112
 30
0.0
 11
942.8033198592213
 21
1165.710836203115
 31
0.0
  0
LINE
  5
9E45
330
1E
100
AcDbEntity
  8
0
100
AcDbLine
 10
900.8033198592135
 20
1145.872418572063
 30
0.0
 11
910.9648997096901
 21
1135.710838721559
 31
0.0
  0
LINE
  5
9E46
330
1E
100
AcDbEntity
  8
0
100
AcDbLine
 10
901.8033198592195
 20
1166.21083620313
 30
0.0
 11
900.3033198592191
 21
1164.710836203131
 31
0.0
  0
LINE
  5
9E47
330
1E
100
AcDbEntity
  8
0
100
AcDbLine
 10
900.3033198592191
 20
1164.710836203131
 30
0.0
 11
900.3033198592168
 21
1156.710790426764
 31
0.0
  0
LINE
  5
9E48
330
1E
100
AcDbEntity
  8
0
100
AcDbLine
 10
900.8033198592167
 20
1156.210836203131
 30
0.0
 11
900.8033198592135
 21
1145.872418572063
 31
0.0
  0
LINE
  5
9E49
330
1E
100
AcDbEntity
  8
0
100
AcDbLine
 10
928.3033198592205
 20
1166.21083620312
 30
0.0
 11
935.3033198592205
 21
1166.210836203116
 31
0.0
  0
LINE
  5
9E4A
330
1E
100
AcDbEntity
  8
0
100
AcDbLine
 10
928.3033136603375
 20
1166.21082094433
 30
0.0
 11
927.8033236739176
 21
1165.710832388422
 31
0.0
  0
LINE
  5
9E4B
330
1E
100
AcDbEntity
  8
0
100
AcDbLine
 10
915.3032893416416
 20
1166.210832388427
 30
0.0
 11
915.803279804899
 21
1165.710843832519
 31
0.0
  0
LINE
  5
9E4C
330
1E
100
AcDbEntity
  8
0
100
AcDbLine
 10
900.3033160445186
 20
1156.710790426764
 30
0.0
 11
900.8032626387576
 21
1156.210843832525
 31
0.0
  0
LINE
  5
9E4D
330
1E
100
AcDbEntity
  8
0
100
AcDbLine
 10
915.8032893416415
 20
1165.710836203124
 30
0.0
 11
927.8033198592204
 21
1165.710836203119
 31
0.0
  0
LINE
  5
9E4E
330
1E
100
AcDbEntity
  8
虛線
 48
0.3
100
AcDbLine
 10
938.6798438121106
 20
1165.410836203114
 30
0.0
 11
939.4798438121137
 21
1166.210836203116
 31
0.0
  0
LINE
  5
9E4F
330
1E
100
AcDbEntity
  8
虛線
 48
0.3
100
AcDbLine
 10
938.6798438121097
 20
1165.410836203115
 30
0.0
 11
938.6798438121084
 21
1161.210836203115
 31
0.0
  0
LINE
  5
9E50
330
1E
100
AcDbEntity
  8
虛線
 48
0.3
100
AcDbLine
 10
939.3048438121097
 20
1166.035836203112
 30
0.0
 11
939.3048438121075
 21
1161.210836203115
 31
0.0
  0
LINE
  5
9E51
330
1E
100
AcDbEntity
  8
虛線
 48
0.3
100
AcDbLine
 10
940.8048438121094
 20
1161.210836203115
 30
0.0
 11
940.8048438121086
 21
1155.210870290204
 31
0.0
  0
LINE
  5
9E52
330
1E
100
AcDbEntity
  8
虛線
 48
0.3
100
AcDbLine
 10
929.8048438121139
 20
1161.210836203118
 30
0.0
 11
940.8048438121094
 21
1161.210836203115
 31
0.0
  0
LINE
  5
9E53
330
1E
100
AcDbEntity
  8
虛線
 48
0.3
100
AcDbLine
 10
938.6798438121097
 20
1165.410836203115
 30
0.0
 11
931.9298438121133
 21
1165.410836203119
 31
0.0
  0
LINE
  5
9E54
330
1E
100
AcDbEntity
  8
虛線
 48
0.3
100
AcDbLine
 10
931.9298438121142
 20
1165.410836203118
 30
0.0
 11
931.1298438121152
 21
1166.210836203117
 31
0.0
  0
LINE
  5
9E55
330
1E
100
AcDbEntity
  8
虛線
 48
0.3
100
AcDbLine
 10
929.8048438121139
 20
1161.210836203118
 30
0.0
 11
929.8048438121096
 21
1155.210870290204
 31
0.0
  0
LINE
  5
9E56
330
1E
100
AcDbEntity
  8
虛線
 48
0.3
100
AcDbLine
 10
931.9298438121133
 20
1165.410836203119
 30
0.0
 11
931.9298438121121
 21
1161.210836203117
 31
0.0
  0
LINE
  5
9E57
330
1E
100
AcDbEntity
  8
虛線
 48
0.3
100
AcDbLine
 10
958.0533198592176
 20
1156.210836203111
 30
0.0
 11
958.0533198592107
 21
1135.710856203108
 31
0.0
  0
LINE
  5
9E58
330
1E
100
AcDbEntity
  8
虛線
 48
0.3
100
AcDbLine
 10
958.0533198592176
 20
1156.210836203111
 30
0.0
 11
970.3033198592185
 21
1156.210836203109
 31
0.0
  0
LINE
  5
9E59
330
1E
100
AcDbEntity
  8
虛線
 48
0.3
100
AcDbLine
 10
912.5533198592149
 20
1156.210836203126
 30
0.0
 11
912.5533198592089
 21
1135.710856203126
 31
0.0
  0
LINE
  5
9E5A
330
1E
100
AcDbEntity
  8
虛線
 48
0.3
100
AcDbLine
 10
912.5533198592149
 20
1156.210836203126
 30
0.0
 11
900.8032702681495
 21
1156.21083620313
 31
0.0
  0
CIRCLE
  5
9E5B
330
1E
100
AcDbEntity
  8
指線
 48
0.27
100
AcDbCircle
 10
916.8033298592188
 20
1154.996039030445
 30
0.0
 40
2.75
  0
LINE
  5
9E5C
330
1E
100
AcDbEntity
  8
指線
 48
0.27
100
AcDbLine
 10
916.803329859219
 20
1155.551824960457
 30
0.0
 11
915.9696509642001
 21
1156.385503855477
 31
0.0
  0
LINE
  5
9E5D
330
1E
100
AcDbEntity
  8
指線
 48
0.27
100
AcDbLine
 10
916.2475439292059
 20
1154.996039030445
 30
0.0
 11
915.413865034187
 21
1155.829717925464
 31
0.0
  0
LINE
  5
9E5E
330
1E
100
AcDbEntity
  8
指線
 48
0.27
100
AcDbLine
 10
918.1927946842503
 20
1155.829717925463
 30
0.0
 11
917.3591157892317
 21
1154.996039030445
 31
0.0
  0
LINE
  5
9E5F
330
1E
100
AcDbEntity
  8
指線
 48
0.27
100
AcDbLine
 10
916.803329859219
 20
1155.551824960457
 30
0.0
 11
917.6370087542375
 21
1156.385503855476
 31
0.0
  0
LINE
  5
9E60
330
1E
100
AcDbEntity
  8
指線
 48
0.27
100
AcDbLine
 10
918.1927946842497
 20
1154.162360135425
 30
0.0
 11
917.6370087542375
 21
1153.606574205413
 31
0.0
  0
LINE
  5
9E61
330
1E
100
AcDbEntity
  8
指線
 48
0.27
100
AcDbLine
 10
915.9696509641992
 20
1153.606574205413
 30
0.0
 11
915.4138650341865
 21
1154.162360135426
 31
0.0
  0
LINE
  5
9E62
330
1E
100
AcDbEntity
  8
指線
 48
0.27
100
AcDbLine
 10
915.4138650341865
 20
1154.162360135426
 30
0.0
 11
916.2475439292059
 21
1154.996039030445
 31
0.0
  0
LINE
  5
9E63
330
1E
100
AcDbEntity
  8
指線
 48
0.27
100
AcDbLine
 10
918.1927946842497
 20
1154.162360135425
 30
0.0
 11
917.3591157892317
 21
1154.996039030445
 31
0.0
  0
LINE
  5
9E64
330
1E
100
AcDbEntity
  8
指線
 48
0.27
100
AcDbLine
 10
917.6370087542375
 20
1153.606574205413
 30
0.0
 11
916.8033298592186
 21
1154.440253100432
 31
0.0
  0
LINE
  5
9E65
330
1E
100
AcDbEntity
  8
指線
 48
0.27
100
AcDbLine
 10
915.9696509641992
 20
1153.606574205413
 30
0.0
 11
916.8033298592186
 21
1154.440253100432
 31
0.0
  0
LINE
  5
9E66
330
1E
100
AcDbEntity
  8
指線
 48
0.27
100
AcDbLine
 10
917.6370087542375
 20
1156.385503855476
 30
0.0
 11
918.1927946842503
 21
1155.829717925463
 31
0.0
  0
LINE
  5
9E67
330
1E
100
AcDbEntity
  8
指線
 48
0.27
100
AcDbLine
 10
915.413865034187
 20
1155.829717925464
 30
0.0
 11
915.9696509642001
 21
1156.385503855477
 31
0.0
  0
CIRCLE
  5
9E68
330
1E
100
AcDbEntity
  8
指線
 48
0.27
100
AcDbCircle
 10
953.8033098592133
 20
1154.996039030447
 30
0.0
 40
2.75
  0
LINE
  5
9E69
330
1E
100
AcDbEntity
  8
指線
 48
0.27
100
AcDbLine
 10
953.8033098592135
 20
1155.55182496046
 30
0.0
 11
952.9696309641947
 21
1156.385503855479
 31
0.0
  0
LINE
  5
9E6A
330
1E
100
AcDbEntity
  8
指線
 48
0.27
100
AcDbLine
 10
953.247523929201
 20
1154.996039030448
 30
0.0
 11
952.4138450341821
 21
1155.829717925467
 31
0.0
  0
LINE
  5
9E6B
330
1E
100
AcDbEntity
  8
指線
 48
0.27
100
AcDbLine
 10
955.1927746842448
 20
1155.829717925466
 30
0.0
 11
954.3590957892259
 21
1154.996039030447
 31
0.0
  0
LINE
  5
9E6C
330
1E
100
AcDbEntity
  8
指線
 48
0.27
100
AcDbLine
 10
953.8033098592135
 20
1155.55182496046
 30
0.0
 11
954.636988754232
 21
1156.385503855479
 31
0.0
  0
LINE
  5
9E6D
330
1E
100
AcDbEntity
  8
指線
 48
0.27
100
AcDbLine
 10
955.1927746842443
 20
1154.162360135428
 30
0.0
 11
954.636988754232
 21
1153.606574205416
 31
0.0
  0
LINE
  5
9E6E
330
1E
100
AcDbEntity
  8
指線
 48
0.27
100
AcDbLine
 10
952.9696309641938
 20
1153.606574205416
 30
0.0
 11
952.4138450341816
 21
1154.162360135429
 31
0.0
  0
LINE
  5
9E6F
330
1E
100
AcDbEntity
  8
指線
 48
0.27
100
AcDbLine
 10
952.4138450341816
 20
1154.162360135429
 30
0.0
 11
953.247523929201
 21
1154.996039030448
 31
0.0
  0
LINE
  5
9E70
330
1E
100
AcDbEntity
  8
指線
 48
0.27
100
AcDbLine
 10
955.1927746842443
 20
1154.162360135428
 30
0.0
 11
954.3590957892259
 21
1154.996039030447
 31
0.0
  0
LINE
  5
9E71
330
1E
100
AcDbEntity
  8
指線
 48
0.27
100
AcDbLine
 10
954.636988754232
 20
1153.606574205416
 30
0.0
 11
953.8033098592132
 21
1154.440253100434
 31
0.0
  0
LINE
  5
9E72
330
1E
100
AcDbEntity
  8
指線
 48
0.27
100
AcDbLine
 10
952.9696309641938
 20
1153.606574205416
 30
0.0
 11
953.8033098592132
 21
1154.440253100434
 31
0.0
  0
LINE
  5
9E73
330
1E
100
AcDbEntity
  8
指線
 48
0.27
100
AcDbLine
 10
954.636988754232
 20
1156.385503855479
 30
0.0
 11
955.1927746842448
 21
1155.829717925466
 31
0.0
  0
LINE
  5
9E74
330
1E
100
AcDbEntity
  8
指線
 48
0.27
100
AcDbLine
 10
952.4138450341821
 20
1155.829717925467
 30
0.0
 11
952.9696309641947
 21
1156.385503855479
 31
0.0
  0
LINE
  5
9E79
330
1E
100
AcDbEntity
  8
0
  6
Continuous
100
AcDbLine
 10
948.4033122298143
 20
1136.210823326391
 30
0.0
 11
947.2033122298144
 21
1136.210821682551
 31
0.0
  0
LINE
  5
9E7A
330
1E
100
AcDbEntity
  8
0
 48
0.27
100
AcDbLine
 10
957.7032898592189
 20
1165.310806203112
 30
0.0
 11
912.9033498592177
 21
1165.310806203125
 31
0.0
  0
LINE
  5
9E7B
330
1E
100
AcDbEntity
  8
中心線
 48
0.27
100
AcDbLine
 10
946.037874827709
 20
1160.01080620315
 30
0.0
 11
929.6703345272526
 21
1160.010806203155
 31
0.0
  0
LINE
  5
9E7C
330
1E
100
AcDbEntity
  8
0
 48
0.27
100
AcDbLine
 10
938.1901137554669
 20
1157.010763260323
 30
0.0
 11
937.6127541746043
 21
1156.010748500707
 31
0.0
  0
LINE
  5
9E7D
330
1E
100
AcDbEntity
  8
0
 48
0.27
100
AcDbLine
 10
939.1800976791092
 20
1157.068408502705
 30
0.0
 11
941.1819334970008
 21
1157.97423654491
 31
0.0
  0
LINE
  5
9E7E
330
1E
100
AcDbEntity
  8
0
 48
0.27
100
AcDbLine
 10
939.180097679111
 20
1162.953205239618
 30
0.0
 11
941.1819334970019
 21
1162.047377197412
 31
0.0
  0
LINE
  5
9E7F
330
1E
100
AcDbEntity
  8
0
 48
0.27
100
AcDbLine
 10
937.808053535592
 20
1160.010806203152
 30
0.0
 11
937.8301138930053
 21
1159.425526697519
 31
0.0
  0
LINE
  5
9E80
330
1E
100
AcDbEntity
  8
0
 48
0.27
100
AcDbLine
 10
937.8301138930057
 20
1160.596085708885
 30
0.0
 11
937.808053535592
 21
1160.010806203152
 31
0.0
  0
LINE
  5
9E81
330
1E
100
AcDbEntity
  8
0
 48
0.27
100
AcDbLine
 10
937.8301138930053
 20
1159.425526697519
 30
0.0
 11
937.8954452567473
 21
1158.862739083597
 31
0.0
  0
LINE
  5
9E82
330
1E
100
AcDbEntity
  8
0
 48
0.27
100
AcDbLine
 10
937.895445256748
 20
1161.158873322708
 30
0.0
 11
937.8301138930057
 21
1160.596085708885
 31
0.0
  0
LINE
  5
9E83
330
1E
100
AcDbEntity
  8
0
 48
0.27
100
AcDbLine
 10
937.8954452567473
 20
1158.862739083597
 30
0.0
 11
938.0015372456833
 21
1158.344072184501
 31
0.0
  0
LINE
  5
9E84
330
1E
100
AcDbEntity
  8
0
 48
0.27
100
AcDbLine
 10
938.0015372456842
 20
1161.677541557822
 30
0.0
 11
937.895445256748
 21
1161.158873322708
 31
0.0
  0
LINE
  5
9E85
330
1E
100
AcDbEntity
  8
0
 48
0.27
100
AcDbLine
 10
938.0015372456833
 20
1158.344072184501
 30
0.0
 11
938.1443149998535
 21
1157.889455406251
 31
0.0
  0
LINE
  5
9E86
330
1E
100
AcDbEntity
  8
0
 48
0.27
100
AcDbLine
 10
938.1443149998547
 20
1162.132158336073
 30
0.0
 11
938.0015372456842
 21
1161.677541557822
 31
0.0
  0
LINE
  5
9E87
330
1E
100
AcDbEntity
  8
0
 48
0.27
100
AcDbLine
 10
937.6304470835876
 20
1160.010806203152
 30
0.0
 11
938.2932838693669
 21
1157.010763260323
 31
0.0
  0
LINE
  5
9E88
330
1E
100
AcDbEntity
  8
0
 48
0.27
100
AcDbLine
 10
938.2932838693687
 20
1163.010850482001
 30
0.0
 11
937.6304470835876
 21
1160.010806203152
 31
0.0
  0
LINE
  5
9E89
330
1E
100
AcDbEntity
  8
0
 48
0.27
100
AcDbLine
 10
938.1443149998535
 20
1157.889455406251
 30
0.0
 11
938.3182888142494
 21
1157.516361214611
 31
0.0
  0
LINE
  5
9E8A
330
1E
100
AcDbEntity
  8
0
 48
0.27
100
AcDbLine
 10
938.3182888142508
 20
1162.505252527713
 30
0.0
 11
938.1443149998547
 21
1162.132158336073
 31
0.0
  0
LINE
  5
9E8B
330
1E
100
AcDbEntity
  8
0
 48
0.27
100
AcDbLine
 10
938.3182888142494
 20
1157.516361214611
 30
0.0
 11
938.5167745821329
 21
1157.239127773009
 31
0.0
  0
LINE
  5
9E8C
330
1E
100
AcDbEntity
  8
0
 48
0.27
100
AcDbLine
 10
938.5167745821345
 20
1162.782485969315
 30
0.0
 11
938.3182888142508
 21
1162.505252527713
 31
0.0
  0
LINE
  5
9E8D
330
1E
100
AcDbEntity
  8
0
 48
0.27
100
AcDbLine
 10
936.6048448745896
 20
1163.010850482002
 30
0.0
 11
935.9420080888094
 21
1160.010806203153
 31
0.0
  0
LINE
  5
9E8E
330
1E
100
AcDbEntity
  8
0
 48
0.27
100
AcDbLine
 10
935.9420080888094
 20
1160.010806203153
 30
0.0
 11
937.6304470835876
 21
1160.010806203152
 31
0.0
  0
LINE
  5
9E8F
330
1E
100
AcDbEntity
  8
0
 48
0.27
100
AcDbLine
 10
935.9420080888094
 20
1160.010806203153
 30
0.0
 11
936.6048448745878
 21
1157.010763260323
 31
0.0
  0
LINE
  5
9E90
330
1E
100
AcDbEntity
  8
0
 48
0.27
100
AcDbLine
 10
938.5167745821329
 20
1157.239127773009
 30
0.0
 11
938.7321436311841
 21
1157.068408502705
 31
0.0
  0
LINE
  5
9E91
330
1E
100
AcDbEntity
  8
0
 48
0.27
100
AcDbLine
 10
938.5167745821345
 20
1162.782485969315
 30
0.0
 11
938.7321436311859
 21
1162.953205239618
 31
0.0
  0
LINE
  5
9E92
330
1E
100
AcDbEntity
  8
0
 48
0.27
100
AcDbLine
 10
938.7321436311841
 20
1157.068408502705
 30
0.0
 11
938.9561206551471
 21
1157.010763260323
 31
0.0
  0
LINE
  5
9E93
330
1E
100
AcDbEntity
  8
0
 48
0.27
100
AcDbLine
 10
938.7321436311859
 20
1162.953205239618
 30
0.0
 11
938.9561206551489
 21
1163.010850482001
 31
0.0
  0
LINE
  5
9E94
330
1E
100
AcDbEntity
  8
0
 48
0.27
100
AcDbLine
 10
938.9561206551471
 20
1157.010763260323
 30
0.0
 11
939.1800976791092
 21
1157.068408502705
 31
0.0
  0
LINE
  5
9E95
330
1E
100
AcDbEntity
  8
0
 48
0.27
100
AcDbLine
 10
938.9561206551489
 20
1163.010850482001
 30
0.0
 11
939.180097679111
 21
1162.953205239618
 31
0.0
  0
LINE
  5
9E96
330
1E
100
AcDbEntity
  8
0
 48
0.27
100
AcDbLine
 10
936.6048448745878
 20
1157.010763260323
 30
0.0
 11
939.6189574409273
 21
1157.010763260323
 31
0.0
  0
LINE
  5
9E97
330
1E
100
AcDbEntity
  8
0
 48
0.27
100
AcDbLine
 10
939.6189574409291
 20
1163.010850482001
 30
0.0
 11
939.681857248788
 21
1162.726159378374
 31
0.0
  0
LINE
  5
9E98
330
1E
100
AcDbEntity
  8
0
 48
0.27
100
AcDbLine
 10
939.6818572487864
 20
1157.295454363949
 30
0.0
 11
939.6189574409273
 21
1157.010763260323
 31
0.0
  0
LINE
  5
9E99
330
1E
100
AcDbEntity
  8
0
 48
0.27
100
AcDbLine
 10
936.6048448745896
 20
1163.010850482002
 30
0.0
 11
939.6189574409291
 21
1163.010850482001
 31
0.0
  0
LINE
  5
9E9A
330
1E
100
AcDbEntity
  8
0
 48
0.27
100
AcDbLine
 10
938.1901137554686
 20
1163.010850482001
 30
0.0
 11
937.6127555106261
 21
1164.010865241618
 31
0.0
  0
LINE
  5
9E9B
330
1E
100
AcDbEntity
  8
0
 48
0.27
100
AcDbLine
 10
941.5872311076658
 20
1158.096976675483
 30
0.0
 11
941.6379864964087
 21
1158.063513389874
 31
0.0
  0
LINE
  5
9E9C
330
1E
100
AcDbEntity
  8
0
 48
0.27
100
AcDbLine
 10
941.3747051087026
 20
1161.946919203489
 30
0.0
 11
941.4230596699113
 21
1161.948972665853
 31
0.0
  0
LINE
  5
9E9D
330
1E
100
AcDbEntity
  8
0
 48
0.27
100
AcDbLine
 10
941.587231107667
 20
1161.924637066839
 30
0.0
 11
941.6379864964097
 21
1161.958100352448
 31
0.0
  0
LINE
  5
9E9E
330
1E
100
AcDbEntity
  8
0
 48
0.27
100
AcDbLine
 10
942.0902117993618
 20
1160.010806203151
 30
0.0
 11
942.1089882203549
 21
1159.512657894771
 31
0.0
  0
LINE
  5
9E9F
330
1E
100
AcDbEntity
  8
0
 48
0.27
100
AcDbLine
 10
943.6890786888689
 20
1160.010806203151
 30
0.0
 11
943.7022531792162
 21
1159.661264702901
 31
0.0
  0
LINE
  5
9EA0
330
1E
100
AcDbEntity
  8
0
 48
0.27
100
AcDbLine
 10
943.7022531792164
 20
1160.3603477034
 30
0.0
 11
943.6890786888689
 21
1160.010806203151
 31
0.0
  0
LINE
  5
9EA1
330
1E
100
AcDbEntity
  8
0
 48
0.27
100
AcDbLine
 10
942.1089882203551
 20
1160.50895584755
 30
0.0
 11
942.0902117993618
 21
1160.010806203151
 31
0.0
  0
LINE
  5
9EA2
330
1E
100
AcDbEntity
  8
0
 48
0.27
100
AcDbLine
 10
943.7022531792162
 20
1159.661264702901
 30
0.0
 11
943.7412716347887
 21
1159.325156880881
 31
0.0
  0
LINE
  5
9EA3
330
1E
100
AcDbEntity
  8
0
 48
0.27
100
AcDbLine
 10
942.1089882203549
 20
1159.512657894771
 30
0.0
 11
942.1645933605676
 21
1159.033652076726
 31
0.0
  0
LINE
  5
9EA4
330
1E
100
AcDbEntity
  8
0
 48
0.27
100
AcDbLine
 10
943.7412716347891
 20
1160.696456861439
 30
0.0
 11
943.7022531792164
 21
1160.3603477034
 31
0.0
  0
LINE
  5
9EA5
330
1E
100
AcDbEntity
  8
0
 48
0.27
100
AcDbLine
 10
942.1645933605681
 20
1160.987961665595
 30
0.0
 11
942.1089882203551
 21
1160.50895584755
 31
0.0
  0
LINE
  5
9EA6
330
1E
100
AcDbEntity
  8
0
 48
0.27
100
AcDbLine
 10
943.7412716347887
 20
1159.325156880881
 30
0.0
 11
943.8046323694742
 21
1159.015396703436
 31
0.0
  0
LINE
  5
9EA7
330
1E
100
AcDbEntity
  8
0
 48
0.27
100
AcDbLine
 10
942.1645933605676
 20
1159.033652076726
 30
0.0
 11
942.2548922606452
 21
1158.592197764748
 31
0.0
  0
LINE
  5
9EA8
330
1E
100
AcDbEntity
  8
0
 48
0.27
100
AcDbLine
 10
943.8046323694747
 20
1161.006215702865
 30
0.0
 11
943.7412716347891
 21
1160.696456861439
 31
0.0
  0
LINE
  5
9EA9
330
1E
100
AcDbEntity
  8
0
 48
0.27
100
AcDbLine
 10
942.2548922606461
 20
1161.429415977673
 30
0.0
 11
942.1645933605681
 21
1160.987961665595
 31
0.0
  0
LINE
  5
9EAA
330
1E
100
AcDbEntity
  8
0
 48
0.27
100
AcDbLine
 10
943.8046323694742
 20
1159.015396703436
 30
0.0
 11
943.8899011553509
 21
1158.743890778413
 31
0.0
  0
LINE
  5
9EAB
330
1E
100
AcDbEntity
  8
0
 48
0.27
100
AcDbLine
 10
942.2548922606452
 20
1158.592197764748
 30
0.0
 11
942.3764139412382
 21
1158.205259736792
 31
0.0
  0
LINE
  5
9EAC
330
1E
100
AcDbEntity
  8
0
 48
0.27
100
AcDbLine
 10
943.8899011553516
 20
1161.277722963908
 30
0.0
 11
943.8046323694747
 21
1161.006215702865
 31
0.0
  0
LINE
  5
9EAD
330
1E
100
AcDbEntity
  8
0
 48
0.27
100
AcDbLine
 10
942.3764139412392
 20
1161.816352669508
 30
0.0
 11
942.2548922606461
 21
1161.429415977673
 31
0.0
  0
LINE
  5
9EAE
330
1E
100
AcDbEntity
  8
0
 48
0.27
100
AcDbLine
 10
943.8899011553509
 20
1158.743890778413
 30
0.0
 11
943.9938020720141
 21
1158.521070747434
 31
0.0
  0
LINE
  5
9EAF
330
1E
100
AcDbEntity
  8
0
 48
0.27
100
AcDbLine
 10
942.3764139412382
 20
1158.205259736792
 30
0.0
 11
942.5244890136095
 21
1157.887709228469
 31
0.0
  0
LINE
  5
9EB0
330
1E
100
AcDbEntity
  8
0
 48
0.27
100
AcDbLine
 10
943.993802072015
 20
1161.500542994887
 30
0.0
 11
943.8899011553516
 21
1161.277722963908
 31
0.0
  0
LINE
  5
9EB1
330
1E
100
AcDbEntity
  8
0
 48
0.27
100
AcDbLine
 10
943.9938020720141
 20
1158.521070747434
 30
0.0
 11
944.1123417565927
 21
1158.355501833085
 31
0.0
  0
LINE
  5
9EB2
330
1E
100
AcDbEntity
  8
0
 48
0.27
100
AcDbLine
 10
942.5244890136108
 20
1162.133904513853
 30
0.0
 11
942.3764139412392
 21
1161.816352669508
 31
0.0
  0
LINE
  5
9EB3
330
1E
100
AcDbEntity
  8
0
 48
0.27
100
AcDbLine
 10
940.9861732092887
 20
1160.010806203152
 30
0.0
 11
941.0005207249531
 21
1159.630122083556
 31
0.0
  0
LINE
  5
9EB4
330
1E
100
AcDbEntity
  8
0
 48
0.27
100
AcDbLine
 10
941.0005207249534
 20
1160.391491658766
 30
0.0
 11
940.9861732092887
 21
1160.010806203152
 31
0.0
  0
LINE
  5
9EB5
330
1E
100
AcDbEntity
  8
0
 48
0.27
100
AcDbLine
 10
941.0005207249531
 20
1159.630122083556
 30
0.0
 11
941.0430155037536
 21
1159.264067379739
 31
0.0
  0
LINE
  5
9EB6
330
1E
100
AcDbEntity
  8
0
 48
0.27
100
AcDbLine
 10
941.0430155037541
 20
1160.757546362583
 30
0.0
 11
941.0005207249534
 21
1160.391491658766
 31
0.0
  0
LINE
  5
9EB7
330
1E
100
AcDbEntity
  8
0
 48
0.27
100
AcDbLine
 10
941.0430155037536
 20
1159.264067379739
 30
0.0
 11
941.1120209217084
 21
1158.926709043171
 31
0.0
  0
LINE
  5
9EB8
330
1E
100
AcDbEntity
  8
0
 48
0.27
100
AcDbLine
 10
942.5244890136095
 20
1157.887709228469
 30
0.0
 11
942.6934260336059
 21
1157.65174677171
 31
0.0
  0
LINE
  5
9EB9
330
1E
100
AcDbEntity
  8
0
 48
0.27
100
AcDbLine
 10
944.1123417565936
 20
1161.666111909235
 30
0.0
 11
943.993802072015
 21
1161.500542994887
 31
0.0
  0
LINE
  5
9EBA
330
1E
100
AcDbEntity
  8
0
 48
0.27
100
AcDbLine
 10
944.1123417565927
 20
1158.355501833085
 30
0.0
 11
944.2409657180256
 21
1158.253543489068
 31
0.0
  0
LINE
  5
9EBB
330
1E
100
AcDbEntity
  8
0
 48
0.27
100
AcDbLine
 10
941.1120209217092
 20
1161.094904699151
 30
0.0
 11
941.0430155037541
 21
1160.757546362583
 31
0.0
  0
LINE
  5
9EBC
330
1E
100
AcDbEntity
  8
0
 48
0.27
100
AcDbLine
 10
942.6934260336071
 20
1162.369866970611
 30
0.0
 11
942.5244890136108
 21
1162.133904513853
 31
0.0
  0
LINE
  5
9EBD
330
1E
100
AcDbEntity
  8
0
 48
0.27
100
AcDbLine
 10
941.1120209217084
 20
1158.926709043171
 30
0.0
 11
941.2048876516569
 21
1158.631011809238
 31
0.0
  0
LINE
  5
9EBE
330
1E
100
AcDbEntity
  8
0
 48
0.27
100
AcDbLine
 10
941.2048876516578
 20
1161.390601933084
 30
0.0
 11
941.1120209217092
 21
1161.094904699151
 31
0.0
  0
LINE
  5
9EBF
330
1E
100
AcDbEntity
  8
0
 48
0.27
100
AcDbLine
 10
944.2409657180256
 20
1158.253543489068
 30
0.0
 11
944.3747293471572
 21
1158.219116933202
 31
0.0
  0
LINE
  5
9EC0
330
1E
100
AcDbEntity
  8
0
 48
0.27
100
AcDbLine
 10
942.6934260336059
 20
1157.65174677171
 30
0.0
 11
942.8767332816981
 21
1157.506441268253
 31
0.0
  0
LINE
  5
9EC1
330
1E
100
AcDbEntity
  8
0
 48
0.27
100
AcDbLine
 10
944.1123417565936
 20
1161.666111909235
 30
0.0
 11
944.2409657180265
 21
1161.768070253252
 31
0.0
  0
LINE
  5
9EC2
330
1E
100
AcDbEntity
  8
0
 48
0.27
100
AcDbLine
 10
941.2048876516569
 20
1158.631011809238
 30
0.0
 11
941.3180458488072
 21
1158.388339861472
 31
0.0
  0
LINE
  5
9EC3
330
1E
100
AcDbEntity
  8
0
 48
0.27
100
AcDbLine
 10
942.6934260336071
 20
1162.369866970611
 30
0.0
 11
942.8767332816995
 21
1162.515171138048
 31
0.0
  0
LINE
  5
9EC4
330
1E
100
AcDbEntity
  8
0
 48
0.27
100
AcDbLine
 10
941.3180458488081
 20
1161.63327388085
 30
0.0
 11
941.2048876516578
 21
1161.390601933084
 31
0.0
  0
LINE
  5
9EC5
330
1E
100
AcDbEntity
  8
0
 48
0.27
100
AcDbLine
 10
941.3180458488072
 20
1158.388339861472
 30
0.0
 11
941.4471481053181
 21
1158.208018617552
 31
0.0
  0
LINE
  5
9EC6
330
1E
100
AcDbEntity
  8
0
 48
0.27
100
AcDbLine
 10
942.0226760031521
 20
1157.83246481362
 30
0.0
 11
942.1919416840449
 21
1157.698291026302
 31
0.0
  0
LINE
  5
9EC7
330
1E
100
AcDbEntity
  8
0
 48
0.27
100
AcDbLine
 10
942.8767332816981
 20
1157.506441268253
 30
0.0
 11
943.0673672618061
 21
1157.457378616511
 31
0.0
  0
LINE
  5
9EC8
330
1E
100
AcDbEntity
  8
0
 48
0.27
100
AcDbLine
 10
944.3747293471572
 20
1158.219116933202
 30
0.0
 11
944.5084929763902
 21
1158.253543489068
 31
0.0
  0
LINE
  5
9EC9
330
1E
100
AcDbEntity
  8
0
 48
0.27
100
AcDbLine
 10
944.2409657180265
 20
1161.768070253252
 30
0.0
 11
944.3747293471584
 21
1161.802496809118
 31
0.0
  0
LINE
  5
9ECA
330
1E
100
AcDbEntity
  8
0
 48
0.27
100
AcDbLine
 10
941.4471481053194
 20
1161.81359512477
 30
0.0
 11
941.3180458488081
 21
1161.63327388085
 31
0.0
  0
LINE
  5
9ECB
330
1E
100
AcDbEntity
  8
0
 48
0.27
100
AcDbLine
 10
942.1919416840449
 20
1157.698291026302
 30
0.0
 11
942.5179785895064
 21
1157.533789591731
 31
0.0
  0
LINE
  5
9ECC
330
1E
100
AcDbEntity
  8
0
 48
0.27
100
AcDbLine
 10
942.5179785895064
 20
1157.533789591731
 30
0.0
 11
942.7065297149194
 21
1157.485261347887
 31
0.0
  0
LINE
  5
9ECD
330
1E
100
AcDbEntity
  8
0
 48
0.27
100
AcDbLine
 10
942.8767332816995
 20
1162.515171138048
 30
0.0
 11
943.0673672618075
 21
1162.564235125809
 31
0.0
  0
LINE
  5
9ECE
330
1E
100
AcDbEntity
  8
0
 48
0.27
100
AcDbLine
 10
941.4471481053181
 20
1158.208018617552
 30
0.0
 11
941.5872311076658
 21
1158.096976675483
 31
0.0
  0
LINE
  5
9ECF
330
1E
100
AcDbEntity
  8
0
 48
0.27
100
AcDbLine
 10
941.6379864964087
 20
1158.063513389874
 30
0.0
 11
942.1919416840449
 21
1157.698291026302
 31
0.0
  0
LINE
  5
9ED0
330
1E
100
AcDbEntity
  8
0
 48
0.27
100
AcDbLine
 10
942.5179785895078
 20
1162.48782415059
 30
0.0
 11
942.706529714921
 21
1162.536351058514
 31
0.0
  0
LINE
  5
9ED1
330
1E
100
AcDbEntity
  8
0
 48
0.27
100
AcDbLine
 10
942.1919416840463
 20
1162.323322716019
 30
0.0
 11
942.5179785895078
 21
1162.48782415059
 31
0.0
  0
LINE
  5
9ED2
330
1E
100
AcDbEntity
  8
0
 48
0.27
100
AcDbLine
 10
941.4471481053194
 20
1161.81359512477
 30
0.0
 11
941.587231107667
 21
1161.924637066839
 31
0.0
  0
LINE
  5
9ED3
330
1E
100
AcDbEntity
  8
0
 48
0.27
100
AcDbLine
 10
942.7065297149194
 20
1157.485261347887
 30
0.0
 11
943.0673672618061
 21
1157.457378616511
 31
0.0
  0
LINE
  5
9ED4
330
1E
100
AcDbEntity
  8
0
 48
0.27
100
AcDbLine
 10
943.0673672618061
 20
1157.457378616511
 30
0.0
 11
943.2579999058937
 21
1157.506441268253
 31
0.0
  0
LINE
  5
9ED5
330
1E
100
AcDbEntity
  8
0
 48
0.27
100
AcDbLine
 10
944.5084929763902
 20
1158.253543489068
 30
0.0
 11
944.6371156018035
 21
1158.355501833085
 31
0.0
  0
LINE
  5
9ED6
330
1E
100
AcDbEntity
  8
0
 48
0.27
100
AcDbLine
 10
943.2579999058937
 20
1157.506441268253
 30
0.0
 11
944.5084929763902
 21
1158.253543489068
 31
0.0
  0
LINE
  5
9ED7
330
1E
100
AcDbEntity
  8
0
 48
0.27
100
AcDbLine
 10
944.3747293471584
 20
1161.802496809118
 30
0.0
 11
944.5084929763913
 21
1161.768070253251
 31
0.0
  0
LINE
  5
9ED8
330
1E
100
AcDbEntity
  8
0
 48
0.27
100
AcDbLine
 10
941.6379864964097
 20
1161.958100352448
 30
0.0
 11
942.1919416840463
 21
1162.323322716019
 31
0.0
  0
LINE
  5
9ED9
330
1E
100
AcDbEntity
  8
0
 48
0.27
100
AcDbLine
 10
942.706529714921
 20
1162.536351058514
 30
0.0
 11
943.0673672618075
 21
1162.564235125809
 31
0.0
  0
LINE
  5
9EDA
330
1E
100
AcDbEntity
  8
0
 48
0.27
100
AcDbLine
 10
943.0673672618075
 20
1162.564235125809
 30
0.0
 11
943.2579999058951
 21
1162.515171138048
 31
0.0
  0
LINE
  5
9EDB
330
1E
100
AcDbEntity
  8
0
 48
0.27
100
AcDbLine
 10
944.7556552863821
 20
1158.521070747433
 30
0.0
 11
944.6371156018035
 21
1158.355501833085
 31
0.0
  0
LINE
  5
9EDC
330
1E
100
AcDbEntity
  8
0
 48
0.27
100
AcDbLine
 10
944.5084929763913
 20
1161.768070253251
 30
0.0
 11
944.6371156018043
 21
1161.666111909235
 31
0.0
  0
LINE
  5
9EDD
330
1E
100
AcDbEntity
  8
0
 48
0.27
100
AcDbLine
 10
943.2579999058951
 20
1162.515171138048
 30
0.0
 11
944.5084929763913
 21
1161.768070253251
 31
0.0
  0
LINE
  5
9EDE
330
1E
100
AcDbEntity
  8
0
 48
0.27
100
AcDbLine
 10
941.4230596699102
 20
1158.072639740449
 30
0.0
 11
941.6379864964087
 21
1158.063513389874
 31
0.0
  0
LINE
  5
9EDF
330
1E
100
AcDbEntity
  8
0
 48
0.27
100
AcDbLine
 10
941.4230596699113
 20
1161.948972665853
 30
0.0
 11
941.6379864964097
 21
1161.958100352448
 31
0.0
  0
LINE
  5
9EE0
330
1E
100
AcDbEntity
  8
0
 48
0.27
100
AcDbLine
 10
944.8595562030456
 20
1158.743890778412
 30
0.0
 11
944.7556552863821
 21
1158.521070747433
 31
0.0
  0
LINE
  5
9EE1
330
1E
100
AcDbEntity
  8
0
 48
0.27
100
AcDbLine
 10
944.6371156018043
 20
1161.666111909235
 30
0.0
 11
944.7556552863829
 21
1161.500542994887
 31
0.0
  0
LINE
  5
9EE2
330
1E
100
AcDbEntity
  8
0
 48
0.27
100
AcDbLine
 10
941.1819334970008
 20
1157.97423654491
 30
0.0
 11
941.4230596699102
 21
1158.072639740449
 31
0.0
  0
LINE
  5
9EE3
330
1E
100
AcDbEntity
  8
0
 48
0.27
100
AcDbLine
 10
941.1819334970019
 20
1162.047377197412
 30
0.0
 11
941.4230596699113
 21
1161.948972665853
 31
0.0
  0
LINE
  5
9EE4
330
1E
100
AcDbEntity
  8
0
 48
0.27
100
AcDbLine
 10
944.944826324942
 20
1159.015396703436
 30
0.0
 11
944.8595562030456
 21
1158.743890778412
 31
0.0
  0
LINE
  5
9EE5
330
1E
100
AcDbEntity
  8
0
 48
0.27
100
AcDbLine
 10
944.7556552863829
 20
1161.500542994887
 30
0.0
 11
944.8595562030462
 21
1161.277722963907
 31
0.0
  0
LINE
  5
9EE6
330
1E
100
AcDbEntity
  8
0
 48
0.27
100
AcDbLine
 10
945.0081870596266
 20
1159.32515688088
 30
0.0
 11
944.944826324942
 21
1159.015396703436
 31
0.0
  0
LINE
  5
9EE7
330
1E
100
AcDbEntity
  8
0
 48
0.27
100
AcDbLine
 10
944.1001906573797
 20
1161.649139114861
 30
0.0
 11
944.1020891413831
 21
1161.648210581211
 31
0.0
  0
LINE
  5
9EE8
330
1E
100
AcDbEntity
  8
0
 48
0.27
100
AcDbLine
 10
944.8595562030462
 20
1161.277722963907
 30
0.0
 11
944.9448263249427
 21
1161.006215702864
 31
0.0
  0
LINE
  5
9EE9
330
1E
100
AcDbEntity
  8
0
 48
0.27
100
AcDbLine
 10
945.0472041791808
 20
1159.6612647029
 30
0.0
 11
945.0081870596266
 21
1159.32515688088
 31
0.0
  0
LINE
  5
9EEA
330
1E
100
AcDbEntity
  8
0
 48
0.27
100
AcDbLine
 10
944.9448263249427
 20
1161.006215702864
 30
0.0
 11
945.0081870596271
 21
1160.696456861439
 31
0.0
  0
LINE
  5
9EEB
330
1E
100
AcDbEntity
  8
0
 48
0.27
100
AcDbLine
 10
945.0603786695282
 20
1160.01080620315
 30
0.0
 11
945.0472041791808
 21
1159.6612647029
 31
0.0
  0
LINE
  5
9EEC
330
1E
100
AcDbEntity
  8
0
 48
0.27
100
AcDbLine
 10
945.0081870596271
 20
1160.696456861439
 30
0.0
 11
945.047204179181
 21
1160.3603477034
 31
0.0
  0
LINE
  5
9EED
330
1E
100
AcDbEntity
  8
0
 48
0.27
100
AcDbLine
 10
945.047204179181
 20
1160.3603477034
 30
0.0
 11
945.0603786695282
 21
1160.01080620315
 31
0.0
  0
LWPOLYLINE
  5
9EEE
330
1E
100
AcDbEntity
  8
0
 48
0.27
100
AcDbPolyline
 90
       17
 70
     0
 43
0.0
 10
944.2551382150368
 20
1160.010806203151
 10
944.2886870059938
 20
1160.227846612791
 10
944.3215784751593
 20
1160.290751764728
 10
944.3581493426163
 20
1160.320293832518
 10
944.392126995832
 20
1160.319986548034
 10
944.4286203741578
 20
1160.289781814474
 10
944.4599647325476
 20
1160.230010964774
 10
944.4893518220752
 20
1160.099936085969
 10
944.4943191433603
 20
1160.01080620315
 10
944.4607716884229
 20
1159.793767129529
 10
944.4278788832379
 20
1159.730861977592
 10
944.3913080157807
 20
1159.701319909802
 10
944.3573316985848
 20
1159.701627194386
 10
944.3208369842395
 20
1159.731831927946
 10
944.2894939618691
 20
1159.791602777646
 10
944.2601055363221
 20
1159.921677656351
 10
944.2551382150368
 20
1160.010806203151
  0
LINE
  5
9EEF
330
1E
100
AcDbEntity
  8
0
 48
0.27
100
AcDbLine
 10
930.6844512284314
 20
1160.010806203155
 30
0.0
 11
932.9938855438243
 21
1164.010865241619
 31
0.0
  0
LINE
  5
9EF0
330
1E
100
AcDbEntity
  8
0
 48
0.27
100
AcDbLine
 10
932.993885543822
 20
1156.010748500708
 30
0.0
 11
930.6844512284314
 21
1160.010806203155
 31
0.0
  0
ARC
  5
9EF1
330
1E
100
AcDbEntity
  8
0
 48
0.27
100
AcDbCircle
 10
935.3033198592138
 20
1160.010806203153
 30
0.0
 40
4.000057702445608
100
AcDbArc
 50
48.59037799679356
 51
311.4096220010869
  0
LINE
  5
9EF2
330
1E
100
AcDbEntity
  8
0
 48
0.27
100
AcDbLine
 10
937.6127555106261
 20
1164.010865241618
 30
0.0
 11
932.9938855438243
 21
1164.010865241619
 31
0.0
  0
LINE
  5
9EF3
330
1E
100
AcDbEntity
  8
0
 48
0.27
100
AcDbLine
 10
932.993885543822
 20
1156.010748500708
 30
0.0
 11
937.6127541746043
 21
1156.010748500707
 31
0.0
  0
LINE
  5
9EFA
330
1E
100
AcDbEntity
  8
虛線
 48
0.25
100
AcDbLine
 10
929.8033198592159
 20
1153.410836720696
 30
0.0
 11
929.5723797515401
 21
1153.810836720696
 31
0.0
  0
LINE
  5
9EFB
330
1E
100
AcDbEntity
  8
虛線
 48
0.25
100
AcDbLine
 10
931.8033198592132
 20
1144.510836720695
 30
0.0
 11
931.5033198592132
 21
1144.810836720696
 31
0.0
  0
LINE
  5
9EFC
330
1E
100
AcDbEntity
  8
虛線
 48
0.25
100
AcDbLine
 10
940.8033198592159
 20
1153.410836720693
 30
0.0
 11
941.0342599668918
 21
1153.810836720693
 31
0.0
  0
LINE
  5
9EFD
330
1E
100
AcDbEntity
  8
虛線
 48
0.25
100
AcDbLine
 10
939.1033198592136
 20
1144.810836720694
 30
0.0
 11
938.8033198592133
 21
1144.510836720693
 31
0.0
  0
LINE
  5
9EFE
330
1E
100
AcDbEntity
  8
虛線
 48
0.25
100
AcDbLine
 10
938.8033198592133
 20
1144.510836720693
 30
0.0
 11
931.8033198592132
 21
1144.510836720695
 31
0.0
  0
LINE
  5
9EFF
330
1E
100
AcDbEntity
  8
虛線
 48
0.25
100
AcDbLine
 10
940.8033198592159
 20
1153.410836720693
 30
0.0
 11
929.8033198592159
 21
1153.410836720696
 31
0.0
  0
LINE
  5
9F00
330
1E
100
AcDbEntity
  8
虛線
 48
0.25
100
AcDbLine
 10
929.8033198592159
 20
1153.410836720696
 30
0.0
 11
929.8033198592147
 21
1144.81077568554
 31
0.0
  0
LINE
  5
9F01
330
1E
100
AcDbEntity
  8
0
  6
Continuous
100
AcDbLine
 10
941.8033661422109
 20
1130.710806203021
 30
0.0
 11
940.3033684965997
 21
1130.710806203043
 31
0.0
  0
LINE
  5
9F02
330
1E
100
AcDbEntity
  8
0
  6
Continuous
100
AcDbLine
 10
940.3033684965997
 20
1130.710806203043
 30
0.0
 11
939.8033686482987
 21
1130.210806203115
 31
0.0
  0
LINE
  5
9F03
330
1E
100
AcDbEntity
  8
0
  6
Continuous
100
AcDbLine
 10
942.3033657693215
 20
1130.210806203115
 30
0.0
 11
941.8033661422109
 21
1130.710806203021
 31
0.0
  0
LINE
  5
9F04
330
1E
100
AcDbEntity
  8
虛線
 48
0.25
100
AcDbLine
 10
931.8033198592106
 20
1130.710806203118
 30
0.0
 11
931.3033198592114
 21
1130.210806203118
 31
0.0
  0
LINE
  5
9F05
330
1E
100
AcDbEntity
  8
虛線
 48
0.25
100
AcDbLine
 10
938.8033198592028
 20
1130.710806203115
 30
0.0
 11
939.3033198592018
 21
1130.210806203116
 31
0.0
  0
LINE
  5
9F06
330
1E
100
AcDbEntity
  8
0
  6
Continuous
100
AcDbLine
 10
959.6417274903023
 20
1135.710826203106
 30
0.0
 11
946.8033122298145
 21
1135.710826203127
 31
0.0
  0
LINE
  5
9F12
330
1E
100
AcDbEntity
  8
中心線
 48
0.27
100
AcDbLine
 10
935.3033198592182
 20
1168.914327989075
 30
0.0
 11
935.3033198592122
 21
1128.712418305133
 31
0.0
  0
LINE
  5
9F14
330
1E
100
AcDbEntity
  8
0
100
AcDbLine
 10
948.4033122298139
 20
1137.916952392766
 30
0.0
 11
944.2533198592041
 21
1142.066944757358
 31
0.0
  0
LINE
  5
9F15
330
1E
100
AcDbEntity
  8
0
100
AcDbLine
 10
947.2033122298148
 20
1137.419896117407
 30
0.0
 11
943.0533198592042
 21
1141.569888482001
 31
0.0
  0
LINE
  5
9F16
330
1E
100
AcDbEntity
  8
0
100
AcDbLine
 10
946.8033122298141
 20
1137.254210692289
 30
0.0
 11
942.6533198592039
 21
1141.404203056881
 31
0.0
  0
LINE
  5
9F1A
330
1E
100
AcDbEntity
  8
0
100
AcDbLine
 10
944.2533198592061
 20
1147.123628263593
 30
0.0
 11
944.2533198592041
 21
1142.066944757358
 31
0.0
  0
LINE
  5
9F1B
330
1E
100
AcDbEntity
  8
0
100
AcDbLine
 10
943.0533198592064
 20
1147.620684538951
 30
0.0
 11
943.0533198592042
 21
1141.569888482001
 31
0.0
  0
LINE
  5
9F1C
330
1E
100
AcDbEntity
  8
0
100
AcDbLine
 10
942.6533198592064
 20
1147.78636996407
 30
0.0
 11
942.6533198592039
 21
1141.404203056881
 31
0.0
  0
LINE
  5
9F1D
330
1E
100
AcDbEntity
  8
0
100
AcDbLine
 10
948.4033122298193
 20
1151.273620628191
 30
0.0
 11
948.4033122298169
 21
1154.073578420493
 31
0.0
  0
LINE
  5
9F1E
330
1E
100
AcDbEntity
  8
0
100
AcDbLine
 10
947.2033122298187
 20
1151.770676903547
 30
0.0
 11
947.2033122298169
 21
1153.576522145644
 31
0.0
  0
LINE
  5
9F1F
330
1E
100
AcDbEntity
  8
0
100
AcDbLine
 10
946.8033122298185
 20
1151.936362328666
 30
0.0
 11
946.8033122298173
 21
1153.410836720695
 31
0.0
  0
LINE
  5
9F20
330
1E
100
AcDbEntity
  8
0
100
AcDbLine
 10
948.4033122298193
 20
1151.273620628191
 30
0.0
 11
944.2533198592061
 21
1147.123628263593
 31
0.0
  0
LINE
  5
9F21
330
1E
100
AcDbEntity
  8
0
100
AcDbLine
 10
947.2033122298187
 20
1151.770676903547
 30
0.0
 11
943.0533198592064
 21
1147.620684538951
 31
0.0
  0
LINE
  5
9F22
330
1E
100
AcDbEntity
  8
0
100
AcDbLine
 10
946.8033122298185
 20
1151.936362328666
 30
0.0
 11
942.6533198592064
 21
1147.78636996407
 31
0.0
  0
LINE
  5
9F24
330
1E
100
AcDbEntity
  8
0
100
AcDbLine
 10
948.4033122298139
 20
1137.916952392766
 30
0.0
 11
948.4033122298143
 21
1136.210823326391
 31
0.0
  0
LINE
  5
9F25
330
1E
100
AcDbEntity
  8
0
100
AcDbLine
 10
947.2033122298148
 20
1137.419896117407
 30
0.0
 11
947.2033122298144
 21
1136.210821682551
 31
0.0
  0
LINE
  5
9F26
330
1E
100
AcDbEntity
  8
0
100
AcDbLine
 10
946.8033122298141
 20
1137.254210692289
 30
0.0
 11
946.8033122298153
 21
1131.710806203114
 31
0.0
  0
LINE
  5
9F2C
330
1E
100
AcDbEntity
  8
0
100
AcDbLine
 10
922.2033274886015
 20
1137.916952392772
 30
0.0
 11
926.3533198592144
 21
1142.066944757363
 31
0.0
  0
LINE
  5
9F2D
330
1E
100
AcDbEntity
  8
0
100
AcDbLine
 10
923.4033274886011
 20
1137.419896117414
 30
0.0
 11
927.5533198592141
 21
1141.569888482005
 31
0.0
  0
LINE
  5
9F2E
330
1E
100
AcDbEntity
  8
0
100
AcDbLine
 10
923.8033274886015
 20
1137.254210692296
 30
0.0
 11
927.9533198592144
 21
1141.404203056886
 31
0.0
  0
LINE
  5
9F36
330
1E
100
AcDbEntity
  8
虛線
 48
0.25
100
AcDbLine
 10
940.8033198592079
 20
1144.810775685537
 30
0.0
 11
929.8033198592147
 21
1144.81077568554
 31
0.0
  0
LINE
  5
9F37
330
1E
100
AcDbEntity
  8
虛線
 48
0.25
100
AcDbLine
 10
938.8033198592133
 20
1144.510836720693
 30
0.0
 11
938.8033198592028
 21
1130.710806203115
 31
0.0
  0
LINE
  5
9F38
330
1E
100
AcDbEntity
  8
虛線
 48
0.25
100
AcDbLine
 10
940.8033198592113
 20
1153.410836720693
 30
0.0
 11
940.8033198592079
 21
1144.810844350087
 31
0.0
  0
LINE
  5
9F39
330
1E
100
AcDbEntity
  8
0
  6
Continuous
100
AcDbLine
 10
958.8032898592185
 20
1164.210806203111
 30
0.0
 11
958.8032898592089
 21
1136.710829536428
 31
0.0
  0
LINE
  5
9F3A
330
1E
100
AcDbEntity
  8
0
  6
Continuous
100
AcDbLine
 10
958.8032898592089
 20
1136.710829536428
 30
0.0
 11
957.8032798592117
 21
1135.710826203111
 31
0.0
  0
LINE
  5
9F3B
330
1E
100
AcDbEntity
  8
0
  6
Continuous
100
AcDbLine
 10
958.8032898592185
 20
1164.210806203111
 30
0.0
 11
957.7032898592189
 21
1165.310806203112
 31
0.0
  0
LINE
  5
9F3C
330
1E
100
AcDbEntity
  8
0
100
AcDbLine
 10
948.4033122298169
 20
1154.073578420493
 30
0.0
 11
946.7160539296129
 21
1155.760836720695
 31
0.0
  0
LINE
  5
9F3D
330
1E
100
AcDbEntity
  8
0
100
AcDbLine
 10
947.2033122298169
 20
1153.576522145644
 30
0.0
 11
946.2189976547653
 21
1154.560836720695
 31
0.0
  0
LINE
  5
9F3E
330
1E
100
AcDbEntity
  8
0
100
AcDbLine
 10
946.8033122298173
 20
1153.410836720695
 30
0.0
 11
946.4033122298168
 21
1153.810836720695
 31
0.0
  0
LINE
  5
9F3F
330
1E
100
AcDbEntity
  8
0
  6
Continuous
100
AcDbLine
 10
946.7160539296129
 20
1155.760836720695
 30
0.0
 11
923.8905857888052
 21
1155.760836720695
 31
0.0
  0
LINE
  5
9F40
330
1E
100
AcDbEntity
  8
0
  6
Continuous
100
AcDbLine
 10
946.2189976547653
 20
1154.560836720695
 30
0.0
 11
924.3876420636526
 21
1154.560836720694
 31
0.0
  0
LINE
  5
9F41
330
1E
100
AcDbEntity
  8
0
  6
Continuous
100
AcDbLine
 10
946.4033122298168
 20
1153.810836720695
 30
0.0
 11
935.3033198592159
 21
1153.810836720695
 31
0.0
  0
LINE
  5
9F42
330
1E
100
AcDbEntity
  8
0
  6
Continuous
100
AcDbLine
 10
946.8033122298153
 20
1131.710806203114
 30
0.0
 11
945.3033122298155
 21
1130.210806203114
 31
0.0
  0
LINE
  5
9F43
330
1E
100
AcDbEntity
  8
0
  6
Continuous
100
AcDbLine
 10
945.3033122298155
 20
1130.210806203114
 30
0.0
 11
942.3033657693215
 21
1130.210806203115
 31
0.0
  0
LINE
  5
9F44
330
1E
100
AcDbEntity
  8
0
  6
Continuous
100
AcDbLine
 10
939.8033686482987
 20
1130.210806203115
 30
0.0
 11
935.3033198592104
 21
1130.210806203117
 31
0.0
  0
LINE
  5
9F48
330
1E
100
AcDbEntity
  8
0
100
AcDbLine
 10
926.3533198592156
 20
1147.123628263599
 30
0.0
 11
926.3533198592144
 21
1142.066944757363
 31
0.0
  0
LINE
  5
9F49
330
1E
100
AcDbEntity
  8
0
100
AcDbLine
 10
927.5533198592155
 20
1147.620684538956
 30
0.0
 11
927.5533198592141
 21
1141.569888482005
 31
0.0
  0
LINE
  5
9F4A
330
1E
100
AcDbEntity
  8
0
100
AcDbLine
 10
927.9533198592156
 20
1147.786369964074
 30
0.0
 11
927.9533198592144
 21
1141.404203056886
 31
0.0
  0
LINE
  5
9F4B
330
1E
100
AcDbEntity
  8
虛線
 48
0.25
100
AcDbLine
 10
931.8033198592132
 20
1144.510836720695
 30
0.0
 11
931.8033198592106
 21
1130.710806203118
 31
0.0
  0
LINE
  5
9F4D
330
1E
100
AcDbEntity
  8
0
100
AcDbLine
 10
922.2033274886044
 20
1151.273620628199
 30
0.0
 11
922.2033274886079
 21
1154.073578420501
 31
0.0
  0
LINE
  5
9F4E
330
1E
100
AcDbEntity
  8
0
100
AcDbLine
 10
923.4033274886048
 20
1151.770676903555
 30
0.0
 11
923.4033274886076
 21
1153.576522145652
 31
0.0
  0
LINE
  5
9F4F
330
1E
100
AcDbEntity
  8
0
100
AcDbLine
 10
923.8033274886049
 20
1151.936362328674
 30
0.0
 11
923.8033274886072
 21
1153.410836720702
 31
0.0
  0
LINE
  5
9F50
330
1E
100
AcDbEntity
  8
0
100
AcDbLine
 10
922.2033274886044
 20
1151.273620628199
 30
0.0
 11
926.3533198592156
 21
1147.123628263599
 31
0.0
  0
LINE
  5
9F51
330
1E
100
AcDbEntity
  8
0
100
AcDbLine
 10
923.4033274886048
 20
1151.770676903555
 30
0.0
 11
927.5533198592155
 21
1147.620684538956
 31
0.0
  0
LINE
  5
9F52
330
1E
100
AcDbEntity
  8
0
100
AcDbLine
 10
923.8033274886049
 20
1151.936362328674
 30
0.0
 11
927.9533198592156
 21
1147.786369964074
 31
0.0
  0
LINE
  5
9F53
330
1E
100
AcDbEntity
  8
0
  6
Continuous
100
AcDbLine
 10
925.3033274885972
 20
1130.210806203121
 30
0.0
 11
923.8033274885982
 21
1131.710806203122
 31
0.0
  0
LINE
  5
9F54
330
1E
100
AcDbEntity
  8
0
100
AcDbLine
 10
922.2033274886015
 20
1137.916952392772
 30
0.0
 11
922.2033274886008
 21
1136.210823326401
 31
0.0
  0
LINE
  5
9F55
330
1E
100
AcDbEntity
  8
0
100
AcDbLine
 10
923.4033274886011
 20
1137.419896117414
 30
0.0
 11
923.4033274886007
 21
1136.21082168256
 31
0.0
  0
LINE
  5
9F56
330
1E
100
AcDbEntity
  8
0
100
AcDbLine
 10
923.8033274886015
 20
1137.254210692296
 30
0.0
 11
923.8033274885982
 21
1131.710806203122
 31
0.0
  0
LINE
  5
9F57
330
1E
100
AcDbEntity
  8
0
  6
Continuous
100
AcDbLine
 10
922.2033274886008
 20
1136.210823326401
 30
0.0
 11
923.4033274886007
 21
1136.21082168256
 31
0.0
  0
LINE
  5
9F58
330
1E
100
AcDbEntity
  8
0
  6
Continuous
100
AcDbLine
 10
910.9648997096901
 20
1135.710838721559
 30
0.0
 11
923.8033274886007
 21
1135.710821134612
 31
0.0
  0
LINE
  5
9F59
330
1E
100
AcDbEntity
  8
0
100
AcDbLine
 10
912.9033498592177
 20
1165.310806203125
 30
0.0
 11
911.8033498592168
 21
1164.210806203125
 31
0.0
  0
LINE
  5
9F5A
330
1E
100
AcDbEntity
  8
0
  6
Continuous
100
AcDbLine
 10
911.8033498592168
 20
1164.210806203125
 30
0.0
 11
911.8033498592057
 21
1136.710836203126
 31
0.0
  0
LINE
  5
9F5B
330
1E
100
AcDbEntity
  8
0
100
AcDbLine
 10
922.2033274886079
 20
1154.073578420501
 30
0.0
 11
923.8905857888052
 21
1155.760836720695
 31
0.0
  0
LINE
  5
9F5C
330
1E
100
AcDbEntity
  8
0
100
AcDbLine
 10
923.4033274886076
 20
1153.576522145652
 30
0.0
 11
924.3876420636526
 21
1154.560836720694
 31
0.0
  0
LINE
  5
9F5D
330
1E
100
AcDbEntity
  8
0
100
AcDbLine
 10
923.8033274886072
 20
1153.410836720702
 30
0.0
 11
924.2033274886079
 21
1153.810836720702
 31
0.0
  0
LINE
  5
9F5E
330
1E
100
AcDbEntity
  8
0
  6
Continuous
100
AcDbLine
 10
924.2033274886079
 20
1153.810836720702
 30
0.0
 11
935.3033198592124
 21
1153.810836720695
 31
0.0
  0
LINE
  5
9F5F
330
1E
100
AcDbEntity
  8
0
  6
Continuous
100
AcDbLine
 10
928.8032735761898
 20
1130.710806203119
 30
0.0
 11
930.303271221809
 21
1130.710806203119
 31
0.0
  0
LINE
  5
9F60
330
1E
100
AcDbEntity
  8
0
  6
Continuous
100
AcDbLine
 10
925.3033274885972
 20
1130.210806203121
 30
0.0
 11
928.3032739489707
 21
1130.210806203119
 31
0.0
  0
LINE
  5
9F61
330
1E
100
AcDbEntity
  8
虛線
 48
0.25
100
AcDbLine
 10
931.8033198592106
 20
1130.710806203118
 30
0.0
 11
938.8033198592028
 21
1130.710806203115
 31
0.0
  0
LINE
  5
9F62
330
1E
100
AcDbEntity
  8
0
  6
Continuous
100
AcDbLine
 10
930.8032710701676
 20
1130.210806203118
 30
0.0
 11
935.3033198592028
 21
1130.210806203117
 31
0.0
  0
LINE
  5
9F63
330
1E
100
AcDbEntity
  8
0
  6
Continuous
100
AcDbLine
 10
930.303271221809
 20
1130.710806203119
 30
0.0
 11
930.8032710701676
 21
1130.210806203118
 31
0.0
  0
LINE
  5
9F64
330
1E
100
AcDbEntity
  8
0
  6
Continuous
100
AcDbLine
 10
928.3032739489707
 20
1130.210806203119
 30
0.0
 11
928.8032735761898
 21
1130.710806203119
 31
0.0
  0
LINE
  5
A17F
330
1E
100
AcDbEntity
  8
0
100
AcDbLine
 10
927.8033274886171
 20
1165.31080620312
 30
0.0
 11
928.3033289192173
 21
1165.81080620312
 31
0.0
  0
LINE
  5
A180
330
1E
100
AcDbEntity
  8
0
100
AcDbLine
 10
928.3033198592173
 20
1165.81080620312
 30
0.0
 11
942.3033198592172
 21
1165.810806203116
 31
0.0
  0
LINE
  5
A181
330
1E
100
AcDbEntity
  8
0
100
AcDbLine
 10
942.3033107993175
 20
1165.810806203116
 30
0.0
 11
942.8033122298172
 21
1165.310806203116
 31
0.0
  0
ARC
  5
C6E2
330
1E
100
AcDbEntity
  8
標註線
 62
     1
100
AcDbCircle
 10
1148.625032833818
 20
1248.877922760257
 30
0.0
 40
4.0
100
AcDbArc
 50
169.9999999988309
 51
100.0000000011691
  0
ARC
  5
C6E9
330
1E
100
AcDbEntity
  8
標註線
 62
     1
100
AcDbCircle
 10
1151.125032833818
 20
1220.37792276026
 30
0.0
 40
4.0
100
AcDbArc
 50
169.9999999988309
 51
100.0000000011691
  0
ARC
  5
C6F0
330
1E
100
AcDbEntity
  8
標註線
 62
     1
100
AcDbCircle
 10
1106.125032833818
 20
1220.37792276026
 30
0.0
 40
4.0
100
AcDbArc
 50
169.9999999988309
 51
100.0000000011691
  0
ARC
  5
C6F7
330
1E
100
AcDbEntity
  8
標註線
 62
     1
100
AcDbCircle
 10
1108.625032833818
 20
1248.877922760257
 30
0.0
 40
4.0
100
AcDbArc
 50
169.9999999988309
 51
100.0000000011691
  0
ARC
  5
C6FE
330
1E
100
AcDbEntity
  8
標註線
 62
     1
100
AcDbCircle
 10
1106.125032833818
 20
1277.377922760261
 30
0.0
 40
4.0
100
AcDbArc
 50
169.9999999988309
 51
100.0000000011691
  0
LINE
  5
C717
330
1E
100
AcDbEntity
  8
中心線
 48
0.27
100
AcDbLine
 10
1085.525032833818
 20
1160.210806203117
 30
0.0
 11
1092.725032833818
 21
1160.210806203117
 31
0.0
  0
LINE
  5
C718
330
1E
100
AcDbEntity
  8
中心線
 48
0.27
100
AcDbLine
 10
1089.125032833818
 20
1156.610806203117
 30
0.0
 11
1089.125032833818
 21
1163.810806203117
 31
0.0
  0
LINE
  5
C721
330
1E
100
AcDbEntity
  8
中心線
 48
0.27
100
AcDbLine
 10
1168.125032833818
 20
1156.610806203117
 30
0.0
 11
1168.125032833818
 21
1163.810806203117
 31
0.0
  0
LINE
  5
C722
330
1E
100
AcDbEntity
  8
中心線
 48
0.27
100
AcDbLine
 10
1164.525032833818
 20
1160.210806203117
 30
0.0
 11
1171.725032833818
 21
1160.210806203117
 31
0.0
  0
LINE
  5
C723
330
1E
100
AcDbEntity
  8
0
100
AcDbLine
 10
1052.99824254528
 20
1153.810836720717
 30
0.0
 11
1051.692851717294
 21
1149.268136851172
 31
0.0
  0
LINE
  5
C724
330
1E
100
AcDbEntity
  8
0
100
AcDbLine
 10
1051.692851717294
 20
1149.268136851172
 30
0.0
 11
1053.957612567926
 21
1144.603402132654
 31
0.0
  0
LINE
  5
C725
330
1E
100
AcDbEntity
  8
0
100
AcDbLine
 10
1053.957612567926
 20
1144.603402132654
 30
0.0
 11
1051.763637922598
 21
1139.649030070413
 31
0.0
  0
LINE
  5
C726
330
1E
100
AcDbEntity
  8
0
100
AcDbLine
 10
1051.763637922598
 20
1139.649030070413
 30
0.0
 11
1054.371544592975
 21
1134.092504610036
 31
0.0
  0
LINE
  5
C727
330
1E
100
AcDbEntity
  8
0
100
AcDbLine
 10
1054.371544592975
 20
1134.092504610036
 30
0.0
 11
1052.96790645747
 21
1130.210806203117
 31
0.0
  0
LINE
  5
C728
330
1E
100
AcDbEntity
  8
0
100
AcDbLine
 10
1042.12503283382
 20
1130.710806203116
 30
0.0
 11
1035.125032833827
 21
1130.710806203116
 31
0.0
  0
LINE
  5
C729
330
1E
100
AcDbEntity
  8
0
100
AcDbLine
 10
1042.125032833821
 20
1144.510836720694
 30
0.0
 11
1042.12503283382
 21
1130.710806203116
 31
0.0
  0
LINE
  5
C72A
330
1E
100
AcDbEntity
  8
0
100
AcDbLine
 10
1033.125032833826
 20
1153.410836720694
 30
0.0
 11
1033.125032833827
 21
1144.810844350089
 31
0.0
  0
LINE
  5
C72B
330
1E
100
AcDbEntity
  8
0
100
AcDbLine
 10
1035.125032833821
 20
1144.510836720694
 30
0.0
 11
1035.125032833827
 21
1130.710806203116
 31
0.0
  0
LINE
  5
C72C
330
1E
100
AcDbEntity
  8
0
100
AcDbLine
 10
1033.125032833827
 20
1144.810775685538
 30
0.0
 11
1044.12503283382
 21
1144.810775685538
 31
0.0
  0
LINE
  5
C72D
330
1E
100
AcDbEntity
  8
中心線
 48
0.25
100
AcDbLine
 10
1038.625032833823
 20
1155.810836720694
 30
0.0
 11
1038.625032833818
 21
1128.712418305132
 31
0.0
  0
LINE
  5
C72E
330
1E
100
AcDbEntity
  8
0
100
AcDbLine
 10
1035.125032833827
 20
1130.710806203116
 30
0.0
 11
1034.625032833828
 21
1130.210806203116
 31
0.0
  0
LINE
  5
C72F
330
1E
100
AcDbEntity
  8
0
100
AcDbLine
 10
1042.12503283382
 20
1130.710806203116
 30
0.0
 11
1042.625032833819
 21
1130.210806203116
 31
0.0
  0
LINE
  5
C730
330
1E
100
AcDbEntity
  8
0
100
AcDbLine
 10
1044.125032833821
 20
1153.410836720694
 30
0.0
 11
1044.12503283382
 21
1144.810775685538
 31
0.0
  0
LINE
  5
C731
330
1E
100
AcDbEntity
  8
0
100
AcDbLine
 10
1033.125032833821
 20
1153.410836720694
 30
0.0
 11
1044.125032833821
 21
1153.410836720694
 31
0.0
  0
LINE
  5
C732
330
1E
100
AcDbEntity
  8
0
100
AcDbLine
 10
1035.125032833821
 20
1144.510836720694
 30
0.0
 11
1042.125032833821
 21
1144.510836720694
 31
0.0
  0
LINE
  5
C733
330
1E
100
AcDbEntity
  8
0
100
AcDbLine
 10
1034.825032833821
 20
1144.810836720694
 30
0.0
 11
1035.125032833821
 21
1144.510836720694
 31
0.0
  0
LINE
  5
C734
330
1E
100
AcDbEntity
  8
0
100
AcDbLine
 10
1033.125032833821
 20
1153.410836720694
 30
0.0
 11
1032.894092726145
 21
1153.810836720694
 31
0.0
  0
LINE
  5
C735
330
1E
100
AcDbEntity
  8
0
100
AcDbLine
 10
1042.125032833821
 20
1144.510836720694
 30
0.0
 11
1042.425032833821
 21
1144.810836720694
 31
0.0
  0
LINE
  5
C736
330
1E
100
AcDbEntity
  8
0
100
AcDbLine
 10
1044.125032833821
 20
1153.410836720694
 30
0.0
 11
1044.355972941497
 21
1153.810836720694
 31
0.0
  0
ARC
  5
C819
330
1E
100
AcDbEntity
  8
0
  6
Continuous
100
AcDbCircle
 10
1072.313980011332
 20
1248.87789276026
 30
0.0
 40
4.0
100
AcDbArc
 50
90.0
 51
210.8352048940814
  0
ARC
  5
C81A
330
1E
100
AcDbEntity
  8
0
  6
Continuous
100
AcDbCircle
 10
1078.031548810864
 20
1252.327892859853
 30
0.0
 40
2.119009977045996
100
AcDbArc
 50
147.1327799989424
 51
212.8672200010575
  0
LINE
  5
C81B
330
1E
100
AcDbEntity
  8
0
  6
Continuous
100
AcDbLine
 10
1072.313980011332
 20
1252.87789276026
 30
0.0
 11
1075.985160921832
 21
1252.87789276026
 31
0.0
  0
LINE
  5
C81C
330
1E
100
AcDbEntity
  8
0
  6
Continuous
100
AcDbLine
 10
1076.251791375927
 20
1251.177892561074
 30
0.0
 11
1079.675032833818
 21
1251.177892561074
 31
0.0
  0
LINE
  5
C81D
330
1E
100
AcDbEntity
  8
0
  6
Continuous
100
AcDbLine
 10
1076.251791375927
 20
1253.47789276026
 30
0.0
 11
1079.675032833818
 21
1253.47789276026
 31
0.0
  0
LINE
  5
C81E
330
1E
100
AcDbEntity
  8
0
  6
Continuous
100
AcDbLine
 10
1074.119010688422
 20
1242.717849660328
 30
0.0
 11
1074.691130581788
 21
1244.099069266195
 31
0.0
  0
ARC
  5
C81F
330
1E
100
AcDbEntity
  8
0
  6
Continuous
100
AcDbCircle
 10
1073.785347464871
 20
1244.541713893668
 30
0.0
 40
1.854133729915247
100
AcDbArc
 50
214.6327799989322
 51
280.3672200010575
  0
LINE
  5
C820
330
1E
100
AcDbEntity
  8
0
  6
Continuous
100
AcDbLine
 10
1072.259745220269
 20
1243.48804291393
 30
0.0
 11
1072.831822488785
 21
1244.869159614306
 31
0.0
  0
LINE
  5
C821
330
1E
100
AcDbEntity
  8
0
  6
Continuous
100
AcDbLine
 10
1073.586434722086
 20
1244.87789276026
 30
0.0
 11
1075.985160921832
 21
1244.87789276026
 31
0.0
  0
ARC
  5
C822
330
1E
100
AcDbEntity
  8
0
  6
Continuous
100
AcDbCircle
 10
1073.165528286424
 20
1243.045338026842
 30
0.0
 40
1.854133729915247
100
AcDbArc
 50
34.63277999893215
 51
100.3672200010575
  0
ARC
  5
C823
330
1E
100
AcDbEntity
  8
0
  6
Continuous
100
AcDbCircle
 10
1078.031548810864
 20
1245.427892660667
 30
0.0
 40
2.119009977045996
100
AcDbArc
 50
147.1327799989424
 51
212.8672200010575
  0
LINE
  5
C824
330
1E
100
AcDbEntity
  8
0
  6
Continuous
100
AcDbLine
 10
1076.251791375927
 20
1244.27789276026
 30
0.0
 11
1079.675032833818
 21
1244.27789276026
 31
0.0
  0
LINE
  5
C825
330
1E
100
AcDbEntity
  8
0
  6
Continuous
100
AcDbLine
 10
1076.251791375927
 20
1246.577892959446
 30
0.0
 11
1079.675032833818
 21
1246.577892959446
 31
0.0
  0
LINE
  5
C826
330
1E
100
AcDbEntity
  8
0
  6
Continuous
100
AcDbLine
 10
1075.912538833817
 20
1245.427892660667
 30
0.0
 11
1075.912538833817
 21
1252.327892859853
 31
0.0
  0
ARC
  5
C827
330
1E
100
AcDbEntity
  8
0
  6
Continuous
100
AcDbCircle
 10
1083.879972813451
 20
1248.87789276026
 30
0.0
 40
7.96743397963368
100
AcDbArc
 50
163.2213499979083
 51
196.7786500020917
  0
LINE
  5
C828
330
1E
100
AcDbEntity
  8
0
  6
Continuous
100
AcDbLine
 10
1068.541130423953
 20
1245.028343595806
 30
0.0
 11
1069.113207692468
 21
1246.409460296181
 31
0.0
  0
LINE
  5
C829
330
1E
100
AcDbEntity
  8
0
  6
Continuous
100
AcDbLine
 10
1066.681822703753
 20
1245.798494070137
 30
0.0
 11
1067.253899972269
 21
1247.179610770513
 31
0.0
  0
ARC
  5
C82A
330
1E
100
AcDbEntity
  8
0
  6
Continuous
100
AcDbCircle
 10
1067.587605447866
 20
1245.355789316443
 30
0.0
 40
1.854133729915247
100
AcDbArc
 50
34.63277999893215
 51
100.3672200010575
  0
ARC
  5
C82B
330
1E
100
AcDbEntity
  8
0
  6
Continuous
100
AcDbCircle
 10
1068.207424626314
 20
1246.85216518327
 30
0.0
 40
1.854133729915247
100
AcDbArc
 50
214.6327799989322
 51
280.3672200010575
  0
ARC
  5
C82C
330
1E
100
AcDbEntity
  8
0
  6
Continuous
100
AcDbCircle
 10
1065.408312707674
 20
1244.11890113327
 30
0.0
 40
2.059673609817605
100
AcDbArc
 50
335.8479011650615
 51
45.8479011650646
  0
LINE
  5
C82D
330
1E
100
AcDbEntity
  8
0
  6
Continuous
100
AcDbLine
 10
1065.912538833817
 20
1241.572746073597
 30
0.0
 11
1071.674963717618
 21
1239.185871534571
 31
0.0
  0
LINE
  5
C82E
330
1E
100
AcDbEntity
  8
0
  6
Continuous
100
AcDbLine
 10
1065.912538833817
 20
1238.540750111212
 30
0.0
 11
1069.531018812085
 21
1237.041926629038
 31
0.0
  0
LINE
  5
C82F
330
1E
100
AcDbEntity
  8
0
  6
Continuous
100
AcDbLine
 10
1065.912538833817
 20
1238.540750111212
 30
0.0
 11
1065.912538833817
 21
1241.572746073597
 31
0.0
  0
LINE
  5
C830
330
1E
100
AcDbEntity
  8
0
  6
Continuous
100
AcDbLine
 10
1069.531018812085
 20
1237.041926629038
 30
0.0
 11
1071.674963717618
 21
1239.185871534571
 31
0.0
  0
ARC
  5
C831
330
1E
100
AcDbEntity
  8
0
  6
Continuous
100
AcDbCircle
 10
1068.656321060058
 20
1240.764503774374
 30
0.0
 40
2.860349020536762
100
AcDbArc
 50
118.5864858262542
 51
163.5864858262599
  0
LINE
  5
C832
330
1E
100
AcDbEntity
  8
0
  6
Continuous
100
AcDbLine
 10
1067.472463558909
 20
1243.199627716797
 30
0.0
 11
1071.722309408461
 21
1241.439283927918
 31
0.0
  0
ARC
  5
C833
330
1E
100
AcDbEntity
  8
0
  6
Continuous
100
AcDbCircle
 10
1073.831908939313
 20
1240.62973333017
 30
0.0
 40
2.059673609817604
100
AcDbArc
 50
89.15209883494581
 51
159.1520988349398
  0
ARC
  5
C834
330
1E
100
AcDbEntity
  8
0
  6
Continuous
100
AcDbCircle
 10
1069.163303088722
 20
1240.554504942222
 30
0.0
 40
2.860349020536762
100
AcDbArc
 50
331.4135141737343
 51
16.41351417374012
  0
LINE
  5
C835
330
1E
100
AcDbEntity
  8
0
  6
Continuous
100
AcDbLine
 10
1067.497878366486
 20
1245.139168979662
 30
0.0
 11
1073.075801205043
 21
1242.828717690061
 31
0.0
  0
LINE
  5
C836
330
1E
100
AcDbEntity
  8
0
  6
Continuous
100
AcDbLine
 10
1068.297151707694
 20
1247.068785520051
 30
0.0
 11
1073.875074546252
 21
1244.75833423045
 31
0.0
  0
ARC
  5
C837
330
1E
100
AcDbEntity
  8
0
  6
Continuous
100
AcDbCircle
 10
1068.418233767313
 20
1239.472729342384
 30
0.0
 40
6.971504732179473
100
AcDbArc
 50
50.72134999791543
 51
84.27865000208244
  0
ARC
  5
C838
330
1E
100
AcDbEntity
  8
0
  6
Continuous
100
AcDbCircle
 10
1072.954719145424
 20
1250.424773867728
 30
0.0
 40
6.971504732179473
100
AcDbArc
 50
230.7213499979154
 51
264.2786500020954
  0
POINT
  5
C8C0
330
1E
100
AcDbEntity
  8
0
100
AcDbPoint
 10
1066.175032833817
 20
1160.010825534217
 30
-0.0000000000000009
1001
pntflag
1000
endpoint
  0
LINE
  5
C8C1
330
1E
100
AcDbEntity
  8
0
 48
0.27
100
AcDbLine
 10
1069.647820833817
 20
1160.010825534217
 30
-0.0000000000000009
 11
1069.616014833817
 21
1159.661289534217
 31
-0.0000000000000009
  0
LINE
  5
C8C2
330
1E
100
AcDbEntity
  8
0
 48
0.27
100
AcDbLine
 10
1069.616014833817
 20
1159.661289534217
 30
-0.0000000000000009
 11
1069.521819833818
 21
1159.325185534217
 31
-0.0000000000000009
  0
LINE
  5
C8C3
330
1E
100
AcDbEntity
  8
0
 48
0.27
100
AcDbLine
 10
1069.616014833817
 20
1160.360361534217
 30
-0.0000000000000009
 11
1069.647820833817
 21
1160.010825534217
 31
-0.0000000000000009
  0
LINE
  5
C8C4
330
1E
100
AcDbEntity
  8
0
 48
0.27
100
AcDbLine
 10
1069.521819833818
 20
1159.325185534217
 30
-0.0000000000000009
 11
1069.368855833817
 21
1159.015430534217
 31
-0.0000000000000009
  0
LINE
  5
C8C5
330
1E
100
AcDbEntity
  8
0
 48
0.27
100
AcDbLine
 10
1069.521819833818
 20
1160.696465534217
 30
-0.0000000000000009
 11
1069.616014833817
 21
1160.360361534217
 31
-0.0000000000000009
  0
LINE
  5
C8C6
330
1E
100
AcDbEntity
  8
0
 48
0.27
100
AcDbLine
 10
1069.368855833817
 20
1159.015430534217
 30
-0.0000000000000009
 11
1069.162999833818
 21
1158.743927534217
 31
-0.0000000000000009
  0
LINE
  5
C8C7
330
1E
100
AcDbEntity
  8
0
 48
0.27
100
AcDbLine
 10
1069.368855833817
 20
1161.006220534217
 30
-0.0000000000000009
 11
1069.521819833818
 21
1160.696465534217
 31
-0.0000000000000009
  0
LINE
  5
C8C8
330
1E
100
AcDbEntity
  8
0
 48
0.27
100
AcDbLine
 10
1068.912164833818
 20
1158.521111534217
 30
-0.0000000000000009
 11
1069.162999833818
 21
1158.743927534217
 31
-0.0000000000000009
  0
LINE
  5
C8C9
330
1E
100
AcDbEntity
  8
0
 48
0.27
100
AcDbLine
 10
1069.162999833818
 20
1161.277722534217
 30
-0.0000000000000009
 11
1069.368855833817
 21
1161.006220534217
 31
-0.0000000000000009
  0
LINE
  5
C8CA
330
1E
100
AcDbEntity
  8
0
 48
0.27
100
AcDbLine
 10
1070.893084833818
 20
1160.010825534217
 30
-0.0000000000000009
 11
1070.847756833817
 21
1159.512683534217
 31
-0.0000000000000009
  0
LINE
  5
C8CB
330
1E
100
AcDbEntity
  8
0
 48
0.27
100
AcDbLine
 10
1070.847756833817
 20
1159.512683534217
 30
-0.0000000000000009
 11
1070.713513833817
 21
1159.033684534217
 31
-0.0000000000000009
  0
LINE
  5
C8CC
330
1E
100
AcDbEntity
  8
0
 48
0.27
100
AcDbLine
 10
1070.847756833817
 20
1160.508967534217
 30
-0.0000000000000009
 11
1070.893084833818
 21
1160.010825534217
 31
-0.0000000000000009
  0
LINE
  5
C8CD
330
1E
100
AcDbEntity
  8
0
 48
0.27
100
AcDbLine
 10
1068.625987833818
 20
1158.355543534217
 30
-0.0000000000000009
 11
1068.912164833818
 21
1158.521111534217
 31
-0.0000000000000009
  0
LINE
  5
C8CE
330
1E
100
AcDbEntity
  8
0
 48
0.27
100
AcDbLine
 10
1068.912164833818
 20
1161.500539534217
 30
-0.0000000000000009
 11
1069.162999833818
 21
1161.277722534217
 31
-0.0000000000000009
  0
LINE
  5
C8CF
330
1E
100
AcDbEntity
  8
0
 48
0.27
100
AcDbLine
 10
1070.713513833817
 20
1159.033684534217
 30
-0.0000000000000009
 11
1070.495516833817
 21
1158.592237534217
 31
-0.0000000000000009
  0
LINE
  5
C8D0
330
1E
100
AcDbEntity
  8
0
 48
0.27
100
AcDbLine
 10
1070.713513833817
 20
1160.987965534217
 30
-0.0000000000000009
 11
1070.847756833817
 21
1160.508967534217
 31
-0.0000000000000009
  0
LINE
  5
C8D1
330
1E
100
AcDbEntity
  8
0
 48
0.27
100
AcDbLine
 10
1070.495516833817
 20
1158.592237534217
 30
-0.0000000000000009
 11
1070.202141833817
 21
1158.205305534217
 31
-0.0000000000000009
  0
LINE
  5
C8D2
330
1E
100
AcDbEntity
  8
0
 48
0.27
100
AcDbLine
 10
1070.495516833817
 20
1161.429413534217
 30
-0.0000000000000009
 11
1070.713513833817
 21
1160.987965534217
 31
-0.0000000000000009
  0
LINE
  5
C8D3
330
1E
100
AcDbEntity
  8
0
 48
0.27
100
AcDbLine
 10
1068.315468833818
 20
1158.253587534217
 30
-0.0000000000000009
 11
1068.625987833818
 21
1158.355543534217
 31
-0.0000000000000009
  0
LINE
  5
C8D4
330
1E
100
AcDbEntity
  8
0
 48
0.27
100
AcDbLine
 10
1068.625987833818
 20
1161.666106534217
 30
-0.0000000000000009
 11
1068.912164833818
 21
1161.500539534217
 31
-0.0000000000000009
  0
LINE
  5
C8D5
330
1E
100
AcDbEntity
  8
0
 48
0.27
100
AcDbLine
 10
1069.844662833817
 20
1157.887758534217
 30
-0.0000000000000009
 11
1070.202141833817
 21
1158.205305534217
 31
-0.0000000000000009
  0
LINE
  5
C8D6
330
1E
100
AcDbEntity
  8
0
 48
0.27
100
AcDbLine
 10
1070.202141833817
 20
1161.816345534217
 30
-0.0000000000000009
 11
1070.495516833817
 21
1161.429413534217
 31
-0.0000000000000009
  0
LINE
  5
C8D7
330
1E
100
AcDbEntity
  8
0
 48
0.27
100
AcDbLine
 10
1071.016784833818
 20
1160.010825534217
 30
-0.0000000000000009
 11
1070.971951833818
 21
1159.518123534217
 31
-0.0000000000000009
  0
LINE
  5
C8D8
330
1E
100
AcDbEntity
  8
0
 48
0.27
100
AcDbLine
 10
1067.992539833817
 20
1158.219161534217
 30
-0.0000000000000009
 11
1068.315468833818
 21
1158.253587534217
 31
-0.0000000000000009
  0
LINE
  5
C8D9
330
1E
100
AcDbEntity
  8
0
 48
0.27
100
AcDbLine
 10
1068.315468833818
 20
1161.768062534217
 30
-0.0000000000000009
 11
1068.625987833818
 21
1161.666106534217
 31
-0.0000000000000009
  0
LINE
  5
C8DA
330
1E
100
AcDbEntity
  8
0
 48
0.27
100
AcDbLine
 10
1070.971951833818
 20
1159.518123534217
 30
-0.0000000000000009
 11
1070.839175833818
 21
1159.044355534217
 31
-0.0000000000000009
  0
LINE
  5
C8DB
330
1E
100
AcDbEntity
  8
0
 48
0.27
100
AcDbLine
 10
1070.971951833818
 20
1160.503527534217
 30
-0.0000000000000009
 11
1071.016784833818
 21
1160.010825534217
 31
-0.0000000000000009
  0
LINE
  5
C8DC
330
1E
100
AcDbEntity
  8
0
 48
0.27
100
AcDbLine
 10
1069.436818833817
 20
1157.651799534217
 30
-0.0000000000000009
 11
1069.844662833817
 21
1157.887758534217
 31
-0.0000000000000009
  0
LINE
  5
C8DD
330
1E
100
AcDbEntity
  8
0
 48
0.27
100
AcDbLine
 10
1069.844662833817
 20
1162.133892534217
 30
-0.0000000000000009
 11
1070.202141833817
 21
1161.816345534217
 31
-0.0000000000000009
  0
LINE
  5
C8DE
330
1E
100
AcDbEntity
  8
0
 48
0.27
100
AcDbLine
 10
1070.839175833818
 20
1159.044355534217
 30
-0.0000000000000009
 11
1070.623558833817
 21
1158.607728534217
 31
-0.0000000000000009
  0
LINE
  5
C8DF
330
1E
100
AcDbEntity
  8
0
 48
0.27
100
AcDbLine
 10
1070.839175833818
 20
1160.977295534217
 30
-0.0000000000000009
 11
1070.971951833818
 21
1160.503527534217
 31
-0.0000000000000009
  0
LINE
  5
C8E0
330
1E
100
AcDbEntity
  8
0
 48
0.27
100
AcDbLine
 10
1070.623558833817
 20
1158.607728534217
 30
-0.0000000000000009
 11
1070.333387833818
 21
1158.225021534217
 31
-0.0000000000000009
  0
LINE
  5
C8E1
330
1E
100
AcDbEntity
  8
0
 48
0.27
100
AcDbLine
 10
1070.623558833817
 20
1161.413922534217
 30
-0.0000000000000009
 11
1070.839175833818
 21
1160.977295534217
 31
-0.0000000000000009
  0
LINE
  5
C8E2
330
1E
100
AcDbEntity
  8
0
 48
0.27
100
AcDbLine
 10
1068.994281833818
 20
1157.506496534217
 30
-0.0000000000000009
 11
1069.436818833817
 21
1157.651799534217
 31
-0.0000000000000009
  0
LINE
  5
C8E3
330
1E
100
AcDbEntity
  8
0
 48
0.27
100
AcDbLine
 10
1069.436818833817
 20
1162.369851534217
 30
-0.0000000000000009
 11
1069.844662833817
 21
1162.133892534217
 31
-0.0000000000000009
  0
LINE
  5
C8E4
330
1E
100
AcDbEntity
  8
0
 48
0.27
100
AcDbLine
 10
1067.669609833818
 20
1158.253587534217
 30
-0.0000000000000009
 11
1067.992539833817
 21
1158.219161534217
 31
-0.0000000000000009
  0
LINE
  5
C8E5
330
1E
100
AcDbEntity
  8
0
 48
0.27
100
AcDbLine
 10
1067.992539833817
 20
1161.802488534217
 30
-0.0000000000000009
 11
1068.315468833818
 21
1161.768062534217
 31
-0.0000000000000009
  0
LINE
  5
C8E6
330
1E
100
AcDbEntity
  8
0
 48
0.27
100
AcDbLine
 10
1069.979812833818
 20
1157.910942534217
 30
-0.0000000000000009
 11
1070.333387833818
 21
1158.225021534217
 31
-0.0000000000000009
  0
LINE
  5
C8E7
330
1E
100
AcDbEntity
  8
0
 48
0.27
100
AcDbLine
 10
1070.333387833818
 20
1161.796629534217
 30
-0.0000000000000009
 11
1070.623558833817
 21
1161.413922534217
 31
-0.0000000000000009
  0
LINE
  5
C8E8
330
1E
100
AcDbEntity
  8
0
 48
0.27
100
AcDbLine
 10
1068.534058833817
 20
1157.457434534217
 30
-0.0000000000000009
 11
1068.994281833818
 21
1157.506496534217
 31
-0.0000000000000009
  0
LINE
  5
C8E9
330
1E
100
AcDbEntity
  8
0
 48
0.27
100
AcDbLine
 10
1068.994281833818
 20
1157.506496534217
 30
-0.0000000000000009
 11
1069.138717833817
 21
1157.533844534217
 31
-0.0000000000000009
  0
LINE
  5
C8EA
330
1E
100
AcDbEntity
  8
0
 48
0.27
100
AcDbLine
 10
1068.994281833818
 20
1162.515153534217
 30
-0.0000000000000009
 11
1069.436818833817
 21
1162.369851534217
 31
-0.0000000000000009
  0
LINE
  5
C8EB
330
1E
100
AcDbEntity
  8
0
 48
0.27
100
AcDbLine
 10
1067.359090833818
 20
1158.355543534217
 30
-0.0000000000000009
 11
1067.669609833818
 21
1158.253587534217
 31
-0.0000000000000009
  0
LINE
  5
C8EC
330
1E
100
AcDbEntity
  8
0
 48
0.27
100
AcDbLine
 10
1067.669609833818
 20
1161.768062534217
 30
-0.0000000000000009
 11
1067.992539833817
 21
1161.802488534217
 31
-0.0000000000000009
  0
LINE
  5
C8ED
330
1E
100
AcDbEntity
  8
0
 48
0.27
100
AcDbLine
 10
1069.576421833817
 20
1157.677560534217
 30
-0.0000000000000009
 11
1069.979812833818
 21
1157.910942534217
 31
-0.0000000000000009
  0
LINE
  5
C8EE
330
1E
100
AcDbEntity
  8
0
 48
0.27
100
AcDbLine
 10
1069.979812833818
 20
1162.110708534217
 30
-0.0000000000000009
 11
1070.333387833818
 21
1161.796629534217
 31
-0.0000000000000009
  0
LINE
  5
C8EF
330
1E
100
AcDbEntity
  8
0
 48
0.27
100
AcDbLine
 10
1069.138717833817
 20
1157.533844534217
 30
-0.0000000000000009
 11
1069.576421833817
 21
1157.677560534217
 31
-0.0000000000000009
  0
LINE
  5
C8F0
330
1E
100
AcDbEntity
  8
0
 48
0.27
100
AcDbLine
 10
1069.576421833817
 20
1162.344090534217
 30
-0.0000000000000009
 11
1069.979812833818
 21
1162.110708534217
 31
-0.0000000000000009
  0
LINE
  5
C8F1
330
1E
100
AcDbEntity
  8
0
 48
0.27
100
AcDbLine
 10
1068.073835833818
 20
1157.506496534217
 30
-0.0000000000000009
 11
1068.534058833817
 21
1157.457434534217
 31
-0.0000000000000009
  0
LINE
  5
C8F2
330
1E
100
AcDbEntity
  8
0
 48
0.27
100
AcDbLine
 10
1068.534058833817
 20
1162.564216534217
 30
-0.0000000000000009
 11
1068.994281833818
 21
1162.515153534217
 31
-0.0000000000000009
  0
LINE
  5
C8F3
330
1E
100
AcDbEntity
  8
0
 48
0.27
100
AcDbLine
 10
1068.994281833818
 20
1162.515153534217
 30
-0.0000000000000009
 11
1069.138717833817
 21
1162.487806534217
 31
-0.0000000000000009
  0
LINE
  5
C8F4
330
1E
100
AcDbEntity
  8
0
 48
0.27
100
AcDbLine
 10
1067.072913833817
 20
1158.521111534217
 30
-0.0000000000000009
 11
1067.359090833818
 21
1158.355543534217
 31
-0.0000000000000009
  0
LINE
  5
C8F5
330
1E
100
AcDbEntity
  8
0
 48
0.27
100
AcDbLine
 10
1067.359090833818
 20
1161.666106534217
 30
-0.0000000000000009
 11
1067.669609833818
 21
1161.768062534217
 31
-0.0000000000000009
  0
LINE
  5
C8F6
330
1E
100
AcDbEntity
  8
0
 48
0.27
100
AcDbLine
 10
1069.138717833817
 20
1162.487806534217
 30
-0.0000000000000009
 11
1069.576421833817
 21
1162.344090534217
 31
-0.0000000000000009
  0
LINE
  5
C8F7
330
1E
100
AcDbEntity
  8
0
 48
0.27
100
AcDbLine
 10
1066.822078833818
 20
1158.743927534217
 30
-0.0000000000000009
 11
1067.072913833817
 21
1158.521111534217
 31
-0.0000000000000009
  0
LINE
  5
C8F8
330
1E
100
AcDbEntity
  8
0
 48
0.27
100
AcDbLine
 10
1067.072913833817
 20
1161.500539534217
 30
-0.0000000000000009
 11
1067.359090833818
 21
1161.666106534217
 31
-0.0000000000000009
  0
LINE
  5
C8F9
330
1E
100
AcDbEntity
  8
0
 48
0.27
100
AcDbLine
 10
1067.631298833817
 20
1157.651799534217
 30
-0.0000000000000009
 11
1068.073835833818
 21
1157.506496534217
 31
-0.0000000000000009
  0
LINE
  5
C8FA
330
1E
100
AcDbEntity
  8
0
 48
0.27
100
AcDbLine
 10
1068.073835833818
 20
1162.515153534217
 30
-0.0000000000000009
 11
1068.534058833817
 21
1162.564216534217
 31
-0.0000000000000009
  0
LINE
  5
C8FB
330
1E
100
AcDbEntity
  8
0
 48
0.27
100
AcDbLine
 10
1066.616222833818
 20
1159.015430534217
 30
-0.0000000000000009
 11
1066.822078833818
 21
1158.743927534217
 31
-0.0000000000000009
  0
LINE
  5
C8FC
330
1E
100
AcDbEntity
  8
0
 48
0.27
100
AcDbLine
 10
1066.822078833818
 20
1161.277722534217
 30
-0.0000000000000009
 11
1067.072913833817
 21
1161.500539534217
 31
-0.0000000000000009
  0
LINE
  5
C8FD
330
1E
100
AcDbEntity
  8
0
 48
0.27
100
AcDbLine
 10
1067.223453833817
 20
1157.887758534217
 30
-0.0000000000000009
 11
1067.631298833817
 21
1157.651799534217
 31
-0.0000000000000009
  0
LINE
  5
C8FE
330
1E
100
AcDbEntity
  8
0
 48
0.27
100
AcDbLine
 10
1067.631298833817
 20
1162.369851534217
 30
-0.0000000000000009
 11
1068.073835833818
 21
1162.515153534217
 31
-0.0000000000000009
  0
LINE
  5
C8FF
330
1E
100
AcDbEntity
  8
0
 48
0.27
100
AcDbLine
 10
1066.463258833818
 20
1159.325185534217
 30
-0.0000000000000009
 11
1066.616222833818
 21
1159.015430534217
 31
-0.0000000000000009
  0
LINE
  5
C900
330
1E
100
AcDbEntity
  8
0
 48
0.27
100
AcDbLine
 10
1066.822078833818
 20
1161.277722534217
 30
-0.0000000000000009
 11
1066.616222833818
 21
1161.006220534217
 31
-0.0000000000000009
  0
LINE
  5
C901
330
1E
100
AcDbEntity
  8
0
 48
0.27
100
AcDbLine
 10
1066.865975833817
 20
1158.205305534217
 30
-0.0000000000000009
 11
1067.223453833817
 21
1157.887758534217
 31
-0.0000000000000009
  0
LINE
  5
C902
330
1E
100
AcDbEntity
  8
0
 48
0.27
100
AcDbLine
 10
1067.223453833817
 20
1162.133892534217
 30
-0.0000000000000009
 11
1067.631298833817
 21
1162.369851534217
 31
-0.0000000000000009
  0
LINE
  5
C903
330
1E
100
AcDbEntity
  8
0
 48
0.27
100
AcDbLine
 10
1066.369063833818
 20
1159.661289534217
 30
-0.0000000000000009
 11
1066.463258833818
 21
1159.325185534217
 31
-0.0000000000000009
  0
LINE
  5
C904
330
1E
100
AcDbEntity
  8
0
 48
0.27
100
AcDbLine
 10
1066.616222833818
 20
1161.006220534217
 30
-0.0000000000000009
 11
1066.463258833818
 21
1160.696465534217
 31
-0.0000000000000009
  0
LINE
  5
C905
330
1E
100
AcDbEntity
  8
0
 48
0.27
100
AcDbLine
 10
1066.337257833818
 20
1160.010825534217
 30
-0.0000000000000009
 11
1066.369063833818
 21
1159.661289534217
 31
-0.0000000000000009
  0
LINE
  5
C906
330
1E
100
AcDbEntity
  8
0
 48
0.27
100
AcDbLine
 10
1066.463258833818
 20
1160.696465534217
 30
-0.0000000000000009
 11
1066.369063833818
 21
1160.360361534217
 31
-0.0000000000000009
  0
LINE
  5
C907
330
1E
100
AcDbEntity
  8
0
 48
0.27
100
AcDbLine
 10
1066.369063833818
 20
1160.360361534217
 30
-0.0000000000000009
 11
1066.337257833818
 21
1160.010825534217
 31
-0.0000000000000009
  0
LINE
  5
C908
330
1E
100
AcDbEntity
  8
0
 48
0.27
100
AcDbLine
 10
1066.572599833818
 20
1158.592237534217
 30
-0.0000000000000009
 11
1066.865975833817
 21
1158.205305534217
 31
-0.0000000000000009
  0
LINE
  5
C909
330
1E
100
AcDbEntity
  8
0
 48
0.27
100
AcDbLine
 10
1066.865975833817
 20
1161.816345534217
 30
-0.0000000000000009
 11
1067.223453833817
 21
1162.133892534217
 31
-0.0000000000000009
  0
LINE
  5
C90A
330
1E
100
AcDbEntity
  8
0
 48
0.27
100
AcDbLine
 10
1066.354602833817
 20
1159.033684534217
 30
-0.0000000000000009
 11
1066.572599833818
 21
1158.592237534217
 31
-0.0000000000000009
  0
LINE
  5
C90B
330
1E
100
AcDbEntity
  8
0
 48
0.27
100
AcDbLine
 10
1066.865975833817
 20
1161.816345534217
 30
-0.0000000000000009
 11
1066.572599833818
 21
1161.429413534217
 31
-0.0000000000000009
  0
LINE
  5
C90C
330
1E
100
AcDbEntity
  8
0
 48
0.27
100
AcDbLine
 10
1066.220360833818
 20
1159.512683534217
 30
-0.0000000000000009
 11
1066.354602833817
 21
1159.033684534217
 31
-0.0000000000000009
  0
LINE
  5
C90D
330
1E
100
AcDbEntity
  8
0
 48
0.27
100
AcDbLine
 10
1066.572599833818
 20
1161.429413534217
 30
-0.0000000000000009
 11
1066.354602833817
 21
1160.987965534217
 31
-0.0000000000000009
  0
LINE
  5
C90E
330
1E
100
AcDbEntity
  8
0
 48
0.27
100
AcDbLine
 10
1066.175032833817
 20
1160.010825534217
 30
-0.0000000000000009
 11
1066.220360833818
 21
1159.512683534217
 31
-0.0000000000000009
  0
LINE
  5
C90F
330
1E
100
AcDbEntity
  8
0
 48
0.27
100
AcDbLine
 10
1066.354602833817
 20
1160.987965534217
 30
-0.0000000000000009
 11
1066.220360833818
 21
1160.508967534217
 31
-0.0000000000000009
  0
LINE
  5
C910
330
1E
100
AcDbEntity
  8
0
 48
0.27
100
AcDbLine
 10
1066.220360833818
 20
1160.508967534217
 30
-0.0000000000000009
 11
1066.175032833817
 21
1160.010825534217
 31
-0.0000000000000009
  0
LINE
  5
C911
330
1E
100
AcDbEntity
  8
0
 48
0.27
100
AcDbLine
 10
1067.333070833818
 20
1158.370597534217
 30
-0.0000000000000009
 11
1067.336041833818
 21
1158.372213534217
 31
-0.0000000000000009
  0
LINE
  5
C912
330
1E
100
AcDbEntity
  8
0
 48
0.27
100
AcDbLine
 10
1067.333070833818
 20
1161.651052534217
 30
-0.0000000000000009
 11
1067.336041833818
 21
1161.649437534217
 31
-0.0000000000000009
  0
LINE
  5
C913
330
1E
100
AcDbEntity
  8
0
 48
0.27
100
AcDbLine
 10
1073.008605833817
 20
1160.010825534217
 30
-0.0000000000000009
 11
1072.955349833818
 21
1159.425554534217
 31
-0.0000000000000009
  0
LINE
  5
C914
330
1E
100
AcDbEntity
  8
0
 48
0.27
100
AcDbLine
 10
1072.955349833818
 20
1160.596096534217
 30
-0.0000000000000009
 11
1073.008605833817
 21
1160.010825534217
 31
-0.0000000000000009
  0
LINE
  5
C915
330
1E
100
AcDbEntity
  8
0
 48
0.27
100
AcDbLine
 10
1072.955349833818
 20
1159.425554534217
 30
-0.0000000000000009
 11
1072.797627833817
 21
1158.862774534217
 31
-0.0000000000000009
  0
LINE
  5
C916
330
1E
100
AcDbEntity
  8
0
 48
0.27
100
AcDbLine
 10
1072.797627833817
 20
1161.158875534217
 30
-0.0000000000000009
 11
1072.955349833818
 21
1160.596096534217
 31
-0.0000000000000009
  0
LINE
  5
C917
330
1E
100
AcDbEntity
  8
0
 48
0.27
100
AcDbLine
 10
1072.797627833817
 20
1158.862774534217
 30
-0.0000000000000009
 11
1072.541500833818
 21
1158.344114534217
 31
-0.0000000000000009
  0
LINE
  5
C918
330
1E
100
AcDbEntity
  8
0
 48
0.27
100
AcDbLine
 10
1072.541500833818
 20
1161.677535534217
 30
-0.0000000000000009
 11
1072.797627833817
 21
1161.158875534217
 31
-0.0000000000000009
  0
LINE
  5
C919
330
1E
100
AcDbEntity
  8
0
 48
0.27
100
AcDbLine
 10
1072.541500833818
 20
1158.344114534217
 30
-0.0000000000000009
 11
1072.196811833817
 21
1157.889504534217
 31
-0.0000000000000009
  0
LINE
  5
C91A
330
1E
100
AcDbEntity
  8
0
 48
0.27
100
AcDbLine
 10
1072.196811833817
 20
1162.132145534217
 30
-0.0000000000000009
 11
1072.541500833818
 21
1161.677535534217
 31
-0.0000000000000009
  0
LINE
  5
C91B
330
1E
100
AcDbEntity
  8
0
 48
0.27
100
AcDbLine
 10
1073.437379833817
 20
1160.010825534217
 30
-0.0000000000000009
 11
1071.837173833817
 21
1157.010825534217
 31
-0.0000000000000009
  0
LINE
  5
C91C
330
1E
100
AcDbEntity
  8
0
 48
0.27
100
AcDbLine
 10
1071.837173833817
 20
1163.010825534217
 30
-0.0000000000000009
 11
1073.437379833817
 21
1160.010825534217
 31
-0.0000000000000009
  0
LINE
  5
C91D
330
1E
100
AcDbEntity
  8
0
 48
0.27
100
AcDbLine
 10
1071.776807833817
 20
1157.516416534217
 30
-0.0000000000000009
 11
1072.196811833817
 21
1157.889504534217
 31
-0.0000000000000009
  0
LINE
  5
C91E
330
1E
100
AcDbEntity
  8
0
 48
0.27
100
AcDbLine
 10
1071.776807833817
 20
1162.505234534217
 30
-0.0000000000000009
 11
1072.196811833817
 21
1162.132145534217
 31
-0.0000000000000009
  0
LINE
  5
C91F
330
1E
100
AcDbEntity
  8
0
 48
0.27
100
AcDbLine
 10
1071.297627833817
 20
1157.239186534217
 30
-0.0000000000000009
 11
1071.776807833817
 21
1157.516416534217
 31
-0.0000000000000009
  0
LINE
  5
C920
330
1E
100
AcDbEntity
  8
0
 48
0.27
100
AcDbLine
 10
1071.297627833817
 20
1162.782463534217
 30
-0.0000000000000009
 11
1071.776807833817
 21
1162.505234534217
 31
-0.0000000000000009
  0
LINE
  5
C921
330
1E
100
AcDbEntity
  8
0
 48
0.27
100
AcDbLine
 10
1070.777687833817
 20
1157.068469534217
 30
-0.0000000000000009
 11
1071.297627833817
 21
1157.239186534217
 31
-0.0000000000000009
  0
LINE
  5
C922
330
1E
100
AcDbEntity
  8
0
 48
0.27
100
AcDbLine
 10
1070.777687833817
 20
1162.953181534217
 30
-0.0000000000000009
 11
1071.297627833817
 21
1162.782463534217
 31
-0.0000000000000009
  0
LINE
  5
C923
330
1E
100
AcDbEntity
  8
0
 48
0.27
100
AcDbLine
 10
1070.236967833817
 20
1157.010825534217
 30
-0.0000000000000009
 11
1070.777687833817
 21
1157.068469534217
 31
-0.0000000000000009
  0
LINE
  5
C924
330
1E
100
AcDbEntity
  8
0
 48
0.27
100
AcDbLine
 10
1070.236967833817
 20
1163.010825534217
 30
-0.0000000000000009
 11
1070.777687833817
 21
1162.953181534217
 31
-0.0000000000000009
  0
LINE
  5
C925
330
1E
100
AcDbEntity
  8
0
 48
0.27
100
AcDbLine
 10
1069.696247833817
 20
1157.068469534217
 30
-0.0000000000000009
 11
1070.236967833817
 21
1157.010825534217
 31
-0.0000000000000009
  0
LINE
  5
C926
330
1E
100
AcDbEntity
  8
0
 48
0.27
100
AcDbLine
 10
1069.696247833817
 20
1162.953181534217
 30
-0.0000000000000009
 11
1070.236967833817
 21
1163.010825534217
 31
-0.0000000000000009
  0
LINE
  5
C927
330
1E
100
AcDbEntity
  8
0
 48
0.27
100
AcDbLine
 10
1069.176307833817
 20
1157.239186534217
 30
-0.0000000000000009
 11
1069.696247833817
 21
1157.068469534217
 31
-0.0000000000000009
  0
LINE
  5
C928
330
1E
100
AcDbEntity
  8
0
 48
0.27
100
AcDbLine
 10
1069.176307833817
 20
1162.782463534217
 30
-0.0000000000000009
 11
1069.696247833817
 21
1162.953181534217
 31
-0.0000000000000009
  0
LINE
  5
C929
330
1E
100
AcDbEntity
  8
0
 48
0.27
100
AcDbLine
 10
1068.757840833818
 20
1157.481290534217
 30
-0.0000000000000009
 11
1069.176307833817
 21
1157.239186534217
 31
-0.0000000000000009
  0
LINE
  5
C92A
330
1E
100
AcDbEntity
  8
0
 48
0.27
100
AcDbLine
 10
1068.757840833818
 20
1162.540359534217
 30
-0.0000000000000009
 11
1069.176307833817
 21
1162.782463534217
 31
-0.0000000000000009
  0
LINE
  5
C92B
330
1E
100
AcDbEntity
  8
0
 48
0.27
100
AcDbLine
 10
1074.136743833817
 20
1160.010825534217
 30
-0.0000000000000009
 11
1072.536537833817
 21
1157.010825534217
 31
-0.0000000000000009
  0
LINE
  5
C92C
330
1E
100
AcDbEntity
  8
0
 48
0.27
100
AcDbLine
 10
1072.536537833817
 20
1157.010825534217
 30
-0.0000000000000009
 11
1068.636761833817
 21
1157.010825534217
 31
-0.0000000000000009
  0
LINE
  5
C92D
330
1E
100
AcDbEntity
  8
0
 48
0.27
100
AcDbLine
 10
1072.536537833817
 20
1163.010825534217
 30
-0.0000000000000009
 11
1074.136743833817
 21
1160.010825534217
 31
-0.0000000000000009
  0
LINE
  5
C92E
330
1E
100
AcDbEntity
  8
0
 48
0.27
100
AcDbLine
 10
1073.437379833817
 20
1160.010825534217
 30
-0.0000000000000009
 11
1074.136743833817
 21
1160.010825534217
 31
-0.0000000000000009
  0
LINE
  5
C92F
330
1E
100
AcDbEntity
  8
0
 48
0.27
100
AcDbLine
 10
1068.636761833817
 20
1163.010825534217
 30
-0.0000000000000009
 11
1068.390368833818
 21
1162.548898534217
 31
-0.0000000000000009
  0
LINE
  5
C930
330
1E
100
AcDbEntity
  8
0
 48
0.27
100
AcDbLine
 10
1068.390368833818
 20
1157.472752534217
 30
-0.0000000000000009
 11
1068.636761833817
 21
1157.010825534217
 31
-0.0000000000000009
  0
LINE
  5
C931
330
1E
100
AcDbEntity
  8
0
 48
0.27
100
AcDbLine
 10
1068.636761833817
 20
1163.010825534217
 30
-0.0000000000000009
 11
1072.536537833817
 21
1163.010825534217
 31
-0.0000000000000009
  0
LINE
  5
C932
330
1E
100
AcDbEntity
  8
0
 48
0.27
100
AcDbLine
 10
1075.912538833817
 20
1164.010825534217
 30
-0.0000000000000009
 11
1075.912538833817
 21
1156.010825534217
 31
-0.0000000000000009
  0
LINE
  5
C933
330
1E
100
AcDbEntity
  8
0
 48
0.27
100
AcDbLine
 10
1072.164198833817
 20
1156.010825534217
 30
-0.0000000000000009
 11
1078.616914180407
 21
1156.010825534217
 31
-0.0000000000000009
  0
LINE
  5
C934
330
1E
100
AcDbEntity
  8
0
 48
0.27
100
AcDbLine
 10
1076.692534833817
 20
1160.010825534217
 30
-0.0000000000000009
 11
1079.675032833818
 21
1160.010825534217
 31
-0.0000000000000009
  0
LINE
  5
C935
330
1E
100
AcDbEntity
  8
0
 48
0.27
100
AcDbLine
 10
1079.675032833818
 20
1164.010825534217
 30
-0.0000000000000009
 11
1072.164198833817
 21
1164.010825534217
 31
-0.0000000000000009
  0
ARC
  5
C936
330
1E
100
AcDbEntity
  8
0
 48
0.27
100
AcDbCircle
 10
1072.164198833817
 20
1160.010825534217
 30
-0.0000000000000009
 40
3.999999999999968
100
AcDbArc
 50
228.5903779972994
 51
270.0
  0
ARC
  5
C937
330
1E
100
AcDbEntity
  8
0
 48
0.27
100
AcDbCircle
 10
1072.164198833817
 20
1160.010825534217
 30
-0.0000000000000009
 40
3.999999999999968
100
AcDbArc
 50
90.0
 51
131.4096219995988
  0
LWPOLYLINE
  5
C938
330
1E
100
AcDbEntity
  8
0
 48
0.27
100
AcDbPolyline
 90
       31
 70
     0
 43
0.0
 10
1068.583821833817
 20
1160.010825534217
 10
1068.551003833817
 20
1160.221080534217
 10
1068.506856833818
 20
1160.326567534217
 10
1068.443823833818
 20
1160.424346534217
 10
1068.364347833817
 20
1160.508459534217
 10
1068.272856833818
 20
1160.574332534217
 10
1068.174936833818
 20
1160.619613534217
 10
1068.042300833818
 20
1160.648554534217
 10
1067.919291833817
 20
1160.645895534217
 10
1067.812367833818
 20
1160.620389534217
 10
1067.696162833817
 20
1160.564621534217
 10
1067.585592833818
 20
1160.475132534217
 10
1067.497362833818
 20
1160.360582534217
 10
1067.440728833817
 20
1160.240743534217
 10
1067.412877833818
 20
1160.137087534217
 10
1067.401256833818
 20
1160.010825534217
 10
1067.434074833818
 20
1159.800570534217
 10
1067.478222833817
 20
1159.695082534217
 10
1067.541254833817
 20
1159.597304534217
 10
1067.620730833818
 20
1159.513191534217
 10
1067.712221833817
 20
1159.447318534217
 10
1067.810141833817
 20
1159.402037534217
 10
1067.942777833817
 20
1159.373095534217
 10
1068.065786833818
 20
1159.375755534217
 10
1068.172710833818
 20
1159.401260534217
 10
1068.288915833818
 20
1159.457028534217
 10
1068.399485833818
 20
1159.546518534217
 10
1068.487715833817
 20
1159.661067534217
 10
1068.544349833818
 20
1159.780906534217
 10
1068.572201833817
 20
1159.884563534217
 10
1068.583821833817
 20
1160.010825534217
  0
ARC
  5
C939
330
1E
100
AcDbEntity
  8
0
 48
0.27
100
AcDbCircle
 10
1078.866650833817
 20
1162.010825534217
 30
-0.0000000000000009
 40
2.954111999999976
100
AcDbArc
 50
137.3885980021923
 51
222.6114019999005
  0
ARC
  5
C93A
330
1E
100
AcDbEntity
  8
0
 48
0.27
100
AcDbCircle
 10
1078.866649833817
 20
1158.010825534217
 30
-0.0000000000000009
 40
2.954110999999976
100
AcDbArc
 50
137.3885930045007
 51
222.6114069976016
  0
LINE
  5
C93B
330
1E
100
AcDbEntity
  8
中心線
 48
0.27
100
AcDbLine
 10
1064.675034592834
 20
1160.010806203117
 30
-0.0000000000000009
 11
1079.979502707371
 21
1160.010806203117
 31
-0.0000000000000009
  0
LINE
  5
C940
330
1E
100
AcDbEntity
  8
0
  6
Continuous
 62
     7
100
AcDbLine
 10
1069.867022572707
 20
1237.37793038966
 30
0.0
 11
1079.675032833818
 21
1237.37793038966
 31
0.0
  0
LINE
  5
C942
330
1E
100
AcDbEntity
  8
中心線
 48
0.2
100
AcDbLine
 10
1068.625032833823
 20
1250.424394852579
 30
0.0
 11
1068.625032833823
 21
1256.124840265986
 31
0.0
  0
MTEXT
  5
CD9B
330
1E
100
AcDbEntity
  8
0
100
AcDbMText
 10
907.0359268193266
 20
1117.87671741611
 30
0.0
 40
7.800000159341863
 41
100.6095
 71
     1
 72
     5
  1
\A1;{\fTimes New Roman|b0|i0|c0|p18;RGW25CC\PC : 2820 kgf\PC\fProxy 1|b0|i0|c0|p0;\H0.7x;\S^ 0;\fTimes New Roman|b0|i0|c0|p18;\H1.429x;: 5820 kgf}
 73
     1
 44
1.0
1001
ACAD
1000
MTEXTBEGIN
1070
    73
1070
     1
1070
    44
1040
1.0
1070
    74
1070
     0
1000
MTEXTEND
  0
LINE
  5
CDA5
330
1E
100
AcDbEntity
  8
中心線
 48
0.5
100
AcDbLine
 10
1128.625032833818
 20
1286.87792276026
 30
0.0
 11
1128.625032833818
 21
1210.877922760259
 31
0.0
  0
LINE
  5
CDA6
330
1E
100
AcDbEntity
  8
中心線
 48
0.5
100
AcDbLine
 10
1093.375032833818
 20
1248.877922760259
 30
0.0
 11
1163.875032833818
 21
1248.877922760259
 31
0.0
  0
LINE
  5
DECE
330
1E
100
AcDbEntity
  8
虛線
 48
0.3
100
AcDbLine
 10
941.3017959063264
 20
1155.210870290204
 30
0.0
 11
929.3017959063277
 21
1155.210870290204
 31
0.0
  0
LINE
  5
EAA7
330
1E
100
AcDbEntity
  8
0
  6
Continuous
 62
     7
100
AcDbLine
 10
1238.625032833818
 20
1153.410836720695
 30
0.0
 11
1178.418254878071
 21
1153.410836720695
 31
0.0
  0
LINE
  5
EAA8
330
1E
100
AcDbEntity
  8
0
  6
Continuous
 62
     7
100
AcDbLine
 10
1238.625032833818
 20
1151.936362328666
 30
0.0
 11
1177.575032833818
 21
1151.936362328666
 31
0.0
  0
LINE
  5
EAA9
330
1E
100
AcDbEntity
  8
0
  6
Continuous
 62
     7
100
AcDbLine
 10
1238.625032833818
 20
1147.78636996407
 30
0.0
 11
1177.575032833817
 21
1147.78636996407
 31
0.0
  0
LINE
  5
EAAA
330
1E
100
AcDbEntity
  8
0
  6
Continuous
 62
     7
100
AcDbLine
 10
1238.625032833818
 20
1141.404203056881
 30
0.0
 11
1177.575032833817
 21
1141.404203056881
 31
0.0
  0
LINE
  5
EAAB
330
1E
100
AcDbEntity
  8
0
  6
Continuous
 62
     7
100
AcDbLine
 10
1238.625032833818
 20
1137.254210692289
 30
0.0
 11
1177.575032833817
 21
1137.254210692289
 31
0.0
  0
LINE
  5
EAAC
330
1E
100
AcDbEntity
  8
0
  6
Continuous
 62
     7
100
AcDbLine
 10
1238.625032833818
 20
1131.710806203114
 30
0.0
 11
1053.510312637069
 21
1131.710806203114
 31
0.0
  0
LINE
  5
EAAD
330
1E
100
AcDbEntity
  8
0
  6
Continuous
 62
     7
100
AcDbLine
 10
1078.831810789564
 20
1153.410836720695
 30
0.0
 11
1052.883298493016
 21
1153.410836720695
 31
0.0
  0
LINE
  5
EAAF
330
1E
100
AcDbEntity
  8
0
  6
Continuous
 62
     7
100
AcDbLine
 10
1079.675032833818
 20
1151.936362328666
 30
0.0
 11
1052.459593339093
 21
1151.936362328666
 31
0.0
  0
LINE
  5
EAB0
330
1E
100
AcDbEntity
  8
0
  6
Continuous
 62
     7
100
AcDbLine
 10
1079.675032833818
 20
1147.78636996407
 30
0.0
 11
1052.412259751871
 21
1147.78636996407
 31
0.0
  0
LINE
  5
EAB1
330
1E
100
AcDbEntity
  8
0
  6
Continuous
 62
     7
100
AcDbLine
 10
1079.675032833818
 20
1141.404203056881
 30
0.0
 11
1052.54089182725
 21
1141.404203056881
 31
0.0
  0
LINE
  5
EAB2
330
1E
100
AcDbEntity
  8
0
  6
Continuous
 62
     7
100
AcDbLine
 10
1079.675032833818
 20
1137.254210692289
 30
0.0
 11
1052.887625471129
 21
1137.254210692289
 31
0.0
  0
ENDSEC
  0
SECTION
  2
OBJECTS
  0
DICTIONARY
  5
C
330
0
100
AcDbDictionary
281
     1
  3
ACAD_COLOR
350
3D97
  3
ACAD_GROUP
350
D
  3
ACAD_LAYOUT
350
19
  3
ACAD_MATERIAL
350
3D96
  3
ACAD_MLINESTYLE
350
16
  3
ACAD_PLOTSETTINGS
350
18
  3
ACAD_PLOTSTYLENAME
350
E
  3
ACAD_TABLESTYLE
350
E7A3
  3
ACDBHEADERROUNDTRIPXREC
350
EAD0
  3
AcDbVariableDictionary
350
3E63
  0
DICTIONARY
  5
43C2
330
2
100
AcDbDictionary
280
     1
281
     1
  3
ACAD_LAYERSTATES
360
43C3
  0
DICTIONARY
  5
3D1E
330
1E
100
AcDbDictionary
280
     1
281
     1
  3
ACAD_LAYOUTSELFREF
360
3D92
  3
ACAD_SORTENTS
360
EAAE
  0
DICTIONARY
  5
3D20
330
1A
100
AcDbDictionary
280
     1
281
     1
  3
ACAD_LAYOUTSELFREF
360
3D91
  0
DICTIONARY
  5
69B8
330
69B7
100
AcDbDictionary
280
     1
281
     1
  3
ACAD_SORTENTS
360
69B9
  0
DICTIONARY
  5
69CC
330
69CB
100
AcDbDictionary
280
     1
281
     1
  3
ACAD_SORTENTS
360
69CD
  0
DICTIONARY
  5
3D97
102
{ACAD_REACTORS
330
C
102
}
330
C
100
AcDbDictionary
281
     1
  0
DICTIONARY
  5
D
102
{ACAD_REACTORS
330
C
102
}
330
C
100
AcDbDictionary
281
     1
  3
*A1
350
4143
  3
*A10
350
437E
  3
*A11
350
4149
  3
*A12
350
4241
  3
*A13
350
4239
  3
*A14
350
4237
  3
*A15
350
423C
  3
*A16
350
43B6
  3
*A17
350
423B
  3
*A18
350
43B8
  3
*A19
350
576A
  3
*A2
350
4378
  3
*A20
350
4240
  3
*A21
350
423E
  3
*A22
350
4374
  3
*A23
350
43BB
  3
*A24
350
4373
  3
*A25
350
43BD
  3
*A26
350
4236
  3
*A27
350
4377
  3
*A28
350
4145
  3
*A29
350
437A
  3
*A3
350
43BF
  3
*A30
350
4379
  3
*A31
350
43C1
  3
*A32
350
423D
  3
*A33
350
437D
  3
*A34
350
414D
  3
*A35
350
4146
  3
*A36
350
437F
  3
*A37
350
414B
  3
*A38
350
4375
  3
*A39
350
43B7
  3
*A4
350
423A
  3
*A40
350
414E
  3
*A41
350
43B9
  3
*A42
350
57D9
  3
*A43
350
437B
  3
*A44
350
43BC
  3
*A45
350
4144
  3
*A46
350
43BE
  3
*A47
350
4238
  3
*A48
350
43B5
  3
*A49
350
43C0
  3
*A5
350
414C
  3
*A50
350
4148
  3
*A51
350
423F
  3
*A52
350
43BA
  3
*A53
350
414A
  3
*A54
350
5691
  3
*A55
350
4376
  3
*A56
350
4147
  3
*A6
350
579E
  3
*A7
350
4235
  3
*A8
350
437C
  3
*A9
350
414F
  0
DICTIONARY
  5
19
102
{ACAD_REACTORS
330
C
102
}
330
C
100
AcDbDictionary
281
     1
  3
Model
350
21
  3
配置1
350
1D
  0
DICTIONARY
  5
3D96
102
{ACAD_REACTORS
330
C
102
}
330
C
100
AcDbDictionary
281
     1
  0
DICTIONARY
  5
16
102
{ACAD_REACTORS
330
C
102
}
330
C
100
AcDbDictionary
281
     1
  3
Standard
350
17
  0
DICTIONARY
  5
18
102
{ACAD_REACTORS
330
C
102
}
330
C
100
AcDbDictionary
281
     1
  3
LANSRO
350
4150
  0
ACDBDICTIONARYWDFLT
  5
E
102
{ACAD_REACTORS
330
C
102
}
330
C
100
AcDbDictionary
281
     1
  3
Normal
350
F
100
AcDbDictionaryWithDefault
340
F
  0
DICTIONARY
  5
E7A3
102
{ACAD_REACTORS
330
C
102
}
330
C
100
AcDbDictionary
281
     1
  3
Standard
350
E7A4
  0
DICTIONARY
  5
EAD0
102
{ACAD_REACTORS
330
C
102
}
330
C
100
AcDbDictionary
281
     1
  3
COLORDICT
350
EAD2
  3
MATERIALDICT
350
EAD1
  0
DICTIONARY
  5
3E63
102
{ACAD_REACTORS
330
C
102
}
330
C
100
AcDbDictionary
281
     1
  3
CTABLESTYLE
350
E8F8
  3
DIMASSOC
350
3E64
  3
PROJECTNAME
350
3E65
  0
DICTIONARY
  5
43C3
102
{ACAD_REACTORS
330
43C2
102
}
330
43C2
100
AcDbDictionary
281
     1
  0
XRECORD
  5
3D92
102
{ACAD_REACTORS
330
3D1E
102
}
330
3D1E
100
AcDbXrecord
280
     1
340
1E
  0
SORTENTSTABLE
  5
EAAE
102
{ACAD_REACTORS
330
3D1E
102
}
330
3D1E
100
AcDbSortentsTable
330
1E
331
9E4D
  5
9E4D
331
9E0E
  5
9E0E
331
9D51
  5
9D51
331
9D88
  5
9D88
331
9DC7
  5
9DC7
331
9E55
  5
9E55
331
9D12
  5
9D12
331
9D59
  5
9D59
331
9D90
  5
9D90
331
9E16
  5
9E16
331
9D98
  5
9D98
331
9E1E
  5
9E1E
331
9E5D
  5
9E5D
331
C938
  5
C938
331
9E26
  5
9E26
331
C940
  5
C940
331
EAA7
  5
EAA7
331
9F41
  5
9F41
331
9E84
  5
9E84
331
EAAF
  5
EAAB
331
9EC3
  5
9EC3
331
9EFA
  5
9EFA
331
C72F
  5
C72F
331
C8C6
  5
C8C6
331
9F02
  5
9F02
331
9F49
  5
9F49
331
C905
  5
C905
331
9E8C
  5
9E8C
331
9ECB
  5
9ECB
331
C90D
  5
C90D
331
C8CE
  5
C8CE
331
9ED3
  5
9ED3
331
9F12
  5
9F12
331
9E94
  5
9E94
331
9F51
  5
9F51
331
C6F0
  5
C6F0
331
C915
  5
C915
331
9F1A
  5
9F1A
331
C81F
  5
C81F
331
9E9C
  5
9E9C
331
C8D6
  5
C8D6
331
C8DE
  5
C8DE
331
9DA0
  5
9DA0
331
9D22
  5
9D22
331
9D61
  5
9D61
331
9DEF
  5
9DEF
331
9D69
  5
9D69
331
9DA8
  5
9DA8
331
9E2E
  5
9E2E
331
9D32
  5
9D32
331
9DF7
  5
9DF7
331
9D71
  5
9D71
331
9DB0
  5
9DB0
331
9E36
  5
9E36
331
9E3E
  5
9E3E
331
9D42
  5
9D42
331
9D79
  5
9D79
331
9DFF
  5
9DFF
331
9E46
  5
9E46
331
C919
  5
C919
331
C921
  5
C921
331
9F59
  5
9F59
331
9EA4
  5
9EA4
331
9EDB
  5
9EDB
331
C929
  5
C929
331
9E65
  5
9E65
331
9F22
  5
9F22
331
C827
  5
C827
331
9F61
  5
9F61
331
C8E6
  5
C8E6
331
9EAC
  5
9EAC
331
9EE3
  5
9EE3
331
C931
  5
C931
331
9E6D
  5
9E6D
331
C82F
  5
C82F
331
C8EE
  5
C8EE
331
9EB4
  5
9EB4
331
9EEB
  5
9EEB
331
C718
  5
C718
331
C837
  5
C837
331
9EF3
  5
9EF3
331
9F3A
  5
9F3A
331
9E7D
  5
9E7D
331
9EBC
  5
9EBC
331
A181
  5
A181
331
C8F6
  5
C8F6
331
C8FE
  5
C8FE
331
9DC0
  5
9DC0
331
9D4A
  5
9D4A
331
9D81
  5
9D81
331
9E0F
  5
9E0F
331
9D89
  5
9D89
331
9DC8
  5
9DC8
331
9E4E
  5
9E4E
331
9D52
  5
9D52
331
9D91
  5
9D91
331
9E17
  5
9E17
331
9E56
  5
9E56
331
9D13
  5
9D13
331
9D5A
  5
9D5A
331
9D99
  5
9D99
331
9E1F
  5
9E1F
331
9D1B
  5
9D1B
331
9E5E
  5
9E5E
331
C939
  5
C939
331
9E27
  5
9E27
331
EAA8
  5
EAAA
331
C728
  5
C728
331
9EFB
  5
9EFB
331
9F42
  5
9F42
331
9E85
  5
9E85
331
EAB0
  5
EAAF
331
9EC4
  5
9EC4
331
C906
  5
C906
331
9F4A
  5
9F4A
331
C6E9
  5
C6E9
331
9ECC
  5
9ECC
331
9F03
  5
9F03
331
9E8D
  5
9E8D
331
C730
  5
C730
331
C8C7
  5
C8C7
331
C90E
  5
C90E
331
C8CF
  5
C8CF
331
9F52
  5
9F52
331
9E95
  5
9E95
331
9ED4
  5
9ED4
331
C916
  5
C916
331
9F1B
  5
9F1B
331
9E9D
  5
9E9D
331
C8D7
  5
C8D7
331
C8DF
  5
C8DF
331
9D62
  5
9D62
331
9DA1
  5
9DA1
331
9E2F
  5
9E2F
331
9DA9
  5
9DA9
331
9D33
  5
9D33
331
9D6A
  5
9D6A
331
9DF0
  5
9DF0
331
9DF8
  5
9DF8
331
9DB1
  5
9DB1
331
9E37
  5
9E37
331
9D72
  5
9D72
331
9D7A
  5
9D7A
331
9E00
  5
9E00
331
9E3F
  5
9E3F
331
9D43
  5
9D43
331
C91A
  5
C91A
331
9E47
  5
9E47
331
C922
  5
C922
331
C820
  5
C820
331
9F5A
  5
9F5A
331
9E66
  5
9E66
331
9EA5
  5
9EA5
331
9EDC
  5
9EDC
331
C92A
  5
C92A
331
C828
  5
C828
331
9EE4
  5
9EE4
331
C932
  5
C932
331
9E6E
  5
9E6E
331
9EAD
  5
9EAD
331
9F62
  5
9F62
331
C8E7
  5
C8E7
331
C8EF
  5
C8EF
331
9EB5
  5
9EB5
331
9EEC
  5
9EEC
331
C830
  5
C830
331
C838
  5
C838
331
C8F7
  5
C8F7
331
C721
  5
C721
331
9EBD
  5
9EBD
331
9E7E
  5
9E7E
331
9F3B
  5
9F3B
331
C8FF
  5
C8FF
331
9D4B
  5
9D4B
331
9D82
  5
9D82
331
9E08
  5
9E08
331
9E4F
  5
9E4F
331
9D53
  5
9D53
331
9D8A
  5
9D8A
331
9E18
  5
9E18
331
9E57
  5
9E57
331
9D14
  5
9D14
331
9D5B
  5
9D5B
331
9D92
  5
9D92
331
9D9A
  5
9D9A
331
9E20
  5
9E20
331
9D1C
  5
9D1C
331
9E5F
  5
9E5F
331
C93A
  5
C93A
331
EAA9
  5
EAAD
331
C942
  5
C942
331
C8C0
  5
C8C0
331
9F43
  5
9F43
331
C6E2
  5
C6E2
331
9E86
  5
9E86
331
EAB1
  5
EAB2
331
9EC5
  5
9EC5
331
9EFC
  5
9EFC
331
C729
  5
C729
331
C731
  5
C731
331
C8C8
  5
C8C8
331
9F04
  5
9F04
331
9F4B
  5
9F4B
331
C907
  5
C907
331
9E8E
  5
9E8E
331
9ECD
  5
9ECD
331
C90F
  5
C90F
331
C819
  5
C819
331
C8D0
  5
C8D0
331
9ED5
  5
9ED5
331
9F14
  5
9F14
331
9E96
  5
9E96
331
9F53
  5
9F53
331
C917
  5
C917
331
9F1C
  5
9F1C
331
9E9E
  5
9E9E
331
C8D8
  5
C8D8
331
9DE9
  5
9DE9
331
9DA2
  5
9DA2
331
9E28
  5
9E28
331
9D24
  5
9D24
331
9D63
  5
9D63
331
9DF1
  5
9DF1
331
9D6B
  5
9D6B
331
9DAA
  5
9DAA
331
9E30
  5
9E30
331
9D34
  5
9D34
331
9DF9
  5
9DF9
331
9D3C
  5
9D3C
331
9D73
  5
9D73
331
9DB2
  5
9DB2
331
9E38
  5
9E38
331
9E40
  5
9E40
331
9DBA
  5
9DBA
331
9D44
  5
9D44
331
9D7B
  5
9D7B
331
9E01
  5
9E01
331
C91B
  5
C91B
331
C923
  5
C923
331
C8E0
  5
C8E0
331
9F5B
  5
9F5B
331
9EA6
  5
9EA6
331
9EDD
  5
9EDD
331
C92B
  5
C92B
331
9E67
  5
9E67
331
9F24
  5
9F24
331
C821
  5
C821
331
C829
  5
C829
331
9F2C
  5
9F2C
331
9F63
  5
9F63
331
C8E8
  5
C8E8
331
9EAE
  5
9EAE
331
9EE5
  5
9EE5
331
C933
  5
C933
331
9E6F
  5
9E6F
331
C831
  5
C831
331
C8F0
  5
C8F0
331
9EB6
  5
9EB6
331
9EED
  5
9EED
331
C722
  5
C722
331
9F3C
  5
9F3C
331
9E7F
  5
9E7F
331
9EBE
  5
9EBE
331
C8F8
  5
C8F8
331
9E09
  5
9E09
331
9DC2
  5
9DC2
331
9E48
  5
9E48
331
9D4C
  5
9D4C
331
9D83
  5
9D83
331
9D8B
  5
9D8B
331
9E50
  5
9E50
331
9D54
  5
9D54
331
9D5C
  5
9D5C
331
9D93
  5
9D93
331
9E19
  5
9E19
331
9D15
  5
9D15
331
9E58
  5
9E58
331
9D9B
  5
9D9B
331
9E21
  5
9E21
331
C93B
  5
C93B
331
EAAA
  5
EAB1
331
C900
  5
C900
331
C72A
  5
C72A
331
9EC6
  5
9EC6
331
9EFD
  5
9EFD
331
9E87
  5
9E87
331
9F44
  5
9F44
331
C8C1
  5
C8C1
331
CD9B
  5
CD9B
331
EAB2
  5
EAB5
331
C8C9
  5
C8C9
331
9ECE
  5
9ECE
331
9F05
  5
9F05
331
9E8F
  5
9E8F
331
C732
  5
C732
331
C908
  5
C908
331
C910
  5
C910
331
C81A
  5
C81A
331
C8D1
  5
C8D1
331
9F54
  5
9F54
331
9E97
  5
9E97
331
9ED6
  5
9ED6
331
9F15
  5
9F15
331
9F1D
  5
9F1D
331
9E9F
  5
9E9F
331
C8D9
  5
C8D9
331
9E29
  5
9E29
331
9DEA
  5
9DEA
331
9D25
  5
9D25
331
9D64
  5
9D64
331
9DA3
  5
9DA3
331
9E31
  5
9E31
331
9DAB
  5
9DAB
331
9D35
  5
9D35
331
9D6C
  5
9D6C
331
9DF2
  5
9DF2
331
9DFA
  5
9DFA
331
9DB3
  5
9DB3
331
9E39
  5
9E39
331
9D3D
  5
9D3D
331
9D74
  5
9D74
331
9E02
  5
9E02
331
9D7C
  5
9D7C
331
9DBB
  5
9DBB
331
9E41
  5
9E41
331
9D45
  5
9D45
331
C91C
  5
C91C
331
9E60
  5
9E60
331
C924
  5
C924
331
C822
  5
C822
331
9F25
  5
9F25
331
9F5C
  5
9F5C
331
C8E1
  5
C8E1
331
9E68
  5
9E68
331
9EA7
  5
9EA7
331
9EDE
  5
9EDE
331
C92C
  5
C92C
331
C82A
  5
C82A
331
9EE6
  5
9EE6
331
9F2D
  5
9F2D
331
C934
  5
C934
331
9E70
  5
9E70
331
9EAF
  5
9EAF
331
9F64
  5
9F64
331
C8E9
  5
C8E9
331
C8F1
  5
C8F1
331
9EB7
  5
9EB7
331
9EEE
  5
9EEE
331
C832
  5
C832
331
C8F9
  5
C8F9
331
9F3D
  5
9F3D
331
9EBF
  5
9EBF
331
C723
  5
C723
331
9D4D
  5
9D4D
331
9D84
  5
9D84
331
9E0A
  5
9E0A
331
9E49
  5
9E49
331
9E51
  5
9E51
331
9D55
  5
9D55
331
9D8C
  5
9D8C
331
9E12
  5
9E12
331
9E1A
  5
9E1A
331
9DD3
  5
9DD3
331
9E59
  5
9E59
331
9D16
  5
9D16
331
9D5D
  5
9D5D
331
9D94
  5
9D94
331
9D9C
  5
9D9C
331
9E22
  5
9E22
331
9D1E
  5
9D1E
331
EAAB
  5
EAB4
331
9E80
  5
9E80
331
C8C2
  5
C8C2
331
C901
  5
C901
331
9E88
  5
9E88
331
9EC7
  5
9EC7
331
9EFE
  5
9EFE
331
C72B
  5
C72B
331
C909
  5
C909
331
C733
  5
C733
331
C8CA
  5
C8CA
331
9ECF
  5
9ECF
331
9F06
  5
9F06
331
9E90
  5
9E90
331
9F4D
  5
9F4D
331
C911
  5
C911
331
C81B
  5
C81B
331
C8D2
  5
C8D2
331
9ED7
  5
9ED7
331
9F16
  5
9F16
331
9E98
  5
9E98
331
9F55
  5
9F55
331
C8DA
  5
C8DA
331
9F1E
  5
9F1E
331
9DEB
  5
9DEB
331
9D65
  5
9D65
331
9DA4
  5
9DA4
331
9E2A
  5
9E2A
331
9DF3
  5
9DF3
331
9D6D
  5
9D6D
331
9DAC
  5
9DAC
331
9E32
  5
9E32
331
9D36
  5
9D36
331
9E3A
  5
9E3A
331
9DFB
  5
9DFB
331
9D3E
  5
9D3E
331
9D75
  5
9D75
331
9DB4
  5
9DB4
331
9E42
  5
9E42
331
9DBC
  5
9DBC
331
9D46
  5
9D46
331
9D7D
  5
9D7D
331
9E03
  5
9E03
331
C91D
  5
C91D
331
C925
  5
C925
331
9E61
  5
9E61
331
9EA0
  5
9EA0
331
C8E2
  5
C8E2
331
9F5D
  5
9F5D
331
9EA8
  5
9EA8
331
9EDF
  5
9EDF
331
C92D
  5
C92D
331
9E69
  5
9E69
331
9F26
  5
9F26
331
C823
  5
C823
331
9F2E
  5
9F2E
331
C82B
  5
C82B
331
C8EA
  5
C8EA
331
9E71
  5
9E71
331
9EB0
  5
9EB0
331
9EE7
  5
9EE7
331
C935
  5
C935
331
9F36
  5
9F36
331
C833
  5
C833
331
C8F2
  5
C8F2
331
9E79
  5
9E79
331
9EB8
  5
9EB8
331
9EEF
  5
9EEF
331
C724
  5
C724
331
9F3E
  5
9F3E
331
C8FA
  5
C8FA
331
9E0B
  5
9E0B
331
9E4A
  5
9E4A
331
9D4E
  5
9D4E
331
9D85
  5
9D85
331
9D8D
  5
9D8D
331
9E13
  5
9E13
331
9E52
  5
9E52
331
9D56
  5
9D56
331
9E1B
  5
9E1B
331
9D5E
  5
9D5E
331
9D95
  5
9D95
331
9D17
  5
9D17
331
9DD4
  5
9DD4
331
9E5A
  5
9E5A
331
9D9D
  5
9D9D
331
9E23
  5
9E23
331
9E81
  5
9E81
331
EAAC
  5
EAB7
331
9EC0
  5
9EC0
331
C902
  5
C902
331
9EC8
  5
9EC8
331
9EFF
  5
9EFF
331
C72C
  5
C72C
331
9E89
  5
9E89
331
C8C3
  5
C8C3
331
C8CB
  5
C8CB
331
9F4E
  5
9F4E
331
9ED0
  5
9ED0
331
C734
  5
C734
331
C90A
  5
C90A
331
CDA5
  5
CDA5
331
9E91
  5
9E91
331
C912
  5
C912
331
C81C
  5
C81C
331
C8D3
  5
C8D3
331
9E99
  5
9E99
331
9F56
  5
9F56
331
9F1F
  5
9F1F
331
C8DB
  5
C8DB
331
9E2B
  5
9E2B
331
9DEC
  5
9DEC
331
9D66
  5
9D66
331
9DA5
  5
9DA5
331
9E33
  5
9E33
331
9DAD
  5
9DAD
331
9D37
  5
9D37
331
9D6E
  5
9D6E
331
9DF4
  5
9DF4
331
9D76
  5
9D76
331
9DFC
  5
9DFC
331
9E3B
  5
9E3B
331
9D3F
  5
9D3F
331
9E04
  5
9E04
331
9D7E
  5
9D7E
331
9DBD
  5
9DBD
331
9E43
  5
9E43
331
9D47
  5
9D47
331
C91E
  5
C91E
331
9E62
  5
9E62
331
9EA1
  5
9EA1
331
C926
  5
C926
331
9ED8
  5
9ED8
331
C824
  5
C824
331
9EE0
  5
9EE0
331
C92E
  5
C92E
331
9E6A
  5
9E6A
331
9EA9
  5
9EA9
331
9F5E
  5
9F5E
331
C8E3
  5
C8E3
331
C8EB
  5
C8EB
331
9EE8
  5
9EE8
331
C82C
  5
C82C
331
C936
  5
C936
331
9E72
  5
9E72
331
9EB1
  5
9EB1
331
C8F3
  5
C8F3
331
9EB9
  5
9EB9
331
9EF0
  5
9EF0
331
9E7A
  5
9E7A
331
9F37
  5
9F37
331
C834
  5
C834
331
C8FB
  5
C8FB
331
9F3F
  5
9F3F
331
C725
  5
C725
331
9E4B
  5
9E4B
331
9D4F
  5
9D4F
331
9D86
  5
9D86
331
9E0C
  5
9E0C
331
9E53
  5
9E53
331
9D10
  5
9D10
331
9D57
  5
9D57
331
9D8E
  5
9D8E
331
9E14
  5
9E14
331
9E1C
  5
9E1C
331
9DD5
  5
9DD5
331
9E5B
  5
9E5B
331
9D5F
  5
9D5F
331
9D9E
  5
9D9E
331
9E24
  5
9E24
331
9E82
  5
9E82
331
EAAD
  5
EAA8
331
9EC1
  5
9EC1
331
C72D
  5
C72D
331
C8C4
  5
C8C4
331
C903
  5
C903
331
9E8A
  5
9E8A
331
9EC9
  5
9EC9
331
9F00
  5
9F00
331
C90B
  5
C90B
331
C735
  5
C735
331
C8CC
  5
C8CC
331
9ED1
  5
9ED1
331
CDA6
  5
CDA6
331
9E92
  5
9E92
331
9F4F
  5
9F4F
331
C913
  5
C913
331
9F57
  5
9F57
331
C81D
  5
C81D
331
9E9A
  5
9E9A
331
C8D4
  5
C8D4
331
C8DC
  5
C8DC
331
C6FE
  5
C6FE
331
9D20
  5
9D20
331
9DED
  5
9DED
331
9D67
  5
9D67
331
9DA6
  5
9DA6
331
9E2C
  5
9E2C
331
9D30
  5
9D30
331
9DF5
  5
9DF5
331
9D6F
  5
9D6F
331
9DAE
  5
9DAE
331
9E34
  5
9E34
331
9E3C
  5
9E3C
331
9DFD
  5
9DFD
331
9D40
  5
9D40
331
9D77
  5
9D77
331
9DB6
  5
9DB6
331
9E44
  5
9E44
331
9DBE
  5
9DBE
331
9D7F
  5
9D7F
331
9E05
  5
9E05
331
C91F
  5
C91F
331
DECE
  5
DECE
331
9ED9
  5
9ED9
331
9F20
  5
9F20
331
C927
  5
C927
331
9E63
  5
9E63
331
9EA2
  5
9EA2
331
C8E4
  5
C8E4
331
9F5F
  5
9F5F
331
9EAA
  5
9EAA
331
9EE1
  5
9EE1
331
C92F
  5
C92F
331
9E6B
  5
9E6B
331
C825
  5
C825
331
C82D
  5
C82D
331
C8EC
  5
C8EC
331
9E73
  5
9E73
331
9EB2
  5
9EB2
331
C937
  5
C937
331
9EE9
  5
9EE9
331
C835
  5
C835
331
9EF1
  5
9EF1
331
9F38
  5
9F38
331
9E7B
  5
9E7B
331
9EBA
  5
9EBA
331
A17F
  5
A17F
331
C8F4
  5
C8F4
331
C8FC
  5
C8FC
331
C726
  5
C726
331
9D48
  5
9D48
331
9D87
  5
9D87
331
9E0D
  5
9E0D
331
9E4C
  5
9E4C
331
9D50
  5
9D50
331
9D8F
  5
9D8F
331
9E15
  5
9E15
331
9E54
  5
9E54
331
9D11
  5
9D11
331
9D58
  5
9D58
331
9E1D
  5
9E1D
331
9D97
  5
9D97
331
9D19
  5
9D19
331
9DD6
  5
9DD6
331
9E5C
  5
9E5C
331
9D9F
  5
9D9F
331
9E25
  5
9E25
331
9F40
  5
9F40
331
9E83
  5
9E83
331
9EC2
  5
9EC2
331
C904
  5
C904
331
9F48
  5
9F48
331
9ECA
  5
9ECA
331
9F01
  5
9F01
331
C72E
  5
C72E
331
9E8B
  5
9E8B
331
C8C5
  5
C8C5
331
C90C
  5
C90C
331
C736
  5
C736
331
C8CD
  5
C8CD
331
9F50
  5
9F50
331
9E93
  5
9E93
331
9ED2
  5
9ED2
331
C914
  5
C914
331
C81E
  5
C81E
331
C8D5
  5
C8D5
331
9E9B
  5
9E9B
331
C6F7
  5
C6F7
331
C8DD
  5
C8DD
331
9D21
  5
9D21
331
9D60
  5
9D60
331
9E2D
  5
9E2D
331
9DEE
  5
9DEE
331
9D31
  5
9D31
331
9D68
  5
9D68
331
9DA7
  5
9DA7
331
9DF6
  5
9DF6
331
9DAF
  5
9DAF
331
9E35
  5
9E35
331
9D70
  5
9D70
331
9DFE
  5
9DFE
331
9D78
  5
9D78
331
9DB7
  5
9DB7
331
9E3D
  5
9E3D
331
9D41
  5
9D41
331
C918
  5
C918
331
9E45
  5
9E45
331
C920
  5
C920
331
9F21
  5
9F21
331
9F58
  5
9F58
331
9E64
  5
9E64
331
9EA3
  5
9EA3
331
9EDA
  5
9EDA
331
C928
  5
C928
331
C826
  5
C826
331
9EE2
  5
9EE2
331
C930
  5
C930
331
9E6C
  5
9E6C
331
9EAB
  5
9EAB
331
9F60
  5
9F60
331
C8E5
  5
C8E5
331
C8ED
  5
C8ED
331
9EEA
  5
9EEA
331
C717
  5
C717
331
C82E
  5
C82E
331
9E74
  5
9E74
331
9EB3
  5
9EB3
331
C8F5
  5
C8F5
331
A180
  5
A180
331
9EBB
  5
9EBB
331
9EF2
  5
9EF2
331
9E7C
  5
9E7C
331
9F39
  5
9F39
331
C836
  5
C836
331
C8FD
  5
C8FD
331
C727
  5
C727
331
9D80
  5
9D80
331
9D49
  5
9D49
  0
XRECORD
  5
3D91
102
{ACAD_REACTORS
330
3D20
102
}
330
3D20
100
AcDbXrecord
280
     1
340
1A
  0
SORTENTSTABLE
  5
69B9
102
{ACAD_REACTORS
330
69B8
102
}
330
69B8
100
AcDbSortentsTable
330
69B7
  0
SORTENTSTABLE
  5
69CD
102
{ACAD_REACTORS
330
69CC
102
}
330
69CC
100
AcDbSortentsTable
330
69CB
  0
GROUP
  5
4143
102
{ACAD_REACTORS
330
D
102
}
330
D
100
AcDbGroup
300

 70
     1
 71
     1
  0
GROUP
  5
437E
102
{ACAD_REACTORS
330
D
102
}
330
D
100
AcDbGroup
300

 70
     1
 71
     1
  0
GROUP
  5
4149
102
{ACAD_REACTORS
330
D
102
}
330
D
100
AcDbGroup
300

 70
     1
 71
     1
  0
GROUP
  5
4241
102
{ACAD_REACTORS
330
D
102
}
330
D
100
AcDbGroup
300

 70
     1
 71
     1
  0
GROUP
  5
4239
102
{ACAD_REACTORS
330
D
102
}
330
D
100
AcDbGroup
300

 70
     1
 71
     1
  0
GROUP
  5
4237
102
{ACAD_REACTORS
330
D
102
}
330
D
100
AcDbGroup
300

 70
     1
 71
     1
  0
GROUP
  5
423C
102
{ACAD_REACTORS
330
D
102
}
330
D
100
AcDbGroup
300

 70
     1
 71
     1
  0
GROUP
  5
43B6
102
{ACAD_REACTORS
330
D
102
}
330
D
100
AcDbGroup
300

 70
     1
 71
     1
  0
GROUP
  5
423B
102
{ACAD_REACTORS
330
D
102
}
330
D
100
AcDbGroup
300

 70
     1
 71
     1
  0
GROUP
  5
43B8
102
{ACAD_REACTORS
330
D
102
}
330
D
100
AcDbGroup
300

 70
     1
 71
     1
  0
GROUP
  5
576A
102
{ACAD_REACTORS
330
D
102
}
330
D
100
AcDbGroup
300

 70
     1
 71
     1
  0
GROUP
  5
4378
102
{ACAD_REACTORS
330
D
102
}
330
D
100
AcDbGroup
300

 70
     1
 71
     1
  0
GROUP
  5
4240
102
{ACAD_REACTORS
330
D
102
}
330
D
100
AcDbGroup
300

 70
     1
 71
     1
  0
GROUP
  5
423E
102
{ACAD_REACTORS
330
D
102
}
330
D
100
AcDbGroup
300

 70
     1
 71
     1
  0
GROUP
  5
4374
102
{ACAD_REACTORS
330
D
102
}
330
D
100
AcDbGroup
300

 70
     1
 71
     1
  0
GROUP
  5
43BB
102
{ACAD_REACTORS
330
D
102
}
330
D
100
AcDbGroup
300

 70
     1
 71
     1
  0
GROUP
  5
4373
102
{ACAD_REACTORS
330
D
102
}
330
D
100
AcDbGroup
300

 70
     1
 71
     1
  0
GROUP
  5
43BD
102
{ACAD_REACTORS
330
D
102
}
330
D
100
AcDbGroup
300

 70
     1
 71
     1
  0
GROUP
  5
4236
102
{ACAD_REACTORS
330
D
102
}
330
D
100
AcDbGroup
300

 70
     1
 71
     1
  0
GROUP
  5
4377
102
{ACAD_REACTORS
330
D
102
}
330
D
100
AcDbGroup
300

 70
     1
 71
     1
  0
GROUP
  5
4145
102
{ACAD_REACTORS
330
D
102
}
330
D
100
AcDbGroup
300

 70
     1
 71
     1
  0
GROUP
  5
437A
102
{ACAD_REACTORS
330
D
102
}
330
D
100
AcDbGroup
300

 70
     1
 71
     1
  0
GROUP
  5
43BF
102
{ACAD_REACTORS
330
D
102
}
330
D
100
AcDbGroup
300

 70
     1
 71
     1
  0
GROUP
  5
4379
102
{ACAD_REACTORS
330
D
102
}
330
D
100
AcDbGroup
300

 70
     1
 71
     1
  0
GROUP
  5
43C1
102
{ACAD_REACTORS
330
D
102
}
330
D
100
AcDbGroup
300

 70
     1
 71
     1
  0
GROUP
  5
423D
102
{ACAD_REACTORS
330
D
102
}
330
D
100
AcDbGroup
300

 70
     1
 71
     1
  0
GROUP
  5
437D
102
{ACAD_REACTORS
330
D
102
}
330
D
100
AcDbGroup
300

 70
     1
 71
     1
  0
GROUP
  5
414D
102
{ACAD_REACTORS
330
D
102
}
330
D
100
AcDbGroup
300

 70
     1
 71
     1
  0
GROUP
  5
4146
102
{ACAD_REACTORS
330
D
102
}
330
D
100
AcDbGroup
300

 70
     1
 71
     1
  0
GROUP
  5
437F
102
{ACAD_REACTORS
330
D
102
}
330
D
100
AcDbGroup
300

 70
     1
 71
     1
  0
GROUP
  5
414B
102
{ACAD_REACTORS
330
D
102
}
330
D
100
AcDbGroup
300

 70
     1
 71
     1
  0
GROUP
  5
4375
102
{ACAD_REACTORS
330
D
102
}
330
D
100
AcDbGroup
300

 70
     1
 71
     1
  0
GROUP
  5
43B7
102
{ACAD_REACTORS
330
D
102
}
330
D
100
AcDbGroup
300

 70
     1
 71
     1
  0
GROUP
  5
423A
102
{ACAD_REACTORS
330
D
102
}
330
D
100
AcDbGroup
300

 70
     1
 71
     1
  0
GROUP
  5
414E
102
{ACAD_REACTORS
330
D
102
}
330
D
100
AcDbGroup
300

 70
     1
 71
     1
  0
GROUP
  5
43B9
102
{ACAD_REACTORS
330
D
102
}
330
D
100
AcDbGroup
300

 70
     1
 71
     1
  0
GROUP
  5
57D9
102
{ACAD_REACTORS
330
D
102
}
330
D
100
AcDbGroup
300

 70
     1
 71
     1
  0
GROUP
  5
437B
102
{ACAD_REACTORS
330
D
102
}
330
D
100
AcDbGroup
300

 70
     1
 71
     1
  0
GROUP
  5
43BC
102
{ACAD_REACTORS
330
D
102
}
330
D
100
AcDbGroup
300

 70
     1
 71
     1
  0
GROUP
  5
4144
102
{ACAD_REACTORS
330
D
102
}
330
D
100
AcDbGroup
300

 70
     1
 71
     1
  0
GROUP
  5
43BE
102
{ACAD_REACTORS
330
D
102
}
330
D
100
AcDbGroup
300

 70
     1
 71
     1
  0
GROUP
  5
4238
102
{ACAD_REACTORS
330
D
102
}
330
D
100
AcDbGroup
300

 70
     1
 71
     1
  0
GROUP
  5
43B5
102
{ACAD_REACTORS
330
D
102
}
330
D
100
AcDbGroup
300

 70
     1
 71
     1
  0
GROUP
  5
43C0
102
{ACAD_REACTORS
330
D
102
}
330
D
100
AcDbGroup
300

 70
     1
 71
     1
  0
GROUP
  5
414C
102
{ACAD_REACTORS
330
D
102
}
330
D
100
AcDbGroup
300

 70
     1
 71
     1
  0
GROUP
  5
4148
102
{ACAD_REACTORS
330
D
102
}
330
D
100
AcDbGroup
300

 70
     1
 71
     1
  0
GROUP
  5
423F
102
{ACAD_REACTORS
330
D
102
}
330
D
100
AcDbGroup
300

 70
     1
 71
     1
  0
GROUP
  5
43BA
102
{ACAD_REACTORS
330
D
102
}
330
D
100
AcDbGroup
300

 70
     1
 71
     1
  0
GROUP
  5
414A
102
{ACAD_REACTORS
330
D
102
}
330
D
100
AcDbGroup
300

 70
     1
 71
     1
  0
GROUP
  5
5691
102
{ACAD_REACTORS
330
D
102
}
330
D
100
AcDbGroup
300

 70
     1
 71
     1
  0
GROUP
  5
4376
102
{ACAD_REACTORS
330
D
102
}
330
D
100
AcDbGroup
300

 70
     1
 71
     1
  0
GROUP
  5
4147
102
{ACAD_REACTORS
330
D
102
}
330
D
100
AcDbGroup
300

 70
     1
 71
     1
  0
GROUP
  5
579E
102
{ACAD_REACTORS
330
D
102
}
330
D
100
AcDbGroup
300

 70
     1
 71
     1
  0
GROUP
  5
4235
102
{ACAD_REACTORS
330
D
102
}
330
D
100
AcDbGroup
300

 70
     1
 71
     1
  0
GROUP
  5
437C
102
{ACAD_REACTORS
330
D
102
}
330
D
100
AcDbGroup
300

 70
     1
 71
     1
  0
GROUP
  5
414F
102
{ACAD_REACTORS
330
D
102
}
330
D
100
AcDbGroup
300

 70
     1
 71
     1
  0
LAYOUT
  5
21
102
{ACAD_XDICTIONARY
360
EAD5
102
}
102
{ACAD_REACTORS
330
19
102
}
330
19
100
AcDbPlotSettings
  1

  2
HP 2200
  4

  6

 40
0.0
 41
0.0
 42
0.0
 43
0.0
 44
0.0
 45
0.0
 46
0.0
 47
0.0
 48
0.0
 49
0.0
140
0.0
141
0.0
142
1.0
143
1.0
 70
  1712
 72
     0
 73
     0
 74
     0
  7
AAA.ctb
 75
     0
147
1.0
148
0.0
149
0.0
100
AcDbLayout
  1
Model
 70
     1
 71
     0
 10
0.0
 20
0.0
 11
12.0
 21
9.0
 12
0.0
 22
0.0
 32
0.0
 14
0.0
 24
0.0
 34
0.0
 15
0.0
 25
0.0
 35
0.0
146
0.0
 13
0.0
 23
0.0
 33
0.0
 16
1.0
 26
0.0
 36
0.0
 17
0.0
 27
1.0
 37
0.0
 76
     0
330
1E
  0
LAYOUT
  5
1D
102
{ACAD_XDICTIONARY
360
EAD3
102
}
102
{ACAD_REACTORS
330
19
102
}
330
19
100
AcDbPlotSettings
  1

  2
HP 2200
  4

  6

 40
0.0
 41
0.0
 42
0.0
 43
0.0
 44
0.0
 45
0.0
 46
0.0
 47
0.0
 48
0.0
 49
0.0
140
0.0
141
0.0
142
1.0
143
1.0
 70
   688
 72
     0
 73
     0
 74
     5
  7
AAA.ctb
 75
    16
147
1.0
148
0.0
149
0.0
100
AcDbLayout
  1
配置1
 70
     0
 71
     1
 10
0.0
 20
0.0
 11
12.0
 21
9.0
 12
0.0
 22
0.0
 32
0.0
 14
1.000000000000000E+20
 24
1.000000000000000E+20
 34
1.000000000000000E+20
 15
-1.000000000000000E+20
 25
-1.000000000000000E+20
 35
-1.000000000000000E+20
146
0.0
 13
0.0
 23
0.0
 33
0.0
 16
1.0
 26
0.0
 36
0.0
 17
0.0
 27
1.0
 37
0.0
 76
     0
330
1A
  0
MLINESTYLE
  5
17
102
{ACAD_REACTORS
330
16
102
}
330
16
100
AcDbMlineStyle
  2
STANDARD
 70
     0
  3

 62
   256
 51
90.0
 52
90.0
 71
     2
 49
0.5
 62
   256
  6
BYLAYER
 49
-0.5
 62
   256
  6
BYLAYER
  0
PLOTSETTINGS
  5
4150
102
{ACAD_XDICTIONARY
360
EAD7
102
}
102
{ACAD_REACTORS
330
18
102
}
330
18
100
AcDbPlotSettings
  1
LANSRO
  2
\\1260\HP2200
  4
A4
  6

 40
6.043083190917968
 41
6.762742042541503
 42
7.736419677734375
 43
5.027069091796875
 44
209.9733276367187
 45
296.9683227539062
 46
5.15
 47
0.0
 48
0.0
 49
0.0
140
0.0
141
0.0
142
1.0
143
0.8829829263240881
 70
  1716
 72
     1
 73
     1
 74
     0
  7
AAA.ctb
 75
     0
147
1.132524729739748
148
-132.297014905803
149
-71.78507365635891
  0
ACDBPLACEHOLDER
  5
F
102
{ACAD_REACTORS
330
E
102
}
330
E
  0
ACAD_PROXY_OBJECT
  5
E7A4
102
{ACAD_REACTORS
330
E7A3
102
}
330
E7A3
100
AcDbProxyObject
 90
      499
 91
      514
 95
   983063
 70
     0
 93
     1841
310
4214DD185B99185C9928B81E85EB51B8AE3F2E07A17AD46E2B8FC02B5E8DC0F42B1CFD028000000C1008070000C3001FDFF8000000C1003FBFF000000182007F7FE00000030400FEFFC00000060801FDFF8000000C1003FBFF00000018200000000000000681FA0B0000001820100E000186003FBFF000000182007F7FE000
310
00030400FEFFC00000060801FDFF8000000C1003FBFF000000182007F7FE000000304000AD7A3703D0AC73F4160000003040201C00030C007F7FE00000030400FEFFC00000060801FDFF8000000C1003FBFF000000182007F7FE00000030400FEFFC000000608000
340
11
340
11
340
11
 94
        0
1001
ACAD
1000
AcRTDxfName
1000
TABLESTYLE
  0
XRECORD
  5
EAD2
102
{ACAD_REACTORS
330
EAD0
102
}
330
EAD0
100
AcDbXrecord
280
     1
340
3D97
  0
XRECORD
  5
EAD1
102
{ACAD_REACTORS
330
EAD0
102
}
330
EAD0
100
AcDbXrecord
280
     1
340
3D96
  0
DICTIONARYVAR
  5
E8F8
102
{ACAD_REACTORS
330
3E63
102
}
330
3E63
100
DictionaryVariables
280
     0
  1
STANDARD
  0
DICTIONARYVAR
  5
3E64
102
{ACAD_REACTORS
330
3E63
102
}
330
3E63
100
DictionaryVariables
280
     0
  1
1
  0
DICTIONARYVAR
  5
3E65
102
{ACAD_REACTORS
330
3E63
102
}
330
3E63
100
DictionaryVariables
280
     0
  1

  0
DICTIONARY
  5
EAD5
330
21
100
AcDbDictionary
280
     1
281
     1
  3
ACAD_XREC_ROUNDTRIP
360
EAD6
  0
DICTIONARY
  5
EAD3
330
1D
100
AcDbDictionary
280
     1
281
     1
  3
ACAD_XREC_ROUNDTRIP
360
EAD4
  0
DICTIONARY
  5
EAD7
330
4150
100
AcDbDictionary
280
     1
281
     1
  3
ACAD_XREC_ROUNDTRIP
360
EAD8
  0
XRECORD
  5
EAD6
102
{ACAD_REACTORS
330
EAD5
102
}
330
EAD5
100
AcDbXrecord
280
     1
102
SHADEPLOT
 70
     0
102
SHADEPLOTRESLEVEL
 70
     2
102
SHADEPLOTCUSTOMDPI
 70
   300
  0
XRECORD
  5
EAD4
102
{ACAD_REACTORS
330
EAD3
102
}
330
EAD3
100
AcDbXrecord
280
     1
102
SHADEPLOT
 70
     0
102
SHADEPLOTRESLEVEL
 70
     2
102
SHADEPLOTCUSTOMDPI
 70
   300
  0
XRECORD
  5
EAD8
102
{ACAD_REACTORS
330
EAD7
102
}
330
EAD7
100
AcDbXrecord
280
     1
102
SHADEPLOT
 70
     0
102
SHADEPLOTRESLEVEL
 70
     2
102
SHADEPLOTCUSTOMDPI
 70
   300
  0
ENDSEC
  0
EOF
