  0
SECTION
  2
HEADER
  9
$ACADVER
  1
AC1015
  9
$ACADMAINTVER
 70
    20
  9
$DWGCODEPAGE
  3
ANSI_950
  9
$INSBASE
 10
0.0
 20
0.0
 30
0.0
  9
$EXTMIN
 10
2626.600428105927
 20
-248.9692298923205
 30
0.0
  9
$EXTMAX
 10
3177.554166900007
 20
77.80943319167306
 30
0.0
  9
$LIMMIN
 10
-10.0
 20
-15.0
  9
$LIMMAX
 10
120.0
 20
90.0
  9
$ORTHOMODE
 70
     1
  9
$REGENMODE
 70
     0
  9
$FILLMODE
 70
     1
  9
$QTEXTMODE
 70
     0
  9
$MIRRTEXT
 70
     0
  9
$LTSCALE
 40
3.0
  9
$ATTMODE
 70
     1
  9
$TEXTSIZE
 40
3.0
  9
$TRACEWID
 40
1.0
  9
$TEXTSTYLE
  7
STANDARD
  9
$CLAYER
  8
0
  9
$CELTYPE
  6
ByLayer
  9
$CECOLOR
 62
   256
  9
$CELTSCALE
 40
1.0
  9
$DISPSILH
 70
     0
  9
$DIMSCALE
 40
1.0
  9
$DIMASZ
 40
3.0
  9
$DIMEXO
 40
1.0
  9
$DIMDLI
 40
6.0
  9
$DIMRND
 40
0.0
  9
$DIMDLE
 40
0.0
  9
$DIMEXE
 40
1.0
  9
$DIMTP
 40
0.0
  9
$DIMTM
 40
0.0
  9
$DIMTXT
 40
3.0
  9
$DIMCEN
 40
1.5
  9
$DIMTSZ
 40
0.0
  9
$DIMTOL
 70
     0
  9
$DIMLIM
 70
     0
  9
$DIMTIH
 70
     1
  9
$DIMTOH
 70
     1
  9
$DIMSE1
 70
     0
  9
$DIMSE2
 70
     0
  9
$DIMTAD
 70
     0
  9
$DIMZIN
 70
     0
  9
$DIMBLK
  1

  9
$DIMASO
 70
     1
  9
$DIMSHO
 70
     0
  9
$DIMPOST
  1

  9
$DIMAPOST
  1

  9
$DIMALT
 70
     0
  9
$DIMALTD
 70
     2
  9
$DIMALTF
 40
25.4
  9
$DIMLFAC
 40
1.0
  9
$DIMTOFL
 70
     1
  9
$DIMTVP
 40
0.0
  9
$DIMTIX
 70
     0
  9
$DIMSOXD
 70
     0
  9
$DIMSAH
 70
     0
  9
$DIMBLK1
  1

  9
$DIMBLK2
  1

  9
$DIMSTYLE
  2
Standard
  9
$DIMCLRD
 70
     0
  9
$DIMCLRE
 70
     0
  9
$DIMCLRT
 70
     0
  9
$DIMTFAC
 40
1.0
  9
$DIMGAP
 40
0.09
  9
$DIMJUST
 70
     0
  9
$DIMSD1
 70
     0
  9
$DIMSD2
 70
     0
  9
$DIMTOLJ
 70
     1
  9
$DIMTZIN
 70
     0
  9
$DIMALTZ
 70
     0
  9
$DIMALTTZ
 70
     0
  9
$DIMUPT
 70
     0
  9
$DIMDEC
 70
     4
  9
$DIMTDEC
 70
     8
  9
$DIMALTU
 70
     2
  9
$DIMALTTD
 70
     2
  9
$DIMTXSTY
  7
STANDARD
  9
$DIMAUNIT
 70
     0
  9
$DIMADEC
 70
     0
  9
$DIMALTRND
 40
0.0
  9
$DIMAZIN
 70
     0
  9
$DIMDSEP
 70
    46
  9
$DIMATFIT
 70
     3
  9
$DIMFRAC
 70
     0
  9
$DIMLDRBLK
  1

  9
$DIMLUNIT
 70
     2
  9
$DIMLWD
 70
    -2
  9
$DIMLWE
 70
    -2
  9
$DIMTMOVE
 70
     2
  9
$LUNITS
 70
     2
  9
$LUPREC
 70
     4
  9
$SKETCHINC
 40
0.5
  9
$FILLETRAD
 40
0.0
  9
$AUNITS
 70
     0
  9
$AUPREC
 70
     0
  9
$MENU
  1
ACAD
  9
$ELEVATION
 40
0.0
  9
$PELEVATION
 40
0.0
  9
$THICKNESS
 40
0.0
  9
$LIMCHECK
 70
     0
  9
$CHAMFERA
 40
0.0
  9
$CHAMFERB
 40
0.0
  9
$CHAMFERC
 40
0.0
  9
$CHAMFERD
 40
0.0
  9
$SKPOLY
 70
     0
  9
$TDCREATE
 40
2444975.333333334
  9
$TDUCREATE
 40
2444975.000000000
  9
$TDUPDATE
 40
2454042.441960868
  9
$TDUUPDATE
 40
2454042.108627535
  9
$TDINDWG
 40
0.3148568287
  9
$TDUSRTIMER
 40
0.0000000000
  9
$USRTIMER
 70
     0
  9
$ANGBASE
 50
0.0
  9
$ANGDIR
 70
     0
  9
$PDMODE
 70
     0
  9
$PDSIZE
 40
0.001
  9
$PLINEWID
 40
0.0
  9
$SPLFRAME
 70
     0
  9
$SPLINETYPE
 70
     6
  9
$SPLINESEGS
 70
  8000
  9
$HANDSEED
  5
EADD
  9
$SURFTAB1
 70
     6
  9
$SURFTAB2
 70
     6
  9
$SURFTYPE
 70
     6
  9
$SURFU
 70
     6
  9
$SURFV
 70
     6
  9
$UCSBASE
  2

  9
$UCSNAME
  2

  9
$UCSORG
 10
0.0
 20
0.0
 30
0.0
  9
$UCSXDIR
 10
1.0
 20
0.0
 30
0.0
  9
$UCSYDIR
 10
0.0
 20
1.0
 30
0.0
  9
$UCSORTHOREF
  2

  9
$UCSORTHOVIEW
 70
     0
  9
$UCSORGTOP
 10
0.0
 20
0.0
 30
0.0
  9
$UCSORGBOTTOM
 10
0.0
 20
0.0
 30
0.0
  9
$UCSORGLEFT
 10
0.0
 20
0.0
 30
0.0
  9
$UCSORGRIGHT
 10
0.0
 20
0.0
 30
0.0
  9
$UCSORGFRONT
 10
0.0
 20
0.0
 30
0.0
  9
$UCSORGBACK
 10
0.0
 20
0.0
 30
0.0
  9
$PUCSBASE
  2

  9
$PUCSNAME
  2

  9
$PUCSORG
 10
0.0
 20
0.0
 30
0.0
  9
$PUCSXDIR
 10
1.0
 20
0.0
 30
0.0
  9
$PUCSYDIR
 10
0.0
 20
1.0
 30
0.0
  9
$PUCSORTHOREF
  2

  9
$PUCSORTHOVIEW
 70
     0
  9
$PUCSORGTOP
 10
0.0
 20
0.0
 30
0.0
  9
$PUCSORGBOTTOM
 10
0.0
 20
0.0
 30
0.0
  9
$PUCSORGLEFT
 10
0.0
 20
0.0
 30
0.0
  9
$PUCSORGRIGHT
 10
0.0
 20
0.0
 30
0.0
  9
$PUCSORGFRONT
 10
0.0
 20
0.0
 30
0.0
  9
$PUCSORGBACK
 10
0.0
 20
0.0
 30
0.0
  9
$USERI1
 70
     0
  9
$USERI2
 70
     0
  9
$USERI3
 70
     0
  9
$USERI4
 70
     0
  9
$USERI5
 70
     0
  9
$USERR1
 40
0.0
  9
$USERR2
 40
0.0
  9
$USERR3
 40
0.0
  9
$USERR4
 40
0.0
  9
$USERR5
 40
0.0
  9
$WORLDVIEW
 70
     1
  9
$SHADEDGE
 70
     3
  9
$SHADEDIF
 70
    70
  9
$TILEMODE
 70
     1
  9
$MAXACTVP
 70
    48
  9
$PINSBASE
 10
0.0
 20
0.0
 30
0.0
  9
$PLIMCHECK
 70
     0
  9
$PEXTMIN
 10
1.000000000000000E+20
 20
1.000000000000000E+20
 30
1.000000000000000E+20
  9
$PEXTMAX
 10
-1.000000000000000E+20
 20
-1.000000000000000E+20
 30
-1.000000000000000E+20
  9
$PLIMMIN
 10
0.0
 20
0.0
  9
$PLIMMAX
 10
12.0
 20
9.0
  9
$UNITMODE
 70
     0
  9
$VISRETAIN
 70
     1
  9
$PLINEGEN
 70
     0
  9
$PSLTSCALE
 70
     0
  9
$TREEDEPTH
 70
  3020
  9
$CMLSTYLE
  2
Standard
  9
$CMLJUST
 70
     0
  9
$CMLSCALE
 40
1.0
  9
$PROXYGRAPHICS
 70
     1
  9
$MEASUREMENT
 70
     0
  9
$CELWEIGHT
370
    -1
  9
$ENDCAPS
280
     0
  9
$JOINSTYLE
280
     0
  9
$LWDISPLAY
290
     0
  9
$INSUNITS
 70
     0
  9
$HYPERLINKBASE
  1

  9
$STYLESHEET
  1

  9
$XEDIT
290
     1
  9
$CEPSNTYPE
380
     0
  9
$PSTYLEMODE
290
     1
  9
$FINGERPRINTGUID
  2
{77095E5F-9CE7-11D7-970D-0040F4541FA8}
  9
$VERSIONGUID
  2
{7588D1EB-4F8C-4265-9DA3-34EE0C151FF4}
  9
$EXTNAMES
290
     1
  9
$PSVPSCALE
 40
0.0
  9
$OLESTARTUP
290
     0
  0
ENDSEC
  0
SECTION
  2
CLASSES
  0
CLASS
  1
ACDBDICTIONARYWDFLT
  2
AcDbDictionaryWithDefault
  3
ObjectDBX Classes
 90
        0
280
     0
281
     0
  0
CLASS
  1
ACDBPLACEHOLDER
  2
AcDbPlaceHolder
  3
ObjectDBX Classes
 90
        0
280
     0
281
     0
  0
CLASS
  1
LAYOUT
  2
AcDbLayout
  3
ObjectDBX Classes
 90
        0
280
     0
281
     0
  0
CLASS
  1
LONG_TRANSACTION
  2
AcDbLongTransaction
  3
ObjectDBX Classes
 90
    32768
280
     0
281
     0
  0
CLASS
  1
LWPOLYLINE
  2
AcDbPolyline
  3
ObjectDBX Classes
 90
        0
280
     0
281
     1
  0
CLASS
  1
HATCH
  2
AcDbHatch
  3
ObjectDBX Classes
 90
    32768
280
     0
281
     1
  0
CLASS
  1
XRECORD
  2
AcDbXrecord
  3
ObjectDBX Classes
 90
        0
280
     0
281
     0
  0
CLASS
  1
LONG_TRANSACTION
  2
AcDbLongTransaction
  3
ObjectDBX Classes
 90
    32768
280
     0
281
     0
  0
CLASS
  1
LWPOLYLINE
  2
AcDbPolyline
  3
ObjectDBX Classes
 90
        0
280
     0
281
     1
  0
CLASS
  1
HATCH
  2
AcDbHatch
  3
ObjectDBX Classes
 90
    32768
280
     0
281
     1
  0
CLASS
  1
XRECORD
  2
AcDbXrecord
  3
ObjectDBX Classes
 90
        0
280
     0
281
     0
  0
CLASS
  1
DICTIONARYVAR
  2
AcDbDictionaryVar
  3
ObjectDBX Classes
 90
        0
280
     0
281
     0
  0
CLASS
  1
PLOTSETTINGS
  2
AcDbPlotSettings
  3
ObjectDBX Classes
 90
        0
280
     0
281
     0
  0
CLASS
  1
SORTENTSTABLE
  2
AcDbSortentsTable
  3
ObjectDBX Classes
 90
        0
280
     0
281
     0
  0
CLASS
  1
TABLESTYLE
  2
AcDbTableStyle
  3
ObjectDBX Classes
 90
     2047
280
     0
281
     0
  0
ENDSEC
  0
SECTION
  2
TABLES
  0
TABLE
  2
VPORT
  5
8
330
0
100
AcDbSymbolTable
 70
     4
  0
VPORT
  5
EAD3
330
8
100
AcDbSymbolTableRecord
100
AcDbViewportTableRecord
  2
*Active
 70
     0
 10
0.0
 20
0.0
 11
1.0
 21
1.0
 12
2917.200987155657
 22
-64.93351700179136
 13
457.9999999999997
 23
1082.0
 14
10.0
 24
10.0
 15
10.0
 25
10.0
 16
0.0
 26
0.0
 36
1.0
 17
0.0
 27
0.0
 37
0.0
 40
402.5440506157411
 41
1.530456852791878
 42
1.0
 43
0.0
 44
0.0
 50
0.0
 51
0.0
 71
     0
 72
  2000
 73
     1
 74
     1
 75
     0
 76
     0
 77
     0
 78
     0
281
     0
 65
     1
110
0.0
120
0.0
130
0.0
111
1.0
121
0.0
131
0.0
112
0.0
122
1.0
132
0.0
 79
     0
146
0.0
  0
ENDTAB
  0
TABLE
  2
LTYPE
  5
5
330
0
100
AcDbSymbolTable
 70
     6
  0
LTYPE
  5
13
330
5
100
AcDbSymbolTableRecord
100
AcDbLinetypeTableRecord
  2
ByBlock
 70
     0
  3

 72
    65
 73
     0
 40
0.0
  0
LTYPE
  5
14
330
5
100
AcDbSymbolTableRecord
100
AcDbLinetypeTableRecord
  2
ByLayer
 70
     0
  3

 72
    65
 73
     0
 40
0.0
  0
LTYPE
  5
15
330
5
100
AcDbSymbolTableRecord
100
AcDbLinetypeTableRecord
  2
CONTINUOUS
 70
     0
  3
連續線 ________________________
 72
    65
 73
     0
 40
0.0
  0
LTYPE
  5
225
330
5
100
AcDbSymbolTableRecord
100
AcDbLinetypeTableRecord
  2
BYBLOCK
 70
     0
  3
Solid line
 72
    65
 73
     0
 40
0.0
  0
LTYPE
  5
226
330
5
100
AcDbSymbolTableRecord
100
AcDbLinetypeTableRecord
  2
BYLAYER
 70
     0
  3
Solid line
 72
    65
 73
     0
 40
0.0
  0
LTYPE
  5
413C
330
5
100
AcDbSymbolTableRecord
100
AcDbLinetypeTableRecord
  2
CENTER2
 70
     0
  3
Center (.5x) ___ _ ___ _ ___ _ ___ _ ___ _ ___
 72
    65
 73
     4
 40
28.575
 49
19.05
 74
     0
 49
-3.174999999999999
 74
     0
 49
3.174999999999999
 74
     0
 49
-3.174999999999999
 74
     0
  0
LTYPE
  5
413D
330
5
100
AcDbSymbolTableRecord
100
AcDbLinetypeTableRecord
  2
DASHED2
 70
     0
  3
Dashed (.5x) _ _ _ _ _ _ _ _ _ _ _ _ _ _ _ _ _
 72
    65
 73
     2
 40
9.524999999999998
 49
6.349999999999999
 74
     0
 49
-3.174999999999999
 74
     0
  0
LTYPE
  5
69DC
330
5
100
AcDbSymbolTableRecord
100
AcDbLinetypeTableRecord
  2
DASHED
 70
     0
  3
__ __ __ __ __ __ __ __ __ __ __ __ __ __ __
 72
    65
 73
     2
 40
4.0
 49
3.0
 74
     0
 49
-1.0
 74
     0
  0
ENDTAB
  0
TABLE
  2
LAYER
  5
2
102
{ACAD_XDICTIONARY
360
43C2
102
}
330
0
100
AcDbSymbolTable
 70
     7
  0
LAYER
  5
10
330
2
100
AcDbSymbolTableRecord
100
AcDbLayerTableRecord
  2
0
 70
     0
 62
     7
  6
CONTINUOUS
370
    -3
390
F
  0
LAYER
  5
413E
330
2
100
AcDbSymbolTableRecord
100
AcDbLayerTableRecord
  2
指線
 70
     0
 62
     3
  6
CONTINUOUS
370
    15
390
F
  0
LAYER
  5
413F
330
2
100
AcDbSymbolTableRecord
100
AcDbLayerTableRecord
  2
中心線
 70
     0
 62
     4
  6
CENTER2
370
    20
390
F
  0
LAYER
  5
4140
330
2
100
AcDbSymbolTableRecord
100
AcDbLayerTableRecord
  2
虛線
 70
     0
 62
     6
  6
DASHED2
290
     0
370
    -3
390
F
  0
LAYER
  5
43B4
330
2
100
AcDbSymbolTableRecord
100
AcDbLayerTableRecord
  2
建構線
 70
     0
 62
     1
  6
CONTINUOUS
370
    -3
390
F
  0
LAYER
  5
69DF
330
2
100
AcDbSymbolTableRecord
100
AcDbLayerTableRecord
  2
標註線
 70
     0
 62
     3
  6
CONTINUOUS
370
    13
390
F
  0
LAYER
  5
C701
330
2
100
AcDbSymbolTableRecord
100
AcDbLayerTableRecord
  2
Defpoints
 70
     0
 62
     7
  6
CONTINUOUS
290
     0
370
    -3
390
F
  0
ENDTAB
  0
TABLE
  2
STYLE
  5
3
330
0
100
AcDbSymbolTable
 70
     1
  0
STYLE
  5
11
330
3
100
AcDbSymbolTableRecord
100
AcDbTextStyleTableRecord
  2
STANDARD
 70
     0
 40
0.0
 41
1.0
 50
0.0
 71
     0
 42
3.0
  3

  4

  0
ENDTAB
  0
TABLE
  2
VIEW
  5
6
330
0
100
AcDbSymbolTable
 70
     0
  0
ENDTAB
  0
TABLE
  2
UCS
  5
7
330
0
100
AcDbSymbolTable
 70
     0
  0
ENDTAB
  0
TABLE
  2
APPID
  5
9
330
0
100
AcDbSymbolTable
 70
     4
  0
APPID
  5
12
330
9
100
AcDbSymbolTableRecord
100
AcDbRegAppTableRecord
  2
ACAD
 70
     0
  0
APPID
  5
230
330
9
100
AcDbSymbolTableRecord
100
AcDbRegAppTableRecord
  2
TCAD
 70
     0
  0
APPID
  5
4142
330
9
100
AcDbSymbolTableRecord
100
AcDbRegAppTableRecord
  2
CONTENTBLOCKICON
 70
     0
  0
APPID
  5
5D91
330
9
100
AcDbSymbolTableRecord
100
AcDbRegAppTableRecord
  2
pntflag
 70
     0
  0
ENDTAB
  0
TABLE
  2
DIMSTYLE
  5
A
330
0
100
AcDbSymbolTable
 70
     1
100
AcDbDimStyleTable
 71
     1
340
3C9D
  0
DIMSTYLE
105
3C9D
330
A
100
AcDbSymbolTableRecord
100
AcDbDimStyleTableRecord
  2
Standard
 70
     0
340
11
  0
ENDTAB
  0
TABLE
  2
BLOCK_RECORD
  5
1
330
0
100
AcDbSymbolTable
 70
     2
  0
BLOCK_RECORD
  5
1E
102
{ACAD_XDICTIONARY
360
3D1E
102
}
330
1
100
AcDbSymbolTableRecord
100
AcDbBlockTableRecord
  2
*Model_Space
340
21
  0
BLOCK_RECORD
  5
1A
102
{ACAD_XDICTIONARY
360
3D20
102
}
330
1
100
AcDbSymbolTableRecord
100
AcDbBlockTableRecord
  2
*Paper_Space
340
1D
  0
BLOCK_RECORD
  5
69B7
102
{ACAD_XDICTIONARY
360
69B8
102
}
330
1
100
AcDbSymbolTableRecord
100
AcDbBlockTableRecord
  2
A$C51E2538E
340
0
  0
BLOCK_RECORD
  5
69CB
102
{ACAD_XDICTIONARY
360
69CC
102
}
330
1
100
AcDbSymbolTableRecord
100
AcDbBlockTableRecord
  2
A$C3310154B
340
0
  0
ENDTAB
  0
ENDSEC
  0
SECTION
  2
BLOCKS
  0
BLOCK
  5
254
330
1E
100
AcDbEntity
  8
0
100
AcDbBlockBegin
  2
*Model_Space
 70
     0
 10
0.0
 20
0.0
 30
0.0
  3
*Model_Space
  1

  0
ENDBLK
  5
255
330
1E
100
AcDbEntity
  8
0
100
AcDbBlockEnd
  0
BLOCK
  5
252
330
1A
100
AcDbEntity
 67
     1
  8
0
100
AcDbBlockBegin
  2
*Paper_Space
 70
     0
 10
0.0
 20
0.0
 30
0.0
  3
*Paper_Space
  1

  0
ENDBLK
  5
253
330
1A
100
AcDbEntity
 67
     1
  8
0
100
AcDbBlockEnd
  0
BLOCK
  5
69BA
330
69B7
100
AcDbEntity
  8
0
 62
     1
 48
0.27
100
AcDbBlockBegin
  2
A$C51E2538E
 70
     0
 10
0.0
 20
0.0
 30
0.0
  3
A$C51E2538E
  1

  0
LINE
  5
69BB
330
69B7
100
AcDbEntity
  8
虛線
 48
0.25
100
AcDbLine
 10
9.230939415452212
 20
1.99838789798423
 30
0.0
 11
2.230939415459943
 21
1.998387897983548
 31
0.0
  0
LINE
  5
69BC
330
69B7
100
AcDbEntity
  8
虛線
 48
0.25
100
AcDbLine
 10
9.230939415453576
 20
15.79841841556197
 30
0.0
 11
9.230939415452212
 21
1.99838789798423
 31
0.0
  0
LINE
  5
69BD
330
69B7
100
AcDbEntity
  8
虛線
 48
0.25
100
AcDbLine
 10
0.2309394154581241
 20
24.698418415562
 30
0.0
 11
0.2309394154590336
 21
16.09842604495623
 31
0.0
  0
LINE
  5
69BE
330
69B7
100
AcDbEntity
  8
虛線
 48
0.25
100
AcDbLine
 10
2.230939415453576
 20
15.79841841556191
 30
0.0
 11
2.230939415459943
 21
1.998387897983576
 31
0.0
  0
LINE
  5
69BF
330
69B7
100
AcDbEntity
  8
虛線
 48
0.25
100
AcDbLine
 10
0.2309394154590336
 20
16.09835738040544
 30
0.0
 11
11.23093941545221
 21
16.09835738040573
 31
0.0
  0
LINE
  5
69C0
330
69B7
100
AcDbEntity
  8
中心線
 48
0.25
100
AcDbLine
 10
5.730939415455679
 20
27.09841841556201
 30
0.0
 11
5.730939415449938
 21
0.0
 31
0.0
  0
LINE
  5
69C1
330
69B7
100
AcDbEntity
  8
虛線
 48
0.25
100
AcDbLine
 10
2.230939415459943
 20
1.998387897983548
 30
0.0
 11
1.730939415460852
 21
1.498387897984002
 31
0.0
  0
LINE
  5
69C2
330
69B7
100
AcDbEntity
  8
虛線
 48
0.25
100
AcDbLine
 10
9.230939415452212
 20
1.99838789798423
 30
0.0
 11
9.730939415451302
 21
1.498387897984287
 31
0.0
  0
LINE
  5
69C3
330
69B7
100
AcDbEntity
  8
虛線
 48
0.25
100
AcDbLine
 10
11.23093941545358
 20
24.698418415562
 30
0.0
 11
11.23093941545221
 21
16.09835738040573
 31
0.0
  0
LINE
  5
69C4
330
69B7
100
AcDbEntity
  8
虛線
 48
0.25
100
AcDbLine
 10
0.2309394154535767
 20
24.698418415562
 30
0.0
 11
11.23093941545358
 21
24.698418415562
 31
0.0
  0
LINE
  5
69C5
330
69B7
100
AcDbEntity
  8
虛線
 48
0.25
100
AcDbLine
 10
2.230939415453576
 20
15.79841841556197
 30
0.0
 11
9.230939415453576
 21
15.79841841556197
 31
0.0
  0
LINE
  5
69C6
330
69B7
100
AcDbEntity
  8
虛線
 48
0.25
100
AcDbLine
 10
1.930939415453394
 20
16.09841841556192
 30
0.0
 11
2.230939415453576
 21
15.79841841556191
 31
0.0
  0
LINE
  5
69C7
330
69B7
100
AcDbEntity
  8
虛線
 48
0.25
100
AcDbLine
 10
0.2309394154535767
 20
24.698418415562
 30
0.0
 11
-0.0000006922223292
 21
25.09841841556204
 31
0.0
  0
LINE
  5
69C8
330
69B7
100
AcDbEntity
  8
虛線
 48
0.25
100
AcDbLine
 10
9.230939415453576
 20
15.79841841556197
 30
0.0
 11
9.530939415453758
 21
16.09841841556198
 31
0.0
  0
LINE
  5
69C9
330
69B7
100
AcDbEntity
  8
虛線
 48
0.25
100
AcDbLine
 10
11.23093941545358
 20
24.698418415562
 30
0.0
 11
11.46187952312948
 21
25.09841841556204
 31
0.0
  0
ENDBLK
  5
69CA
330
69B7
100
AcDbEntity
  8
0
 62
     1
 48
0.27
100
AcDbBlockEnd
  0
BLOCK
  5
69CE
330
69CB
100
AcDbEntity
  8
0
 62
     1
 48
0.27
100
AcDbBlockBegin
  2
A$C3310154B
 70
     0
 10
0.0
 20
0.0
 30
0.0
  3
A$C3310154B
  1

  0
LINE
  5
69CF
330
69CB
100
AcDbEntity
  8
虛線
 48
0.2
100
AcDbLine
 10
0.4999707651827521
 20
12.80115016654724
 30
0.0
 11
0.4999707651836616
 21
5.30113016654775
 31
0.0
  0
LINE
  5
69D0
330
69CB
100
AcDbEntity
  8
虛線
 48
0.2
100
AcDbLine
 10
6.499970765181842
 20
12.80111016654831
 30
0.0
 11
6.499970765183661
 21
5.301130166548432
 31
0.0
  0
LINE
  5
69D1
330
69CB
100
AcDbEntity
  8
虛線
 48
0.2
100
AcDbLine
 10
6.499970765183661
 20
5.301130166548432
 30
0.0
 11
0.4999707651836616
 21
5.30113016654775
 31
0.0
  0
LINE
  5
69D2
330
69CB
100
AcDbEntity
  8
中心線
 48
0.25
100
AcDbLine
 10
3.49999076518344
 20
15.30112016654811
 30
0.0
 11
3.499990765177699
 21
0.000000166540076
 31
0.0
  0
LINE
  5
69D3
330
69CB
100
AcDbEntity
  8
虛線
 48
0.2
100
AcDbLine
 10
5.999980765182044
 20
12.30112016654846
 30
0.0
 11
5.999980765187501
 21
2.30113016655747
 31
0.0
  0
LINE
  5
69D4
330
69CB
100
AcDbEntity
  8
虛線
 48
0.2
100
AcDbLine
 10
1.000000765181994
 20
12.30112016654812
 30
0.0
 11
1.000000765187905
 21
2.301130166554685
 31
0.0
  0
LINE
  5
69D5
330
69CB
100
AcDbEntity
  8
虛線
 48
0.2
100
AcDbLine
 10
5.999980765187501
 20
2.30113016655747
 30
0.0
 11
1.000000765187905
 21
2.301130166554685
 31
0.0
  0
LINE
  5
69D6
330
69CB
100
AcDbEntity
  8
虛線
 48
0.2
100
AcDbLine
 10
5.999980765182499
 20
12.3011201665484
 30
0.0
 11
1.000000765181994
 21
12.30112016654817
 31
0.0
  0
LINE
  5
69D7
330
69CB
100
AcDbEntity
  8
虛線
 48
0.2
100
AcDbLine
 10
5.999980765182044
 20
12.3011201665484
 30
0.0
 11
6.999980765182499
 21
13.30112016654863
 31
0.0
  0
LINE
  5
69D8
330
69CB
100
AcDbEntity
  8
虛線
 48
0.2
100
AcDbLine
 10
5.999980765187956
 20
2.301130166557413
 30
0.0
 11
3.499990765183611
 21
0.801130166544965
 31
0.0
  0
LINE
  5
69D9
330
69CB
100
AcDbEntity
  8
虛線
 48
0.2
100
AcDbLine
 10
1.000000765187905
 20
2.30113016657259
 30
0.0
 11
3.499990765178154
 21
0.801130166544965
 31
0.0
  0
LINE
  5
69DA
330
69CB
100
AcDbEntity
  8
虛線
 48
0.2
100
AcDbLine
 10
1.00000076518495
 20
12.30112016654834
 30
0.0
 11
0.0000007651844385
 21
13.30112016654854
 31
0.0
  0
ENDBLK
  5
69DB
330
69CB
100
AcDbEntity
  8
0
 62
     1
 48
0.27
100
AcDbBlockEnd
  0
ENDSEC
  0
SECTION
  2
ENTITIES
  0
LINE
  5
A2A1
330
1E
100
AcDbEntity
  8
0
  6
Continuous
 62
     7
100
AcDbLine
 10
3109.95416713023
 20
35.30941411807294
 30
0.0
 11
3084.45416713023
 21
35.30941411807294
 31
0.0
  0
LINE
  5
A2A2
330
1E
100
AcDbEntity
  8
0
  6
Continuous
 62
     7
100
AcDbLine
 10
3109.95416713023
 20
34.50942011867301
 30
0.0
 11
3084.45416713023
 21
34.50942011867301
 31
0.0
  0
LINE
  5
A2A3
330
1E
100
AcDbEntity
  8
0
  6
Continuous
 62
     7
100
AcDbLine
 10
3109.95416713023
 20
10.30941411807293
 30
0.0
 11
3084.45416713023
 21
10.30941411807293
 31
0.0
  0
LINE
  5
A2A4
330
1E
100
AcDbEntity
  8
0
  6
Continuous
 62
     7
100
AcDbLine
 10
3109.95416713023
 20
11.10940811747309
 30
0.0
 11
3084.45416713023
 21
11.10940811747309
 31
0.0
  0
LINE
  5
A2A5
330
1E
100
AcDbEntity
  8
0
  6
Continuous
 62
     7
100
AcDbLine
 10
2885.15416713023
 20
10.30941411807293
 30
0.0
 11
2910.65416713023
 21
10.30941411807293
 31
0.0
  0
LINE
  5
A2A6
330
1E
100
AcDbEntity
  8
0
  6
Continuous
 62
     7
100
AcDbLine
 10
2885.15416713023
 20
11.10940811747309
 30
0.0
 11
2910.65416713023
 21
11.10940811747309
 31
0.0
  0
LINE
  5
A2A7
330
1E
100
AcDbEntity
  8
0
  6
Continuous
 62
     7
100
AcDbLine
 10
2885.15416713023
 20
35.30941411807294
 30
0.0
 11
2910.65416713023
 21
35.30941411807294
 31
0.0
  0
LINE
  5
A2A8
330
1E
100
AcDbEntity
  8
0
  6
Continuous
 62
     7
100
AcDbLine
 10
2885.15416713023
 20
34.50942011867301
 30
0.0
 11
2910.65416713023
 21
34.50942011867301
 31
0.0
  0
LINE
  5
A650
330
1E
100
AcDbEntity
  8
中心線
 48
0.27
100
AcDbLine
 10
2639.104675534863
 20
-110.2492999901269
 30
0.0
 11
2639.104675534863
 21
-139.783323990127
 31
0.0
  0
LINE
  5
A656
330
1E
100
AcDbEntity
  8
虛線
 48
0.27
100
AcDbLine
 10
2708.979675534863
 20
-113.8492999901273
 30
0.0
 11
2719.229675534863
 21
-113.8492999901273
 31
0.0
  0
LINE
  5
A657
330
1E
100
AcDbEntity
  8
虛線
 48
0.27
100
AcDbLine
 10
2720.829675534863
 20
-112.2492999901269
 30
0.0
 11
2719.229675534864
 21
-113.8492999901273
 31
0.0
  0
LINE
  5
A658
330
1E
100
AcDbEntity
  8
虛線
 48
0.27
100
AcDbLine
 10
2720.104675534864
 20
-112.9742999901273
 30
0.0
 11
2720.104675534863
 21
-130.2492999901271
 31
0.0
  0
LINE
  5
A659
330
1E
100
AcDbEntity
  8
虛線
 48
0.27
100
AcDbLine
 10
2720.104675534863
 20
-130.2492999901271
 30
0.0
 11
2708.104675534864
 21
-130.2492999901271
 31
0.0
  0
LINE
  5
A65A
330
1E
100
AcDbEntity
  8
虛線
 48
0.27
100
AcDbLine
 10
2719.229675534863
 20
-113.8492999901273
 30
0.0
 11
2719.229675534864
 21
-135.499302990127
 31
0.0
  0
LINE
  5
A65B
330
1E
100
AcDbEntity
  8
虛線
 48
0.27
100
AcDbLine
 10
2719.229675534864
 20
-135.499302990127
 30
0.0
 11
2714.104675534864
 21
-138.5787136626436
 31
0.0
  0
LINE
  5
A65C
330
1E
100
AcDbEntity
  8
虛線
 48
0.27
100
AcDbLine
 10
2708.979675534863
 20
-135.4993029901272
 30
0.0
 11
2714.104675534864
 21
-138.5787136626436
 31
0.0
  0
LINE
  5
A65D
330
1E
100
AcDbEntity
  8
虛線
 48
0.27
100
AcDbLine
 10
2719.229675534864
 20
-135.499302990127
 30
0.0
 11
2708.979675534863
 21
-135.499302990127
 31
0.0
  0
LINE
  5
A65E
330
1E
100
AcDbEntity
  8
虛線
 48
0.27
100
AcDbLine
 10
2708.979675534863
 20
-113.8492999901273
 30
0.0
 11
2708.979675534863
 21
-135.499302990127
 31
0.0
  0
LINE
  5
A65F
330
1E
100
AcDbEntity
  8
虛線
 48
0.27
100
AcDbLine
 10
2708.104675534864
 20
-112.9742999901273
 30
0.0
 11
2708.104675534864
 21
-130.2492999901271
 31
0.0
  0
LINE
  5
A660
330
1E
100
AcDbEntity
  8
虛線
 48
0.27
100
AcDbLine
 10
2708.979675534863
 20
-113.8492999901273
 30
0.0
 11
2707.379675534863
 21
-112.2492999901269
 31
0.0
  0
LINE
  5
A661
330
1E
100
AcDbEntity
  8
中心線
 48
0.27
100
AcDbLine
 10
2714.104675534864
 20
-110.2492999901271
 30
0.0
 11
2714.104675534864
 21
-139.7833239901272
 31
0.0
  0
LINE
  5
A662
330
1E
100
AcDbEntity
  8
中心線
 48
0.27
100
AcDbLine
 10
2676.602561357195
 20
-107.0826045513727
 30
0.0
 11
2676.602561357195
 21
-194.100672007961
 31
0.0
  0
LWPOLYLINE
  5
A664
330
1E
100
AcDbEntity
  8
0
 48
0.27
100
AcDbPolyline
 90
       17
 70
     0
 43
0.0
 10
2687.79382635387
 20
-134.2488502813438
 10
2687.835761737623
 20
-134.5201468797754
 10
2687.87687548099
 20
-134.5987771854066
 10
2687.922588405874
 20
-134.6357042374485
 10
2687.965059859716
 20
-134.6353201373842
 10
2688.010675924584
 20
-134.5975647650791
 10
2688.049855807377
 20
-134.5228522807272
 10
2688.086589139387
 20
-134.3602610276995
 10
2688.092798201424
 20
-134.2488502813438
 10
2688.050864487671
 20
-133.9775553529126
 10
2688.009749074305
 20
-133.8989250472813
 10
2687.96403614942
 20
-133.8619979952395
 10
2687.921566365578
 20
-133.8623820954286
 10
2687.87594863071
 20
-133.9001374677339
 10
2687.836770417917
 20
-133.9748499520858
 10
2687.800035415907
 20
-134.1374412049886
 10
2687.79382635387
 20
-134.2488502813438
  0
ARC
  5
A665
330
1E
100
AcDbEntity
  8
0
 48
0.27
100
AcDbCircle
 10
2676.604214826081
 20
-134.2488502813439
 30
0.0
 40
5.0
100
AcDbArc
 50
48.59037799890332
 51
311.4096220031988
  0
LINE
  5
A666
330
1E
100
AcDbEntity
  8
0
 48
0.27
100
AcDbLine
 10
2680.21265514244
 20
-130.4988506988438
 30
0.0
 11
2679.490966077167
 21
-129.2488502813439
 31
0.0
  0
LINE
  5
A667
330
1E
100
AcDbEntity
  8
0
 48
0.27
100
AcDbLine
 10
2673.717463574993
 20
-129.2488502813439
 30
0.0
 11
2679.490966077167
 21
-129.2488502813439
 31
0.0
  0
LINE
  5
A668
330
1E
100
AcDbEntity
  8
0
 48
0.27
100
AcDbLine
 10
2673.717463574993
 20
-129.2488502813439
 30
0.0
 11
2670.830712323906
 21
-134.2488502813439
 31
0.0
  0
LINE
  5
A669
330
1E
100
AcDbEntity
  8
0
 48
0.27
100
AcDbLine
 10
2670.830712323906
 20
-134.2488502813439
 30
0.0
 11
2673.717463574993
 21
-139.248851951344
 31
0.0
  0
LINE
  5
A66A
330
1E
100
AcDbEntity
  8
0
 48
0.27
100
AcDbLine
 10
2679.490967747168
 20
-139.248851951344
 30
0.0
 11
2673.717463574993
 21
-139.248851951344
 31
0.0
  0
LINE
  5
A66B
330
1E
100
AcDbEntity
  8
0
 48
0.27
100
AcDbLine
 10
2680.21265514244
 20
-137.9988515338441
 30
0.0
 11
2679.490967747168
 21
-139.248851951344
 31
0.0
  0
LINE
  5
A66C
330
1E
100
AcDbEntity
  8
0
 48
0.27
100
AcDbLine
 10
2678.23109762652
 20
-137.9988515338441
 30
0.0
 11
2681.998683984706
 21
-137.9988515338441
 31
0.0
  0
LINE
  5
A66D
330
1E
100
AcDbEntity
  8
0
 48
0.27
100
AcDbLine
 10
2682.077307610337
 20
-130.8547094448972
 30
0.0
 11
2681.998683984706
 21
-130.4988506988438
 31
0.0
  0
LINE
  5
A66E
330
1E
100
AcDbEntity
  8
0
 48
0.27
100
AcDbLine
 10
2681.998683984706
 20
-137.9988515338441
 30
0.0
 11
2682.077307610337
 21
-137.6429927877907
 31
0.0
  0
LINE
  5
A66F
330
1E
100
AcDbEntity
  8
0
 48
0.27
100
AcDbLine
 10
2678.23109762652
 20
-130.4988506988438
 30
0.0
 11
2681.998683984706
 21
-130.4988506988438
 31
0.0
  0
LINE
  5
A670
330
1E
100
AcDbEntity
  8
0
 48
0.27
100
AcDbLine
 10
2681.450117195846
 20
-137.9267960203108
 30
0.0
 11
2683.952375871598
 21
-136.7945273012219
 31
0.0
  0
LINE
  5
A671
330
1E
100
AcDbEntity
  8
0
 48
0.27
100
AcDbLine
 10
2688.783894526711
 20
-134.6857708538095
 30
0.0
 11
2688.800362402087
 21
-134.2488502813439
 31
0.0
  0
LINE
  5
A672
330
1E
100
AcDbEntity
  8
0
 48
0.27
100
AcDbLine
 10
2688.735123830817
 20
-135.1059012407213
 30
0.0
 11
2688.783894526711
 21
-134.6857708538095
 31
0.0
  0
LINE
  5
A673
330
1E
100
AcDbEntity
  8
0
 48
0.27
100
AcDbLine
 10
2688.800362402087
 20
-134.2488502813439
 30
0.0
 11
2688.783894526711
 21
-133.8119297088781
 31
0.0
  0
LINE
  5
A674
330
1E
100
AcDbEntity
  8
0
 48
0.27
100
AcDbLine
 10
2681.170149954592
 20
-137.9988515338441
 30
0.0
 11
2681.450117195846
 21
-137.9267960203108
 31
0.0
  0
LINE
  5
A675
330
1E
100
AcDbEntity
  8
0
 48
0.27
100
AcDbLine
 10
2681.170149954592
 20
-130.4988506988438
 30
0.0
 11
2681.450117195846
 21
-130.5709062123771
 31
0.0
  0
LINE
  5
A676
330
1E
100
AcDbEntity
  8
0
 48
0.27
100
AcDbLine
 10
2681.450117195846
 20
-130.5709062123771
 30
0.0
 11
2683.952375871598
 21
-131.703174931466
 31
0.0
  0
LINE
  5
A677
330
1E
100
AcDbEntity
  8
0
 48
0.27
100
AcDbLine
 10
2688.655924054966
 20
-135.4930942070077
 30
0.0
 11
2688.735123830817
 21
-135.1059012407213
 31
0.0
  0
LINE
  5
A678
330
1E
100
AcDbEntity
  8
0
 48
0.27
100
AcDbLine
 10
2688.783894526711
 20
-133.8119297088781
 30
0.0
 11
2688.735123830817
 21
-133.3918009919666
 31
0.0
  0
LINE
  5
A679
330
1E
100
AcDbEntity
  8
0
 48
0.27
100
AcDbLine
 10
2688.549337940166
 20
-135.8324733875588
 30
0.0
 11
2688.655924054966
 21
-135.4930942070077
 31
0.0
  0
LINE
  5
A67A
330
1E
100
AcDbEntity
  8
0
 48
0.27
100
AcDbLine
 10
2687.600144700776
 20
-136.2967368789659
 30
0.0
 11
2687.602517771547
 21
-136.2955762286469
 31
0.0
  0
LINE
  5
A67B
330
1E
100
AcDbEntity
  8
0
 48
0.27
100
AcDbLine
 10
2688.735123830817
 20
-133.3918009919666
 30
0.0
 11
2688.655924054966
 21
-133.0046063556801
 31
0.0
  0
LINE
  5
A67C
330
1E
100
AcDbEntity
  8
0
 48
0.27
100
AcDbLine
 10
2680.890182713337
 20
-137.9267960203108
 30
0.0
 11
2681.170149954592
 21
-137.9988515338441
 31
0.0
  0
LINE
  5
A67D
330
1E
100
AcDbEntity
  8
0
 48
0.27
100
AcDbLine
 10
2680.890182713337
 20
-130.5709062123771
 30
0.0
 11
2681.170149954592
 21
-130.4988506988438
 31
0.0
  0
LINE
  5
A67E
330
1E
100
AcDbEntity
  8
0
 48
0.27
100
AcDbLine
 10
2688.419463667851
 20
-136.1109944084469
 30
0.0
 11
2688.549337940166
 21
-135.8324733875588
 31
0.0
  0
LINE
  5
A67F
330
1E
100
AcDbEntity
  8
0
 48
0.27
100
AcDbLine
 10
2688.655924054966
 20
-133.0046063556801
 30
0.0
 11
2688.549337940166
 21
-132.6652288451291
 31
0.0
  0
LINE
  5
A680
330
1E
100
AcDbEntity
  8
0
 48
0.27
100
AcDbLine
 10
2683.952375871598
 20
-136.7945273012219
 30
0.0
 11
2684.253779239807
 21
-136.6715234111802
 31
0.0
  0
LINE
  5
A681
330
1E
100
AcDbEntity
  8
0
 48
0.27
100
AcDbLine
 10
2683.952375871598
 20
-131.703174931466
 30
0.0
 11
2684.253779239807
 21
-131.8261771515074
 31
0.0
  0
LINE
  5
A682
330
1E
100
AcDbEntity
  8
0
 48
0.27
100
AcDbLine
 10
2688.271291199607
 20
-136.3179525658838
 30
0.0
 11
2688.419463667851
 21
-136.1109944084469
 31
0.0
  0
LINE
  5
A683
330
1E
100
AcDbEntity
  8
0
 48
0.27
100
AcDbLine
 10
2688.549337940166
 20
-132.6652288451291
 30
0.0
 11
2688.419463667851
 21
-132.386707824241
 31
0.0
  0
LINE
  5
A684
330
1E
100
AcDbEntity
  8
0
 48
0.27
100
AcDbLine
 10
2680.620975285504
 20
-137.7134000107985
 30
0.0
 11
2680.890182713337
 21
-137.9267960203108
 31
0.0
  0
LINE
  5
A685
330
1E
100
AcDbEntity
  8
0
 48
0.27
100
AcDbLine
 10
2680.620975285504
 20
-130.7843022218894
 30
0.0
 11
2680.890182713337
 21
-130.5709062123771
 31
0.0
  0
LINE
  5
A686
330
1E
100
AcDbEntity
  8
0
 48
0.27
100
AcDbLine
 10
2684.253779239807
 20
-136.6715234111802
 30
0.0
 11
2684.522433897423
 21
-136.6829328548356
 31
0.0
  0
LINE
  5
A687
330
1E
100
AcDbEntity
  8
0
 48
0.27
100
AcDbLine
 10
2684.253779239807
 20
-131.8261771515074
 30
0.0
 11
2684.522433897423
 21
-131.8147693778523
 31
0.0
  0
LINE
  5
A688
330
1E
100
AcDbEntity
  8
0
 48
0.27
100
AcDbLine
 10
2686.547421447595
 20
-137.3792612918723
 30
0.0
 11
2688.110515237132
 21
-136.4453986574176
 31
0.0
  0
LINE
  5
A689
330
1E
100
AcDbEntity
  8
0
 48
0.27
100
AcDbLine
 10
2688.110515237132
 20
-136.4453986574176
 30
0.0
 11
2688.271291199607
 21
-136.3179525658838
 31
0.0
  0
LINE
  5
A68A
330
1E
100
AcDbEntity
  8
0
 48
0.27
100
AcDbLine
 10
2688.419463667851
 20
-132.386707824241
 30
0.0
 11
2688.271291199607
 21
-132.1797496668041
 31
0.0
  0
LINE
  5
A68B
330
1E
100
AcDbEntity
  8
0
 48
0.27
100
AcDbLine
 10
2677.402563596404
 20
-134.2488502813439
 30
0.0
 11
2678.23109762652
 21
-130.4988506988438
 31
0.0
  0
LINE
  5
A68C
330
1E
100
AcDbEntity
  8
0
 48
0.27
100
AcDbLine
 10
2677.402563596404
 20
-134.2488502813439
 30
0.0
 11
2679.513081894361
 21
-134.2488502813439
 31
0.0
  0
LINE
  5
A68D
330
1E
100
AcDbEntity
  8
0
 48
0.27
100
AcDbLine
 10
2678.23109762652
 20
-137.9988515338441
 30
0.0
 11
2677.402563596404
 21
-134.2488502813439
 31
0.0
  0
LINE
  5
A68E
330
1E
100
AcDbEntity
  8
0
 48
0.27
100
AcDbLine
 10
2680.620975285504
 20
-137.7134000107985
 30
0.0
 11
2680.372871654696
 21
-137.366863207802
 31
0.0
  0
LINE
  5
A68F
330
1E
100
AcDbEntity
  8
0
 48
0.27
100
AcDbLine
 10
2680.372871654696
 20
-131.130839024886
 30
0.0
 11
2680.620975285504
 21
-130.7843022218894
 31
0.0
  0
LINE
  5
A690
330
1E
100
AcDbEntity
  8
0
 48
0.27
100
AcDbLine
 10
2686.309134079927
 20
-137.4405903918646
 30
0.0
 11
2686.547421447595
 21
-137.3792612918723
 31
0.0
  0
LINE
  5
A691
330
1E
100
AcDbEntity
  8
0
 48
0.27
100
AcDbLine
 10
2685.858093652853
 20
-137.4057358105438
 30
0.0
 11
2686.309134079927
 21
-137.4405903918646
 31
0.0
  0
LINE
  5
A692
330
1E
100
AcDbEntity
  8
0
 48
0.27
100
AcDbLine
 10
2684.522433897423
 20
-136.6829328548356
 30
0.0
 11
2685.214867893185
 21
-137.1394542236999
 31
0.0
  0
LINE
  5
A693
330
1E
100
AcDbEntity
  8
0
 48
0.27
100
AcDbLine
 10
2687.943313112584
 20
-136.4884312314789
 30
0.0
 11
2688.110515237132
 21
-136.4453986574176
 31
0.0
  0
LINE
  5
A694
330
1E
100
AcDbEntity
  8
0
 48
0.27
100
AcDbLine
 10
2686.547421447595
 20
-131.1184392708151
 30
0.0
 11
2688.110515237132
 21
-132.0523035752706
 31
0.0
  0
LINE
  5
A695
330
1E
100
AcDbEntity
  8
0
 48
0.27
100
AcDbLine
 10
2688.110515237132
 20
-132.0523035752706
 30
0.0
 11
2688.271291199607
 21
-132.1797496668041
 31
0.0
  0
LINE
  5
A696
330
1E
100
AcDbEntity
  8
0
 48
0.27
100
AcDbLine
 10
2686.309134079927
 20
-131.0571118408236
 30
0.0
 11
2686.547421447595
 21
-131.1184392708151
 31
0.0
  0
LINE
  5
A697
330
1E
100
AcDbEntity
  8
0
 48
0.27
100
AcDbLine
 10
2685.858093652853
 20
-131.0919647522689
 30
0.0
 11
2686.309134079927
 21
-131.0571118408236
 31
0.0
  0
LINE
  5
A698
330
1E
100
AcDbEntity
  8
0
 48
0.27
100
AcDbLine
 10
2684.283889349711
 20
-136.5023039259206
 30
0.0
 11
2684.458990576703
 21
-136.6411043512253
 31
0.0
  0
LINE
  5
A699
330
1E
100
AcDbEntity
  8
0
 48
0.27
100
AcDbLine
 10
2685.214867893185
 20
-137.1394542236999
 30
0.0
 11
2685.622408145993
 21
-137.3450780506639
 31
0.0
  0
LINE
  5
A69A
330
1E
100
AcDbEntity
  8
0
 48
0.27
100
AcDbLine
 10
2685.622408145993
 20
-137.3450780506639
 30
0.0
 11
2685.858093652853
 21
-137.4057358105438
 31
0.0
  0
LINE
  5
A69B
330
1E
100
AcDbEntity
  8
0
 48
0.27
100
AcDbLine
 10
2684.522433897423
 20
-131.8147693778523
 30
0.0
 11
2685.214867893185
 21
-131.3582480089883
 31
0.0
  0
LINE
  5
A69C
330
1E
100
AcDbEntity
  8
0
 48
0.27
100
AcDbLine
 10
2684.283889349711
 20
-131.9953983067673
 30
0.0
 11
2684.458990576703
 21
-131.8565978814627
 31
0.0
  0
LINE
  5
A69D
330
1E
100
AcDbEntity
  8
0
 48
0.27
100
AcDbLine
 10
2680.372871654696
 20
-137.366863207802
 30
0.0
 11
2680.155407523755
 21
-136.9005021957946
 31
0.0
  0
LINE
  5
A69E
330
1E
100
AcDbEntity
  8
0
 48
0.27
100
AcDbLine
 10
2680.155407523755
 20
-131.5972000368933
 30
0.0
 11
2680.372871654696
 21
-131.130839024886
 31
0.0
  0
LINE
  5
A69F
330
1E
100
AcDbEntity
  8
0
 48
0.27
100
AcDbLine
 10
2686.070845042257
 20
-137.3792612918723
 30
0.0
 11
2686.309134079927
 21
-137.4405903918646
 31
0.0
  0
LINE
  5
A6A0
330
1E
100
AcDbEntity
  8
0
 48
0.27
100
AcDbLine
 10
2685.622408145993
 20
-131.152624182024
 30
0.0
 11
2685.858093652853
 21
-131.0919647522689
 31
0.0
  0
LINE
  5
A6A1
330
1E
100
AcDbEntity
  8
0
 48
0.27
100
AcDbLine
 10
2685.214867893185
 20
-131.3582480089883
 30
0.0
 11
2685.622408145993
 21
-131.152624182024
 31
0.0
  0
LINE
  5
A6A2
330
1E
100
AcDbEntity
  8
0
 48
0.27
100
AcDbLine
 10
2680.341615924476
 20
-137.9988515338441
 30
0.0
 11
2679.513081894361
 21
-134.2488502813439
 31
0.0
  0
LINE
  5
A6A3
330
1E
100
AcDbEntity
  8
0
 48
0.27
100
AcDbLine
 10
2679.513081894361
 20
-134.2488502813439
 30
0.0
 11
2680.341615924476
 21
-130.4988506988438
 31
0.0
  0
LINE
  5
A6A4
330
1E
100
AcDbEntity
  8
0
 48
0.27
100
AcDbLine
 10
2684.283889349711
 20
-136.5023039259206
 30
0.0
 11
2684.122513857011
 21
-136.2769056225292
 31
0.0
  0
LINE
  5
A6A5
330
1E
100
AcDbEntity
  8
0
 48
0.27
100
AcDbLine
 10
2687.776110988162
 20
-136.4453986574176
 30
0.0
 11
2687.943313112584
 21
-136.4884312314789
 31
0.0
  0
LINE
  5
A6A6
330
1E
100
AcDbEntity
  8
0
 48
0.27
100
AcDbLine
 10
2687.943313112584
 20
-132.009271001209
 30
0.0
 11
2688.110515237132
 21
-132.0523035752706
 31
0.0
  0
LINE
  5
A6A7
330
1E
100
AcDbEntity
  8
0
 48
0.27
100
AcDbLine
 10
2686.070845042257
 20
-131.1184392708151
 30
0.0
 11
2686.309134079927
 21
-131.0571118408236
 31
0.0
  0
LINE
  5
A6A8
330
1E
100
AcDbEntity
  8
0
 48
0.27
100
AcDbLine
 10
2685.003288844226
 20
-131.5259628237468
 30
0.0
 11
2685.214867893185
 21
-131.3582480089883
 31
0.0
  0
LINE
  5
A6A9
330
1E
100
AcDbEntity
  8
0
 48
0.27
100
AcDbLine
 10
2684.122513857011
 20
-132.2207966101589
 30
0.0
 11
2684.283889349711
 21
-131.9953983067673
 31
0.0
  0
LINE
  5
A6AA
330
1E
100
AcDbEntity
  8
0
 48
0.27
100
AcDbLine
 10
2680.155407523755
 20
-136.9005021957946
 30
0.0
 11
2679.976937905575
 21
-136.3322394205197
 31
0.0
  0
LINE
  5
A6AB
330
1E
100
AcDbEntity
  8
0
 48
0.27
100
AcDbLine
 10
2679.976937905575
 20
-132.1654628121682
 30
0.0
 11
2680.155407523755
 21
-131.5972000368933
 31
0.0
  0
LINE
  5
A6AC
330
1E
100
AcDbEntity
  8
0
 48
0.27
100
AcDbLine
 10
2684.122513857011
 20
-136.2769056225292
 30
0.0
 11
2683.981068151015
 21
-135.973570063622
 31
0.0
  0
LINE
  5
A6AD
330
1E
100
AcDbEntity
  8
0
 48
0.27
100
AcDbLine
 10
2685.841714287493
 20
-137.1976337026658
 30
0.0
 11
2686.070845042257
 21
-137.3792612918723
 31
0.0
  0
LINE
  5
A6AE
330
1E
100
AcDbEntity
  8
0
 48
0.27
100
AcDbLine
 10
2683.981068151015
 20
-132.524132169066
 30
0.0
 11
2684.122513857011
 21
-132.2207966101589
 31
0.0
  0
LINE
  5
A6AF
330
1E
100
AcDbEntity
  8
0
 48
0.27
100
AcDbLine
 10
2687.615333355687
 20
-136.3179525658838
 30
0.0
 11
2687.776110988162
 21
-136.4453986574176
 31
0.0
  0
LINE
  5
A6B0
330
1E
100
AcDbEntity
  8
0
 48
0.27
100
AcDbLine
 10
2685.841714287493
 20
-131.3000685300224
 30
0.0
 11
2686.070845042257
 21
-131.1184392708151
 31
0.0
  0
LINE
  5
A6B1
330
1E
100
AcDbEntity
  8
0
 48
0.27
100
AcDbLine
 10
2687.776110988162
 20
-132.0523035752706
 30
0.0
 11
2687.943313112584
 21
-132.009271001209
 31
0.0
  0
LINE
  5
A6B2
330
1E
100
AcDbEntity
  8
0
 48
0.27
100
AcDbLine
 10
2683.981068151015
 20
-135.973570063622
 30
0.0
 11
2683.86498641313
 21
-135.6039538531463
 31
0.0
  0
LINE
  5
A6B3
330
1E
100
AcDbEntity
  8
0
 48
0.27
100
AcDbLine
 10
2679.976937905575
 20
-136.3322394205197
 30
0.0
 11
2679.844324832429
 21
-135.6839134791244
 31
0.0
  0
LINE
  5
A6B4
330
1E
100
AcDbEntity
  8
0
 48
0.27
100
AcDbLine
 10
2679.844324832429
 20
-132.8137870835633
 30
0.0
 11
2679.976937905575
 21
-132.1654628121682
 31
0.0
  0
LINE
  5
A6B5
330
1E
100
AcDbEntity
  8
0
 48
0.27
100
AcDbLine
 10
2683.86498641313
 20
-132.8937483795419
 30
0.0
 11
2683.981068151015
 21
-132.524132169066
 31
0.0
  0
LINE
  5
A6B6
330
1E
100
AcDbEntity
  8
0
 48
0.27
100
AcDbLine
 10
2685.841714287493
 20
-137.1976337026658
 30
0.0
 11
2685.630546058727
 21
-136.9026848865342
 31
0.0
  0
LINE
  5
A6B7
330
1E
100
AcDbEntity
  8
0
 48
0.27
100
AcDbLine
 10
2683.86498641313
 20
-135.6039538531463
 30
0.0
 11
2683.778730884975
 21
-135.1822620155985
 31
0.0
  0
LINE
  5
A6B8
330
1E
100
AcDbEntity
  8
0
 48
0.27
100
AcDbLine
 10
2679.844324832429
 20
-135.6839134791244
 30
0.0
 11
2679.762661805791
 21
-134.9804391098942
 31
0.0
  0
LINE
  5
A6B9
330
1E
100
AcDbEntity
  8
0
 48
0.27
100
AcDbLine
 10
2679.762661805791
 20
-133.5172614529185
 30
0.0
 11
2679.844324832429
 21
-132.8137870835633
 31
0.0
  0
LINE
  5
A6BA
330
1E
100
AcDbEntity
  8
0
 48
0.27
100
AcDbLine
 10
2687.615333355687
 20
-132.1797496668041
 30
0.0
 11
2687.776110988162
 21
-132.0523035752706
 31
0.0
  0
LINE
  5
A6BB
330
1E
100
AcDbEntity
  8
0
 48
0.27
100
AcDbLine
 10
2687.615333355687
 20
-136.3179525658838
 30
0.0
 11
2687.467160887442
 21
-136.1109944084469
 31
0.0
  0
LINE
  5
A6BC
330
1E
100
AcDbEntity
  8
0
 48
0.27
100
AcDbLine
 10
2685.630546058727
 20
-131.5950173461537
 30
0.0
 11
2685.841714287493
 21
-131.3000685300224
 31
0.0
  0
LINE
  5
A6BD
330
1E
100
AcDbEntity
  8
0
 48
0.27
100
AcDbLine
 10
2683.778730884975
 20
-133.3154402170894
 30
0.0
 11
2683.86498641313
 21
-132.8937483795419
 31
0.0
  0
LINE
  5
A6BE
330
1E
100
AcDbEntity
  8
0
 48
0.27
100
AcDbLine
 10
2683.778730884975
 20
-135.1822620155985
 30
0.0
 11
2683.725613177728
 21
-134.7247002364358
 31
0.0
  0
LINE
  5
A6BF
330
1E
100
AcDbEntity
  8
0
 48
0.27
100
AcDbLine
 10
2679.762661805791
 20
-134.9804391098942
 30
0.0
 11
2679.735086756811
 21
-134.2488502813439
 31
0.0
  0
LINE
  5
A6C0
330
1E
100
AcDbEntity
  8
0
 48
0.27
100
AcDbLine
 10
2679.735086756811
 20
-134.2488502813439
 30
0.0
 11
2679.762661805791
 21
-133.5172614529185
 31
0.0
  0
LINE
  5
A6C1
330
1E
100
AcDbEntity
  8
0
 48
0.27
100
AcDbLine
 10
2683.725613177728
 20
-133.7730019962523
 30
0.0
 11
2683.778730884975
 21
-133.3154402170894
 31
0.0
  0
LINE
  5
A6C2
330
1E
100
AcDbEntity
  8
0
 48
0.27
100
AcDbLine
 10
2683.725613177728
 20
-134.7247002364358
 30
0.0
 11
2683.707679041859
 21
-134.2488502813439
 31
0.0
  0
LINE
  5
A6C3
330
1E
100
AcDbEntity
  8
0
 48
0.27
100
AcDbLine
 10
2683.707679041859
 20
-134.2488502813439
 30
0.0
 11
2683.725613177728
 21
-133.7730019962523
 31
0.0
  0
LINE
  5
A6C4
330
1E
100
AcDbEntity
  8
0
 48
0.27
100
AcDbLine
 10
2685.630546058727
 20
-136.9026848865342
 30
0.0
 11
2685.445454888317
 21
-136.5057508071213
 31
0.0
  0
LINE
  5
A6C5
330
1E
100
AcDbEntity
  8
0
 48
0.27
100
AcDbLine
 10
2687.467160887442
 20
-132.386707824241
 30
0.0
 11
2687.615333355687
 21
-132.1797496668041
 31
0.0
  0
LINE
  5
A6C6
330
1E
100
AcDbEntity
  8
0
 48
0.27
100
AcDbLine
 10
2687.467160887442
 20
-136.1109944084469
 30
0.0
 11
2687.337286615129
 21
-135.8324733875588
 31
0.0
  0
LINE
  5
A6C7
330
1E
100
AcDbEntity
  8
0
 48
0.27
100
AcDbLine
 10
2685.445454888317
 20
-131.9919497555665
 30
0.0
 11
2685.630546058727
 21
-131.5950173461537
 31
0.0
  0
LINE
  5
A6C8
330
1E
100
AcDbEntity
  8
0
 48
0.27
100
AcDbLine
 10
2687.337286615129
 20
-132.6652288451291
 30
0.0
 11
2687.467160887442
 21
-132.386707824241
 31
0.0
  0
LINE
  5
A6C9
330
1E
100
AcDbEntity
  8
0
 48
0.27
100
AcDbLine
 10
2685.445454888317
 20
-136.5057508071213
 30
0.0
 11
2685.293554978825
 21
-136.0220869194745
 31
0.0
  0
LINE
  5
A6CA
330
1E
100
AcDbEntity
  8
0
 48
0.27
100
AcDbLine
 10
2687.337286615129
 20
-135.8324733875588
 30
0.0
 11
2687.230702170328
 21
-135.4930942070077
 31
0.0
  0
LINE
  5
A6CB
330
1E
100
AcDbEntity
  8
0
 48
0.27
100
AcDbLine
 10
2685.293554978825
 20
-132.4756153133385
 30
0.0
 11
2685.445454888317
 21
-131.9919497555665
 31
0.0
  0
LINE
  5
A6CC
330
1E
100
AcDbEntity
  8
0
 48
0.27
100
AcDbLine
 10
2687.230702170328
 20
-133.0046063556801
 30
0.0
 11
2687.337286615129
 21
-132.6652288451291
 31
0.0
  0
LINE
  5
A6CD
330
1E
100
AcDbEntity
  8
0
 48
0.27
100
AcDbLine
 10
2685.293554978825
 20
-136.0220869194745
 30
0.0
 11
2685.180682981976
 21
-135.4702769895721
 31
0.0
  0
LINE
  5
A6CE
330
1E
100
AcDbEntity
  8
0
 48
0.27
100
AcDbLine
 10
2687.230702170328
 20
-135.4930942070077
 30
0.0
 11
2687.151502394478
 21
-135.1059012407213
 31
0.0
  0
LINE
  5
A6CF
330
1E
100
AcDbEntity
  8
0
 48
0.27
100
AcDbLine
 10
2685.180682981976
 20
-133.0274252431159
 30
0.0
 11
2685.293554978825
 21
-132.4756153133385
 31
0.0
  0
LINE
  5
A6D0
330
1E
100
AcDbEntity
  8
0
 48
0.27
100
AcDbLine
 10
2687.151502394478
 20
-133.3918009919666
 30
0.0
 11
2687.230702170328
 21
-133.0046063556801
 31
0.0
  0
LINE
  5
A6D1
330
1E
100
AcDbEntity
  8
0
 48
0.27
100
AcDbLine
 10
2685.180682981976
 20
-135.4702769895721
 30
0.0
 11
2685.111177559369
 21
-134.871528354331
 31
0.0
  0
LINE
  5
A6D2
330
1E
100
AcDbEntity
  8
0
 48
0.27
100
AcDbLine
 10
2687.151502394478
 20
-135.1059012407213
 30
0.0
 11
2687.102730028583
 21
-134.6857708538095
 31
0.0
  0
LINE
  5
A6D3
330
1E
100
AcDbEntity
  8
0
 48
0.27
100
AcDbLine
 10
2685.111177559369
 20
-133.6261738783569
 30
0.0
 11
2685.180682981976
 21
-133.0274252431159
 31
0.0
  0
LINE
  5
A6D4
330
1E
100
AcDbEntity
  8
0
 48
0.27
100
AcDbLine
 10
2687.102730028583
 20
-133.8119297088781
 30
0.0
 11
2687.151502394478
 21
-133.3918009919666
 31
0.0
  0
LINE
  5
A6D5
330
1E
100
AcDbEntity
  8
0
 48
0.27
100
AcDbLine
 10
2685.111177559369
 20
-134.871528354331
 30
0.0
 11
2685.087707371698
 21
-134.2488502813439
 31
0.0
  0
LINE
  5
A6D6
330
1E
100
AcDbEntity
  8
0
 48
0.27
100
AcDbLine
 10
2687.102730028583
 20
-134.6857708538095
 30
0.0
 11
2687.086262153207
 21
-134.2488502813439
 31
0.0
  0
LINE
  5
A6D7
330
1E
100
AcDbEntity
  8
0
 48
0.27
100
AcDbLine
 10
2687.086262153207
 20
-134.2488502813439
 30
0.0
 11
2687.102730028583
 21
-133.8119297088781
 31
0.0
  0
LINE
  5
A6D8
330
1E
100
AcDbEntity
  8
0
 48
0.27
100
AcDbLine
 10
2685.087707371698
 20
-134.2488502813439
 30
0.0
 11
2685.111177559369
 21
-133.6261738783569
 31
0.0
  0
LINE
  5
A6D9
330
1E
100
AcDbEntity
  8
0
 48
0.27
100
AcDbLine
 10
2684.458990576703
 20
-136.6411043512253
 30
0.0
 11
2684.522433897423
 21
-136.6829328548356
 31
0.0
  0
LINE
  5
A6DA
330
1E
100
AcDbEntity
  8
0
 48
0.27
100
AcDbLine
 10
2684.193336910214
 20
-136.6689566202517
 30
0.0
 11
2684.253779239807
 21
-136.6715234111802
 31
0.0
  0
LINE
  5
A6DB
330
1E
100
AcDbEntity
  8
0
 48
0.27
100
AcDbLine
 10
2684.458990576703
 20
-131.8565978814627
 30
0.0
 11
2684.522433897423
 21
-131.8147693778523
 31
0.0
  0
LINE
  5
A6DC
330
1E
100
AcDbEntity
  8
中心線
 48
0.27
100
AcDbLine
 10
2690.300362402087
 20
-134.2488502813439
 30
0.0
 11
2668.541713730142
 21
-134.2488502813439
 31
0.0
  0
POINT
  5
A6DD
330
1E
100
AcDbEntity
  8
0
100
AcDbPoint
 10
2688.800362402087
 20
-134.2488502813439
 30
0.0
1001
pntflag
1000
endpoint
  0
LINE
  5
A6DE
330
1E
100
AcDbEntity
  8
虛線
 48
0.27
100
AcDbLine
 10
3155.554166900007
 20
-191.7493424341269
 30
0.0
 11
3155.554166900007
 21
-168.7493424341269
 31
0.0
  0
LINE
  5
A6DF
330
1E
100
AcDbEntity
  8
虛線
 48
0.27
100
AcDbLine
 10
3139.554166900007
 20
-191.7493424341269
 30
0.0
 11
3139.554166900007
 21
-168.7493424341269
 31
0.0
  0
LINE
  5
A6E0
330
1E
100
AcDbEntity
  8
虛線
 48
0.27
100
AcDbLine
 10
3136.054166900007
 20
-168.2493424341269
 30
0.0
 11
3136.054166900007
 21
-148.649342434127
 31
0.0
  0
LINE
  5
A6E1
330
1E
100
AcDbEntity
  8
虛線
 48
0.27
100
AcDbLine
 10
3159.054166900007
 20
-168.2493424341269
 30
0.0
 11
3159.054166900007
 21
-148.649342434127
 31
0.0
  0
LINE
  5
A6E2
330
1E
100
AcDbEntity
  8
虛線
 48
0.27
100
AcDbLine
 10
3159.054166900007
 20
-168.2493424341269
 30
0.0
 11
3136.054166900007
 21
-168.2493424341269
 31
0.0
  0
LINE
  5
A6E3
330
1E
100
AcDbEntity
  8
虛線
 48
0.27
100
AcDbLine
 10
3155.554166900007
 20
-168.7493424341269
 30
0.0
 11
3139.554166900007
 21
-168.7493424341269
 31
0.0
  0
LINE
  5
A6E4
330
1E
100
AcDbEntity
  8
虛線
 48
0.27
100
AcDbLine
 10
3139.054166900007
 20
-168.2493424341269
 30
0.0
 11
3139.554166900007
 21
-168.7493424341269
 31
0.0
  0
LINE
  5
A6E5
330
1E
100
AcDbEntity
  8
虛線
 48
0.27
100
AcDbLine
 10
3155.554166900007
 20
-168.7493424341269
 30
0.0
 11
3156.054166900007
 21
-168.2493424341269
 31
0.0
  0
LINE
  5
A6E6
330
1E
100
AcDbEntity
  8
虛線
 48
0.27
100
AcDbLine
 10
3159.054166900007
 20
-148.649342434127
 30
0.0
 11
3136.054166900007
 21
-148.649342434127
 31
0.0
  0
LINE
  5
A6E7
330
1E
100
AcDbEntity
  8
虛線
 48
0.27
100
AcDbLine
 10
3159.054166900007
 20
-148.649342434127
 30
0.0
 11
3159.285107007683
 21
-148.2493424341269
 31
0.0
  0
LINE
  5
A6E8
330
1E
100
AcDbEntity
  8
虛線
 48
0.27
100
AcDbLine
 10
3135.823226792331
 20
-148.2493424341271
 30
0.0
 11
3136.054166900007
 21
-148.649342434127
 31
0.0
  0
LINE
  5
A6E9
330
1E
100
AcDbEntity
  8
虛線
 48
0.27
100
AcDbLine
 10
3139.554166900007
 20
-191.7493424341269
 30
0.0
 11
3155.554166900007
 21
-191.7493424341269
 31
0.0
  0
LINE
  5
A6EA
330
1E
100
AcDbEntity
  8
虛線
 48
0.27
100
AcDbLine
 10
3156.054166900007
 20
-192.2493424341269
 30
0.0
 11
3155.554166900007
 21
-191.7493424341269
 31
0.0
  0
LINE
  5
A6EB
330
1E
100
AcDbEntity
  8
虛線
 48
0.27
100
AcDbLine
 10
3139.054166900007
 20
-192.2493424341269
 30
0.0
 11
3139.554166900007
 21
-191.7493424341269
 31
0.0
  0
LINE
  5
A6EC
330
1E
100
AcDbEntity
  8
0
100
AcDbLine
 10
2880.154166900007
 20
-139.2492925859958
 30
0.0
 11
2880.154166900008
 21
-129.2492925859958
 31
0.0
  0
LINE
  5
A6EE
330
1E
100
AcDbEntity
  8
中心線
 48
0.27
100
AcDbLine
 10
2866.482284400007
 20
-134.2492925859958
 30
0.0
 11
2882.552363010805
 21
-134.2493167498708
 31
0.0
  0
LINE
  5
A6EF
330
1E
100
AcDbEntity
  8
0
 48
0.27
100
AcDbLine
 10
2875.468741900007
 20
-139.2492925859958
 30
0.0
 11
2881.554166900007
 21
-139.2492925859958
 31
0.0
  0
LINE
  5
A6F0
330
1E
100
AcDbEntity
  8
0
 48
0.27
100
AcDbLine
 10
2881.554166900007
 20
-129.2492925859958
 30
0.0
 11
2875.468741900007
 21
-129.2492925859958
 31
0.0
  0
ARC
  5
A6F1
330
1E
100
AcDbEntity
  8
0
 48
0.27
100
AcDbCircle
 10
2875.468741900007
 20
-134.2492925859958
 30
0.0
 40
4.99999999999996
100
AcDbArc
 50
90.0
 51
131.4096219996015
  0
LWPOLYLINE
  5
A6F2
330
1E
100
AcDbEntity
  8
0
 48
0.27
100
AcDbPolyline
 90
       31
 70
     0
 43
0.0
 10
2870.993270650007
 20
-134.2492925859958
 10
2870.952248150008
 20
-133.9864738359958
 10
2870.897064400006
 20
-133.8546150859958
 10
2870.818273150007
 20
-133.7323913359959
 10
2870.718928150007
 20
-133.6272500859958
 10
2870.604564400007
 20
-133.5449088359958
 10
2870.482164400007
 20
-133.4883075859959
 10
2870.316369400007
 20
-133.4521313359959
 10
2870.162608150007
 20
-133.4554550859958
 10
2870.028953150006
 20
-133.4873375859958
 10
2869.883696900007
 20
-133.5570475859958
 10
2869.745484400007
 20
-133.6689088359958
 10
2869.635196900007
 20
-133.8120963359958
 10
2869.564404400007
 20
-133.9618950859957
 10
2869.529590650007
 20
-134.0914650859958
 10
2869.515064400007
 20
-134.2492925859958
 10
2869.556086900006
 20
-134.5121113359957
 10
2869.611271900007
 20
-134.6439713359958
 10
2869.690061900007
 20
-134.7661938359958
 10
2869.789406900007
 20
-134.8713350859958
 10
2869.903770650007
 20
-134.9536763359958
 10
2870.026170650007
 20
-135.0102775859958
 10
2870.191965650007
 20
-135.0464550859958
 10
2870.345726900007
 20
-135.0431300859958
 10
2870.479381900007
 20
-135.0112488359958
 10
2870.624638150007
 20
-134.9415388359958
 10
2870.762850650007
 20
-134.8296763359958
 10
2870.873138150006
 20
-134.6864900859958
 10
2870.943930650007
 20
-134.5366913359958
 10
2870.978745650007
 20
-134.4071200859957
 10
2870.993270650007
 20
-134.2492925859958
  0
ARC
  5
A6F3
330
1E
100
AcDbEntity
  8
0
 48
0.27
100
AcDbCircle
 10
2875.468741900007
 20
-134.2492925859958
 30
0.0
 40
4.99999999999996
100
AcDbArc
 50
228.5903779972973
 51
270.0
  0
LINE
  5
A6F4
330
1E
100
AcDbEntity
  8
0
 48
0.27
100
AcDbLine
 10
2871.059445650007
 20
-130.4992925859958
 30
0.0
 11
2875.934165650006
 21
-130.4992925859958
 31
0.0
  0
LINE
  5
A6F5
330
1E
100
AcDbEntity
  8
0
 48
0.27
100
AcDbLine
 10
2870.751454400007
 20
-137.4218838359957
 30
0.0
 11
2871.059445650007
 21
-137.9992925859956
 31
0.0
  0
LINE
  5
A6F6
330
1E
100
AcDbEntity
  8
0
 48
0.27
100
AcDbLine
 10
2871.059445650007
 20
-130.4992925859958
 30
0.0
 11
2870.751454400007
 21
-131.0767013359959
 31
0.0
  0
LINE
  5
A6F7
330
1E
100
AcDbEntity
  8
0
 48
0.27
100
AcDbLine
 10
2877.060218150007
 20
-134.2492925859958
 30
0.0
 11
2877.934423150006
 21
-134.2492925859958
 31
0.0
  0
LINE
  5
A6F8
330
1E
100
AcDbEntity
  8
0
 48
0.27
100
AcDbLine
 10
2875.934165650006
 20
-130.4992925859958
 30
0.0
 11
2877.934423150006
 21
-134.2492925859958
 31
0.0
  0
LINE
  5
A6F9
330
1E
100
AcDbEntity
  8
0
 48
0.27
100
AcDbLine
 10
2875.934165650006
 20
-137.9992925859956
 30
0.0
 11
2871.059445650007
 21
-137.9992925859956
 31
0.0
  0
LINE
  5
A6FA
330
1E
100
AcDbEntity
  8
0
 48
0.27
100
AcDbLine
 10
2877.934423150006
 20
-134.2492925859958
 30
0.0
 11
2875.934165650006
 21
-137.9992925859956
 31
0.0
  0
LINE
  5
A6FB
330
1E
100
AcDbEntity
  8
0
 48
0.27
100
AcDbLine
 10
2871.210794400008
 20
-131.0873750859959
 30
0.0
 11
2871.733878150007
 21
-130.7847450859958
 31
0.0
  0
LINE
  5
A6FC
330
1E
100
AcDbEntity
  8
0
 48
0.27
100
AcDbLine
 10
2871.210794400008
 20
-137.4112113359956
 30
0.0
 11
2871.733878150007
 21
-137.7138413359958
 31
0.0
  0
LINE
  5
A6FD
330
1E
100
AcDbEntity
  8
0
 48
0.27
100
AcDbLine
 10
2871.733878150007
 20
-130.7847450859958
 30
0.0
 11
2872.383803150007
 21
-130.5713475859959
 31
0.0
  0
LINE
  5
A6FE
330
1E
100
AcDbEntity
  8
0
 48
0.27
100
AcDbLine
 10
2871.733878150007
 20
-137.7138413359958
 30
0.0
 11
2872.383803150007
 21
-137.9272375859957
 31
0.0
  0
LINE
  5
A6FF
330
1E
100
AcDbEntity
  8
0
 48
0.27
100
AcDbLine
 10
2872.383803150007
 20
-130.5713475859959
 30
0.0
 11
2873.059703150007
 21
-130.4992925859958
 31
0.0
  0
LINE
  5
A700
330
1E
100
AcDbEntity
  8
0
 48
0.27
100
AcDbLine
 10
2872.383803150007
 20
-137.9272375859957
 30
0.0
 11
2873.059703150007
 21
-137.9992925859956
 31
0.0
  0
LINE
  5
A701
330
1E
100
AcDbEntity
  8
0
 48
0.27
100
AcDbLine
 10
2873.059703150007
 20
-130.4992925859958
 30
0.0
 11
2873.735603150007
 21
-130.5713475859959
 31
0.0
  0
LINE
  5
A702
330
1E
100
AcDbEntity
  8
0
 48
0.27
100
AcDbLine
 10
2873.059703150007
 20
-137.9992925859956
 30
0.0
 11
2873.735603150007
 21
-137.9272375859957
 31
0.0
  0
LINE
  5
A703
330
1E
100
AcDbEntity
  8
0
 48
0.27
100
AcDbLine
 10
2873.735603150007
 20
-130.5713475859959
 30
0.0
 11
2874.385528150007
 21
-130.7847450859958
 31
0.0
  0
LINE
  5
A704
330
1E
100
AcDbEntity
  8
0
 48
0.27
100
AcDbLine
 10
2873.735603150007
 20
-137.9272375859957
 30
0.0
 11
2874.385528150007
 21
-137.7138413359958
 31
0.0
  0
LINE
  5
A705
330
1E
100
AcDbEntity
  8
0
 48
0.27
100
AcDbLine
 10
2874.385528150007
 20
-130.7847450859958
 30
0.0
 11
2874.984503150007
 21
-131.1312813359959
 31
0.0
  0
LINE
  5
A706
330
1E
100
AcDbEntity
  8
0
 48
0.27
100
AcDbLine
 10
2874.385528150007
 20
-137.7138413359958
 30
0.0
 11
2874.984503150007
 21
-137.3673038359957
 31
0.0
  0
LINE
  5
A707
330
1E
100
AcDbEntity
  8
0
 48
0.27
100
AcDbLine
 10
2874.984503150007
 20
-131.1312813359959
 30
0.0
 11
2875.509508150006
 21
-131.5976425859958
 31
0.0
  0
LINE
  5
A708
330
1E
100
AcDbEntity
  8
0
 48
0.27
100
AcDbLine
 10
2874.984503150007
 20
-137.3673038359957
 30
0.0
 11
2875.509508150006
 21
-136.9009438359958
 31
0.0
  0
LINE
  5
A709
330
1E
100
AcDbEntity
  8
0
 48
0.27
100
AcDbLine
 10
2875.059960650006
 20
-130.4992925859958
 30
0.0
 11
2877.060218150007
 21
-134.2492925859958
 31
0.0
  0
LINE
  5
A70A
330
1E
100
AcDbEntity
  8
0
 48
0.27
100
AcDbLine
 10
2877.060218150007
 20
-134.2492925859958
 30
0.0
 11
2875.059960650006
 21
-137.9992925859956
 31
0.0
  0
LINE
  5
A70B
330
1E
100
AcDbEntity
  8
0
 48
0.27
100
AcDbLine
 10
2875.509508150006
 20
-131.5976425859958
 30
0.0
 11
2875.940369400007
 21
-132.1659050859957
 31
0.0
  0
LINE
  5
A70C
330
1E
100
AcDbEntity
  8
0
 48
0.27
100
AcDbLine
 10
2875.940369400007
 20
-136.3326813359958
 30
0.0
 11
2875.509508150006
 21
-136.9009438359958
 31
0.0
  0
LINE
  5
A70D
330
1E
100
AcDbEntity
  8
0
 48
0.27
100
AcDbLine
 10
2875.940369400007
 20
-132.1659050859957
 30
0.0
 11
2876.260528150007
 21
-132.8142300859958
 31
0.0
  0
LINE
  5
A70E
330
1E
100
AcDbEntity
  8
0
 48
0.27
100
AcDbLine
 10
2876.260528150007
 20
-135.6843563359957
 30
0.0
 11
2875.940369400007
 21
-136.3326813359958
 31
0.0
  0
LINE
  5
A70F
330
1E
100
AcDbEntity
  8
0
 48
0.27
100
AcDbLine
 10
2876.260528150007
 20
-132.8142300859958
 30
0.0
 11
2876.457680650006
 21
-133.5177038359957
 31
0.0
  0
LINE
  5
A710
330
1E
100
AcDbEntity
  8
0
 48
0.27
100
AcDbLine
 10
2876.457680650006
 20
-134.9808813359959
 30
0.0
 11
2876.260528150007
 21
-135.6843563359957
 31
0.0
  0
LINE
  5
A711
330
1E
100
AcDbEntity
  8
0
 48
0.27
100
AcDbLine
 10
2876.457680650006
 20
-133.5177038359957
 30
0.0
 11
2876.524250650007
 21
-134.2492925859958
 31
0.0
  0
LINE
  5
A712
330
1E
100
AcDbEntity
  8
0
 48
0.27
100
AcDbLine
 10
2876.524250650007
 20
-134.2492925859958
 30
0.0
 11
2876.457680650006
 21
-134.9808813359959
 31
0.0
  0
LINE
  5
A713
330
1E
100
AcDbEntity
  8
0
 48
0.27
100
AcDbLine
 10
2869.429831900007
 20
-132.1990088359957
 30
0.0
 11
2869.433545650007
 21
-132.2010275859957
 31
0.0
  0
LINE
  5
A714
330
1E
100
AcDbEntity
  8
0
 48
0.27
100
AcDbLine
 10
2869.429831900007
 20
-136.2995775859958
 30
0.0
 11
2869.433545650007
 21
-136.2975575859959
 31
0.0
  0
LINE
  5
A715
330
1E
100
AcDbEntity
  8
0
 48
0.27
100
AcDbLine
 10
2868.038944400007
 20
-133.6266150859958
 30
0.0
 11
2867.982284400007
 21
-134.2492925859958
 31
0.0
  0
LINE
  5
A716
330
1E
100
AcDbEntity
  8
0
 48
0.27
100
AcDbLine
 10
2868.206746900007
 20
-133.0278675859958
 30
0.0
 11
2868.038944400007
 21
-133.6266150859958
 31
0.0
  0
LINE
  5
A717
330
1E
100
AcDbEntity
  8
0
 48
0.27
100
AcDbLine
 10
2867.982284400007
 20
-134.2492925859958
 30
0.0
 11
2868.038944400007
 21
-134.8719700859958
 31
0.0
  0
LINE
  5
A718
330
1E
100
AcDbEntity
  8
0
 48
0.27
100
AcDbLine
 10
2868.479243150007
 20
-132.4760575859959
 30
0.0
 11
2868.206746900007
 21
-133.0278675859958
 31
0.0
  0
LINE
  5
A719
330
1E
100
AcDbEntity
  8
0
 48
0.27
100
AcDbLine
 10
2868.038944400007
 20
-134.8719700859958
 30
0.0
 11
2868.206746900007
 21
-135.4707188359957
 31
0.0
  0
LINE
  5
A71A
330
1E
100
AcDbEntity
  8
0
 48
0.27
100
AcDbLine
 10
2868.845963150008
 20
-131.9923925859957
 30
0.0
 11
2868.479243150007
 21
-132.4760575859959
 31
0.0
  0
LINE
  5
A71B
330
1E
100
AcDbEntity
  8
0
 48
0.27
100
AcDbLine
 10
2868.206746900007
 20
-135.4707188359957
 30
0.0
 11
2868.479243150007
 21
-136.0225275859957
 31
0.0
  0
LINE
  5
A71C
330
1E
100
AcDbEntity
  8
0
 48
0.27
100
AcDbLine
 10
2868.845963150008
 20
-131.9923925859957
 30
0.0
 11
2869.292810650007
 21
-131.5954588359959
 31
0.0
  0
LINE
  5
A71D
330
1E
100
AcDbEntity
  8
0
 48
0.27
100
AcDbLine
 10
2868.479243150007
 20
-136.0225275859957
 30
0.0
 11
2868.845963150008
 21
-136.5061925859959
 31
0.0
  0
LINE
  5
A71E
330
1E
100
AcDbEntity
  8
0
 48
0.27
100
AcDbLine
 10
2868.224823150007
 20
-133.8123725859959
 30
0.0
 11
2868.185065650007
 21
-134.2492925859958
 31
0.0
  0
LINE
  5
A71F
330
1E
100
AcDbEntity
  8
0
 48
0.27
100
AcDbLine
 10
2868.342566900007
 20
-133.3922425859957
 30
0.0
 11
2868.224823150007
 21
-133.8123725859959
 31
0.0
  0
LINE
  5
A720
330
1E
100
AcDbEntity
  8
0
 48
0.27
100
AcDbLine
 10
2868.185065650007
 20
-134.2492925859958
 30
0.0
 11
2868.224823150007
 21
-134.6862125859957
 31
0.0
  0
LINE
  5
A721
330
1E
100
AcDbEntity
  8
0
 48
0.27
100
AcDbLine
 10
2868.533771900008
 20
-133.0050488359957
 30
0.0
 11
2868.342566900007
 21
-133.3922425859957
 31
0.0
  0
LINE
  5
A722
330
1E
100
AcDbEntity
  8
0
 48
0.27
100
AcDbLine
 10
2868.224823150007
 20
-134.6862125859957
 30
0.0
 11
2868.342566900007
 21
-135.1063425859956
 31
0.0
  0
LINE
  5
A723
330
1E
100
AcDbEntity
  8
0
 48
0.27
100
AcDbLine
 10
2869.292810650007
 20
-131.5954588359959
 30
0.0
 11
2869.802616900007
 21
-131.3005100859959
 31
0.0
  0
LINE
  5
A724
330
1E
100
AcDbEntity
  8
0
 48
0.27
100
AcDbLine
 10
2868.845963150008
 20
-136.5061925859959
 30
0.0
 11
2869.292810650007
 21
-136.9031263359957
 31
0.0
  0
LINE
  5
A725
330
1E
100
AcDbEntity
  8
0
 48
0.27
100
AcDbLine
 10
2868.791091900007
 20
-132.6656713359957
 30
0.0
 11
2868.533771900008
 21
-133.0050488359957
 31
0.0
  0
LINE
  5
A726
330
1E
100
AcDbEntity
  8
0
 48
0.27
100
AcDbLine
 10
2868.342566900007
 20
-135.1063425859956
 30
0.0
 11
2868.533771900008
 21
-135.4935363359957
 31
0.0
  0
LINE
  5
A727
330
1E
100
AcDbEntity
  8
0
 48
0.27
100
AcDbLine
 10
2869.802616900007
 20
-131.3005100859959
 30
0.0
 11
2870.355788150007
 21
-131.1188825859958
 31
0.0
  0
LINE
  5
A728
330
1E
100
AcDbEntity
  8
0
 48
0.27
100
AcDbLine
 10
2869.292810650007
 20
-136.9031263359957
 30
0.0
 11
2869.802616900007
 21
-137.1980750859957
 31
0.0
  0
LINE
  5
A729
330
1E
100
AcDbEntity
  8
0
 48
0.27
100
AcDbLine
 10
2868.791091900007
 20
-132.6656713359957
 30
0.0
 11
2869.104635650007
 21
-132.3871500859959
 31
0.0
  0
LINE
  5
A72A
330
1E
100
AcDbEntity
  8
0
 48
0.27
100
AcDbLine
 10
2868.533771900008
 20
-135.4935363359957
 30
0.0
 11
2868.791091900007
 21
-135.8329150859958
 31
0.0
  0
LINE
  5
A72B
330
1E
100
AcDbEntity
  8
0
 48
0.27
100
AcDbLine
 10
2870.355788150007
 20
-131.1188825859958
 30
0.0
 11
2870.931066900007
 21
-131.0575538359958
 31
0.0
  0
LINE
  5
A72C
330
1E
100
AcDbEntity
  8
0
 48
0.27
100
AcDbLine
 10
2869.802616900007
 20
-137.1980750859957
 30
0.0
 11
2870.355788150007
 21
-137.3797038359958
 31
0.0
  0
LINE
  5
A72D
330
1E
100
AcDbEntity
  8
0
 48
0.27
100
AcDbLine
 10
2869.104635650007
 20
-132.3871500859959
 30
0.0
 11
2869.462356900007
 21
-132.1801913359959
 31
0.0
  0
LINE
  5
A72E
330
1E
100
AcDbEntity
  8
0
 48
0.27
100
AcDbLine
 10
2868.791091900007
 20
-135.8329150859958
 30
0.0
 11
2869.104635650007
 21
-136.1114350859957
 31
0.0
  0
LINE
  5
A72F
330
1E
100
AcDbEntity
  8
0
 48
0.27
100
AcDbLine
 10
2871.686890650007
 20
-131.1530663359958
 30
0.0
 11
2872.234020650007
 21
-131.332711335996
 31
0.0
  0
LINE
  5
A730
330
1E
100
AcDbEntity
  8
0
 48
0.27
100
AcDbLine
 10
2869.462356900007
 20
-132.1801913359959
 30
0.0
 11
2869.850505650007
 21
-132.0527463359958
 31
0.0
  0
LINE
  5
A731
330
1E
100
AcDbEntity
  8
0
 48
0.27
100
AcDbLine
 10
2869.104635650007
 20
-136.1114350859957
 30
0.0
 11
2869.462356900007
 21
-136.3183950859957
 31
0.0
  0
LINE
  5
A732
330
1E
100
AcDbEntity
  8
0
 48
0.27
100
AcDbLine
 10
2871.506345650006
 20
-131.1188825859958
 30
0.0
 11
2871.686890650007
 21
-131.1530663359958
 31
0.0
  0
LINE
  5
A733
330
1E
100
AcDbEntity
  8
0
 48
0.27
100
AcDbLine
 10
2870.931066900007
 20
-131.0575538359958
 30
0.0
 11
2871.506345650006
 21
-131.1188825859958
 31
0.0
  0
LINE
  5
A734
330
1E
100
AcDbEntity
  8
0
 48
0.27
100
AcDbLine
 10
2870.355788150007
 20
-137.3797038359958
 30
0.0
 11
2870.931066900007
 21
-137.4410313359958
 31
0.0
  0
LINE
  5
A735
330
1E
100
AcDbEntity
  8
0
 48
0.27
100
AcDbLine
 10
2872.234020650007
 20
-131.332711335996
 30
0.0
 11
2872.738259400007
 21
-131.624438835996
 31
0.0
  0
LINE
  5
A736
330
1E
100
AcDbEntity
  8
0
 48
0.27
100
AcDbLine
 10
2871.686890650007
 20
-137.3455188359958
 30
0.0
 11
2872.234020650007
 21
-137.1658738359956
 31
0.0
  0
LINE
  5
A737
330
1E
100
AcDbEntity
  8
0
 48
0.27
100
AcDbLine
 10
2872.738259400007
 20
-131.624438835996
 30
0.0
 11
2873.180228150007
 21
-132.0170375859957
 31
0.0
  0
LINE
  5
A738
330
1E
100
AcDbEntity
  8
0
 48
0.27
100
AcDbLine
 10
2872.234020650007
 20
-137.1658738359956
 30
0.0
 11
2872.738259400007
 21
-136.8741463359956
 31
0.0
  0
LINE
  5
A739
330
1E
100
AcDbEntity
  8
0
 48
0.27
100
AcDbLine
 10
2869.850505650007
 20
-132.0527463359958
 30
0.0
 11
2870.254168150007
 21
-132.0097138359956
 31
0.0
  0
LINE
  5
A73A
330
1E
100
AcDbEntity
  8
0
 48
0.27
100
AcDbLine
 10
2869.462356900007
 20
-136.3183950859957
 30
0.0
 11
2869.850505650007
 21
-136.4458400859957
 31
0.0
  0
LINE
  5
A73B
330
1E
100
AcDbEntity
  8
0
 48
0.27
100
AcDbLine
 10
2871.506345650006
 20
-131.1188825859958
 30
0.0
 11
2872.059516900007
 21
-131.3005100859959
 31
0.0
  0
LINE
  5
A73C
330
1E
100
AcDbEntity
  8
0
 48
0.27
100
AcDbLine
 10
2871.506345650006
 20
-137.3797038359958
 30
0.0
 11
2871.686890650007
 21
-137.3455188359958
 31
0.0
  0
LINE
  5
A73D
330
1E
100
AcDbEntity
  8
0
 48
0.27
100
AcDbLine
 10
2870.931066900007
 20
-137.4410313359958
 30
0.0
 11
2871.506345650006
 21
-137.3797038359958
 31
0.0
  0
LINE
  5
A73E
330
1E
100
AcDbEntity
  8
0
 48
0.27
100
AcDbLine
 10
2873.180228150007
 20
-132.0170375859957
 30
0.0
 11
2873.542941900007
 21
-132.4954213359958
 31
0.0
  0
LINE
  5
A73F
330
1E
100
AcDbEntity
  8
0
 48
0.27
100
AcDbLine
 10
2872.738259400007
 20
-136.8741463359956
 30
0.0
 11
2873.180228150007
 21
-136.4815475859959
 31
0.0
  0
LINE
  5
A740
330
1E
100
AcDbEntity
  8
0
 48
0.27
100
AcDbLine
 10
2870.254168150007
 20
-132.0097138359956
 30
0.0
 11
2870.657829400006
 21
-132.0527463359958
 31
0.0
  0
LINE
  5
A741
330
1E
100
AcDbEntity
  8
0
 48
0.27
100
AcDbLine
 10
2869.850505650007
 20
-136.4458400859957
 30
0.0
 11
2870.254168150007
 21
-136.4888725859957
 31
0.0
  0
LINE
  5
A742
330
1E
100
AcDbEntity
  8
0
 48
0.27
100
AcDbLine
 10
2872.059516900007
 20
-131.3005100859959
 30
0.0
 11
2872.569321900007
 21
-131.5954588359959
 31
0.0
  0
LINE
  5
A743
330
1E
100
AcDbEntity
  8
0
 48
0.27
100
AcDbLine
 10
2871.506345650006
 20
-137.3797038359958
 30
0.0
 11
2872.059516900007
 21
-137.1980750859957
 31
0.0
  0
LINE
  5
A744
330
1E
100
AcDbEntity
  8
0
 48
0.27
100
AcDbLine
 10
2873.542941900007
 20
-132.4954213359958
 30
0.0
 11
2873.812463150007
 21
-133.0412050859959
 31
0.0
  0
LINE
  5
A745
330
1E
100
AcDbEntity
  8
0
 48
0.27
100
AcDbLine
 10
2873.542941900007
 20
-136.0031638359958
 30
0.0
 11
2873.180228150007
 21
-136.4815475859959
 31
0.0
  0
LINE
  5
A746
330
1E
100
AcDbEntity
  8
0
 48
0.27
100
AcDbLine
 10
2873.812463150007
 20
-133.0412050859959
 30
0.0
 11
2873.978433150007
 21
-133.6334150859957
 31
0.0
  0
LINE
  5
A747
330
1E
100
AcDbEntity
  8
0
 48
0.27
100
AcDbLine
 10
2873.812463150007
 20
-135.4573800859957
 30
0.0
 11
2873.542941900007
 21
-136.0031638359958
 31
0.0
  0
LINE
  5
A748
330
1E
100
AcDbEntity
  8
0
 48
0.27
100
AcDbLine
 10
2872.569321900007
 20
-131.5954588359959
 30
0.0
 11
2873.016170650007
 21
-131.9923925859957
 31
0.0
  0
LINE
  5
A749
330
1E
100
AcDbEntity
  8
0
 48
0.27
100
AcDbLine
 10
2872.059516900007
 20
-137.1980750859957
 30
0.0
 11
2872.569321900007
 21
-136.9031263359957
 31
0.0
  0
LINE
  5
A74A
330
1E
100
AcDbEntity
  8
0
 48
0.27
100
AcDbLine
 10
2873.978433150007
 20
-133.6334150859957
 30
0.0
 11
2874.034474400007
 21
-134.2492925859958
 31
0.0
  0
LINE
  5
A74B
330
1E
100
AcDbEntity
  8
0
 48
0.27
100
AcDbLine
 10
2873.978433150007
 20
-134.8651700859959
 30
0.0
 11
2873.812463150007
 21
-135.4573800859957
 31
0.0
  0
LINE
  5
A74C
330
1E
100
AcDbEntity
  8
0
 48
0.27
100
AcDbLine
 10
2870.657829400006
 20
-132.0527463359958
 30
0.0
 11
2871.045978150007
 21
-132.1801913359959
 31
0.0
  0
LINE
  5
A74D
330
1E
100
AcDbEntity
  8
0
 48
0.27
100
AcDbLine
 10
2870.254168150007
 20
-136.4888725859957
 30
0.0
 11
2870.657829400006
 21
-136.4458400859957
 31
0.0
  0
LINE
  5
A74E
330
1E
100
AcDbEntity
  8
0
 48
0.27
100
AcDbLine
 10
2874.034474400007
 20
-134.2492925859958
 30
0.0
 11
2873.978433150007
 21
-134.8651700859959
 31
0.0
  0
LINE
  5
A74F
330
1E
100
AcDbEntity
  8
0
 48
0.27
100
AcDbLine
 10
2873.016170650007
 20
-131.9923925859957
 30
0.0
 11
2873.382889400007
 21
-132.4760575859959
 31
0.0
  0
LINE
  5
A750
330
1E
100
AcDbEntity
  8
0
 48
0.27
100
AcDbLine
 10
2872.569321900007
 20
-136.9031263359957
 30
0.0
 11
2873.016170650007
 21
-136.5061925859959
 31
0.0
  0
LINE
  5
A751
330
1E
100
AcDbEntity
  8
0
 48
0.27
100
AcDbLine
 10
2871.045978150007
 20
-132.1801913359959
 30
0.0
 11
2871.403699400007
 21
-132.3871500859959
 31
0.0
  0
LINE
  5
A752
330
1E
100
AcDbEntity
  8
0
 48
0.27
100
AcDbLine
 10
2870.657829400006
 20
-136.4458400859957
 30
0.0
 11
2871.045978150007
 21
-136.3183950859957
 31
0.0
  0
LINE
  5
A753
330
1E
100
AcDbEntity
  8
0
 48
0.27
100
AcDbLine
 10
2873.382889400007
 20
-132.4760575859959
 30
0.0
 11
2873.655385650007
 21
-133.0278675859958
 31
0.0
  0
LINE
  5
A754
330
1E
100
AcDbEntity
  8
0
 48
0.27
100
AcDbLine
 10
2873.382889400007
 20
-136.0225275859957
 30
0.0
 11
2873.016170650007
 21
-136.5061925859959
 31
0.0
  0
LINE
  5
A755
330
1E
100
AcDbEntity
  8
0
 48
0.27
100
AcDbLine
 10
2873.655385650007
 20
-133.0278675859958
 30
0.0
 11
2873.823189400006
 21
-133.6266150859958
 31
0.0
  0
LINE
  5
A756
330
1E
100
AcDbEntity
  8
0
 48
0.27
100
AcDbLine
 10
2873.655385650007
 20
-135.4707188359957
 30
0.0
 11
2873.382889400007
 21
-136.0225275859957
 31
0.0
  0
LINE
  5
A757
330
1E
100
AcDbEntity
  8
0
 48
0.27
100
AcDbLine
 10
2871.403699400007
 20
-132.3871500859959
 30
0.0
 11
2871.717243150007
 21
-132.6656713359957
 31
0.0
  0
LINE
  5
A758
330
1E
100
AcDbEntity
  8
0
 48
0.27
100
AcDbLine
 10
2871.045978150007
 20
-136.3183950859957
 30
0.0
 11
2871.403699400007
 21
-136.1114350859957
 31
0.0
  0
LINE
  5
A759
330
1E
100
AcDbEntity
  8
0
 48
0.27
100
AcDbLine
 10
2873.823189400006
 20
-133.6266150859958
 30
0.0
 11
2873.879849400007
 21
-134.2492925859958
 31
0.0
  0
LINE
  5
A75A
330
1E
100
AcDbEntity
  8
0
 48
0.27
100
AcDbLine
 10
2873.823189400006
 20
-134.8719700859958
 30
0.0
 11
2873.655385650007
 21
-135.4707188359957
 31
0.0
  0
LINE
  5
A75B
330
1E
100
AcDbEntity
  8
0
 48
0.27
100
AcDbLine
 10
2873.879849400007
 20
-134.2492925859958
 30
0.0
 11
2873.823189400006
 21
-134.8719700859958
 31
0.0
  0
LINE
  5
A75C
330
1E
100
AcDbEntity
  8
0
 48
0.27
100
AcDbLine
 10
2871.717243150007
 20
-132.6656713359957
 30
0.0
 11
2871.974563150006
 21
-133.0050488359957
 31
0.0
  0
LINE
  5
A75D
330
1E
100
AcDbEntity
  8
0
 48
0.27
100
AcDbLine
 10
2871.403699400007
 20
-136.1114350859957
 30
0.0
 11
2871.717243150007
 21
-135.8329150859958
 31
0.0
  0
LINE
  5
A75E
330
1E
100
AcDbEntity
  8
0
 48
0.27
100
AcDbLine
 10
2871.974563150006
 20
-133.0050488359957
 30
0.0
 11
2872.165768150006
 21
-133.3922425859957
 31
0.0
  0
LINE
  5
A75F
330
1E
100
AcDbEntity
  8
0
 48
0.27
100
AcDbLine
 10
2871.974563150006
 20
-135.4935363359957
 30
0.0
 11
2871.717243150007
 21
-135.8329150859958
 31
0.0
  0
LINE
  5
A760
330
1E
100
AcDbEntity
  8
0
 48
0.27
100
AcDbLine
 10
2872.165768150006
 20
-133.3922425859957
 30
0.0
 11
2872.283511900007
 21
-133.8123725859959
 31
0.0
  0
LINE
  5
A761
330
1E
100
AcDbEntity
  8
0
 48
0.27
100
AcDbLine
 10
2872.165768150006
 20
-135.1063425859956
 30
0.0
 11
2871.974563150006
 21
-135.4935363359957
 31
0.0
  0
LINE
  5
A762
330
1E
100
AcDbEntity
  8
0
 48
0.27
100
AcDbLine
 10
2872.283511900007
 20
-133.8123725859959
 30
0.0
 11
2872.323269400007
 21
-134.2492925859958
 31
0.0
  0
LINE
  5
A763
330
1E
100
AcDbEntity
  8
0
 48
0.27
100
AcDbLine
 10
2872.283511900007
 20
-134.6862125859957
 30
0.0
 11
2872.165768150006
 21
-135.1063425859956
 31
0.0
  0
LINE
  5
A764
330
1E
100
AcDbEntity
  8
0
 48
0.27
100
AcDbLine
 10
2872.323269400007
 20
-134.2492925859958
 30
0.0
 11
2872.283511900007
 21
-134.6862125859957
 31
0.0
  0
POINT
  5
A765
330
1E
100
AcDbEntity
  8
0
100
AcDbPoint
 10
2867.982284400007
 20
-134.2492925859958
 30
0.0
1001
pntflag
1000
endpoint
  0
LINE
  5
A768
330
1E
100
AcDbEntity
  8
中心線
100
AcDbLine
 10
2878.25258797997
 20
61.30943319167307
 30
0.0
 11
2888.897813507899
 21
61.30943319167307
 31
0.0
  0
LINE
  5
A769
330
1E
100
AcDbEntity
  8
0
100
AcDbLine
 10
2879.917438166008
 20
62.66024985052354
 30
0.0
 11
2879.917438166008
 21
59.95861653282168
 31
0.0
  0
ARC
  5
A76A
330
1E
100
AcDbEntity
  8
0
100
AcDbCircle
 10
2882.175159974573
 20
59.99517319348979
 30
0.0
 40
2.258017748891656
100
AcDbArc
 50
180.9276427879959
 51
254.0369778311716
  0
ARC
  5
A76B
330
1E
100
AcDbEntity
  8
0
100
AcDbCircle
 10
2882.175159974573
 20
62.62369318985633
 30
0.0
 40
2.258017748891656
100
AcDbArc
 50
105.9630221688284
 51
179.0723572120041
  0
ARC
  5
A774
330
1E
100
AcDbEntity
  8
0
100
AcDbCircle
 10
2882.175159974573
 20
-14.37634643854403
 30
0.0
 40
2.258017748891656
100
AcDbArc
 50
105.9630221688284
 51
179.0723572120041
  0
LINE
  5
A775
330
1E
100
AcDbEntity
  8
0
100
AcDbLine
 10
2879.917438166008
 20
-17.04142309557778
 30
0.0
 11
2879.917438166008
 21
-14.33978977787592
 31
0.0
  0
LINE
  5
A776
330
1E
100
AcDbEntity
  8
中心線
100
AcDbLine
 10
2878.25258797997
 20
-15.69060643672719
 30
0.0
 11
2888.897813507899
 21
-15.69060643672719
 31
0.0
  0
ARC
  5
A777
330
1E
100
AcDbEntity
  8
0
100
AcDbCircle
 10
2882.175159974573
 20
-17.00486643491058
 30
0.0
 40
2.258017748891656
100
AcDbArc
 50
180.9276427879959
 51
254.0369778311716
  0
LINE
  5
A77C
330
1E
100
AcDbEntity
  8
中心線
100
AcDbLine
 10
3116.855745820044
 20
-15.69060643672719
 30
0.0
 11
3106.210520292115
 21
-15.69060643672719
 31
0.0
  0
LINE
  5
A77D
330
1E
100
AcDbEntity
  8
0
100
AcDbLine
 10
3115.190895634006
 20
-17.04142309557755
 30
0.0
 11
3115.190895634006
 21
-14.33978977787592
 31
0.0
  0
ARC
  5
A77E
330
1E
100
AcDbEntity
  8
0
100
AcDbCircle
 10
3112.933173825441
 20
-14.3763464385438
 30
0.0
 40
2.258017748891656
100
AcDbArc
 50
0.9276427879959022
 51
74.03697783117156
  0
ARC
  5
A77F
330
1E
100
AcDbEntity
  8
0
100
AcDbCircle
 10
3112.933173825441
 20
-17.00486643491058
 30
0.0
 40
2.258017748891656
100
AcDbArc
 50
285.9630221688284
 51
359.0723572120041
  0
ARC
  5
A784
330
1E
100
AcDbEntity
  8
0
100
AcDbCircle
 10
3112.933173825441
 20
62.62369318985645
 30
0.0
 40
2.258017748891656
100
AcDbArc
 50
0.9276427879959022
 51
74.03697783117156
  0
ARC
  5
A785
330
1E
100
AcDbEntity
  8
0
100
AcDbCircle
 10
3112.933173825441
 20
59.9951731934899
 30
0.0
 40
2.258017748891656
100
AcDbArc
 50
285.9630221688284
 51
359.0723572120041
  0
LINE
  5
A786
330
1E
100
AcDbEntity
  8
0
100
AcDbLine
 10
3115.190895634006
 20
62.66024985052365
 30
0.0
 11
3115.190895634006
 21
59.9586165328218
 31
0.0
  0
LINE
  5
A787
330
1E
100
AcDbEntity
  8
中心線
100
AcDbLine
 10
3116.855745820044
 20
61.30943319167318
 30
0.0
 11
3106.210520292115
 21
61.30943319167318
 31
0.0
  0
LINE
  5
A788
330
1E
100
AcDbEntity
  8
中心線
 48
0.27
100
AcDbLine
 10
2831.836096896493
 20
22.80941411807305
 30
0.0
 11
2863.27223690352
 21
22.80941411807305
 31
0.0
  0
CIRCLE
  5
A789
330
1E
100
AcDbEntity
  8
0
100
AcDbCircle
 10
2847.554166900007
 20
22.80941411807305
 30
0.0
 40
8.000000000000227
  0
CIRCLE
  5
A78A
330
1E
100
AcDbEntity
  8
0
100
AcDbCircle
 10
2847.554166900007
 20
22.80941411807317
 30
0.0
 40
11.50000000000022
  0
LINE
  5
A78B
330
1E
100
AcDbEntity
  8
中心線
 48
0.27
100
AcDbLine
 10
2847.554166900007
 20
6.741344114559638
 30
0.0
 11
2847.554166900007
 21
38.87748412158635
 31
0.0
  0
LINE
  5
A78C
330
1E
100
AcDbEntity
  8
中心線
 48
0.27
100
AcDbLine
 10
3131.836096896494
 20
22.80941411807305
 30
0.0
 11
3163.27223690352
 21
22.80941411807305
 31
0.0
  0
CIRCLE
  5
A78D
330
1E
100
AcDbEntity
  8
0
100
AcDbCircle
 10
3147.554166900007
 20
22.80941411807305
 30
0.0
 40
8.000000000000227
  0
CIRCLE
  5
A78E
330
1E
100
AcDbEntity
  8
0
100
AcDbCircle
 10
3147.554166900007
 20
22.80941411807317
 30
0.0
 40
11.50000000000022
  0
LINE
  5
A78F
330
1E
100
AcDbEntity
  8
中心線
 48
0.27
100
AcDbLine
 10
3147.554166900007
 20
6.741344114559638
 30
0.0
 11
3147.554166900007
 21
38.87748412158635
 31
0.0
  0
LINE
  5
A790
330
1E
100
AcDbEntity
  8
0
100
AcDbLine
 10
2817.554166900007
 20
49.30941411807305
 30
0.0
 11
2817.554166900007
 21
-3.690585881926836
 31
0.0
  0
LINE
  5
A791
330
1E
100
AcDbEntity
  8
0
100
AcDbLine
 10
3177.554166900007
 20
-3.690585881926836
 30
0.0
 11
3177.554166900007
 21
49.30941411807293
 31
0.0
  0
LINE
  5
A792
330
1E
100
AcDbEntity
  8
0
100
AcDbLine
 10
3177.554166900007
 20
-192.2493424341269
 30
0.0
 11
3177.554166900007
 21
-148.2493114341268
 31
0.0
  0
LINE
  5
A793
330
1E
100
AcDbEntity
  8
中心線
 48
0.27
100
AcDbLine
 10
3147.554166900007
 20
-194.100672007961
 30
0.0
 11
3147.554166900007
 21
-145.7888003708722
 31
0.0
  0
LINE
  5
A794
330
1E
100
AcDbEntity
  8
中心線
 48
0.27
100
AcDbLine
 10
3087.554166900007
 20
-194.100672007961
 30
0.0
 11
3087.554166900007
 21
-182.2493424341269
 31
0.0
  0
LINE
  5
A795
330
1E
100
AcDbEntity
  8
中心線
 48
0.27
100
AcDbLine
 10
3027.554166900007
 20
-194.100672007961
 30
0.0
 11
3027.554166900007
 21
-182.2493424341269
 31
0.0
  0
LINE
  5
A796
330
1E
100
AcDbEntity
  8
中心線
 48
0.27
100
AcDbLine
 10
2967.554166900007
 20
-194.100672007961
 30
0.0
 11
2967.554166900007
 21
-182.2493424341269
 31
0.0
  0
LINE
  5
A797
330
1E
100
AcDbEntity
  8
中心線
 48
0.27
100
AcDbLine
 10
2907.554166900007
 20
-194.100672007961
 30
0.0
 11
2907.554166900007
 21
-182.2493424341269
 31
0.0
  0
LINE
  5
A798
330
1E
100
AcDbEntity
  8
0
100
AcDbLine
 10
2817.554166900007
 20
-148.2493114341268
 30
0.0
 11
2817.554166900007
 21
-192.2493424341269
 31
0.0
  0
LINE
  5
A7A8
330
1E
100
AcDbEntity
  8
0
  6
Continuous
100
AcDbLine
 10
2879.917438166008
 20
18.20941398538264
 30
0.0
 11
2879.917438166008
 21
27.40941425096366
 31
0.0
  0
ARC
  5
A7A9
330
1E
100
AcDbEntity
  8
0
  6
Continuous
100
AcDbCircle
 10
2890.540683472186
 20
22.80941411817309
 30
0.0
 40
10.62324530617823
100
AcDbArc
 50
163.2213499979114
 51
196.7786500020885
  0
ARC
  5
A7AA
330
1E
100
AcDbEntity
  8
0
  6
Continuous
100
AcDbCircle
 10
2868.81752698474
 20
18.1132761930844
 30
0.0
 40
2.472178306553661
100
AcDbArc
 50
34.63277999893853
 51
100.3672200010633
  0
ARC
  5
A7AB
330
1E
100
AcDbEntity
  8
0
  6
Continuous
100
AcDbCircle
 10
2875.119359736028
 20
22.80941411817309
 30
0.0
 40
5.333333333333332
100
AcDbArc
 50
90.0
 51
210.8352048940846
  0
LINE
  5
A7AC
330
1E
100
AcDbEntity
  8
0
  6
Continuous
100
AcDbLine
 10
2876.630830803549
 20
17.47608078483984
 30
0.0
 11
2880.014267616694
 21
17.47608078483984
 31
0.0
  0
ARC
  5
A7AD
330
1E
100
AcDbEntity
  8
0
  6
Continuous
100
AcDbCircle
 10
2876.25475743615
 20
15.03267447361611
 30
0.0
 40
2.472178306553661
100
AcDbArc
 50
34.63277999893853
 51
100.3672200010633
  0
ARC
  5
A7AE
330
1E
100
AcDbEntity
  8
0
  6
Continuous
100
AcDbCircle
 10
2877.143264973335
 20
11.81186821138681
 30
0.0
 40
2.746231479756805
100
AcDbArc
 50
89.1520988349392
 51
159.1520988349398
  0
ARC
  5
A7AF
330
1E
100
AcDbEntity
  8
0
  6
Continuous
100
AcDbCircle
 10
2877.081183007413
 20
17.0278422960514
 30
0.0
 40
2.472178306553661
100
AcDbArc
 50
214.6327799989385
 51
280.3672200010634
  0
LINE
  5
A7B0
330
1E
100
AcDbEntity
  8
0
  6
Continuous
100
AcDbLine
 10
2869.76358866451
 20
20.39727113122785
 30
0.0
 11
2877.20081911592
 21
17.31666941175945
 31
0.0
  0
LINE
  5
A7B1
330
1E
100
AcDbEntity
  8
0
  6
Continuous
100
AcDbLine
 10
2868.697890876232
 20
17.82444907737636
 30
0.0
 11
2876.135121327642
 21
14.74384735790795
 31
0.0
  0
LINE
  5
A7B2
330
1E
100
AcDbEntity
  8
0
  6
Continuous
100
AcDbLine
 10
2868.664004466129
 20
15.23839406022318
 30
0.0
 11
2874.330465598865
 21
12.89126900838414
 31
0.0
  0
ARC
  5
A7B3
330
1E
100
AcDbEntity
  8
0
  6
Continuous
100
AcDbCircle
 10
2870.242481134328
 20
11.99156213699268
 30
0.0
 40
3.813798694049016
100
AcDbArc
 50
118.5864858262631
 51
163.586485826263
  0
LINE
  5
A7B4
330
1E
100
AcDbEntity
  8
0
  6
Continuous
100
AcDbLine
 10
2866.584104832675
 20
13.06921853595645
 30
0.0
 11
2874.267338011076
 21
9.886719150587737
 31
0.0
  0
LINE
  5
A7B5
330
1E
100
AcDbEntity
  8
0
  6
Continuous
100
AcDbLine
 10
2866.584104832675
 20
9.026557252775091
 30
0.0
 11
2866.584104832675
 21
13.06921853595645
 31
0.0
  0
ARC
  5
A7B6
330
1E
100
AcDbEntity
  8
0
  6
Continuous
100
AcDbCircle
 10
2870.918457172547
 20
11.71156369412301
 30
0.0
 40
3.813798694049014
100
AcDbArc
 50
331.4135141737369
 51
16.41351417374012
  0
ARC
  5
A7B7
330
1E
100
AcDbEntity
  8
0
  6
Continuous
100
AcDbCircle
 10
2865.91180333115
 20
16.46409194885336
 30
0.0
 40
2.746231479756805
100
AcDbArc
 50
335.8479011650612
 51
45.84790116506007
  0
ARC
  5
A7B8
330
1E
100
AcDbEntity
  8
0
  6
Continuous
100
AcDbCircle
 10
2869.643952556003
 20
20.10844401551969
 30
0.0
 40
2.472178306553661
100
AcDbArc
 50
214.6327799989385
 51
280.3672200010634
  0
LINE
  5
A7B9
330
1E
100
AcDbEntity
  8
0
  6
Continuous
100
AcDbLine
 10
2867.609816659255
 20
18.70354919801002
 30
0.0
 11
2868.372586350609
 21
20.54503813184442
 31
0.0
  0
ARC
  5
A7BA
330
1E
100
AcDbEntity
  8
0
  6
Continuous
100
AcDbCircle
 10
2869.925031410669
 20
10.26919622767195
 30
0.0
 40
9.295339642905961
100
AcDbArc
 50
50.7213499979104
 51
84.27865000208958
  0
LINE
  5
A7BB
330
1E
100
AcDbEntity
  8
0
  6
Continuous
100
AcDbLine
 10
2870.088893619522
 20
17.67668189890105
 30
0.0
 11
2870.851663310876
 21
19.51817083273545
 31
0.0
  0
ARC
  5
A7BC
330
1E
100
AcDbEntity
  8
0
  6
Continuous
100
AcDbCircle
 10
2875.973678581484
 20
24.87192226146374
 30
0.0
 40
9.295339642905961
100
AcDbArc
 50
230.7213499979124
 51
264.2786500020895
  0
LINE
  5
A7BD
330
1E
100
AcDbEntity
  8
0
  6
Continuous
100
AcDbLine
 10
2875.047046681277
 20
15.62294765640035
 30
0.0
 11
2875.809816372631
 21
17.46443659023475
 31
0.0
  0
LINE
  5
A7BE
330
1E
100
AcDbEntity
  8
0
  6
Continuous
100
AcDbLine
 10
2877.526067305481
 20
14.59602331826397
 30
0.0
 11
2878.288893829969
 21
16.4376494594203
 31
0.0
  0
ARC
  5
A7BF
330
1E
100
AcDbEntity
  8
0
  6
Continuous
100
AcDbCircle
 10
2882.742784802069
 20
18.20941398538264
 30
0.0
 40
2.825346636061326
100
AcDbArc
 50
147.1327799989334
 51
212.8672200010666
  0
LINE
  5
A7C0
330
1E
100
AcDbEntity
  8
0
  6
Continuous
100
AcDbLine
 10
2880.36977488882
 20
16.67608078483977
 30
0.0
 11
2881.554166900007
 21
16.67608078483977
 31
0.0
  0
LINE
  5
A7C1
330
1E
100
AcDbEntity
  8
0
  6
Continuous
100
AcDbLine
 10
2880.36977488882
 20
19.74274771708758
 30
0.0
 11
2881.554166900007
 21
19.74274771708758
 31
0.0
  0
LINE
  5
A7C2
330
1E
100
AcDbEntity
  8
0
  6
Continuous
100
AcDbLine
 10
2875.119359736028
 20
28.14274745150647
 30
0.0
 11
2880.014267616694
 21
28.14274745150647
 31
0.0
  0
ARC
  5
A7C3
330
1E
100
AcDbEntity
  8
0
  6
Continuous
100
AcDbCircle
 10
2882.742784802069
 20
27.40941425096366
 30
0.0
 40
2.825346636061326
100
AcDbArc
 50
147.1327799989334
 51
212.8672200010666
  0
LINE
  5
A7C4
330
1E
100
AcDbEntity
  8
0
  6
Continuous
100
AcDbLine
 10
2880.36977488882
 20
25.87608051925861
 30
0.0
 11
2881.554166900007
 21
25.87608051925861
 31
0.0
  0
LINE
  5
A7C5
330
1E
100
AcDbEntity
  8
0
  6
Continuous
100
AcDbLine
 10
2880.36977488882
 20
28.94274745150653
 30
0.0
 11
2881.554166900007
 21
28.94274745150653
 31
0.0
  0
LINE
  5
A7C6
330
1E
100
AcDbEntity
  8
0
  6
Continuous
100
AcDbLine
 10
2866.584104832675
 20
9.026557252775091
 30
0.0
 11
2871.408744803698
 21
7.028125943209943
 31
0.0
  0
LINE
  5
A7C7
330
1E
100
AcDbEntity
  8
0
  6
Continuous
100
AcDbLine
 10
2871.408744803698
 20
7.028125943209943
 30
0.0
 11
2874.267338011076
 21
9.886719150587737
 31
0.0
  0
LINE
  5
A7C8
330
1E
100
AcDbEntity
  8
中心線
100
AcDbLine
 10
2942.299379242799
 20
-14.69058325112701
 30
0.0
 11
2957.488490898774
 21
-14.69058325112701
 31
0.0
  0
LINE
  5
A7C9
330
1E
100
AcDbEntity
  8
中心線
100
AcDbLine
 10
2950.054166900007
 20
-22.28585443983775
 30
0.0
 11
2950.054166900007
 21
-6.972395941273589
 31
0.0
  0
ARC
  5
A7CA
330
1E
100
AcDbEntity
  8
標註線
 62
     1
100
AcDbCircle
 10
2950.054166900007
 20
-14.69058325112701
 30
0.0
 40
6.0
100
AcDbArc
 50
180.0
 51
90.0
  0
CIRCLE
  5
A7CB
330
1E
100
AcDbEntity
  8
0
100
AcDbCircle
 10
2950.054166900007
 20
-14.69058325112701
 30
0.0
 40
5.125
  0
LINE
  5
A7CC
330
1E
100
AcDbEntity
  8
中心線
100
AcDbLine
 10
2950.054166900007
 20
15.21414218876237
 30
0.0
 11
2950.054166900007
 21
30.52760068732641
 31
0.0
  0
ARC
  5
A7CD
330
1E
100
AcDbEntity
  8
標註線
 62
     1
100
AcDbCircle
 10
2950.054166900007
 20
22.80941337747311
 30
0.0
 40
6.0
100
AcDbArc
 50
180.0
 51
90.0
  0
CIRCLE
  5
A7CE
330
1E
100
AcDbEntity
  8
0
100
AcDbCircle
 10
2950.054166900007
 20
22.80941337747311
 30
0.0
 40
5.125
  0
LINE
  5
A7CF
330
1E
100
AcDbEntity
  8
中心線
100
AcDbLine
 10
2942.299379242799
 20
60.30941082947311
 30
0.0
 11
2957.488490898774
 21
60.30941082947311
 31
0.0
  0
LINE
  5
A7D0
330
1E
100
AcDbEntity
  8
中心線
100
AcDbLine
 10
2950.054166900007
 20
52.71413964076237
 30
0.0
 11
2950.054166900007
 21
68.02759813932652
 31
0.0
  0
ARC
  5
A7D1
330
1E
100
AcDbEntity
  8
標註線
 62
     1
100
AcDbCircle
 10
2950.054166900007
 20
60.30941082947311
 30
0.0
 40
6.0
100
AcDbArc
 50
180.0
 51
90.0
  0
CIRCLE
  5
A7D2
330
1E
100
AcDbEntity
  8
0
100
AcDbCircle
 10
2950.054166900007
 20
60.30941082947311
 30
0.0
 40
5.125
  0
LINE
  5
A7D3
330
1E
100
AcDbEntity
  8
中心線
100
AcDbLine
 10
3037.299379242799
 20
60.3094167488731
 30
0.0
 11
3052.488490898773
 21
60.3094167488731
 31
0.0
  0
LINE
  5
A7D4
330
1E
100
AcDbEntity
  8
中心線
100
AcDbLine
 10
3045.054166900007
 20
52.71414556016236
 30
0.0
 11
3045.054166900007
 21
68.02760405872641
 31
0.0
  0
ARC
  5
A7D5
330
1E
100
AcDbEntity
  8
標註線
 62
     1
100
AcDbCircle
 10
3045.054166900007
 20
60.3094167488731
 30
0.0
 40
6.0
100
AcDbArc
 50
180.0
 51
90.0
  0
CIRCLE
  5
A7D6
330
1E
100
AcDbEntity
  8
0
100
AcDbCircle
 10
3045.054166900007
 20
60.3094167488731
 30
0.0
 40
5.125
  0
LINE
  5
A7D7
330
1E
100
AcDbEntity
  8
中心線
100
AcDbLine
 10
3045.054166900007
 20
15.21414218876237
 30
0.0
 11
3045.054166900007
 21
30.52760068732641
 31
0.0
  0
ARC
  5
A7D8
330
1E
100
AcDbEntity
  8
標註線
 62
     1
100
AcDbCircle
 10
3045.054166900007
 20
22.80941337747299
 30
0.0
 40
6.0
100
AcDbArc
 50
180.0
 51
90.0
  0
CIRCLE
  5
A7D9
330
1E
100
AcDbEntity
  8
0
100
AcDbCircle
 10
3045.054166900007
 20
22.80941337747299
 30
0.0
 40
5.125
  0
LINE
  5
A7DA
330
1E
100
AcDbEntity
  8
中心線
100
AcDbLine
 10
3037.299379242799
 20
-14.69058325112701
 30
0.0
 11
3052.488490898773
 21
-14.69058325112701
 31
0.0
  0
LINE
  5
A7DB
330
1E
100
AcDbEntity
  8
中心線
100
AcDbLine
 10
3045.054166900007
 20
-22.28585443983775
 30
0.0
 11
3045.054166900007
 21
-6.972395941273589
 31
0.0
  0
ARC
  5
A7DC
330
1E
100
AcDbEntity
  8
標註線
 62
     1
100
AcDbCircle
 10
3045.054166900007
 20
-14.69058325112701
 30
0.0
 40
6.0
100
AcDbArc
 50
180.0
 51
90.0
  0
CIRCLE
  5
A7DD
330
1E
100
AcDbEntity
  8
0
100
AcDbCircle
 10
3045.054166900007
 20
-14.69058325112701
 30
0.0
 40
5.125
  0
LINE
  5
A7E5
330
1E
100
AcDbEntity
  8
中心線
 48
0.27
100
AcDbLine
 10
2950.054166900007
 20
-110.2493152489269
 30
0.0
 11
2950.054166900007
 21
-139.7833392489269
 31
0.0
  0
LINE
  5
A7EE
330
1E
100
AcDbEntity
  8
中心線
 48
0.27
100
AcDbLine
 10
3045.054166900007
 20
-110.2493152489269
 30
0.0
 11
3045.054166900007
 21
-139.7833392489269
 31
0.0
  0
ARC
  5
A7F6
330
1E
100
AcDbEntity
  8
0
100
AcDbCircle
 10
2891.775159974573
 20
-167.98923376171
 30
0.0
 40
2.258017748891656
100
AcDbArc
 50
180.9276427879959
 51
254.0369778311716
  0
LINE
  5
A7F7
330
1E
100
AcDbEntity
  8
0
100
AcDbLine
 10
2889.517438166008
 20
-165.3241571046742
 30
0.0
 11
2889.517438166008
 21
-168.0257904223781
 31
0.0
  0
ARC
  5
A7F8
330
1E
100
AcDbEntity
  8
0
100
AcDbCircle
 10
2891.775159974573
 20
-165.3607137653434
 30
0.0
 40
2.258017748891656
100
AcDbArc
 50
105.9630221688284
 51
179.0723572120041
  0
ARC
  5
A7FA
330
1E
100
AcDbEntity
  8
0
100
AcDbCircle
 10
2882.175159974573
 20
-146.9350514359437
 30
0.0
 40
2.258017748891656
100
AcDbArc
 50
105.9630221688284
 51
179.0723572120041
  0
ARC
  5
A7FB
330
1E
100
AcDbEntity
  8
0
100
AcDbCircle
 10
2882.175159974573
 20
-149.5635714323102
 30
0.0
 40
2.258017748891656
100
AcDbArc
 50
180.9276427879959
 51
254.0369778311716
  0
LINE
  5
A7FC
330
1E
100
AcDbEntity
  8
0
100
AcDbLine
 10
2879.917438166008
 20
-146.8984947752765
 30
0.0
 11
2879.917438166008
 21
-149.6001280929784
 31
0.0
  0
LINE
  5
A7FD
330
1E
100
AcDbEntity
  8
中心線
100
AcDbLine
 10
2878.25258797997
 20
-148.2493114341271
 30
0.0
 11
2888.897813507899
 21
-148.2493114341271
 31
0.0
  0
ARC
  5
A7FE
330
1E
100
AcDbEntity
  8
0
100
AcDbCircle
 10
3103.333173825441
 20
-165.3607137653434
 30
0.0
 40
2.258017748891656
100
AcDbArc
 50
0.9276427879959022
 51
74.03697783117156
  0
ARC
  5
A7FF
330
1E
100
AcDbEntity
  8
0
100
AcDbCircle
 10
3103.333173825441
 20
-167.9892337617102
 30
0.0
 40
2.258017748891656
100
AcDbArc
 50
285.9630221688284
 51
359.0723572120041
  0
LINE
  5
A800
330
1E
100
AcDbEntity
  8
0
100
AcDbLine
 10
3105.590895634007
 20
-165.3241571046742
 30
0.0
 11
3105.590895634007
 21
-168.0257904223781
 31
0.0
  0
LINE
  5
A80A
330
1E
100
AcDbEntity
  8
0
  6
Continuous
 62
     7
100
AcDbLine
 10
2626.604656461463
 20
-114.249254213727
 30
0.0
 11
2628.604610685063
 21
-112.2492961753269
 31
0.0
  0
LINE
  5
A80B
330
1E
100
AcDbEntity
  8
0
  6
Continuous
 62
     7
100
AcDbLine
 10
2627.704656461463
 20
-125.4493304341267
 30
0.0
 11
2629.704656461463
 21
-123.4493304341267
 31
0.0
  0
LINE
  5
A80D
330
1E
100
AcDbEntity
  8
0
  6
Continuous
 62
     7
100
AcDbLine
 10
2629.704656461463
 20
-182.2493424341269
 30
0.0
 11
2627.704656461463
 21
-180.2493424341269
 31
0.0
  0
LINE
  5
A80E
330
1E
100
AcDbEntity
  8
0
  6
Continuous
 62
     7
100
AcDbLine
 10
2726.600466252926
 20
-179.2493424341269
 30
0.0
 11
2726.600466252927
 21
-114.249254213727
 31
0.0
  0
LINE
  5
A80F
330
1E
100
AcDbEntity
  8
0
  6
Continuous
 62
     7
100
AcDbLine
 10
2627.704656461463
 20
-180.2493424341269
 30
0.0
 11
2627.704656461463
 21
-125.4493304341267
 31
0.0
  0
LINE
  5
A817
330
1E
100
AcDbEntity
  8
0
  6
Continuous
 62
     7
100
AcDbLine
 10
2664.604645017463
 20
-113.049299227127
 30
0.0
 11
2665.404635671264
 21
-112.2492999901269
 31
0.0
  0
LINE
  5
A818
330
1E
100
AcDbEntity
  8
0
  6
Continuous
 62
     7
100
AcDbLine
 10
2663.302567357795
 20
-123.4493304341267
 30
0.0
 11
2664.102561357195
 21
-122.649342434127
 31
0.0
  0
LINE
  5
A825
330
1E
100
AcDbEntity
  8
0
  6
Continuous
 62
     7
100
AcDbLine
 10
2629.600428105927
 20
-182.2493424341269
 30
0.0
 11
2650.102561357195
 21
-182.2493424341269
 31
0.0
  0
LINE
  5
A826
330
1E
100
AcDbEntity
  8
0
  6
Continuous
 62
     7
100
AcDbLine
 10
2703.102561357194
 20
-182.2493424341269
 30
0.0
 11
2723.600466252927
 21
-182.2493424341269
 31
0.0
  0
LINE
  5
A844
330
1E
100
AcDbEntity
  8
0
  6
Continuous
 62
     7
100
AcDbLine
 10
2700.604749285464
 20
-113.0493055849269
 30
0.0
 11
2701.404782855063
 21
-112.2493088909268
 31
0.0
  0
LINE
  5
A85F
330
1E
100
AcDbEntity
  8
0
  6
Continuous
 62
     7
100
AcDbLine
 10
2651.804569486263
 20
-112.2492961753269
 30
0.0
 11
2652.604570630663
 21
-113.049299227127
 31
0.0
  0
LINE
  5
A86B
330
1E
100
AcDbEntity
  8
0
  6
Continuous
 62
     7
100
AcDbLine
 10
2626.600428105927
 20
-129.7493152489266
 30
0.0
 11
2627.600428105927
 21
-130.7493152489267
 31
0.0
  0
LINE
  5
A881
330
1E
100
AcDbEntity
  8
0
  6
Continuous
 62
     7
100
AcDbLine
 10
2629.704656461463
 20
-123.4493304341267
 30
0.0
 11
2723.504694608463
 21
-123.4493304341267
 31
0.0
  0
LINE
  5
A882
330
1E
100
AcDbEntity
  8
0
  6
Continuous
 62
     7
100
AcDbLine
 10
2689.102561357195
 20
-122.649342434127
 30
0.0
 11
2664.102561357195
 21
-122.649342434127
 31
0.0
  0
LINE
  5
A886
330
1E
100
AcDbEntity
  8
0
  6
Continuous
 62
     7
100
AcDbLine
 10
2689.102561357195
 20
-122.649342434127
 30
0.0
 11
2689.902555356594
 21
-123.4493304341267
 31
0.0
  0
LINE
  5
A887
330
1E
100
AcDbEntity
  8
0
  6
Continuous
 62
     7
100
AcDbLine
 10
2687.804715398462
 20
-112.2492999901269
 30
0.0
 11
2688.604718132463
 21
-113.0493055849269
 31
0.0
  0
LINE
  5
A889
330
1E
100
AcDbEntity
  8
0
  6
Continuous
 62
     7
100
AcDbLine
 10
2688.604718132463
 20
-113.0493055849269
 30
0.0
 11
2700.604749285464
 21
-113.0493055849269
 31
0.0
  0
LINE
  5
A88A
330
1E
100
AcDbEntity
  8
0
  6
Continuous
 62
     7
100
AcDbLine
 10
2652.604570630663
 20
-113.049299227127
 30
0.0
 11
2664.604645017463
 21
-113.049299227127
 31
0.0
  0
LINE
  5
A88B
330
1E
100
AcDbEntity
  8
0
  6
Continuous
 62
     7
100
AcDbLine
 10
2701.404782855063
 20
-112.2493088909268
 30
0.0
 11
2724.604741656263
 21
-112.2493088909268
 31
0.0
  0
LINE
  5
A88C
330
1E
100
AcDbEntity
  8
0
  6
Continuous
 62
     7
100
AcDbLine
 10
2665.404635671264
 20
-112.2492999901269
 30
0.0
 11
2687.804715398462
 21
-112.2492999901269
 31
0.0
  0
LINE
  5
A88D
330
1E
100
AcDbEntity
  8
0
  6
Continuous
 62
     7
100
AcDbLine
 10
2628.604610685063
 20
-112.2492961753269
 30
0.0
 11
2651.804569486263
 21
-112.2492961753269
 31
0.0
  0
LINE
  5
A88E
330
1E
100
AcDbEntity
  8
0
  6
Continuous
 62
     7
100
AcDbLine
 10
2725.504694608464
 20
-125.4493304341267
 30
0.0
 11
2725.504694608464
 21
-180.2493424341269
 31
0.0
  0
LINE
  5
A88F
330
1E
100
AcDbEntity
  8
0
  6
Continuous
 62
     7
100
AcDbLine
 10
2627.600428105927
 20
-130.7493152489267
 30
0.0
 11
2627.600428105927
 21
-180.2493424341268
 31
0.0
  0
LINE
  5
A891
330
1E
100
AcDbEntity
  8
0
  6
Continuous
 62
     7
100
AcDbLine
 10
2626.600428105927
 20
-114.2492542137268
 30
0.0
 11
2626.600428105927
 21
-129.7493152489266
 31
0.0
  0
LINE
  5
A892
330
1E
100
AcDbEntity
  8
0
  6
Continuous
 62
     7
100
AcDbLine
 10
2725.504694608464
 20
-180.2493424341269
 30
0.0
 11
2723.504694608463
 21
-182.2493424341269
 31
0.0
  0
LINE
  5
A894
330
1E
100
AcDbEntity
  8
0
  6
Continuous
 62
     7
100
AcDbLine
 10
2723.504694608463
 20
-123.4493304341267
 30
0.0
 11
2725.504694608464
 21
-125.4493304341267
 31
0.0
  0
LINE
  5
A895
330
1E
100
AcDbEntity
  8
0
  6
Continuous
 62
     7
100
AcDbLine
 10
2724.604741656263
 20
-112.2493088909268
 30
0.0
 11
2726.604694608463
 21
-114.249254213727
 31
0.0
  0
LINE
  5
A896
330
1E
100
AcDbEntity
  8
0
  6
Continuous
 62
     7
100
AcDbLine
 10
2881.554166900007
 20
-123.4493304341267
 30
0.0
 11
2881.554166900007
 21
-182.2493424341269
 31
0.0
  0
LINE
  5
A897
330
1E
100
AcDbEntity
  8
0
  6
Continuous
 62
     7
100
AcDbLine
 10
2885.154166900007
 20
-122.649342434127
 30
0.0
 11
2885.154166900007
 21
-182.2493424341269
 31
0.0
  0
LINE
  5
A898
330
1E
100
AcDbEntity
  8
0
  6
Continuous
 62
     7
100
AcDbLine
 10
2891.154166900006
 20
-170.6749737635268
 30
0.0
 11
2891.154166900006
 21
-162.6749737635268
 31
0.0
  0
LINE
  5
A899
330
1E
100
AcDbEntity
  8
0
  6
Continuous
 62
     7
100
AcDbLine
 10
2910.654166900006
 20
-112.2493088909268
 30
0.0
 11
2910.654166900006
 21
-182.2493424341269
 31
0.0
  0
LINE
  5
A89A
330
1E
100
AcDbEntity
  8
0
  6
Continuous
 62
     7
100
AcDbLine
 10
2817.554166900007
 20
-192.2493424341269
 30
0.0
 11
3177.554166900007
 21
-192.2493424341269
 31
0.0
  0
LINE
  5
A89C
330
1E
100
AcDbEntity
  8
0
  6
Continuous
 62
     7
100
AcDbLine
 10
2881.554166900007
 20
-182.2493424341269
 30
0.0
 11
3113.554166900007
 21
-182.2493424341269
 31
0.0
  0
LINE
  5
A8A3
330
1E
100
AcDbEntity
  8
0
  6
Continuous
 62
     7
100
AcDbLine
 10
2885.154166900007
 20
-180.2493424341269
 30
0.0
 11
3109.954166900007
 21
-180.2493424341269
 31
0.0
  0
LINE
  5
A8B2
330
1E
100
AcDbEntity
  8
0
  6
Continuous
 62
     7
100
AcDbLine
 10
2885.154166900007
 20
-170.6749737635268
 30
0.0
 11
2891.154166900006
 21
-170.6749737635268
 31
0.0
  0
LINE
  5
A8B3
330
1E
100
AcDbEntity
  8
0
  6
Continuous
 62
     7
100
AcDbLine
 10
3103.954166900007
 20
-170.6749737635268
 30
0.0
 11
3109.954166900008
 21
-170.6749737635268
 31
0.0
  0
LINE
  5
A8B4
330
1E
100
AcDbEntity
  8
0
  6
Continuous
 62
     7
100
AcDbLine
 10
3109.954166900008
 20
-162.6749737635268
 30
0.0
 11
3103.954166900007
 21
-162.6749737635268
 31
0.0
  0
LINE
  5
A8B5
330
1E
100
AcDbEntity
  8
0
  6
Continuous
 62
     7
100
AcDbLine
 10
2891.154166900006
 20
-162.6749737635268
 30
0.0
 11
2885.154166900007
 21
-162.6749737635268
 31
0.0
  0
LINE
  5
A8CC
330
1E
100
AcDbEntity
  8
0
  6
Continuous
 62
     7
100
AcDbLine
 10
2817.554166900007
 20
-148.2493114341268
 30
0.0
 11
2881.554166900007
 21
-148.2493114341271
 31
0.0
  0
LINE
  5
A8CD
330
1E
100
AcDbEntity
  8
0
  6
Continuous
 62
     7
100
AcDbLine
 10
3113.554166900007
 20
-148.2493114341268
 30
0.0
 11
3177.554166900007
 21
-148.2493114341268
 31
0.0
  0
LINE
  5
A8CE
330
1E
100
AcDbEntity
  8
0
  6
Continuous
 62
     7
100
AcDbLine
 10
3113.554166900007
 20
-125.4493304341267
 30
0.0
 11
3084.454166900008
 21
-125.4493304341267
 31
0.0
  0
LINE
  5
A8CF
330
1E
100
AcDbEntity
  8
0
  6
Continuous
 62
     7
100
AcDbLine
 10
2881.554166900007
 20
-125.4493304341267
 30
0.0
 11
2910.654166900006
 21
-125.4493304341267
 31
0.0
  0
LINE
  5
A8D0
330
1E
100
AcDbEntity
  8
0
  6
Continuous
 62
     7
100
AcDbLine
 10
3113.554166900007
 20
-123.4493304341267
 30
0.0
 11
3084.454166900008
 21
-123.4493304341267
 31
0.0
  0
LINE
  5
A8D1
330
1E
100
AcDbEntity
  8
0
  6
Continuous
 62
     7
100
AcDbLine
 10
2881.554166900007
 20
-123.4493304341267
 30
0.0
 11
2910.654166900006
 21
-123.4493304341267
 31
0.0
  0
LINE
  5
A8D2
330
1E
100
AcDbEntity
  8
0
  6
Continuous
 62
     7
100
AcDbLine
 10
3109.954166900008
 20
-122.649342434127
 30
0.0
 11
3084.454166900008
 21
-122.649342434127
 31
0.0
  0
LINE
  5
A8D3
330
1E
100
AcDbEntity
  8
0
  6
Continuous
 62
     7
100
AcDbLine
 10
2885.154166900007
 20
-122.649342434127
 30
0.0
 11
2910.654166900006
 21
-122.649342434127
 31
0.0
  0
LINE
  5
A8D4
330
1E
100
AcDbEntity
  8
0
  6
Continuous
 62
     7
100
AcDbLine
 10
3084.454166900007
 20
-114.249254213727
 30
0.0
 11
2910.654166900006
 21
-114.249254213727
 31
0.0
  0
LINE
  5
A8D5
330
1E
100
AcDbEntity
  8
0
  6
Continuous
 62
     7
100
AcDbLine
 10
3084.454166900007
 20
-112.2493152489269
 30
0.0
 11
2910.654166900006
 21
-112.2493152489269
 31
0.0
  0
LINE
  5
A8D6
330
1E
100
AcDbEntity
  8
0
  6
Continuous
 62
     7
100
AcDbLine
 10
3084.454166900008
 20
-182.2493424341269
 30
0.0
 11
3084.454166900008
 21
-112.2493088909268
 31
0.0
  0
LINE
  5
A8D7
330
1E
100
AcDbEntity
  8
0
  6
Continuous
 62
     7
100
AcDbLine
 10
3103.954166900007
 20
-162.6749737635268
 30
0.0
 11
3103.954166900007
 21
-170.6749737635268
 31
0.0
  0
LINE
  5
A8D8
330
1E
100
AcDbEntity
  8
0
  6
Continuous
 62
     7
100
AcDbLine
 10
3109.954166900008
 20
-182.2493424341269
 30
0.0
 11
3109.954166900008
 21
-122.649342434127
 31
0.0
  0
LINE
  5
A8D9
330
1E
100
AcDbEntity
  8
0
  6
Continuous
 62
     7
100
AcDbLine
 10
3113.554166900007
 20
-182.2493424341269
 30
0.0
 11
3113.554166900007
 21
-123.4493304341267
 31
0.0
  0
LINE
  5
A8DA
330
1E
100
AcDbEntity
  8
0
  6
Continuous
 62
     7
100
AcDbLine
 10
2881.554166900007
 20
71.70943319167315
 30
0.0
 11
2881.554166900007
 21
-26.09060495532685
 31
0.0
  0
LINE
  5
A8DB
330
1E
100
AcDbEntity
  8
0
  6
Continuous
 62
     7
100
AcDbLine
 10
2885.154166900007
 20
-26.09060495532685
 30
0.0
 11
2885.154166900007
 21
71.70943319167315
 31
0.0
  0
LINE
  5
A8DC
330
1E
100
AcDbEntity
  8
0
  6
Continuous
 62
     7
100
AcDbLine
 10
2910.654166900006
 20
72.80943319167306
 30
0.0
 11
2910.654166900006
 21
-27.19060495532676
 31
0.0
  0
LINE
  5
A8DD
330
1E
100
AcDbEntity
  8
0
  6
Continuous
 62
     7
100
AcDbLine
 10
3084.454166900008
 20
-27.19060495532676
 30
0.0
 11
2910.654166900006
 21
-27.19060495532676
 31
0.0
  0
LINE
  5
A8DE
330
1E
100
AcDbEntity
  8
0
  6
Continuous
 62
     7
100
AcDbLine
 10
3113.554166900007
 20
-26.09060495532685
 30
0.0
 11
3084.454166900008
 21
-26.09060495532685
 31
0.0
  0
LINE
  5
A8DF
330
1E
100
AcDbEntity
  8
0
  6
Continuous
 62
     7
100
AcDbLine
 10
2881.554166900007
 20
-26.09060495532685
 30
0.0
 11
2910.654166900006
 21
-26.09060495532685
 31
0.0
  0
LINE
  5
A8E0
330
1E
100
AcDbEntity
  8
0
  6
Continuous
 62
     7
100
AcDbLine
 10
3084.454166900008
 20
-25.19065073172669
 30
0.0
 11
2910.654166900006
 21
-25.19065073172669
 31
0.0
  0
LINE
  5
A8E1
330
1E
100
AcDbEntity
  8
0
  6
Continuous
 62
     7
100
AcDbLine
 10
3113.554166900007
 20
-24.09060495532685
 30
0.0
 11
3084.454166900008
 21
-24.09060495532685
 31
0.0
  0
LINE
  5
A8E2
330
1E
100
AcDbEntity
  8
0
  6
Continuous
 62
     7
100
AcDbLine
 10
2881.554166900007
 20
-24.09060495532685
 30
0.0
 11
2910.654166900006
 21
-24.09060495532685
 31
0.0
  0
LINE
  5
A8E3
330
1E
100
AcDbEntity
  8
0
  6
Continuous
 62
     7
100
AcDbLine
 10
3177.554166900007
 20
-3.690585881926836
 30
0.0
 11
3113.554166900007
 21
-3.690585881927063
 31
0.0
  0
LINE
  5
A8E4
330
1E
100
AcDbEntity
  8
0
  6
Continuous
 62
     7
100
AcDbLine
 10
2881.554166900007
 20
-3.690585881927063
 30
0.0
 11
2817.554166900007
 21
-3.690585881926836
 31
0.0
  0
LINE
  5
A8E9
330
1E
100
AcDbEntity
  8
0
  6
Continuous
 62
     7
100
AcDbLine
 10
3084.454166900008
 20
-1.990684936926754
 30
0.0
 11
2910.654166900006
 21
-1.990684936926754
 31
0.0
  0
LINE
  5
A8EA
330
1E
100
AcDbEntity
  8
0
  6
Continuous
 62
     7
100
AcDbLine
 10
3084.454166900008
 20
-1.190667262126908
 30
0.0
 11
2910.654166900006
 21
-1.190667262126908
 31
0.0
  0
LINE
  5
A8EB
330
1E
100
AcDbEntity
  8
0
  6
Continuous
 62
     7
100
AcDbLine
 10
3084.454166900008
 20
10.80936246067313
 30
0.0
 11
2910.654166900006
 21
10.80936246067313
 31
0.0
  0
LINE
  5
A8EC
330
1E
100
AcDbEntity
  8
0
  6
Continuous
 62
     7
100
AcDbLine
 10
3084.454166900008
 20
11.60937425447309
 30
0.0
 11
2910.654166900006
 21
11.60937425447309
 31
0.0
  0
LINE
  5
A8ED
330
1E
100
AcDbEntity
  8
0
  6
Continuous
 62
     7
100
AcDbLine
 10
3084.454166900008
 20
34.00945398167301
 30
0.0
 11
2910.654166900006
 21
34.00945398167301
 31
0.0
  0
LINE
  5
A8EE
330
1E
100
AcDbEntity
  8
0
  6
Continuous
 62
     7
100
AcDbLine
 10
3084.454166900008
 20
34.80944082107317
 30
0.0
 11
2910.654166900006
 21
34.80944082107317
 31
0.0
  0
LINE
  5
A8EF
330
1E
100
AcDbEntity
  8
0
  6
Continuous
 62
     7
100
AcDbLine
 10
3084.454166900008
 20
46.80951520767314
 30
0.0
 11
2910.654166900006
 21
46.80951520767314
 31
0.0
  0
LINE
  5
A8F0
330
1E
100
AcDbEntity
  8
0
  6
Continuous
 62
     7
100
AcDbLine
 10
3084.454166900008
 20
47.60951635207312
 30
0.0
 11
2910.654166900006
 21
47.60951635207312
 31
0.0
  0
LINE
  5
A8F5
330
1E
100
AcDbEntity
  8
0
  6
Continuous
 62
     7
100
AcDbLine
 10
2817.554166900007
 20
49.30941411807305
 30
0.0
 11
2881.554166900007
 21
49.30941411807305
 31
0.0
  0
LINE
  5
A8F6
330
1E
100
AcDbEntity
  8
0
  6
Continuous
 62
     7
100
AcDbLine
 10
3113.554166900007
 20
49.30941411807305
 30
0.0
 11
3177.554166900007
 21
49.30941411807293
 31
0.0
  0
LINE
  5
A8F7
330
1E
100
AcDbEntity
  8
0
  6
Continuous
 62
     7
100
AcDbLine
 10
3113.554166900007
 20
69.70943319167315
 30
0.0
 11
3084.454166900008
 21
69.70943319167315
 31
0.0
  0
LINE
  5
A8F8
330
1E
100
AcDbEntity
  8
0
  6
Continuous
 62
     7
100
AcDbLine
 10
2881.554166900007
 20
69.70943319167315
 30
0.0
 11
2910.654166900006
 21
69.70943319167315
 31
0.0
  0
LINE
  5
A8F9
330
1E
100
AcDbEntity
  8
0
  6
Continuous
 62
     7
100
AcDbLine
 10
3084.454166900008
 20
70.80947515327318
 30
0.0
 11
2910.654166900006
 21
70.80947515327318
 31
0.0
  0
LINE
  5
A8FA
330
1E
100
AcDbEntity
  8
0
  6
Continuous
 62
     7
100
AcDbLine
 10
3113.554166900007
 20
71.70943319167315
 30
0.0
 11
3084.454166900008
 21
71.70943319167315
 31
0.0
  0
LINE
  5
A8FB
330
1E
100
AcDbEntity
  8
0
  6
Continuous
 62
     7
100
AcDbLine
 10
2881.554166900007
 20
71.70943319167315
 30
0.0
 11
2910.654166900006
 21
71.70943319167315
 31
0.0
  0
LINE
  5
A8FC
330
1E
100
AcDbEntity
  8
0
  6
Continuous
 62
     7
100
AcDbLine
 10
3084.454166900008
 20
72.80943319167306
 30
0.0
 11
2910.654166900006
 21
72.80943319167306
 31
0.0
  0
LINE
  5
A8FD
330
1E
100
AcDbEntity
  8
0
  6
Continuous
 62
     7
100
AcDbLine
 10
3084.454166900008
 20
-27.19060495532676
 30
0.0
 11
3084.454166900008
 21
72.80943319167306
 31
0.0
  0
LINE
  5
A8FE
330
1E
100
AcDbEntity
  8
0
  6
Continuous
 62
     7
100
AcDbLine
 10
3109.954166900008
 20
-26.09060495532685
 30
0.0
 11
3109.954166900008
 21
71.70943319167315
 31
0.0
  0
LINE
  5
A8FF
330
1E
100
AcDbEntity
  8
0
  6
Continuous
 62
     7
100
AcDbLine
 10
3113.554166900007
 20
-26.09060495532685
 30
0.0
 11
3113.554166900007
 21
71.70943319167315
 31
0.0
  0
CIRCLE
  5
A933
330
1E
100
AcDbEntity
  8
0
  6
Continuous
 62
     7
100
AcDbCircle
 10
2898.154166900006
 20
-139.7493424341269
 30
0.0
 40
0.75
  0
CIRCLE
  5
A934
330
1E
100
AcDbEntity
  8
0
  6
Continuous
 62
     7
100
AcDbCircle
 10
2898.154166900006
 20
-139.7493424341269
 30
0.0
 40
4.767386812599999
  0
CIRCLE
  5
A935
330
1E
100
AcDbEntity
  8
0
  6
Continuous
 62
     7
100
AcDbCircle
 10
2898.154166900006
 20
-139.7493424341269
 30
0.0
 40
3.918292304999999
  0
CIRCLE
  5
A936
330
1E
100
AcDbEntity
  8
0
  6
Continuous
 62
     7
100
AcDbCircle
 10
2898.154166900006
 20
-139.7493424341269
 30
0.0
 40
4.2499867446
  0
CIRCLE
  5
A937
330
1E
100
AcDbEntity
  8
0
  6
Continuous
 62
     7
100
AcDbCircle
 10
3096.954166900007
 20
-139.7493424341269
 30
0.0
 40
0.75
  0
CIRCLE
  5
A938
330
1E
100
AcDbEntity
  8
0
  6
Continuous
 62
     7
100
AcDbCircle
 10
3096.954166900007
 20
-139.7493424341269
 30
0.0
 40
3.918292304999999
  0
CIRCLE
  5
A939
330
1E
100
AcDbEntity
  8
0
  6
Continuous
 62
     7
100
AcDbCircle
 10
3096.954166900007
 20
-139.7493424341269
 30
0.0
 40
4.2499867444
  0
CIRCLE
  5
A93A
330
1E
100
AcDbEntity
  8
0
  6
Continuous
 62
     7
100
AcDbCircle
 10
3096.954166900007
 20
-139.7493424341269
 30
0.0
 40
4.767386812599999
  0
CIRCLE
  5
A93B
330
1E
100
AcDbEntity
  8
0
  6
Continuous
 62
     7
100
AcDbCircle
 10
3096.954166900007
 20
22.80941411807305
 30
0.0
 40
0.75
  0
CIRCLE
  5
A93C
330
1E
100
AcDbEntity
  8
0
  6
Continuous
 62
     7
100
AcDbCircle
 10
3096.954166900007
 20
22.80941411807305
 30
0.0
 40
5.15
  0
CIRCLE
  5
A93D
330
1E
100
AcDbEntity
  8
0
  6
Continuous
 62
     7
100
AcDbCircle
 10
2898.154166900006
 20
22.80941411807305
 30
0.0
 40
0.75
  0
CIRCLE
  5
A93E
330
1E
100
AcDbEntity
  8
0
  6
Continuous
 62
     7
100
AcDbCircle
 10
2898.154166900006
 20
22.80941411807305
 30
0.0
 40
5.15
  0
LINE
  5
D078
330
1E
100
AcDbEntity
  8
0
  6
Continuous
 62
     7
100
AcDbLine
 10
2649.256789712531
 20
-179.8616831469009
 30
0.0
 11
2649.256789712531
 21
-181.649342434127
 31
0.0
  0
LINE
  5
D07D
330
1E
100
AcDbEntity
  8
0
  6
Continuous
 62
     7
100
AcDbLine
 10
2703.102561357195
 20
-190.2493424341269
 30
0.0
 11
2701.102561357195
 21
-192.2493424341269
 31
0.0
  0
LINE
  5
D07E
330
1E
100
AcDbEntity
  8
0
  6
Continuous
 62
     7
100
AcDbLine
 10
2688.102575357195
 20
-191.2493424341269
 30
0.0
 11
2687.102561357195
 21
-192.2493564341268
 31
0.0
  0
LINE
  5
D07F
330
1E
100
AcDbEntity
  8
0
  6
Continuous
 62
     7
100
AcDbLine
 10
2706.352561357195
 20
-154.4781485742147
 30
0.0
 11
2706.352561357195
 21
-147.9031173565271
 31
0.0
  0
LINE
  5
D080
330
1E
100
AcDbEntity
  8
0
  6
Continuous
 62
     7
100
AcDbLine
 10
2706.352561357195
 20
-178.8717989529299
 30
0.0
 11
2706.352561357195
 21
-181.649342434127
 31
0.0
  0
LINE
  5
D081
330
1E
100
AcDbEntity
  8
0
  6
Continuous
 62
     7
100
AcDbLine
 10
2706.352561357195
 20
-147.9031173565271
 30
0.0
 11
2703.398755434795
 21
-144.9493114341269
 31
0.0
  0
LINE
  5
D082
330
1E
100
AcDbEntity
  8
0
  6
Continuous
 62
     7
100
AcDbLine
 10
2698.852561357195
 20
-161.9781485779269
 30
0.0
 11
2706.352561357195
 21
-154.4781485742147
 31
0.0
  0
LINE
  5
D083
330
1E
100
AcDbEntity
  8
0
  6
Continuous
 62
     7
100
AcDbLine
 10
2703.952561357195
 20
-153.4840360247442
 30
0.0
 11
2703.952561357195
 21
-148.8972299064027
 31
0.0
  0
LINE
  5
D084
330
1E
100
AcDbEntity
  8
0
  6
Continuous
 62
     7
100
AcDbLine
 10
2703.952561357195
 20
-179.8659115025091
 30
0.0
 11
2703.952561357195
 21
-181.649342434127
 31
0.0
  0
LINE
  5
D085
330
1E
100
AcDbEntity
  8
0
  6
Continuous
 62
     7
100
AcDbLine
 10
2703.102561357195
 20
-180.217993030052
 30
0.0
 11
2703.102561357195
 21
-190.2493424341269
 31
0.0
  0
LINE
  5
D086
330
1E
100
AcDbEntity
  8
0
  6
Continuous
 62
     7
100
AcDbLine
 10
2703.102561357195
 20
-149.2493114343696
 30
0.0
 11
2703.102561357195
 21
-153.1319544968811
 31
0.0
  0
LINE
  5
D087
330
1E
100
AcDbEntity
  8
0
  6
Continuous
 62
     7
100
AcDbLine
 10
2698.852561357195
 20
-171.3717989495269
 30
0.0
 11
2698.852561357195
 21
-161.9781485779269
 31
0.0
  0
LINE
  5
D088
330
1E
100
AcDbEntity
  8
0
  6
Continuous
 62
     7
100
AcDbLine
 10
2702.404642885194
 20
-147.349311434127
 30
0.0
 11
2703.952561357195
 21
-148.8972299064027
 31
0.0
  0
LINE
  5
D089
330
1E
100
AcDbEntity
  8
0
  6
Continuous
 62
     7
100
AcDbLine
 10
2702.102561357195
 20
-148.2493114341268
 30
0.0
 11
2703.102561357195
 21
-149.2493114343696
 31
0.0
  0
LINE
  5
D08A
330
1E
100
AcDbEntity
  8
0
  6
Continuous
 62
     7
100
AcDbLine
 10
2703.952561357195
 20
-153.4840360247442
 30
0.0
 11
2696.452561357195
 21
-160.984036028527
 31
0.0
  0
LINE
  5
D08B
330
1E
100
AcDbEntity
  8
0
  6
Continuous
 62
     7
100
AcDbLine
 10
2703.102561357195
 20
-153.1319544968811
 30
0.0
 11
2695.602561357195
 21
-160.6319545006141
 31
0.0
  0
LINE
  5
D08C
330
1E
100
AcDbEntity
  8
0
  6
Continuous
 62
     7
100
AcDbLine
 10
2696.452561357195
 20
-172.3659114987269
 30
0.0
 11
2696.452561357195
 21
-160.984036028527
 31
0.0
  0
LINE
  5
D08D
330
1E
100
AcDbEntity
  8
0
  6
Continuous
 62
     7
100
AcDbLine
 10
2695.602561357195
 20
-160.6319545006141
 30
0.0
 11
2695.602561357195
 21
-172.7179930268522
 31
0.0
  0
LINE
  5
D08E
330
1E
100
AcDbEntity
  8
0
  6
Continuous
 62
     7
100
AcDbLine
 10
2660.102622357195
 20
-191.2493424341269
 30
0.0
 11
2659.102622357194
 21
-192.2493424341269
 31
0.0
  0
LINE
  5
D08F
330
1E
100
AcDbEntity
  8
0
  6
Continuous
 62
     7
100
AcDbLine
 10
2703.398755434795
 20
-144.9493114341269
 30
0.0
 11
2649.806367279395
 21
-144.9493114341269
 31
0.0
  0
LINE
  5
D090
330
1E
100
AcDbEntity
  8
0
  6
Continuous
 62
     7
100
AcDbLine
 10
2706.352561357195
 20
-178.8717989529299
 30
0.0
 11
2698.852561357195
 21
-171.3717989495269
 31
0.0
  0
LINE
  5
D091
330
1E
100
AcDbEntity
  8
0
  6
Continuous
 62
     7
100
AcDbLine
 10
2702.404642885194
 20
-147.349311434127
 30
0.0
 11
2650.800479829195
 21
-147.349311434127
 31
0.0
  0
LINE
  5
D092
330
1E
100
AcDbEntity
  8
0
  6
Continuous
 62
     7
100
AcDbLine
 10
2651.102561357195
 20
-148.2493114341268
 30
0.0
 11
2702.102561357195
 21
-148.2493114341268
 31
0.0
  0
LINE
  5
D093
330
1E
100
AcDbEntity
  8
0
  6
Continuous
 62
     7
100
AcDbLine
 10
2650.102561357195
 20
-180.2179930301121
 30
0.0
 11
2657.602561357195
 21
-172.7179930266458
 31
0.0
  0
LINE
  5
D094
330
1E
100
AcDbEntity
  8
0
  6
Continuous
 62
     7
100
AcDbLine
 10
2696.452561357195
 20
-172.3659114987269
 30
0.0
 11
2703.952561357195
 21
-179.8659115025091
 31
0.0
  0
LINE
  5
D095
330
1E
100
AcDbEntity
  8
0
  6
Continuous
 62
     7
100
AcDbLine
 10
2695.602561357195
 20
-172.7179930268522
 30
0.0
 11
2703.102561357195
 21
-180.217993030052
 31
0.0
  0
LINE
  5
D096
330
1E
100
AcDbEntity
  8
0
  6
Continuous
 62
     7
100
AcDbLine
 10
2649.256789712531
 20
-179.8616831469009
 30
0.0
 11
2656.752561357194
 21
-172.3659114987269
 31
0.0
  0
LINE
  5
D097
330
1E
100
AcDbEntity
  8
0
  6
Continuous
 62
     7
100
AcDbLine
 10
2654.352561357195
 20
-171.3717989495269
 30
0.0
 11
2646.852561357195
 21
-178.8717989529299
 31
0.0
  0
LINE
  5
D098
330
1E
100
AcDbEntity
  8
0
  6
Continuous
 62
     7
100
AcDbLine
 10
2694.102500357195
 20
-192.2493424341269
 30
0.0
 11
2693.102500357195
 21
-191.2493424341269
 31
0.0
  0
LINE
  5
D099
330
1E
100
AcDbEntity
  8
0
  6
Continuous
 62
     7
100
AcDbLine
 10
2657.602561357195
 20
-160.6319545006082
 30
0.0
 11
2650.102561357195
 21
-153.1319544971417
 31
0.0
  0
LINE
  5
D09A
330
1E
100
AcDbEntity
  8
0
  6
Continuous
 62
     7
100
AcDbLine
 10
2656.752561357194
 20
-160.984036028527
 30
0.0
 11
2649.252561357194
 21
-153.4840360250146
 31
0.0
  0
LINE
  5
D09B
330
1E
100
AcDbEntity
  8
0
  6
Continuous
 62
     7
100
AcDbLine
 10
2657.602561357195
 20
-172.7179930266458
 30
0.0
 11
2657.602561357195
 21
-160.6319545006082
 31
0.0
  0
LINE
  5
D09C
330
1E
100
AcDbEntity
  8
0
  6
Continuous
 62
     7
100
AcDbLine
 10
2656.752561357194
 20
-160.984036028527
 30
0.0
 11
2656.752561357194
 21
-172.3659114987269
 31
0.0
  0
LINE
  5
D09D
330
1E
100
AcDbEntity
  8
0
  6
Continuous
 62
     7
100
AcDbLine
 10
2646.852561357195
 20
-154.478148574215
 30
0.0
 11
2654.352561357195
 21
-161.9781485779269
 31
0.0
  0
LINE
  5
D09E
330
1E
100
AcDbEntity
  8
0
  6
Continuous
 62
     7
100
AcDbLine
 10
2650.102561357195
 20
-149.2493114341264
 30
0.0
 11
2651.102561357195
 21
-148.2493114341268
 31
0.0
  0
LINE
  5
D09F
330
1E
100
AcDbEntity
  8
0
  6
Continuous
 62
     7
100
AcDbLine
 10
2649.252561357194
 20
-148.897229906127
 30
0.0
 11
2650.800479829195
 21
-147.349311434127
 31
0.0
  0
LINE
  5
D0A0
330
1E
100
AcDbEntity
  8
0
  6
Continuous
 62
     7
100
AcDbLine
 10
2649.806367279395
 20
-144.9493114341269
 30
0.0
 11
2646.852561357195
 21
-147.9031173566504
 31
0.0
  0
LINE
  5
D0A1
330
1E
100
AcDbEntity
  8
0
  6
Continuous
 62
     7
100
AcDbLine
 10
2654.352561357195
 20
-161.9781485779269
 30
0.0
 11
2654.352561357195
 21
-171.3717989495269
 31
0.0
  0
LINE
  5
D0A2
330
1E
100
AcDbEntity
  8
0
  6
Continuous
 62
     7
100
AcDbLine
 10
2703.952561357195
 20
-181.649342434127
 30
0.0
 11
2706.352561357195
 21
-181.649342434127
 31
0.0
  0
LINE
  5
D0A3
330
1E
100
AcDbEntity
  8
0
  6
Continuous
 62
     7
100
AcDbLine
 10
2646.852561357195
 20
-181.649342434127
 30
0.0
 11
2649.256789712531
 21
-181.649342434127
 31
0.0
  0
LINE
  5
D0A4
330
1E
100
AcDbEntity
  8
0
  6
Continuous
 62
     7
100
AcDbLine
 10
2650.102561357195
 20
-153.1319544971417
 30
0.0
 11
2650.102561357195
 21
-149.2493114341264
 31
0.0
  0
LINE
  5
D0A5
330
1E
100
AcDbEntity
  8
0
  6
Continuous
 62
     7
100
AcDbLine
 10
2650.102561357195
 20
-190.2493424341269
 30
0.0
 11
2650.102561357195
 21
-180.2179930301121
 31
0.0
  0
LINE
  5
D0A6
330
1E
100
AcDbEntity
  8
0
  6
Continuous
 62
     7
100
AcDbLine
 10
2649.252561357194
 20
-148.897229906127
 30
0.0
 11
2649.252561357194
 21
-153.4840360250146
 31
0.0
  0
LINE
  5
D0A7
330
1E
100
AcDbEntity
  8
0
  6
Continuous
 62
     7
100
AcDbLine
 10
2646.852561357195
 20
-178.8717989529299
 30
0.0
 11
2646.852561357195
 21
-181.649342434127
 31
0.0
  0
LINE
  5
D0A8
330
1E
100
AcDbEntity
  8
0
  6
Continuous
 62
     7
100
AcDbLine
 10
2646.852561357195
 20
-147.9031173566504
 30
0.0
 11
2646.852561357195
 21
-154.478148574215
 31
0.0
  0
LINE
  5
D0A9
330
1E
100
AcDbEntity
  8
0
  6
Continuous
 62
     7
100
AcDbLine
 10
2666.102561357195
 20
-192.2493564341268
 30
0.0
 11
2665.102547357195
 21
-191.2493424341269
 31
0.0
  0
LINE
  5
D0AA
330
1E
100
AcDbEntity
  8
0
  6
Continuous
 62
     7
100
AcDbLine
 10
2665.102547357195
 20
-191.2493424341269
 30
0.0
 11
2660.102622357195
 21
-191.2493424341269
 31
0.0
  0
LINE
  5
D0AB
330
1E
100
AcDbEntity
  8
0
  6
Continuous
 62
     7
100
AcDbLine
 10
2693.102500357195
 20
-191.2493424341269
 30
0.0
 11
2688.102575357195
 21
-191.2493424341269
 31
0.0
  0
LINE
  5
D0AC
330
1E
100
AcDbEntity
  8
0
  6
Continuous
 62
     7
100
AcDbLine
 10
2659.102622357194
 20
-192.2493424341269
 30
0.0
 11
2652.102561357195
 21
-192.2493424341269
 31
0.0
  0
LINE
  5
D0AD
330
1E
100
AcDbEntity
  8
0
  6
Continuous
 62
     7
100
AcDbLine
 10
2701.102561357195
 20
-192.2493424341269
 30
0.0
 11
2694.102500357195
 21
-192.2493424341269
 31
0.0
  0
LINE
  5
D0AE
330
1E
100
AcDbEntity
  8
0
  6
Continuous
 62
     7
100
AcDbLine
 10
2687.102561357195
 20
-192.2493564341268
 30
0.0
 11
2666.102561357195
 21
-192.2493564341268
 31
0.0
  0
LINE
  5
D0AF
330
1E
100
AcDbEntity
  8
0
  6
Continuous
 62
     7
100
AcDbLine
 10
2652.102561357195
 20
-192.2493424341269
 30
0.0
 11
2650.102561357195
 21
-190.2493424341269
 31
0.0
  0
LINE
  5
D0B0
330
1E
100
AcDbEntity
  8
虛線
 48
0.27
100
AcDbLine
 10
2665.104675534863
 20
-148.6493564341269
 30
0.0
 11
2664.893571321397
 21
-148.2837132107122
 31
0.0
  0
LINE
  5
D0B1
330
1E
100
AcDbEntity
  8
虛線
 48
0.27
100
AcDbLine
 10
2685.104675534863
 20
-192.2493564341271
 30
0.0
 11
2684.604675534862
 21
-191.7493564341271
 31
0.0
  0
LINE
  5
D0B2
330
1E
100
AcDbEntity
  8
虛線
 48
0.27
100
AcDbLine
 10
2668.104675534863
 20
-192.2493564341271
 30
0.0
 11
2668.604675534863
 21
-191.7493564341268
 31
0.0
  0
LINE
  5
D0B3
330
1E
100
AcDbEntity
  8
虛線
 48
0.27
100
AcDbLine
 10
2684.604675534862
 20
-191.7493564341271
 30
0.0
 11
2668.604675534863
 21
-191.7493564341268
 31
0.0
  0
LINE
  5
D0B4
330
1E
100
AcDbEntity
  8
虛線
 48
0.27
100
AcDbLine
 10
2668.604675534863
 20
-191.7493564341268
 30
0.0
 11
2668.604675534863
 21
-168.7493564341271
 31
0.0
  0
LINE
  5
D0B5
330
1E
100
AcDbEntity
  8
虛線
 48
0.27
100
AcDbLine
 10
2684.604675534862
 20
-191.7493564341271
 30
0.0
 11
2684.604675534862
 21
-168.7493564341271
 31
0.0
  0
LINE
  5
D0B6
330
1E
100
AcDbEntity
  8
虛線
 48
0.27
100
AcDbLine
 10
2665.104675534863
 20
-168.2493564341271
 30
0.0
 11
2665.104675534863
 21
-148.6493564341269
 31
0.0
  0
LINE
  5
D0B7
330
1E
100
AcDbEntity
  8
虛線
 48
0.27
100
AcDbLine
 10
2668.604675534863
 20
-168.7493564341271
 30
0.0
 11
2684.604675534862
 21
-168.7493564341271
 31
0.0
  0
LINE
  5
D0B8
330
1E
100
AcDbEntity
  8
虛線
 48
0.27
100
AcDbLine
 10
2668.604675534863
 20
-168.7493564341271
 30
0.0
 11
2668.104675534863
 21
-168.2493564341271
 31
0.0
  0
LINE
  5
D0B9
330
1E
100
AcDbEntity
  8
虛線
 48
0.27
100
AcDbLine
 10
2685.104675534863
 20
-168.2493564341271
 30
0.0
 11
2684.604675534862
 21
-168.7493564341271
 31
0.0
  0
LINE
  5
D0BA
330
1E
100
AcDbEntity
  8
0
  6
Continuous
 62
     7
100
AcDbLine
 10
2687.104675534863
 20
-192.2493564341271
 30
0.0
 11
2666.104675534862
 21
-192.2493564341271
 31
0.0
  0
LINE
  5
D0BB
330
1E
100
AcDbEntity
  8
虛線
 48
0.27
100
AcDbLine
 10
2665.104675534863
 20
-168.2493564341271
 30
0.0
 11
2688.104675534863
 21
-168.2493564341271
 31
0.0
  0
LINE
  5
D0BC
330
1E
100
AcDbEntity
  8
虛線
 48
0.27
100
AcDbLine
 10
2665.104675534863
 20
-148.6493564341269
 30
0.0
 11
2688.104675534863
 21
-148.6493564341271
 31
0.0
  0
LINE
  5
D0BD
330
1E
100
AcDbEntity
  8
虛線
 48
0.27
100
AcDbLine
 10
2688.315779748328
 20
-148.2837132107122
 30
0.0
 11
2688.104675534863
 21
-148.6493564341271
 31
0.0
  0
LINE
  5
D0BE
330
1E
100
AcDbEntity
  8
虛線
 48
0.27
100
AcDbLine
 10
2688.104675534863
 20
-168.2493564341271
 30
0.0
 11
2688.104675534863
 21
-148.6493564341271
 31
0.0
  0
LINE
  5
D0BF
330
1E
100
AcDbEntity
  8
指線
 48
0.27
100
AcDbLine
 10
2637.303651408383
 20
-149.0485012559395
 30
0.0
 11
2634.185033686577
 21
-149.0489077013915
 31
0.0
  0
LINE
  5
D0C0
330
1E
100
AcDbEntity
  8
指線
 48
0.27
100
AcDbLine
 10
2638.901718499443
 20
-149.0482539102338
 30
0.0
 11
2642.013931582703
 21
-149.0476959593372
 31
0.0
  0
LINE
  5
D0C1
330
1E
100
AcDbEntity
  8
指線
 48
0.27
100
AcDbLine
 10
2638.901471306006
 20
-147.4501836123138
 30
0.0
 11
2642.013684389266
 21
-147.4496256614175
 31
0.0
  0
ARC
  5
D0C2
330
1E
100
AcDbEntity
  8
指線
 48
0.27
100
AcDbCircle
 10
2638.102561357195
 20
-148.2493424341269
 30
0.0
 40
2.397105012956624
100
AcDbArc
 50
19.48100010832958
 51
70.53767875678296
  0
LINE
  5
D0C3
330
1E
100
AcDbEntity
  8
指線
 48
0.27
100
AcDbLine
 10
2638.901245318454
 20
-145.9892060724953
 30
0.0
 11
2638.901471306006
 21
-147.4501836123138
 31
0.0
  0
ARC
  5
D0C4
330
1E
100
AcDbEntity
  8
指線
 48
0.27
100
AcDbCircle
 10
2638.102561357195
 20
-148.2493424341269
 30
0.0
 40
2.397105012956624
100
AcDbArc
 50
289.4623212432176
 51
340.5208129039504
  0
ARC
  5
D0C5
330
1E
100
AcDbEntity
  8
指線
 48
0.27
100
AcDbCircle
 10
2638.102561357195
 20
-148.2493424341269
 30
0.0
 40
2.397105012956624
100
AcDbArc
 50
199.4791870960496
 51
250.5376787567824
  0
LINE
  5
D0C6
330
1E
100
AcDbEntity
  8
指線
 48
0.27
100
AcDbLine
 10
2637.303651408383
 20
-149.0485012559395
 30
0.0
 11
2637.303877395935
 21
-150.5094787957584
 31
0.0
  0
LINE
  5
D0C7
330
1E
100
AcDbEntity
  8
指線
 48
0.27
100
AcDbLine
 10
2638.901718499443
 20
-149.0482539102338
 30
0.0
 11
2638.901944487314
 21
-150.5092314500598
 31
0.0
  0
LINE
  5
D0C8
330
1E
100
AcDbEntity
  8
指線
 48
0.27
100
AcDbLine
 10
2637.303404214947
 20
-147.45043095802
 30
0.0
 11
2634.184786493141
 21
-147.4508374034715
 31
0.0
  0
ARC
  5
D0C9
330
1E
100
AcDbEntity
  8
指線
 48
0.27
100
AcDbCircle
 10
2638.102561357195
 20
-148.2493424341269
 30
0.0
 40
2.397105012956624
100
AcDbArc
 50
109.4623212431924
 51
160.5189998916704
  0
LINE
  5
D0CA
330
1E
100
AcDbEntity
  8
指線
 48
0.27
100
AcDbLine
 10
2637.303178227075
 20
-145.9894534181935
 30
0.0
 11
2637.303404214947
 21
-147.45043095802
 31
0.0
  0
CIRCLE
  5
D0CB
330
1E
100
AcDbEntity
  8
指線
 48
0.27
100
AcDbCircle
 10
2638.102561357195
 20
-148.2493424341269
 30
0.0
 40
4.0
  0
LINE
  5
D0CC
330
1E
100
AcDbEntity
  8
指線
 48
0.27
100
AcDbLine
 10
2714.303651408383
 20
-149.0485012559395
 30
0.0
 11
2711.185033686577
 21
-149.0489077013915
 31
0.0
  0
LINE
  5
D0CD
330
1E
100
AcDbEntity
  8
指線
 48
0.27
100
AcDbLine
 10
2715.901718499443
 20
-149.0482539102338
 30
0.0
 11
2719.013931582703
 21
-149.0476959593372
 31
0.0
  0
LINE
  5
D0CE
330
1E
100
AcDbEntity
  8
指線
 48
0.27
100
AcDbLine
 10
2715.901471306006
 20
-147.4501836123138
 30
0.0
 11
2719.013684389266
 21
-147.4496256614175
 31
0.0
  0
ARC
  5
D0CF
330
1E
100
AcDbEntity
  8
指線
 48
0.27
100
AcDbCircle
 10
2715.102561357195
 20
-148.2493424341269
 30
0.0
 40
2.397105012956624
100
AcDbArc
 50
19.48100010832958
 51
70.53767875678296
  0
LINE
  5
D0D0
330
1E
100
AcDbEntity
  8
指線
 48
0.27
100
AcDbLine
 10
2715.901245318454
 20
-145.9892060724953
 30
0.0
 11
2715.901471306006
 21
-147.4501836123138
 31
0.0
  0
ARC
  5
D0D1
330
1E
100
AcDbEntity
  8
指線
 48
0.27
100
AcDbCircle
 10
2715.102561357194
 20
-148.2493424341269
 30
0.0
 40
2.397105012956624
100
AcDbArc
 50
289.4623212432176
 51
340.5208129039504
  0
ARC
  5
D0D2
330
1E
100
AcDbEntity
  8
指線
 48
0.27
100
AcDbCircle
 10
2715.102561357195
 20
-148.2493424341269
 30
0.0
 40
2.397105012956624
100
AcDbArc
 50
199.4791870960496
 51
250.5376787567824
  0
LINE
  5
D0D3
330
1E
100
AcDbEntity
  8
指線
 48
0.27
100
AcDbLine
 10
2714.303651408383
 20
-149.0485012559395
 30
0.0
 11
2714.303877395935
 21
-150.5094787957584
 31
0.0
  0
LINE
  5
D0D4
330
1E
100
AcDbEntity
  8
指線
 48
0.27
100
AcDbLine
 10
2715.901718499443
 20
-149.0482539102338
 30
0.0
 11
2715.901944487314
 21
-150.5092314500598
 31
0.0
  0
LINE
  5
D0D5
330
1E
100
AcDbEntity
  8
指線
 48
0.27
100
AcDbLine
 10
2714.303404214947
 20
-147.45043095802
 30
0.0
 11
2711.184786493141
 21
-147.4508374034715
 31
0.0
  0
ARC
  5
D0D6
330
1E
100
AcDbEntity
  8
指線
 48
0.27
100
AcDbCircle
 10
2715.102561357194
 20
-148.2493424341269
 30
0.0
 40
2.397105012956624
100
AcDbArc
 50
109.4623212431924
 51
160.5189998916704
  0
LINE
  5
D0D7
330
1E
100
AcDbEntity
  8
指線
 48
0.27
100
AcDbLine
 10
2714.303178227075
 20
-145.9894534181935
 30
0.0
 11
2714.303404214947
 21
-147.45043095802
 31
0.0
  0
CIRCLE
  5
D0D8
330
1E
100
AcDbEntity
  8
指線
 48
0.27
100
AcDbCircle
 10
2715.102561357195
 20
-148.2493424341269
 30
0.0
 40
4.0
  0
LINE
  5
D14D
330
1E
100
AcDbEntity
  8
中心線
 48
0.27
100
AcDbLine
 10
2847.554166900007
 20
-194.100672007961
 30
0.0
 11
2847.554166900007
 21
-145.7888003708722
 31
0.0
  0
LINE
  5
D14E
330
1E
100
AcDbEntity
  8
0
100
AcDbLine
 10
2859.054166900007
 20
-168.2493424341269
 30
0.0
 11
2859.054166900007
 21
-148.649342434127
 31
0.0
  0
LINE
  5
D14F
330
1E
100
AcDbEntity
  8
0
100
AcDbLine
 10
2836.054166900007
 20
-168.2493424341269
 30
0.0
 11
2836.054166900007
 21
-148.649342434127
 31
0.0
  0
LINE
  5
D150
330
1E
100
AcDbEntity
  8
0
100
AcDbLine
 10
2855.554166900007
 20
-168.7493424341269
 30
0.0
 11
2839.554166900007
 21
-168.7493424341269
 31
0.0
  0
LINE
  5
D151
330
1E
100
AcDbEntity
  8
0
100
AcDbLine
 10
2859.054166900007
 20
-168.2493424341269
 30
0.0
 11
2836.054166900007
 21
-168.2493424341269
 31
0.0
  0
LINE
  5
D152
330
1E
100
AcDbEntity
  8
0
100
AcDbLine
 10
2839.554166900007
 20
-191.7493424341269
 30
0.0
 11
2839.554166900007
 21
-168.7493424341269
 31
0.0
  0
LINE
  5
D153
330
1E
100
AcDbEntity
  8
0
100
AcDbLine
 10
2839.054166900007
 20
-168.2493424341269
 30
0.0
 11
2839.554166900007
 21
-168.7493424341269
 31
0.0
  0
LINE
  5
D154
330
1E
100
AcDbEntity
  8
0
100
AcDbLine
 10
2855.554166900007
 20
-191.7493424341269
 30
0.0
 11
2855.554166900007
 21
-168.7493424341269
 31
0.0
  0
LINE
  5
D155
330
1E
100
AcDbEntity
  8
0
100
AcDbLine
 10
2855.554166900007
 20
-168.7493424341269
 30
0.0
 11
2856.054166900007
 21
-168.2493424341269
 31
0.0
  0
LINE
  5
D156
330
1E
100
AcDbEntity
  8
0
100
AcDbLine
 10
2859.054166900007
 20
-148.649342434127
 30
0.0
 11
2836.054166900007
 21
-148.649342434127
 31
0.0
  0
LINE
  5
D157
330
1E
100
AcDbEntity
  8
0
100
AcDbLine
 10
2859.054166900007
 20
-148.649342434127
 30
0.0
 11
2859.285107007682
 21
-148.2493424341269
 31
0.0
  0
LINE
  5
D158
330
1E
100
AcDbEntity
  8
0
100
AcDbLine
 10
2835.823226792332
 20
-148.2493424341271
 30
0.0
 11
2836.054166900007
 21
-148.649342434127
 31
0.0
  0
LINE
  5
D159
330
1E
100
AcDbEntity
  8
0
100
AcDbLine
 10
2839.554166900007
 20
-191.7493424341269
 30
0.0
 11
2855.554166900007
 21
-191.7493424341269
 31
0.0
  0
LINE
  5
D15A
330
1E
100
AcDbEntity
  8
0
100
AcDbLine
 10
2856.054166900007
 20
-192.2493424341269
 30
0.0
 11
2855.554166900007
 21
-191.7493424341269
 31
0.0
  0
LINE
  5
D15B
330
1E
100
AcDbEntity
  8
0
100
AcDbLine
 10
2839.054166900007
 20
-192.2493424341269
 30
0.0
 11
2839.554166900007
 21
-191.7493424341269
 31
0.0
  0
LINE
  5
D2C1
330
1E
100
AcDbEntity
  8
0
100
AcDbLine
 10
2871.60449296651
 20
-148.249311434127
 30
0.0
 11
2868.200190317865
 21
-156.1558273372457
 31
0.0
  0
LINE
  5
D2C2
330
1E
100
AcDbEntity
  8
0
100
AcDbLine
 10
2868.200190317865
 20
-156.1558273372457
 30
0.0
 11
2873.160661432043
 21
-166.0724073925527
 31
0.0
  0
LINE
  5
D2C3
330
1E
100
AcDbEntity
  8
0
100
AcDbLine
 10
2873.160661432043
 20
-166.0724073925527
 30
0.0
 11
2868.276582469328
 21
-176.1617341890853
 31
0.0
  0
LINE
  5
D2C4
330
1E
100
AcDbEntity
  8
0
100
AcDbLine
 10
2868.276582469328
 20
-176.1617341890853
 30
0.0
 11
2873.170010241006
 21
-187.9509610147783
 31
0.0
  0
LINE
  5
D2C5
330
1E
100
AcDbEntity
  8
0
100
AcDbLine
 10
2873.170010241006
 20
-187.9509610147783
 30
0.0
 11
2871.619333340417
 21
-192.2493424341269
 31
0.0
  0
LINE
  5
D2C6
330
1E
100
AcDbEntity
  8
0
  6
Continuous
 62
     7
100
AcDbLine
 10
2627.600428105927
 20
-180.2493424341268
 30
0.0
 11
2629.600428105927
 21
-182.2493424341269
 31
0.0
  0
LINE
  5
D2C7
330
1E
100
AcDbEntity
  8
0
  6
Continuous
 62
     7
100
AcDbLine
 10
2726.600466252926
 20
-179.2493424341269
 30
0.0
 11
2723.600466252927
 21
-182.2493424341269
 31
0.0
  0
LINE
  5
D2F4
330
1E
100
AcDbEntity
  8
虛線
 48
0.27
100
AcDbLine
 10
2944.929166900007
 20
-113.8493063481273
 30
0.0
 11
2943.329166900007
 21
-112.249306348127
 31
0.0
  0
LINE
  5
D2F5
330
1E
100
AcDbEntity
  8
虛線
 48
0.27
100
AcDbLine
 10
2944.054166900007
 20
-112.9743063481273
 30
0.0
 11
2944.054166900007
 21
-130.2493063481272
 31
0.0
  0
LINE
  5
D2F6
330
1E
100
AcDbEntity
  8
虛線
 48
0.27
100
AcDbLine
 10
2944.929166900007
 20
-113.8493063481273
 30
0.0
 11
2944.929166900007
 21
-135.4993093481271
 31
0.0
  0
LINE
  5
D2F7
330
1E
100
AcDbEntity
  8
虛線
 48
0.27
100
AcDbLine
 10
2955.179166900007
 20
-135.4993093481271
 30
0.0
 11
2944.929166900007
 21
-135.4993093481271
 31
0.0
  0
LINE
  5
D2F8
330
1E
100
AcDbEntity
  8
虛線
 48
0.27
100
AcDbLine
 10
2944.929166900007
 20
-135.4993093481273
 30
0.0
 11
2950.054166900007
 21
-138.5787200206437
 31
0.0
  0
LINE
  5
D2F9
330
1E
100
AcDbEntity
  8
虛線
 48
0.27
100
AcDbLine
 10
2955.179166900007
 20
-135.4993093481271
 30
0.0
 11
2950.054166900007
 21
-138.5787200206437
 31
0.0
  0
LINE
  5
D2FA
330
1E
100
AcDbEntity
  8
虛線
 48
0.27
100
AcDbLine
 10
2955.179166900006
 20
-113.8493063481273
 30
0.0
 11
2955.179166900007
 21
-135.4993093481271
 31
0.0
  0
LINE
  5
D2FB
330
1E
100
AcDbEntity
  8
虛線
 48
0.27
100
AcDbLine
 10
2956.054166900006
 20
-130.2493063481272
 30
0.0
 11
2944.054166900007
 21
-130.2493063481272
 31
0.0
  0
LINE
  5
D2FC
330
1E
100
AcDbEntity
  8
虛線
 48
0.27
100
AcDbLine
 10
2956.054166900008
 20
-112.9743063481274
 30
0.0
 11
2956.054166900006
 21
-130.2493063481272
 31
0.0
  0
LINE
  5
D2FD
330
1E
100
AcDbEntity
  8
虛線
 48
0.27
100
AcDbLine
 10
2956.779166900006
 20
-112.249306348127
 30
0.0
 11
2955.179166900007
 21
-113.8493063481273
 31
0.0
  0
LINE
  5
D2FE
330
1E
100
AcDbEntity
  8
虛線
 48
0.27
100
AcDbLine
 10
2944.929166900007
 20
-113.8493063481273
 30
0.0
 11
2955.179166900006
 21
-113.8493063481273
 31
0.0
  0
LINE
  5
D30F
330
1E
100
AcDbEntity
  8
虛線
 48
0.27
100
AcDbLine
 10
3039.929166900007
 20
-113.8493063481273
 30
0.0
 11
3038.329166900007
 21
-112.249306348127
 31
0.0
  0
LINE
  5
D310
330
1E
100
AcDbEntity
  8
虛線
 48
0.27
100
AcDbLine
 10
3039.054166900007
 20
-112.9743063481273
 30
0.0
 11
3039.054166900007
 21
-130.2493063481272
 31
0.0
  0
LINE
  5
D311
330
1E
100
AcDbEntity
  8
虛線
 48
0.27
100
AcDbLine
 10
3039.929166900007
 20
-113.8493063481273
 30
0.0
 11
3039.929166900007
 21
-135.4993093481271
 31
0.0
  0
LINE
  5
D312
330
1E
100
AcDbEntity
  8
虛線
 48
0.27
100
AcDbLine
 10
3050.179166900007
 20
-135.4993093481271
 30
0.0
 11
3039.929166900007
 21
-135.4993093481271
 31
0.0
  0
LINE
  5
D313
330
1E
100
AcDbEntity
  8
虛線
 48
0.27
100
AcDbLine
 10
3039.929166900007
 20
-135.4993093481273
 30
0.0
 11
3045.054166900007
 21
-138.5787200206437
 31
0.0
  0
LINE
  5
D314
330
1E
100
AcDbEntity
  8
虛線
 48
0.27
100
AcDbLine
 10
3050.179166900007
 20
-135.4993093481271
 30
0.0
 11
3045.054166900007
 21
-138.5787200206437
 31
0.0
  0
LINE
  5
D315
330
1E
100
AcDbEntity
  8
虛線
 48
0.27
100
AcDbLine
 10
3050.179166900007
 20
-113.8493063481273
 30
0.0
 11
3050.179166900007
 21
-135.4993093481271
 31
0.0
  0
LINE
  5
D316
330
1E
100
AcDbEntity
  8
虛線
 48
0.27
100
AcDbLine
 10
3051.054166900006
 20
-130.2493063481272
 30
0.0
 11
3039.054166900007
 21
-130.2493063481272
 31
0.0
  0
LINE
  5
D317
330
1E
100
AcDbEntity
  8
虛線
 48
0.27
100
AcDbLine
 10
3051.054166900007
 20
-112.9743063481274
 30
0.0
 11
3051.054166900006
 21
-130.2493063481272
 31
0.0
  0
LINE
  5
D318
330
1E
100
AcDbEntity
  8
虛線
 48
0.27
100
AcDbLine
 10
3051.779166900006
 20
-112.249306348127
 30
0.0
 11
3050.179166900007
 21
-113.8493063481273
 31
0.0
  0
LINE
  5
D319
330
1E
100
AcDbEntity
  8
虛線
 48
0.27
100
AcDbLine
 10
3039.929166900007
 20
-113.8493063481273
 30
0.0
 11
3050.179166900007
 21
-113.8493063481273
 31
0.0
  0
LINE
  5
D3FF
330
1E
100
AcDbEntity
  8
虛線
 48
0.27
100
AcDbLine
 10
2899.054166900007
 20
-192.2493424341269
 30
0.0
 11
2899.554166900007
 21
-191.7493424341269
 31
0.0
  0
LINE
  5
D400
330
1E
100
AcDbEntity
  8
虛線
 48
0.27
100
AcDbLine
 10
2916.054166900007
 20
-192.2493424341269
 30
0.0
 11
2915.554166900007
 21
-191.7493424341269
 31
0.0
  0
LINE
  5
D401
330
1E
100
AcDbEntity
  8
虛線
 48
0.27
100
AcDbLine
 10
2899.554166900007
 20
-191.7493424341269
 30
0.0
 11
2915.554166900007
 21
-191.7493424341269
 31
0.0
  0
LINE
  5
D402
330
1E
100
AcDbEntity
  8
虛線
 48
0.27
100
AcDbLine
 10
2899.554166900007
 20
-191.7493424341269
 30
0.0
 11
2899.554166900007
 21
-182.2493424341269
 31
0.0
  0
LINE
  5
D403
330
1E
100
AcDbEntity
  8
虛線
 48
0.27
100
AcDbLine
 10
2915.554166900007
 20
-191.7493424341269
 30
0.0
 11
2915.554166900007
 21
-182.2493424341269
 31
0.0
  0
LINE
  5
D404
330
1E
100
AcDbEntity
  8
虛線
 48
0.27
100
AcDbLine
 10
2959.054166900007
 20
-192.2493424341269
 30
0.0
 11
2959.554166900007
 21
-191.7493424341269
 31
0.0
  0
LINE
  5
D405
330
1E
100
AcDbEntity
  8
虛線
 48
0.27
100
AcDbLine
 10
2976.054166900007
 20
-192.2493424341269
 30
0.0
 11
2975.554166900007
 21
-191.7493424341269
 31
0.0
  0
LINE
  5
D406
330
1E
100
AcDbEntity
  8
虛線
 48
0.27
100
AcDbLine
 10
2959.554166900007
 20
-191.7493424341269
 30
0.0
 11
2975.554166900007
 21
-191.7493424341269
 31
0.0
  0
LINE
  5
D407
330
1E
100
AcDbEntity
  8
虛線
 48
0.27
100
AcDbLine
 10
2959.554166900007
 20
-191.7493424341269
 30
0.0
 11
2959.554166900007
 21
-182.2493424341269
 31
0.0
  0
LINE
  5
D408
330
1E
100
AcDbEntity
  8
虛線
 48
0.27
100
AcDbLine
 10
2975.554166900007
 20
-191.7493424341269
 30
0.0
 11
2975.554166900007
 21
-182.2493424341269
 31
0.0
  0
LINE
  5
D409
330
1E
100
AcDbEntity
  8
虛線
 48
0.27
100
AcDbLine
 10
3019.054166900007
 20
-192.2493424341269
 30
0.0
 11
3019.554166900007
 21
-191.7493424341269
 31
0.0
  0
LINE
  5
D40A
330
1E
100
AcDbEntity
  8
虛線
 48
0.27
100
AcDbLine
 10
3036.054166900007
 20
-192.2493424341269
 30
0.0
 11
3035.554166900007
 21
-191.7493424341269
 31
0.0
  0
LINE
  5
D40B
330
1E
100
AcDbEntity
  8
虛線
 48
0.27
100
AcDbLine
 10
3019.554166900007
 20
-191.7493424341269
 30
0.0
 11
3035.554166900007
 21
-191.7493424341269
 31
0.0
  0
LINE
  5
D40C
330
1E
100
AcDbEntity
  8
虛線
 48
0.27
100
AcDbLine
 10
3019.554166900007
 20
-191.7493424341269
 30
0.0
 11
3019.554166900007
 21
-182.2493424341269
 31
0.0
  0
LINE
  5
D40D
330
1E
100
AcDbEntity
  8
虛線
 48
0.27
100
AcDbLine
 10
3035.554166900007
 20
-191.7493424341269
 30
0.0
 11
3035.554166900007
 21
-182.2493424341269
 31
0.0
  0
LINE
  5
D40E
330
1E
100
AcDbEntity
  8
虛線
 48
0.27
100
AcDbLine
 10
3079.054166900007
 20
-192.2493424341269
 30
0.0
 11
3079.554166900007
 21
-191.7493424341269
 31
0.0
  0
LINE
  5
D40F
330
1E
100
AcDbEntity
  8
虛線
 48
0.27
100
AcDbLine
 10
3096.054166900007
 20
-192.2493424341269
 30
0.0
 11
3095.554166900007
 21
-191.7493424341269
 31
0.0
  0
LINE
  5
D410
330
1E
100
AcDbEntity
  8
虛線
 48
0.27
100
AcDbLine
 10
3079.554166900007
 20
-191.7493424341269
 30
0.0
 11
3095.554166900007
 21
-191.7493424341269
 31
0.0
  0
LINE
  5
D411
330
1E
100
AcDbEntity
  8
虛線
 48
0.27
100
AcDbLine
 10
3079.554166900007
 20
-191.7493424341269
 30
0.0
 11
3079.554166900007
 21
-182.2493424341269
 31
0.0
  0
LINE
  5
D412
330
1E
100
AcDbEntity
  8
虛線
 48
0.27
100
AcDbLine
 10
3095.554166900007
 20
-191.7493424341269
 30
0.0
 11
3095.554166900007
 21
-182.2493424341269
 31
0.0
  0
LINE
  5
D424
330
1E
100
AcDbEntity
  8
虛線
 48
0.27
100
AcDbLine
 10
2633.979675534862
 20
-113.8492999901273
 30
0.0
 11
2632.379675534862
 21
-112.2492999901269
 31
0.0
  0
LINE
  5
D425
330
1E
100
AcDbEntity
  8
虛線
 48
0.27
100
AcDbLine
 10
2633.104675534862
 20
-112.9742999901273
 30
0.0
 11
2633.104675534862
 21
-130.2492999901271
 31
0.0
  0
LINE
  5
D426
330
1E
100
AcDbEntity
  8
虛線
 48
0.27
100
AcDbLine
 10
2633.979675534862
 20
-113.8492999901273
 30
0.0
 11
2633.979675534862
 21
-135.499302990127
 31
0.0
  0
LINE
  5
D427
330
1E
100
AcDbEntity
  8
虛線
 48
0.27
100
AcDbLine
 10
2644.229675534862
 20
-135.499302990127
 30
0.0
 11
2633.979675534862
 21
-135.499302990127
 31
0.0
  0
LINE
  5
D428
330
1E
100
AcDbEntity
  8
虛線
 48
0.27
100
AcDbLine
 10
2633.979675534862
 20
-135.4993029901272
 30
0.0
 11
2639.104675534862
 21
-138.5787136626436
 31
0.0
  0
LINE
  5
D429
330
1E
100
AcDbEntity
  8
虛線
 48
0.27
100
AcDbLine
 10
2644.229675534862
 20
-135.499302990127
 30
0.0
 11
2639.104675534862
 21
-138.5787136626436
 31
0.0
  0
LINE
  5
D42A
330
1E
100
AcDbEntity
  8
虛線
 48
0.27
100
AcDbLine
 10
2644.229675534862
 20
-113.8492999901273
 30
0.0
 11
2644.229675534862
 21
-135.499302990127
 31
0.0
  0
LINE
  5
D42B
330
1E
100
AcDbEntity
  8
虛線
 48
0.27
100
AcDbLine
 10
2645.104675534862
 20
-130.2492999901271
 30
0.0
 11
2633.104675534862
 21
-130.2492999901271
 31
0.0
  0
LINE
  5
D42C
330
1E
100
AcDbEntity
  8
虛線
 48
0.27
100
AcDbLine
 10
2645.104675534863
 20
-112.9742999901273
 30
0.0
 11
2645.104675534862
 21
-130.2492999901271
 31
0.0
  0
LINE
  5
D42D
330
1E
100
AcDbEntity
  8
虛線
 48
0.27
100
AcDbLine
 10
2645.829675534862
 20
-112.2492999901269
 30
0.0
 11
2644.229675534862
 21
-113.8492999901273
 31
0.0
  0
LINE
  5
D42E
330
1E
100
AcDbEntity
  8
虛線
 48
0.27
100
AcDbLine
 10
2633.979675534862
 20
-113.8492999901273
 30
0.0
 11
2644.229675534862
 21
-113.8492999901273
 31
0.0
  0
LINE
  5
D45C
330
1E
100
AcDbEntity
  8
虛線
 48
0.27
100
AcDbLine
 10
2671.479675534863
 20
-113.8492910893271
 30
0.0
 11
2669.879675534862
 21
-112.2492910893268
 31
0.0
  0
LINE
  5
D45D
330
1E
100
AcDbEntity
  8
虛線
 48
0.27
100
AcDbLine
 10
2683.329675534862
 20
-112.2492910893268
 30
0.0
 11
2681.729675534862
 21
-113.8492910893271
 31
0.0
  0
LINE
  5
D45E
330
1E
100
AcDbEntity
  8
虛線
 48
0.27
100
AcDbLine
 10
2671.479675534863
 20
-113.8492910893271
 30
0.0
 11
2681.729675534862
 21
-113.8492910893271
 31
0.0
  0
LINE
  5
D45F
330
1E
100
AcDbEntity
  8
虛線
 48
0.27
100
AcDbLine
 10
2682.604675534864
 20
-112.9742910893263
 30
0.0
 11
2682.604675534863
 21
-130.249291089327
 31
0.0
  0
LINE
  5
D460
330
1E
100
AcDbEntity
  8
虛線
 48
0.27
100
AcDbLine
 10
2682.604675534863
 20
-130.249291089327
 30
0.0
 11
2670.604675534863
 21
-130.249291089327
 31
0.0
  0
LINE
  5
D461
330
1E
100
AcDbEntity
  8
虛線
 48
0.27
100
AcDbLine
 10
2681.729675534863
 20
-113.8492910893271
 30
0.0
 11
2681.729675534863
 21
-135.4992940893269
 31
0.0
  0
LINE
  5
D462
330
1E
100
AcDbEntity
  8
虛線
 48
0.27
100
AcDbLine
 10
2681.729675534863
 20
-135.4992940893269
 30
0.0
 11
2676.604675534863
 21
-138.5787047618432
 31
0.0
  0
LINE
  5
D463
330
1E
100
AcDbEntity
  8
虛線
 48
0.27
100
AcDbLine
 10
2671.479675534863
 20
-135.4992940893271
 30
0.0
 11
2676.604675534863
 21
-138.5787047618432
 31
0.0
  0
LINE
  5
D464
330
1E
100
AcDbEntity
  8
虛線
 48
0.27
100
AcDbLine
 10
2681.729675534863
 20
-135.4992940893269
 30
0.0
 11
2671.479675534863
 21
-135.4992940893269
 31
0.0
  0
LINE
  5
D465
330
1E
100
AcDbEntity
  8
虛線
 48
0.27
100
AcDbLine
 10
2671.479675534863
 20
-113.8492910893271
 30
0.0
 11
2671.479675534863
 21
-135.4992940893269
 31
0.0
  0
LINE
  5
D466
330
1E
100
AcDbEntity
  8
虛線
 48
0.27
100
AcDbLine
 10
2670.604675534864
 20
-112.974291089328
 30
0.0
 11
2670.604675534863
 21
-130.249291089327
 31
0.0
  0
LINE
  5
D46B
330
1E
100
AcDbEntity
  8
中心線
100
AcDbLine
 10
2997.554166900007
 20
77.80943319167306
 30
0.0
 11
2997.554166900007
 21
-32.19060495532676
 31
0.0
  0
LINE
  5
D46C
330
1E
100
AcDbEntity
  8
中心線
100
AcDbLine
 10
2905.654166900006
 20
22.80941411817315
 30
0.0
 11
3089.454166900007
 21
22.80941411817315
 31
0.0
  0
LINE
  5
D487
330
1E
100
AcDbEntity
  8
中心線
 48
0.27
100
AcDbLine
 10
2892.316575586189
 20
-139.7493424341269
 30
0.0
 11
2903.991758213824
 21
-139.7493424341269
 31
0.0
  0
LINE
  5
D488
330
1E
100
AcDbEntity
  8
中心線
 48
0.27
100
AcDbLine
 10
2898.154166900006
 20
-145.5869337479447
 30
0.0
 11
2898.154166900006
 21
-133.9117511203093
 31
0.0
  0
LINE
  5
D490
330
1E
100
AcDbEntity
  8
中心線
 48
0.27
100
AcDbLine
 10
3091.11657558619
 20
-139.7493424341269
 30
0.0
 11
3102.791758213826
 21
-139.7493424341269
 31
0.0
  0
LINE
  5
D491
330
1E
100
AcDbEntity
  8
中心線
 48
0.27
100
AcDbLine
 10
3096.954166900007
 20
-145.5869337479447
 30
0.0
 11
3096.954166900007
 21
-133.9117511203093
 31
0.0
  0
LINE
  5
D493
330
1E
100
AcDbEntity
  8
中心線
100
AcDbLine
 10
3116.855745820043
 20
-148.2493114341271
 30
0.0
 11
3106.210520292114
 21
-148.2493114341271
 31
0.0
  0
LINE
  5
D494
330
1E
100
AcDbEntity
  8
0
100
AcDbLine
 10
3115.190895634005
 20
-146.8984947752765
 30
0.0
 11
3115.190895634005
 21
-149.6001280929784
 31
0.0
  0
ARC
  5
D495
330
1E
100
AcDbEntity
  8
0
100
AcDbCircle
 10
3112.93317382544
 20
-149.5635714323102
 30
0.0
 40
2.258017748891656
100
AcDbArc
 50
285.9630221688284
 51
359.0723572120041
  0
ARC
  5
D496
330
1E
100
AcDbEntity
  8
0
100
AcDbCircle
 10
3112.93317382544
 20
-146.9350514359437
 30
0.0
 40
2.258017748891656
100
AcDbArc
 50
0.9276427879958969
 51
74.03697783117156
  0
MTEXT
  5
D49E
330
1E
100
AcDbEntity
  8
0
100
AcDbMText
 10
2649.657890886333
 20
-209.9920603417913
 30
0.0
 40
7.800000159341863
 41
100.6095
 71
     1
 72
     5
  1
\A1;{\fTimes New Roman|b0|i0|c0|p18;RGH55HA\PC : 17100 kgf\PC\fProxy 1|b0|i0|c0|p0;\H0.75x;\S^ 0;\fTimes New Roman|b0|i0|c0|p18;\H1.333x;: 35470 kgf}
 73
     1
 44
1.0
1001
ACAD
1000
MTEXTBEGIN
1070
    73
1070
     1
1070
    44
1040
1.0
1070
    74
1070
     0
1000
MTEXTEND
  0
LINE
  5
EAA2
330
1E
100
AcDbEntity
  8
0
  6
Continuous
 62
     7
100
AcDbLine
 10
3177.554166900007
 20
-149.2493114343868
 30
0.0
 11
3115.190895634006
 21
-149.2493114343842
 31
0.0
  0
LINE
  5
EAA3
330
1E
100
AcDbEntity
  8
0
  6
Continuous
 62
     7
100
AcDbLine
 10
3177.554166900007
 20
-153.1319544968983
 30
0.0
 11
3113.554166900007
 21
-153.1319544968956
 31
0.0
  0
LINE
  5
EAA4
330
1E
100
AcDbEntity
  8
0
  6
Continuous
 62
     7
100
AcDbLine
 10
3177.554166900007
 20
-160.6319545006317
 30
0.0
 11
3113.554166900007
 21
-160.631954500629
 31
0.0
  0
LINE
  5
EAA5
330
1E
100
AcDbEntity
  8
0
  6
Continuous
 62
     7
100
AcDbLine
 10
3177.554166900007
 20
-172.7179930268698
 30
0.0
 11
3113.554166900007
 21
-172.7179930268671
 31
0.0
  0
LINE
  5
EAA6
330
1E
100
AcDbEntity
  8
0
  6
Continuous
 62
     7
100
AcDbLine
 10
3177.554166900007
 20
-180.2179930300692
 30
0.0
 11
3113.554166900007
 21
-180.2179930300665
 31
0.0
  0
LINE
  5
EAA7
330
1E
100
AcDbEntity
  8
0
  6
Continuous
 62
     7
100
AcDbLine
 10
3177.554166900007
 20
-190.2493424341441
 30
0.0
 11
2872.340849999505
 21
-190.2493424341312
 31
0.0
  0
LINE
  5
EAA8
330
1E
100
AcDbEntity
  8
0
  6
Continuous
 62
     7
100
AcDbLine
 10
2879.917438166008
 20
-149.2493114343742
 30
0.0
 11
2871.173923713099
 21
-149.2493114343739
 31
0.0
  0
LINE
  5
EAAA
330
1E
100
AcDbEntity
  8
0
  6
Continuous
 62
     7
100
AcDbLine
 10
2881.554166900007
 20
-153.1319544968858
 30
0.0
 11
2869.502176988826
 21
-153.1319544968853
 31
0.0
  0
LINE
  5
EAAB
330
1E
100
AcDbEntity
  8
0
  6
Continuous
 62
     7
100
AcDbLine
 10
2881.554166900007
 20
-160.6319545006192
 30
0.0
 11
2870.439238394265
 21
-160.6319545006187
 31
0.0
  0
LINE
  5
EAAC
330
1E
100
AcDbEntity
  8
0
  6
Continuous
 62
     7
100
AcDbLine
 10
2881.554166900007
 20
-172.7179930268573
 30
0.0
 11
2869.943641541025
 21
-172.7179930268568
 31
0.0
  0
LINE
  5
EAAD
330
1E
100
AcDbEntity
  8
0
  6
Continuous
 62
     7
100
AcDbLine
 10
2881.554166900007
 20
-180.2179930300567
 30
0.0
 11
2869.96023907845
 21
-180.2179930300562
 31
0.0
  0
ENDSEC
  0
SECTION
  2
OBJECTS
  0
DICTIONARY
  5
C
330
0
100
AcDbDictionary
281
     1
  3
ACAD_COLOR
350
3D97
  3
ACAD_GROUP
350
D
  3
ACAD_LAYOUT
350
19
  3
ACAD_MATERIAL
350
3D96
  3
ACAD_MLINESTYLE
350
16
  3
ACAD_PLOTSETTINGS
350
18
  3
ACAD_PLOTSTYLENAME
350
E
  3
ACAD_TABLESTYLE
350
E7A3
  3
ACDBHEADERROUNDTRIPXREC
350
EAD4
  3
AcDbVariableDictionary
350
3E63
  0
DICTIONARY
  5
43C2
330
2
100
AcDbDictionary
280
     1
281
     1
  3
ACAD_LAYERSTATES
360
43C3
  0
DICTIONARY
  5
3D1E
330
1E
100
AcDbDictionary
280
     1
281
     1
  3
ACAD_LAYOUTSELFREF
360
3D92
  3
ACAD_SORTENTS
360
EAA9
  0
DICTIONARY
  5
3D20
330
1A
100
AcDbDictionary
280
     1
281
     1
  3
ACAD_LAYOUTSELFREF
360
3D91
  0
DICTIONARY
  5
69B8
330
69B7
100
AcDbDictionary
280
     1
281
     1
  3
ACAD_SORTENTS
360
69B9
  0
DICTIONARY
  5
69CC
330
69CB
100
AcDbDictionary
280
     1
281
     1
  3
ACAD_SORTENTS
360
69CD
  0
DICTIONARY
  5
3D97
102
{ACAD_REACTORS
330
C
102
}
330
C
100
AcDbDictionary
281
     1
  0
DICTIONARY
  5
D
102
{ACAD_REACTORS
330
C
102
}
330
C
100
AcDbDictionary
281
     1
  3
*A1
350
4143
  3
*A10
350
4378
  3
*A11
350
43BF
  3
*A12
350
423A
  3
*A13
350
414C
  3
*A14
350
579E
  3
*A15
350
4235
  3
*A16
350
437C
  3
*A17
350
414F
  3
*A18
350
437E
  3
*A19
350
4149
  3
*A2
350
4241
  3
*A20
350
4239
  3
*A21
350
4237
  3
*A22
350
423C
  3
*A23
350
43B6
  3
*A24
350
423B
  3
*A25
350
43B8
  3
*A26
350
576A
  3
*A27
350
4240
  3
*A28
350
423E
  3
*A29
350
4374
  3
*A3
350
43BB
  3
*A30
350
4373
  3
*A31
350
43BD
  3
*A32
350
4236
  3
*A33
350
4377
  3
*A34
350
4145
  3
*A35
350
437A
  3
*A36
350
4379
  3
*A37
350
43C1
  3
*A38
350
423D
  3
*A39
350
437D
  3
*A4
350
414D
  3
*A40
350
4146
  3
*A41
350
437F
  3
*A42
350
414B
  3
*A43
350
4375
  3
*A44
350
43B7
  3
*A45
350
414E
  3
*A46
350
43B9
  3
*A47
350
57D9
  3
*A48
350
437B
  3
*A49
350
43BC
  3
*A5
350
4144
  3
*A50
350
43BE
  3
*A51
350
4238
  3
*A52
350
43B5
  3
*A53
350
43C0
  3
*A54
350
4148
  3
*A55
350
423F
  3
*A56
350
43BA
  3
*A6
350
414A
  3
*A7
350
5691
  3
*A8
350
4376
  3
*A9
350
4147
  0
DICTIONARY
  5
19
102
{ACAD_REACTORS
330
C
102
}
330
C
100
AcDbDictionary
281
     1
  3
Model
350
21
  3
配置1
350
1D
  0
DICTIONARY
  5
3D96
102
{ACAD_REACTORS
330
C
102
}
330
C
100
AcDbDictionary
281
     1
  0
DICTIONARY
  5
16
102
{ACAD_REACTORS
330
C
102
}
330
C
100
AcDbDictionary
281
     1
  3
Standard
350
17
  0
DICTIONARY
  5
18
102
{ACAD_REACTORS
330
C
102
}
330
C
100
AcDbDictionary
281
     1
  3
LANSRO
350
4150
  0
ACDBDICTIONARYWDFLT
  5
E
102
{ACAD_REACTORS
330
C
102
}
330
C
100
AcDbDictionary
281
     1
  3
Normal
350
F
100
AcDbDictionaryWithDefault
340
F
  0
DICTIONARY
  5
E7A3
102
{ACAD_REACTORS
330
C
102
}
330
C
100
AcDbDictionary
281
     1
  3
Standard
350
E7A4
  0
DICTIONARY
  5
EAD4
102
{ACAD_REACTORS
330
C
102
}
330
C
100
AcDbDictionary
281
     1
  3
COLORDICT
350
EAD6
  3
MATERIALDICT
350
EAD5
  0
DICTIONARY
  5
3E63
102
{ACAD_REACTORS
330
C
102
}
330
C
100
AcDbDictionary
281
     1
  3
CTABLESTYLE
350
E8F8
  3
DIMASSOC
350
3E64
  3
PROJECTNAME
350
3E65
  0
DICTIONARY
  5
43C3
102
{ACAD_REACTORS
330
43C2
102
}
330
43C2
100
AcDbDictionary
281
     1
  0
XRECORD
  5
3D92
102
{ACAD_REACTORS
330
3D1E
102
}
330
3D1E
100
AcDbXrecord
280
     1
340
1E
  0
SORTENTSTABLE
  5
EAA9
102
{ACAD_REACTORS
330
3D1E
102
}
330
3D1E
100
AcDbSortentsTable
330
1E
331
D311
  5
D311
331
D460
  5
D460
331
D319
  5
D319
331
A7C0
  5
A7C0
331
A6CA
  5
A6CA
331
A701
  5
A701
331
D0A3
  5
D0A3
331
A93C
  5
A93C
331
A68B
  5
A68B
331
A7C8
  5
A7C8
331
A7FF
  5
A7FF
331
A8CD
  5
A8CD
331
A740
  5
A740
331
A748
  5
A748
331
D152
  5
D152
331
A6D2
  5
A6D2
331
A709
  5
A709
331
D0AB
  5
D0AB
331
A8D5
  5
A8D5
331
A65C
  5
A65C
331
A693
  5
A693
331
A7D0
  5
A7D0
331
D401
  5
D401
331
A789
  5
A789
331
A886
  5
A886
331
A750
  5
A750
331
D15A
  5
D15A
331
A6DA
  5
A6DA
331
A711
  5
A711
331
A69B
  5
A69B
331
A88E
  5
A88E
331
A8DD
  5
A8DD
331
A664
  5
A664
331
A791
  5
A791
331
EAA7
  5
EAB2
331
A7D8
  5
A7D8
331
A80F
  5
A80F
331
D0B3
  5
D0B3
331
A719
  5
A719
331
A758
  5
A758
331
D2C2
  5
D2C2
331
D0BB
  5
D0BB
331
A6A3
  5
A6A3
331
A6E2
  5
A6E2
331
A66C
  5
A66C
331
A817
  5
A817
331
A896
  5
A896
331
D084
  5
D084
331
D488
  5
D488
331
D409
  5
D409
331
D490
  5
D490
331
D411
  5
D411
331
A6EA
  5
A6EA
331
A721
  5
A721
331
D0C3
  5
D0C3
331
A674
  5
A674
331
D08C
  5
D08C
331
A6AB
  5
A6AB
331
A7A9
  5
A7A9
331
A8ED
  5
A8ED
331
A760
  5
A760
331
A6F2
  5
A6F2
331
D2FA
  5
D2FA
331
A729
  5
A729
331
D0CB
  5
D0CB
331
A67C
  5
A67C
331
D094
  5
D094
331
A6B3
  5
A6B3
331
A768
  5
A768
331
D429
  5
D429
331
A7B1
  5
A7B1
331
A8F5
  5
A8F5
331
A6FA
  5
A6FA
331
A731
  5
A731
331
A6BB
  5
A6BB
331
A8FD
  5
A8FD
331
A7B9
  5
A7B9
331
A2A5
  5
A2A5
331
A684
  5
A684
331
D09C
  5
D09C
331
D0D3
  5
D0D3
331
A739
  5
A739
331
A6C3
  5
A6C3
331
A85F
  5
A85F
331
A935
  5
A935
331
D312
  5
D312
331
A7C1
  5
A7C1
331
D461
  5
D461
331
A7F8
  5
A7F8
331
A741
  5
A741
331
D0A4
  5
D0A4
331
A68C
  5
A68C
331
A6CB
  5
A6CB
331
A8CE
  5
A8CE
331
A93D
  5
A93D
331
A7C9
  5
A7C9
331
A800
  5
A800
331
A702
  5
A702
331
A70A
  5
A70A
331
A749
  5
A749
331
D153
  5
D153
331
D0AC
  5
D0AC
331
A65D
  5
A65D
331
A694
  5
A694
331
A887
  5
A887
331
A8D6
  5
A8D6
331
A78A
  5
A78A
331
D402
  5
D402
331
A7D1
  5
A7D1
331
A6D3
  5
A6D3
331
A712
  5
A712
331
A751
  5
A751
331
A6DB
  5
A6DB
331
D0B4
  5
D0B4
331
D07D
  5
D07D
331
A665
  5
A665
331
A69C
  5
A69C
331
A7D9
  5
A7D9
331
A792
  5
A792
331
A88F
  5
A88F
331
A8DE
  5
A8DE
331
D15B
  5
D15B
331
A759
  5
A759
331
D2C3
  5
D2C3
331
A6E3
  5
A6E3
331
A71A
  5
A71A
331
D0BC
  5
D0BC
331
D085
  5
D085
331
A66D
  5
A66D
331
A6A4
  5
A6A4
331
A897
  5
A897
331
EAA8
  5
EAA3
331
D40A
  5
D40A
331
A818
  5
A818
331
D412
  5
D412
331
D491
  5
D491
331
A761
  5
A761
331
A6EB
  5
A6EB
331
A722
  5
A722
331
A6AC
  5
A6AC
331
A7AA
  5
A7AA
331
A8EE
  5
A8EE
331
A675
  5
A675
331
D08D
  5
D08D
331
D0C4
  5
D0C4
331
D2FB
  5
D2FB
331
A72A
  5
A72A
331
A769
  5
A769
331
D0CC
  5
D0CC
331
A67D
  5
A67D
331
D095
  5
D095
331
A6B4
  5
A6B4
331
A7B2
  5
A7B2
331
A8F6
  5
A8F6
331
D42A
  5
D42A
331
A6F3
  5
A6F3
331
A6FB
  5
A6FB
331
A732
  5
A732
331
D0D4
  5
D0D4
331
A685
  5
A685
331
D09D
  5
D09D
331
A6BC
  5
A6BC
331
A8FE
  5
A8FE
331
A7BA
  5
A7BA
331
A2A6
  5
A2A6
331
A73A
  5
A73A
331
A6C4
  5
A6C4
331
A936
  5
A936
331
D313
  5
D313
331
D462
  5
D462
331
A7C2
  5
A7C2
331
A6CC
  5
A6CC
331
A703
  5
A703
331
D0A5
  5
D0A5
331
A93E
  5
A93E
331
A656
  5
A656
331
A68D
  5
A68D
331
A7CA
  5
A7CA
331
A8CF
  5
A8CF
331
A742
  5
A742
331
A74A
  5
A74A
331
D154
  5
D154
331
A6D4
  5
A6D4
331
A70B
  5
A70B
331
A695
  5
A695
331
A8D7
  5
A8D7
331
A7D2
  5
A7D2
331
A65E
  5
A65E
331
D0AD
  5
D0AD
331
D403
  5
D403
331
A78B
  5
A78B
331
A752
  5
A752
331
D0B5
  5
D0B5
331
A69D
  5
A69D
331
A6DC
  5
A6DC
331
D07E
  5
D07E
331
A8DF
  5
A8DF
331
A793
  5
A793
331
A7DA
  5
A7DA
331
A666
  5
A666
331
A713
  5
A713
331
A71B
  5
A71B
331
A75A
  5
A75A
331
D2C4
  5
D2C4
331
D0BD
  5
D0BD
331
A6A5
  5
A6A5
331
A6E4
  5
A6E4
331
A66E
  5
A66E
331
D086
  5
D086
331
D40B
  5
D40B
331
A898
  5
A898
331
A6EC
  5
A6EC
331
D2F4
  5
D2F4
331
A723
  5
A723
331
D0C5
  5
D0C5
331
A676
  5
A676
331
D08E
  5
D08E
331
A6AD
  5
A6AD
331
A7AB
  5
A7AB
331
A8EF
  5
A8EF
331
A762
  5
A762
331
A76A
  5
A76A
331
A6F4
  5
A6F4
331
D2FC
  5
D2FC
331
A72B
  5
A72B
331
D0CD
  5
D0CD
331
A8F7
  5
A8F7
331
A67E
  5
A67E
331
D096
  5
D096
331
D42B
  5
D42B
331
A7B3
  5
A7B3
331
A6B5
  5
A6B5
331
A6FC
  5
A6FC
331
A733
  5
A733
331
A6BD
  5
A6BD
331
A8FF
  5
A8FF
331
A7BB
  5
A7BB
331
A2A7
  5
A2A7
331
A686
  5
A686
331
D09E
  5
D09E
331
D0D5
  5
D0D5
331
A73B
  5
A73B
331
A6C5
  5
A6C5
331
A937
  5
A937
331
D314
  5
D314
331
A77C
  5
A77C
331
A7C3
  5
A7C3
331
D463
  5
D463
331
A7FA
  5
A7FA
331
A704
  5
A704
331
A743
  5
A743
331
D14D
  5
D14D
331
D0A6
  5
D0A6
331
A68E
  5
A68E
331
A6CD
  5
A6CD
331
A881
  5
A881
331
A8D0
  5
A8D0
331
A784
  5
A784
331
A7CB
  5
A7CB
331
D46B
  5
D46B
331
A657
  5
A657
331
A70C
  5
A70C
331
A74B
  5
A74B
331
D155
  5
D155
331
D0AE
  5
D0AE
331
A65F
  5
A65F
331
A696
  5
A696
331
A80A
  5
A80A
331
A889
  5
A889
331
A8D8
  5
A8D8
331
A78C
  5
A78C
331
EAA2
  5
EAA2
331
D404
  5
D404
331
A7D3
  5
A7D3
331
A6D5
  5
A6D5
331
A6DD
  5
A6DD
331
A714
  5
A714
331
D0B6
  5
D0B6
331
D07F
  5
D07F
331
A667
  5
A667
331
A69E
  5
A69E
331
A753
  5
A753
331
A7DB
  5
A7DB
331
A794
  5
A794
331
A891
  5
A891
331
A8E0
  5
A8E0
331
A75B
  5
A75B
331
D2C5
  5
D2C5
331
A6E5
  5
A6E5
331
A71C
  5
A71C
331
A6A6
  5
A6A6
331
D087
  5
D087
331
A66F
  5
A66F
331
D0BE
  5
D0BE
331
D40C
  5
D40C
331
EAAA
  5
EAA6
331
A899
  5
A899
331
D493
  5
D493
331
A763
  5
A763
331
D0C6
  5
D0C6
331
A6AE
  5
A6AE
331
A7AC
  5
A7AC
331
A8F0
  5
A8F0
331
D424
  5
D424
331
A677
  5
A677
331
D08F
  5
D08F
331
D2F5
  5
D2F5
331
A724
  5
A724
331
D2FD
  5
D2FD
331
A72C
  5
A72C
331
A76B
  5
A76B
331
D0CE
  5
D0CE
331
A67F
  5
A67F
331
D097
  5
D097
331
A6B6
  5
A6B6
331
A7B4
  5
A7B4
331
A8F8
  5
A8F8
331
D42C
  5
D42C
331
A6F5
  5
A6F5
331
A6FD
  5
A6FD
331
A734
  5
A734
331
D0D6
  5
D0D6
331
A2A8
  5
A2A8
331
A687
  5
A687
331
D09F
  5
D09F
331
A7BC
  5
A7BC
331
A6BE
  5
A6BE
331
A73C
  5
A73C
331
A6C6
  5
A6C6
331
D315
  5
D315
331
D45C
  5
D45C
331
A938
  5
A938
331
A650
  5
A650
331
A7FB
  5
A7FB
331
D464
  5
D464
331
A77D
  5
A77D
331
A7C4
  5
A7C4
331
A705
  5
A705
331
A744
  5
A744
331
A6CE
  5
A6CE
331
D0A7
  5
D0A7
331
A658
  5
A658
331
A68F
  5
A68F
331
A7CC
  5
A7CC
331
D46C
  5
D46C
331
A785
  5
A785
331
A882
  5
A882
331
A8D1
  5
A8D1
331
D14E
  5
D14E
331
A74C
  5
A74C
331
D156
  5
D156
331
A6D6
  5
A6D6
331
A70D
  5
A70D
331
A697
  5
A697
331
D078
  5
D078
331
A88A
  5
A88A
331
A8D9
  5
A8D9
331
A660
  5
A660
331
A78D
  5
A78D
331
EAA3
  5
EAA5
331
D405
  5
D405
331
A7D4
  5
A7D4
331
A80B
  5
A80B
331
D0AF
  5
D0AF
331
A715
  5
A715
331
A754
  5
A754
331
D0B7
  5
D0B7
331
A69F
  5
A69F
331
A6DE
  5
A6DE
331
D080
  5
D080
331
A892
  5
A892
331
A8E1
  5
A8E1
331
A795
  5
A795
331
A7DC
  5
A7DC
331
A668
  5
A668
331
A71D
  5
A71D
331
A75C
  5
A75C
331
D2C6
  5
D2C6
331
D0BF
  5
D0BF
331
A6A7
  5
A6A7
331
A6E6
  5
A6E6
331
EAAB
  5
EAAA
331
D40D
  5
D40D
331
A670
  5
A670
331
D088
  5
D088
331
D494
  5
D494
331
A89A
  5
A89A
331
A8E9
  5
A8E9
331
A6EE
  5
A6EE
331
D2F6
  5
D2F6
331
A725
  5
A725
331
D0C7
  5
D0C7
331
A678
  5
A678
331
D090
  5
D090
331
D425
  5
D425
331
A7AD
  5
A7AD
331
A6AF
  5
A6AF
331
A764
  5
A764
331
A6F6
  5
A6F6
331
D2FE
  5
D2FE
331
A72D
  5
A72D
331
A6B7
  5
A6B7
331
A8F9
  5
A8F9
331
A2A1
  5
A2A1
331
A8B2
  5
A8B2
331
A680
  5
A680
331
D098
  5
D098
331
D0CF
  5
D0CF
331
D42D
  5
D42D
331
A7B5
  5
A7B5
331
A774
  5
A774
331
D0D7
  5
D0D7
331
A7BD
  5
A7BD
331
A6BF
  5
A6BF
331
A6FE
  5
A6FE
331
A735
  5
A735
331
A73D
  5
A73D
331
A6C7
  5
A6C7
331
D316
  5
D316
331
D45D
  5
D45D
331
A688
  5
A688
331
A86B
  5
A86B
331
A939
  5
A939
331
A77E
  5
A77E
331
A7C5
  5
A7C5
331
D465
  5
D465
331
A7FC
  5
A7FC
331
D0A0
  5
D0A0
331
A706
  5
A706
331
A745
  5
A745
331
D14F
  5
D14F
331
D0A8
  5
D0A8
331
A659
  5
A659
331
A690
  5
A690
331
A8D2
  5
A8D2
331
A786
  5
A786
331
A7CD
  5
A7CD
331
A6CF
  5
A6CF
331
A70E
  5
A70E
331
A74D
  5
A74D
331
D157
  5
D157
331
D0B0
  5
D0B0
331
A661
  5
A661
331
A698
  5
A698
331
A88B
  5
A88B
331
A8DA
  5
A8DA
331
A78E
  5
A78E
331
EAA4
  5
EAA8
331
D406
  5
D406
331
A7D5
  5
A7D5
331
A6D7
  5
A6D7
331
A6DF
  5
A6DF
331
A716
  5
A716
331
D0B8
  5
D0B8
331
D081
  5
D081
331
A669
  5
A669
331
A6A0
  5
A6A0
331
A755
  5
A755
331
A7DD
  5
A7DD
331
A796
  5
A796
331
A8E2
  5
A8E2
331
A75D
  5
A75D
331
D2C7
  5
D2C7
331
A6E7
  5
A6E7
331
A71E
  5
A71E
331
EAAC
  5
EAAD
331
D40E
  5
D40E
331
A6A8
  5
A6A8
331
A8EA
  5
A8EA
331
A7E5
  5
A7E5
331
A671
  5
A671
331
D089
  5
D089
331
D0C0
  5
D0C0
331
D495
  5
D495
331
A726
  5
A726
331
A765
  5
A765
331
D0C8
  5
D0C8
331
A6B0
  5
A6B0
331
A6EF
  5
A6EF
331
A7AE
  5
A7AE
331
A8A3
  5
A8A3
331
D426
  5
D426
331
A679
  5
A679
331
D091
  5
D091
331
D2F7
  5
D2F7
331
A72E
  5
A72E
331
D0D0
  5
D0D0
331
A681
  5
A681
331
D099
  5
D099
331
A6B8
  5
A6B8
331
A8FA
  5
A8FA
331
A8B3
  5
A8B3
331
A844
  5
A844
331
A7B6
  5
A7B6
331
D42E
  5
D42E
331
A2A2
  5
A2A2
331
A6F7
  5
A6F7
331
A6FF
  5
A6FF
331
D30F
  5
D30F
331
A736
  5
A736
331
D0D8
  5
D0D8
331
A7BE
  5
A7BE
331
A6C0
  5
A6C0
331
A775
  5
A775
331
A73E
  5
A73E
331
D45E
  5
D45E
331
D317
  5
D317
331
A6C8
  5
A6C8
331
D0A1
  5
D0A1
331
A93A
  5
A93A
331
A7FD
  5
A7FD
331
A689
  5
A689
331
D466
  5
D466
331
A77F
  5
A77F
331
A7C6
  5
A7C6
331
D150
  5
D150
331
A6D0
  5
A6D0
331
A707
  5
A707
331
D0A9
  5
D0A9
331
A65A
  5
A65A
331
A691
  5
A691
331
A746
  5
A746
331
A7CE
  5
A7CE
331
D3FF
  5
D3FF
331
A787
  5
A787
331
A8D3
  5
A8D3
331
A74E
  5
A74E
331
D158
  5
D158
331
A6D8
  5
A6D8
331
A70F
  5
A70F
331
A699
  5
A699
331
A88C
  5
A88C
331
A8DB
  5
A8DB
331
A662
  5
A662
331
A78F
  5
A78F
331
EAA5
  5
EAAC
331
D407
  5
D407
331
A7D6
  5
A7D6
331
A80D
  5
A80D
331
D0B1
  5
D0B1
331
A717
  5
A717
331
A756
  5
A756
331
D0B9
  5
D0B9
331
A6A1
  5
A6A1
331
A6E0
  5
A6E0
331
A66A
  5
A66A
331
A797
  5
A797
331
A894
  5
A894
331
A8E3
  5
A8E3
331
D082
  5
D082
331
A71F
  5
A71F
331
A75E
  5
A75E
331
EAAD
  5
EAB0
331
D40F
  5
D40F
331
D0C1
  5
D0C1
331
A672
  5
A672
331
D08A
  5
D08A
331
A6A9
  5
A6A9
331
D496
  5
D496
331
A89C
  5
A89C
331
A8EB
  5
A8EB
331
A6E8
  5
A6E8
331
A6F0
  5
A6F0
331
D2F8
  5
D2F8
331
A727
  5
A727
331
D0C9
  5
D0C9
331
A67A
  5
A67A
331
A7EE
  5
A7EE
331
A825
  5
A825
331
D092
  5
D092
331
D427
  5
D427
331
D49E
  5
D49E
331
A7AF
  5
A7AF
331
A6B1
  5
A6B1
331
A6F8
  5
A6F8
331
A72F
  5
A72F
331
A6B9
  5
A6B9
331
A8FB
  5
A8FB
331
A2A3
  5
A2A3
331
A7B7
  5
A7B7
331
A7F6
  5
A7F6
331
A8B4
  5
A8B4
331
A682
  5
A682
331
D09A
  5
D09A
331
D0D1
  5
D0D1
331
A737
  5
A737
331
A6C1
  5
A6C1
331
A776
  5
A776
331
A7BF
  5
A7BF
331
A933
  5
A933
331
A73F
  5
A73F
331
D310
  5
D310
331
D318
  5
D318
331
D45F
  5
D45F
331
A6C9
  5
A6C9
331
A700
  5
A700
331
A68A
  5
A68A
331
A8CC
  5
A8CC
331
A93B
  5
A93B
331
A7C7
  5
A7C7
331
A7FE
  5
A7FE
331
D0A2
  5
D0A2
331
A708
  5
A708
331
A747
  5
A747
331
D151
  5
D151
331
D0AA
  5
D0AA
331
A65B
  5
A65B
331
A692
  5
A692
331
A8D4
  5
A8D4
331
A788
  5
A788
331
D400
  5
D400
331
A7CF
  5
A7CF
331
A6D1
  5
A6D1
331
A710
  5
A710
331
A74F
  5
A74F
331
A6D9
  5
A6D9
331
D0B2
  5
D0B2
331
A69A
  5
A69A
331
A80E
  5
A80E
331
A88D
  5
A88D
331
A8DC
  5
A8DC
331
D159
  5
D159
331
A790
  5
A790
331
D487
  5
D487
331
EAA6
  5
EAAF
331
A7D7
  5
A7D7
331
D2C1
  5
D2C1
331
A6E1
  5
A6E1
331
A718
  5
A718
331
D0BA
  5
D0BA
331
D083
  5
D083
331
A66B
  5
A66B
331
A6A2
  5
A6A2
331
A757
  5
A757
331
A895
  5
A895
331
A8E4
  5
A8E4
331
A75F
  5
A75F
331
D408
  5
D408
331
D410
  5
D410
331
A798
  5
A798
331
A6E9
  5
A6E9
331
A720
  5
A720
331
A6AA
  5
A6AA
331
A7A8
  5
A7A8
331
A8EC
  5
A8EC
331
A673
  5
A673
331
D08B
  5
D08B
331
D0C2
  5
D0C2
331
D2F9
  5
D2F9
331
A728
  5
A728
331
D0CA
  5
D0CA
331
A67B
  5
A67B
331
A826
  5
A826
331
D093
  5
D093
331
A7B0
  5
A7B0
331
A6B2
  5
A6B2
331
D428
  5
D428
331
A6F1
  5
A6F1
331
A730
  5
A730
331
D0D2
  5
D0D2
331
A683
  5
A683
331
D09B
  5
D09B
331
A6BA
  5
A6BA
331
A8FC
  5
A8FC
331
A8B5
  5
A8B5
331
A2A4
  5
A2A4
331
A7B8
  5
A7B8
331
A7F7
  5
A7F7
331
A6F9
  5
A6F9
331
A738
  5
A738
331
A6C2
  5
A6C2
331
A777
  5
A777
331
A934
  5
A934
  0
XRECORD
  5
3D91
102
{ACAD_REACTORS
330
3D20
102
}
330
3D20
100
AcDbXrecord
280
     1
340
1A
  0
SORTENTSTABLE
  5
69B9
102
{ACAD_REACTORS
330
69B8
102
}
330
69B8
100
AcDbSortentsTable
330
69B7
  0
SORTENTSTABLE
  5
69CD
102
{ACAD_REACTORS
330
69CC
102
}
330
69CC
100
AcDbSortentsTable
330
69CB
  0
GROUP
  5
4143
102
{ACAD_REACTORS
330
D
102
}
330
D
100
AcDbGroup
300

 70
     1
 71
     1
  0
GROUP
  5
4378
102
{ACAD_REACTORS
330
D
102
}
330
D
100
AcDbGroup
300

 70
     1
 71
     1
  0
GROUP
  5
43BF
102
{ACAD_REACTORS
330
D
102
}
330
D
100
AcDbGroup
300

 70
     1
 71
     1
  0
GROUP
  5
423A
102
{ACAD_REACTORS
330
D
102
}
330
D
100
AcDbGroup
300

 70
     1
 71
     1
  0
GROUP
  5
414C
102
{ACAD_REACTORS
330
D
102
}
330
D
100
AcDbGroup
300

 70
     1
 71
     1
  0
GROUP
  5
579E
102
{ACAD_REACTORS
330
D
102
}
330
D
100
AcDbGroup
300

 70
     1
 71
     1
  0
GROUP
  5
4235
102
{ACAD_REACTORS
330
D
102
}
330
D
100
AcDbGroup
300

 70
     1
 71
     1
  0
GROUP
  5
437C
102
{ACAD_REACTORS
330
D
102
}
330
D
100
AcDbGroup
300

 70
     1
 71
     1
  0
GROUP
  5
414F
102
{ACAD_REACTORS
330
D
102
}
330
D
100
AcDbGroup
300

 70
     1
 71
     1
  0
GROUP
  5
437E
102
{ACAD_REACTORS
330
D
102
}
330
D
100
AcDbGroup
300

 70
     1
 71
     1
  0
GROUP
  5
4149
102
{ACAD_REACTORS
330
D
102
}
330
D
100
AcDbGroup
300

 70
     1
 71
     1
  0
GROUP
  5
4241
102
{ACAD_REACTORS
330
D
102
}
330
D
100
AcDbGroup
300

 70
     1
 71
     1
  0
GROUP
  5
4239
102
{ACAD_REACTORS
330
D
102
}
330
D
100
AcDbGroup
300

 70
     1
 71
     1
  0
GROUP
  5
4237
102
{ACAD_REACTORS
330
D
102
}
330
D
100
AcDbGroup
300

 70
     1
 71
     1
  0
GROUP
  5
423C
102
{ACAD_REACTORS
330
D
102
}
330
D
100
AcDbGroup
300

 70
     1
 71
     1
  0
GROUP
  5
43B6
102
{ACAD_REACTORS
330
D
102
}
330
D
100
AcDbGroup
300

 70
     1
 71
     1
  0
GROUP
  5
423B
102
{ACAD_REACTORS
330
D
102
}
330
D
100
AcDbGroup
300

 70
     1
 71
     1
  0
GROUP
  5
43B8
102
{ACAD_REACTORS
330
D
102
}
330
D
100
AcDbGroup
300

 70
     1
 71
     1
  0
GROUP
  5
576A
102
{ACAD_REACTORS
330
D
102
}
330
D
100
AcDbGroup
300

 70
     1
 71
     1
  0
GROUP
  5
4240
102
{ACAD_REACTORS
330
D
102
}
330
D
100
AcDbGroup
300

 70
     1
 71
     1
  0
GROUP
  5
423E
102
{ACAD_REACTORS
330
D
102
}
330
D
100
AcDbGroup
300

 70
     1
 71
     1
  0
GROUP
  5
4374
102
{ACAD_REACTORS
330
D
102
}
330
D
100
AcDbGroup
300

 70
     1
 71
     1
  0
GROUP
  5
43BB
102
{ACAD_REACTORS
330
D
102
}
330
D
100
AcDbGroup
300

 70
     1
 71
     1
  0
GROUP
  5
4373
102
{ACAD_REACTORS
330
D
102
}
330
D
100
AcDbGroup
300

 70
     1
 71
     1
  0
GROUP
  5
43BD
102
{ACAD_REACTORS
330
D
102
}
330
D
100
AcDbGroup
300

 70
     1
 71
     1
  0
GROUP
  5
4236
102
{ACAD_REACTORS
330
D
102
}
330
D
100
AcDbGroup
300

 70
     1
 71
     1
  0
GROUP
  5
4377
102
{ACAD_REACTORS
330
D
102
}
330
D
100
AcDbGroup
300

 70
     1
 71
     1
  0
GROUP
  5
4145
102
{ACAD_REACTORS
330
D
102
}
330
D
100
AcDbGroup
300

 70
     1
 71
     1
  0
GROUP
  5
437A
102
{ACAD_REACTORS
330
D
102
}
330
D
100
AcDbGroup
300

 70
     1
 71
     1
  0
GROUP
  5
4379
102
{ACAD_REACTORS
330
D
102
}
330
D
100
AcDbGroup
300

 70
     1
 71
     1
  0
GROUP
  5
43C1
102
{ACAD_REACTORS
330
D
102
}
330
D
100
AcDbGroup
300

 70
     1
 71
     1
  0
GROUP
  5
423D
102
{ACAD_REACTORS
330
D
102
}
330
D
100
AcDbGroup
300

 70
     1
 71
     1
  0
GROUP
  5
437D
102
{ACAD_REACTORS
330
D
102
}
330
D
100
AcDbGroup
300

 70
     1
 71
     1
  0
GROUP
  5
414D
102
{ACAD_REACTORS
330
D
102
}
330
D
100
AcDbGroup
300

 70
     1
 71
     1
  0
GROUP
  5
4146
102
{ACAD_REACTORS
330
D
102
}
330
D
100
AcDbGroup
300

 70
     1
 71
     1
  0
GROUP
  5
437F
102
{ACAD_REACTORS
330
D
102
}
330
D
100
AcDbGroup
300

 70
     1
 71
     1
  0
GROUP
  5
414B
102
{ACAD_REACTORS
330
D
102
}
330
D
100
AcDbGroup
300

 70
     1
 71
     1
  0
GROUP
  5
4375
102
{ACAD_REACTORS
330
D
102
}
330
D
100
AcDbGroup
300

 70
     1
 71
     1
  0
GROUP
  5
43B7
102
{ACAD_REACTORS
330
D
102
}
330
D
100
AcDbGroup
300

 70
     1
 71
     1
  0
GROUP
  5
414E
102
{ACAD_REACTORS
330
D
102
}
330
D
100
AcDbGroup
300

 70
     1
 71
     1
  0
GROUP
  5
43B9
102
{ACAD_REACTORS
330
D
102
}
330
D
100
AcDbGroup
300

 70
     1
 71
     1
  0
GROUP
  5
57D9
102
{ACAD_REACTORS
330
D
102
}
330
D
100
AcDbGroup
300

 70
     1
 71
     1
  0
GROUP
  5
437B
102
{ACAD_REACTORS
330
D
102
}
330
D
100
AcDbGroup
300

 70
     1
 71
     1
  0
GROUP
  5
43BC
102
{ACAD_REACTORS
330
D
102
}
330
D
100
AcDbGroup
300

 70
     1
 71
     1
  0
GROUP
  5
4144
102
{ACAD_REACTORS
330
D
102
}
330
D
100
AcDbGroup
300

 70
     1
 71
     1
  0
GROUP
  5
43BE
102
{ACAD_REACTORS
330
D
102
}
330
D
100
AcDbGroup
300

 70
     1
 71
     1
  0
GROUP
  5
4238
102
{ACAD_REACTORS
330
D
102
}
330
D
100
AcDbGroup
300

 70
     1
 71
     1
  0
GROUP
  5
43B5
102
{ACAD_REACTORS
330
D
102
}
330
D
100
AcDbGroup
300

 70
     1
 71
     1
  0
GROUP
  5
43C0
102
{ACAD_REACTORS
330
D
102
}
330
D
100
AcDbGroup
300

 70
     1
 71
     1
  0
GROUP
  5
4148
102
{ACAD_REACTORS
330
D
102
}
330
D
100
AcDbGroup
300

 70
     1
 71
     1
  0
GROUP
  5
423F
102
{ACAD_REACTORS
330
D
102
}
330
D
100
AcDbGroup
300

 70
     1
 71
     1
  0
GROUP
  5
43BA
102
{ACAD_REACTORS
330
D
102
}
330
D
100
AcDbGroup
300

 70
     1
 71
     1
  0
GROUP
  5
414A
102
{ACAD_REACTORS
330
D
102
}
330
D
100
AcDbGroup
300

 70
     1
 71
     1
  0
GROUP
  5
5691
102
{ACAD_REACTORS
330
D
102
}
330
D
100
AcDbGroup
300

 70
     1
 71
     1
  0
GROUP
  5
4376
102
{ACAD_REACTORS
330
D
102
}
330
D
100
AcDbGroup
300

 70
     1
 71
     1
  0
GROUP
  5
4147
102
{ACAD_REACTORS
330
D
102
}
330
D
100
AcDbGroup
300

 70
     1
 71
     1
  0
LAYOUT
  5
21
102
{ACAD_XDICTIONARY
360
EAD9
102
}
102
{ACAD_REACTORS
330
19
102
}
330
19
100
AcDbPlotSettings
  1

  2
HP 2200
  4

  6

 40
0.0
 41
0.0
 42
0.0
 43
0.0
 44
0.0
 45
0.0
 46
0.0
 47
0.0
 48
0.0
 49
0.0
140
0.0
141
0.0
142
1.0
143
1.0
 70
  1712
 72
     0
 73
     0
 74
     0
  7
AAA.ctb
 75
     0
147
1.0
148
0.0
149
0.0
100
AcDbLayout
  1
Model
 70
     1
 71
     0
 10
0.0
 20
0.0
 11
12.0
 21
9.0
 12
0.0
 22
0.0
 32
0.0
 14
0.0
 24
0.0
 34
0.0
 15
0.0
 25
0.0
 35
0.0
146
0.0
 13
0.0
 23
0.0
 33
0.0
 16
1.0
 26
0.0
 36
0.0
 17
0.0
 27
1.0
 37
0.0
 76
     0
330
1E
  0
LAYOUT
  5
1D
102
{ACAD_XDICTIONARY
360
EAD7
102
}
102
{ACAD_REACTORS
330
19
102
}
330
19
100
AcDbPlotSettings
  1

  2
HP 2200
  4

  6

 40
0.0
 41
0.0
 42
0.0
 43
0.0
 44
0.0
 45
0.0
 46
0.0
 47
0.0
 48
0.0
 49
0.0
140
0.0
141
0.0
142
1.0
143
1.0
 70
   688
 72
     0
 73
     0
 74
     5
  7
AAA.ctb
 75
    16
147
1.0
148
0.0
149
0.0
100
AcDbLayout
  1
配置1
 70
     0
 71
     1
 10
0.0
 20
0.0
 11
12.0
 21
9.0
 12
0.0
 22
0.0
 32
0.0
 14
1.000000000000000E+20
 24
1.000000000000000E+20
 34
1.000000000000000E+20
 15
-1.000000000000000E+20
 25
-1.000000000000000E+20
 35
-1.000000000000000E+20
146
0.0
 13
0.0
 23
0.0
 33
0.0
 16
1.0
 26
0.0
 36
0.0
 17
0.0
 27
1.0
 37
0.0
 76
     0
330
1A
  0
MLINESTYLE
  5
17
102
{ACAD_REACTORS
330
16
102
}
330
16
100
AcDbMlineStyle
  2
STANDARD
 70
     0
  3

 62
   256
 51
90.0
 52
90.0
 71
     2
 49
0.5
 62
   256
  6
BYLAYER
 49
-0.5
 62
   256
  6
BYLAYER
  0
PLOTSETTINGS
  5
4150
102
{ACAD_XDICTIONARY
360
EADB
102
}
102
{ACAD_REACTORS
330
18
102
}
330
18
100
AcDbPlotSettings
  1
LANSRO
  2
\\1260\HP2200
  4
A4
  6

 40
6.043083190917968
 41
6.762742042541503
 42
7.736419677734375
 43
5.027069091796875
 44
209.9733276367187
 45
296.9683227539062
 46
5.15
 47
0.0
 48
0.0
 49
0.0
140
0.0
141
0.0
142
1.0
143
0.8829829263240881
 70
  1716
 72
     1
 73
     1
 74
     0
  7
AAA.ctb
 75
     0
147
1.132524729739748
148
-132.297014905803
149
-71.78507365635891
  0
ACDBPLACEHOLDER
  5
F
102
{ACAD_REACTORS
330
E
102
}
330
E
  0
ACAD_PROXY_OBJECT
  5
E7A4
102
{ACAD_REACTORS
330
E7A3
102
}
330
E7A3
100
AcDbProxyObject
 90
      499
 91
      514
 95
   983063
 70
     0
 93
     1841
310
4214DD185B99185C9928B81E85EB51B8AE3F2E07A17AD46E2B8FC02B5E8DC0F42B1CFD028000000C1008070000C3001FDFF8000000C1003FBFF000000182007F7FE00000030400FEFFC00000060801FDFF8000000C1003FBFF00000018200000000000000681FA0B0000001820100E000186003FBFF000000182007F7FE000
310
00030400FEFFC00000060801FDFF8000000C1003FBFF000000182007F7FE000000304000AD7A3703D0AC73F4160000003040201C00030C007F7FE00000030400FEFFC00000060801FDFF8000000C1003FBFF000000182007F7FE00000030400FEFFC000000608000
340
11
340
11
340
11
 94
        0
1001
ACAD
1000
AcRTDxfName
1000
TABLESTYLE
  0
XRECORD
  5
EAD6
102
{ACAD_REACTORS
330
EAD4
102
}
330
EAD4
100
AcDbXrecord
280
     1
340
3D97
  0
XRECORD
  5
EAD5
102
{ACAD_REACTORS
330
EAD4
102
}
330
EAD4
100
AcDbXrecord
280
     1
340
3D96
  0
DICTIONARYVAR
  5
E8F8
102
{ACAD_REACTORS
330
3E63
102
}
330
3E63
100
DictionaryVariables
280
     0
  1
STANDARD
  0
DICTIONARYVAR
  5
3E64
102
{ACAD_REACTORS
330
3E63
102
}
330
3E63
100
DictionaryVariables
280
     0
  1
1
  0
DICTIONARYVAR
  5
3E65
102
{ACAD_REACTORS
330
3E63
102
}
330
3E63
100
DictionaryVariables
280
     0
  1

  0
DICTIONARY
  5
EAD9
330
21
100
AcDbDictionary
280
     1
281
     1
  3
ACAD_XREC_ROUNDTRIP
360
EADA
  0
DICTIONARY
  5
EAD7
330
1D
100
AcDbDictionary
280
     1
281
     1
  3
ACAD_XREC_ROUNDTRIP
360
EAD8
  0
DICTIONARY
  5
EADB
330
4150
100
AcDbDictionary
280
     1
281
     1
  3
ACAD_XREC_ROUNDTRIP
360
EADC
  0
XRECORD
  5
EADA
102
{ACAD_REACTORS
330
EAD9
102
}
330
EAD9
100
AcDbXrecord
280
     1
102
SHADEPLOT
 70
     0
102
SHADEPLOTRESLEVEL
 70
     2
102
SHADEPLOTCUSTOMDPI
 70
   300
  0
XRECORD
  5
EAD8
102
{ACAD_REACTORS
330
EAD7
102
}
330
EAD7
100
AcDbXrecord
280
     1
102
SHADEPLOT
 70
     0
102
SHADEPLOTRESLEVEL
 70
     2
102
SHADEPLOTCUSTOMDPI
 70
   300
  0
XRECORD
  5
EADC
102
{ACAD_REACTORS
330
EADB
102
}
330
EADB
100
AcDbXrecord
280
     1
102
SHADEPLOT
 70
     0
102
SHADEPLOTRESLEVEL
 70
     2
102
SHADEPLOTCUSTOMDPI
 70
   300
  0
ENDSEC
  0
EOF
