  0
SECTION
  2
HEADER
  9
$ACADVER
  1
AC1015
  9
$ACADMAINTVER
 70
    20
  9
$DWGCODEPAGE
  3
ANSI_950
  9
$INSBASE
 10
0.0
 20
0.0
 30
0.0
  9
$EXTMIN
 10
-30.64781757941728
 20
-1408.426150329209
 30
0.0
  9
$EXTMAX
 10
361.2628588512474
 20
-1200.460235227634
 30
0.0
  9
$LIMMIN
 10
0.0
 20
0.0
  9
$LIMMAX
 10
420.0
 20
297.0
  9
$ORTHOMODE
 70
     0
  9
$REGENMODE
 70
     1
  9
$FILLMODE
 70
     1
  9
$QTEXTMODE
 70
     0
  9
$MIRRTEXT
 70
     0
  9
$LTSCALE
 40
2.0
  9
$ATTMODE
 70
     1
  9
$TEXTSIZE
 40
5.0
  9
$TRACEWID
 40
1.0
  9
$TEXTSTYLE
  7
型式2
  9
$CLAYER
  8
0
  9
$CELTYPE
  6
ByLayer
  9
$CECOLOR
 62
   256
  9
$CELTSCALE
 40
0.27
  9
$DISPSILH
 70
     0
  9
$DIMSCALE
 40
2.0
  9
$DIMASZ
 40
2.399999999999999
  9
$DIMEXO
 40
0.7
  9
$DIMDLI
 40
3.2
  9
$DIMRND
 40
0.0
  9
$DIMDLE
 40
0.0
  9
$DIMEXE
 40
0.7
  9
$DIMTP
 40
0.0
  9
$DIMTM
 40
0.0
  9
$DIMTXT
 40
2.5
  9
$DIMCEN
 40
2.5
  9
$DIMTSZ
 40
0.0
  9
$DIMTOL
 70
     0
  9
$DIMLIM
 70
     0
  9
$DIMTIH
 70
     0
  9
$DIMTOH
 70
     0
  9
$DIMSE1
 70
     0
  9
$DIMSE2
 70
     0
  9
$DIMTAD
 70
     1
  9
$DIMZIN
 70
     8
  9
$DIMBLK
  1

  9
$DIMASO
 70
     1
  9
$DIMSHO
 70
     1
  9
$DIMPOST
  1

  9
$DIMAPOST
  1

  9
$DIMALT
 70
     0
  9
$DIMALTD
 70
     3
  9
$DIMALTF
 40
0.03937007874016
  9
$DIMLFAC
 40
1.0
  9
$DIMTOFL
 70
     1
  9
$DIMTVP
 40
0.0
  9
$DIMTIX
 70
     0
  9
$DIMSOXD
 70
     0
  9
$DIMSAH
 70
     0
  9
$DIMBLK1
  1

  9
$DIMBLK2
  1

  9
$DIMSTYLE
  2
ISO-25
  9
$DIMCLRD
 70
   256
  9
$DIMCLRE
 70
   256
  9
$DIMCLRT
 70
   256
  9
$DIMTFAC
 40
1.0
  9
$DIMGAP
 40
0.7
  9
$DIMJUST
 70
     0
  9
$DIMSD1
 70
     0
  9
$DIMSD2
 70
     0
  9
$DIMTOLJ
 70
     0
  9
$DIMTZIN
 70
     8
  9
$DIMALTZ
 70
     0
  9
$DIMALTTZ
 70
     0
  9
$DIMUPT
 70
     0
  9
$DIMDEC
 70
     2
  9
$DIMTDEC
 70
     8
  9
$DIMALTU
 70
     2
  9
$DIMALTTD
 70
     3
  9
$DIMTXSTY
  7
Standard
  9
$DIMAUNIT
 70
     0
  9
$DIMADEC
 70
     0
  9
$DIMALTRND
 40
0.0
  9
$DIMAZIN
 70
     0
  9
$DIMDSEP
 70
    46
  9
$DIMATFIT
 70
     3
  9
$DIMFRAC
 70
     0
  9
$DIMLDRBLK
  1

  9
$DIMLUNIT
 70
     2
  9
$DIMLWD
 70
    -2
  9
$DIMLWE
 70
    -2
  9
$DIMTMOVE
 70
     0
  9
$LUNITS
 70
     2
  9
$LUPREC
 70
     4
  9
$SKETCHINC
 40
1.0
  9
$FILLETRAD
 40
0.5
  9
$AUNITS
 70
     0
  9
$AUPREC
 70
     0
  9
$MENU
  1
.
  9
$ELEVATION
 40
0.0
  9
$PELEVATION
 40
0.0
  9
$THICKNESS
 40
0.0
  9
$LIMCHECK
 70
     0
  9
$CHAMFERA
 40
0.0
  9
$CHAMFERB
 40
0.0
  9
$CHAMFERC
 40
20.0
  9
$CHAMFERD
 40
0.0
  9
$SKPOLY
 70
     0
  9
$TDCREATE
 40
2453634.789869607
  9
$TDUCREATE
 40
2453634.456536273
  9
$TDUPDATE
 40
2454042.454589074
  9
$TDUUPDATE
 40
2454042.121255741
  9
$TDINDWG
 40
0.6087329745
  9
$TDUSRTIMER
 40
0.6087327894
  9
$USRTIMER
 70
     1
  9
$ANGBASE
 50
0.0
  9
$ANGDIR
 70
     0
  9
$PDMODE
 70
     0
  9
$PDSIZE
 40
0.0
  9
$PLINEWID
 40
0.0
  9
$SPLFRAME
 70
     0
  9
$SPLINETYPE
 70
     6
  9
$SPLINESEGS
 70
    30
  9
$HANDSEED
  5
207A3
  9
$SURFTAB1
 70
     6
  9
$SURFTAB2
 70
     6
  9
$SURFTYPE
 70
     6
  9
$SURFU
 70
     6
  9
$SURFV
 70
     6
  9
$UCSBASE
  2

  9
$UCSNAME
  2

  9
$UCSORG
 10
0.0
 20
0.0
 30
0.0
  9
$UCSXDIR
 10
1.0
 20
0.0
 30
0.0
  9
$UCSYDIR
 10
0.0
 20
1.0
 30
0.0
  9
$UCSORTHOREF
  2

  9
$UCSORTHOVIEW
 70
     0
  9
$UCSORGTOP
 10
0.0
 20
0.0
 30
0.0
  9
$UCSORGBOTTOM
 10
0.0
 20
0.0
 30
0.0
  9
$UCSORGLEFT
 10
0.0
 20
0.0
 30
0.0
  9
$UCSORGRIGHT
 10
0.0
 20
0.0
 30
0.0
  9
$UCSORGFRONT
 10
0.0
 20
0.0
 30
0.0
  9
$UCSORGBACK
 10
0.0
 20
0.0
 30
0.0
  9
$PUCSBASE
  2

  9
$PUCSNAME
  2

  9
$PUCSORG
 10
0.0
 20
0.0
 30
0.0
  9
$PUCSXDIR
 10
1.0
 20
0.0
 30
0.0
  9
$PUCSYDIR
 10
0.0
 20
1.0
 30
0.0
  9
$PUCSORTHOREF
  2

  9
$PUCSORTHOVIEW
 70
     0
  9
$PUCSORGTOP
 10
0.0
 20
0.0
 30
0.0
  9
$PUCSORGBOTTOM
 10
0.0
 20
0.0
 30
0.0
  9
$PUCSORGLEFT
 10
0.0
 20
0.0
 30
0.0
  9
$PUCSORGRIGHT
 10
0.0
 20
0.0
 30
0.0
  9
$PUCSORGFRONT
 10
0.0
 20
0.0
 30
0.0
  9
$PUCSORGBACK
 10
0.0
 20
0.0
 30
0.0
  9
$USERI1
 70
     0
  9
$USERI2
 70
     0
  9
$USERI3
 70
     0
  9
$USERI4
 70
     0
  9
$USERI5
 70
     0
  9
$USERR1
 40
0.0
  9
$USERR2
 40
0.0
  9
$USERR3
 40
0.0
  9
$USERR4
 40
0.0
  9
$USERR5
 40
0.0
  9
$WORLDVIEW
 70
     1
  9
$SHADEDGE
 70
     3
  9
$SHADEDIF
 70
    70
  9
$TILEMODE
 70
     1
  9
$MAXACTVP
 70
    64
  9
$PINSBASE
 10
0.0
 20
0.0
 30
0.0
  9
$PLIMCHECK
 70
     0
  9
$PEXTMIN
 10
1.000000000000000E+20
 20
1.000000000000000E+20
 30
1.000000000000000E+20
  9
$PEXTMAX
 10
-1.000000000000000E+20
 20
-1.000000000000000E+20
 30
-1.000000000000000E+20
  9
$PLIMMIN
 10
0.0
 20
0.0
  9
$PLIMMAX
 10
420.0
 20
297.0
  9
$UNITMODE
 70
     0
  9
$VISRETAIN
 70
     1
  9
$PLINEGEN
 70
     0
  9
$PSLTSCALE
 70
     1
  9
$TREEDEPTH
 70
  3020
  9
$CMLSTYLE
  2
Standard
  9
$CMLJUST
 70
     0
  9
$CMLSCALE
 40
20.0
  9
$PROXYGRAPHICS
 70
     1
  9
$MEASUREMENT
 70
     1
  9
$CELWEIGHT
370
    -1
  9
$ENDCAPS
280
     0
  9
$JOINSTYLE
280
     0
  9
$LWDISPLAY
290
     0
  9
$INSUNITS
 70
     4
  9
$HYPERLINKBASE
  1

  9
$STYLESHEET
  1
aclt.ctb
  9
$XEDIT
290
     1
  9
$CEPSNTYPE
380
     0
  9
$PSTYLEMODE
290
     1
  9
$FINGERPRINTGUID
  2
{39E6D4C8-9137-4BAE-85E5-615910EF8948}
  9
$VERSIONGUID
  2
{B3FA7C2A-55EE-4285-A12F-09C69ED1286F}
  9
$EXTNAMES
290
     1
  9
$PSVPSCALE
 40
0.0
  9
$OLESTARTUP
290
     0
  0
ENDSEC
  0
SECTION
  2
CLASSES
  0
CLASS
  1
ACDBDICTIONARYWDFLT
  2
AcDbDictionaryWithDefault
  3
ObjectDBX Classes
 90
        0
280
     0
281
     0
  0
CLASS
  1
ACDBPLACEHOLDER
  2
AcDbPlaceHolder
  3
ObjectDBX Classes
 90
        0
280
     0
281
     0
  0
CLASS
  1
LAYOUT
  2
AcDbLayout
  3
ObjectDBX Classes
 90
        0
280
     0
281
     0
  0
CLASS
  1
DICTIONARYVAR
  2
AcDbDictionaryVar
  3
ObjectDBX Classes
 90
        0
280
     0
281
     0
  0
CLASS
  1
PLOTSETTINGS
  2
AcDbPlotSettings
  3
ObjectDBX Classes
 90
        0
280
     0
281
     0
  0
CLASS
  1
TABLESTYLE
  2
AcDbTableStyle
  3
ObjectDBX Classes
 90
     2047
280
     0
281
     0
  0
CLASS
  1
SORTENTSTABLE
  2
AcDbSortentsTable
  3
ObjectDBX Classes
 90
        0
280
     0
281
     0
  0
ENDSEC
  0
SECTION
  2
TABLES
  0
TABLE
  2
VPORT
  5
8
330
0
100
AcDbSymbolTable
 70
     5
  0
VPORT
  5
20797
330
8
100
AcDbSymbolTableRecord
100
AcDbViewportTableRecord
  2
*Active
 70
     0
 10
0.0
 20
0.0
 11
1.0
 21
1.0
 12
168.1483975209618
 22
-1298.356665613238
 13
0.0
 23
0.0
 14
10.0
 24
10.0
 15
10.0
 25
10.0
 16
0.0
 26
0.0
 36
1.0
 17
0.0
 27
0.0
 37
0.0
 40
275.3099688827647
 41
1.530456852791878
 42
50.0
 43
0.0
 44
0.0
 50
0.0
 51
0.0
 71
     0
 72
 20000
 73
     1
 74
     0
 75
     0
 76
     1
 77
     0
 78
     0
281
     0
 65
     1
110
0.0
120
0.0
130
0.0
111
1.0
121
0.0
131
0.0
112
0.0
122
1.0
132
0.0
 79
     0
146
0.0
  0
ENDTAB
  0
TABLE
  2
LTYPE
  5
5
330
0
100
AcDbSymbolTable
 70
     4
  0
LTYPE
  5
14
330
5
100
AcDbSymbolTableRecord
100
AcDbLinetypeTableRecord
  2
ByBlock
 70
     0
  3

 72
    65
 73
     0
 40
0.0
  0
LTYPE
  5
15
330
5
100
AcDbSymbolTableRecord
100
AcDbLinetypeTableRecord
  2
ByLayer
 70
     0
  3

 72
    65
 73
     0
 40
0.0
  0
LTYPE
  5
16
330
5
100
AcDbSymbolTableRecord
100
AcDbLinetypeTableRecord
  2
Continuous
 70
     0
  3
連續線 ________________________
 72
    65
 73
     2
 40
200000.0
 49
200000.0
 74
     0
 49
0.0
 74
     0
  0
LTYPE
  5
AFD
330
5
100
AcDbSymbolTableRecord
100
AcDbLinetypeTableRecord
  2
CENTER2
 70
     0
  3
Center (.5x) ___ _ ___ _ ___ _ ___ _ ___ _ ___
 72
    65
 73
     4
 40
28.575
 49
19.05
 74
     0
 49
-3.174999999999999
 74
     0
 49
3.174999999999999
 74
     0
 49
-3.174999999999999
 74
     0
  0
LTYPE
  5
AFE
330
5
100
AcDbSymbolTableRecord
100
AcDbLinetypeTableRecord
  2
DASHED2
 70
     0
  3
Dashed (.5x) _ _ _ _ _ _ _ _ _ _ _ _ _ _ _ _ _
 72
    65
 73
     2
 40
9.524999999999998
 49
6.349999999999999
 74
     0
 49
-3.174999999999999
 74
     0
  0
LTYPE
  5
AFF
330
5
100
AcDbSymbolTableRecord
100
AcDbLinetypeTableRecord
  2
PHANTOM2
 70
     0
  3
Phantom (.5x) ___ _ _ ___ _ _ ___ _ _ ___ _ _
 72
    65
 73
     6
 40
31.75
 49
15.875
 74
     0
 49
-3.174999999999999
 74
     0
 49
3.174999999999999
 74
     0
 49
-3.174999999999999
 74
     0
 49
3.174999999999999
 74
     0
 49
-3.174999999999999
 74
     0
  0
ENDTAB
  0
TABLE
  2
LAYER
  5
2
102
{ACAD_XDICTIONARY
360
B56
102
}
330
0
100
AcDbSymbolTable
 70
    12
  0
LAYER
  5
10
330
2
100
AcDbSymbolTableRecord
100
AcDbLayerTableRecord
  2
0
 70
     0
 62
     7
  6
Continuous
370
    15
390
F
  0
LAYER
  5
30
330
2
100
AcDbSymbolTableRecord
100
AcDbLayerTableRecord
  2
虛線
 70
     0
 62
     6
  6
DASHED2
370
    13
390
F
  0
LAYER
  5
32
330
2
100
AcDbSymbolTableRecord
100
AcDbLayerTableRecord
  2
標註線
 70
     0
 62
     3
  6
Continuous
370
     9
390
F
  0
LAYER
  5
33
330
2
100
AcDbSymbolTableRecord
100
AcDbLayerTableRecord
  2
文字
 70
     0
 62
     2
  6
Continuous
370
    15
390
F
  0
LAYER
  5
34
330
2
100
AcDbSymbolTableRecord
100
AcDbLayerTableRecord
  2
中心線
 70
     0
 62
     4
  6
CENTER2
370
    15
390
F
  0
LAYER
  5
35
330
2
100
AcDbSymbolTableRecord
100
AcDbLayerTableRecord
  2
圖框
 70
     0
 62
     1
  6
Continuous
370
    35
390
F
  0
LAYER
  5
C67
330
2
100
AcDbSymbolTableRecord
100
AcDbLayerTableRecord
  2
Defpoints
 70
     0
 62
     7
  6
Continuous
290
     0
370
    -3
390
F
  0
LAYER
  5
2A16
330
2
100
AcDbSymbolTableRecord
100
AcDbLayerTableRecord
  2
AM11
 70
     0
 62
     1
  6
PHANTOM2
370
    13
390
F
  0
LAYER
  5
1E3A2
330
2
100
AcDbSymbolTableRecord
100
AcDbLayerTableRecord
  2
假想線
 70
     0
 62
     3
  6
PHANTOM2
370
    15
390
F
  0
LAYER
  5
1E3A3
330
2
100
AcDbSymbolTableRecord
100
AcDbLayerTableRecord
  2
建構線
 70
     0
 62
     1
  6
Continuous
370
    15
390
F
  0
LAYER
  5
1E3A4
330
2
100
AcDbSymbolTableRecord
100
AcDbLayerTableRecord
  2
指線
 70
     0
 62
     3
  6
Continuous
370
    15
390
F
  0
LAYER
  5
1E3A5
330
2
100
AcDbSymbolTableRecord
100
AcDbLayerTableRecord
  2
HIWIN
 70
     0
 62
     7
  6
Continuous
370
    -3
390
F
  0
ENDTAB
  0
TABLE
  2
STYLE
  5
3
330
0
100
AcDbSymbolTable
 70
     8
  0
STYLE
  5
11
330
3
100
AcDbSymbolTableRecord
100
AcDbTextStyleTableRecord
  2
Standard
 70
     0
 40
0.0
 41
1.0
 50
0.0
 71
     0
 42
5.0
  3
isocp.shx
  4
chineset.shx
  0
STYLE
  5
56
330
3
100
AcDbSymbolTableRecord
100
AcDbTextStyleTableRecord
  2
型式1
 70
     0
 40
0.0
 41
1.0
 50
0.0
 71
     0
 42
2.5
  3
PMingLiU.ttf
  4

1001
ACAD
1000
PMingLiU
1071
    34834
  0
STYLE
  5
58
330
3
100
AcDbSymbolTableRecord
100
AcDbTextStyleTableRecord
  2
型式2
 70
     0
 40
0.0
 41
1.0
 50
0.0
 71
     0
 42
5.0
  3
KAIU.TTF
  4

1001
ACAD
1000
DFKai-SB
1071
    34881
  0
STYLE
  5
11FF
330
3
100
AcDbSymbolTableRecord
100
AcDbTextStyleTableRecord
  2
SIMPLEX
 70
     0
 40
0.0
 41
1.0
 50
0.0
 71
     0
 42
2.3
  3
SIMPLEX
  4

  0
STYLE
  5
1200
330
3
100
AcDbSymbolTableRecord
100
AcDbTextStyleTableRecord
  2
COMPLEX
 70
     0
 40
0.0
 41
1.0
 50
0.0
 71
     0
 42
2.3
  3
PMINGLIU
  4
CHINESET
  0
STYLE
  5
1201
330
3
100
AcDbSymbolTableRecord
100
AcDbTextStyleTableRecord
  2
型式I
 70
     0
 40
0.0
 41
1.0
 50
5.0
 71
     0
 42
1.8
  3
KAIU.TTF
  4

1001
ACAD
1000
DFKai-SB
1071
    34881
  0
STYLE
  5
13FD
330
3
100
AcDbSymbolTableRecord
100
AcDbTextStyleTableRecord
  2
ROMANS
 70
     0
 40
0.0
 41
1.0
 50
0.0
 71
     0
 42
6.0
  3
romans
  4

  0
STYLE
  5
1E3A6
330
3
100
AcDbSymbolTableRecord
100
AcDbTextStyleTableRecord
  2
SIMPLEX1
 70
     0
 40
0.0
 41
1.0
 50
0.0
 71
     0
 42
2.5
  3
PMINGLIU
  4
CHINESET
  0
ENDTAB
  0
TABLE
  2
VIEW
  5
6
330
0
100
AcDbSymbolTable
 70
     0
  0
ENDTAB
  0
TABLE
  2
UCS
  5
7
330
0
100
AcDbSymbolTable
 70
     0
  0
ENDTAB
  0
TABLE
  2
APPID
  5
9
330
0
100
AcDbSymbolTable
 70
    38
  0
APPID
  5
12
330
9
100
AcDbSymbolTableRecord
100
AcDbRegAppTableRecord
  2
ACAD
 70
     0
  0
APPID
  5
B4F
330
9
100
AcDbSymbolTableRecord
100
AcDbRegAppTableRecord
  2
partlineartxt_1
 70
     0
  0
APPID
  5
B50
330
9
100
AcDbSymbolTableRecord
100
AcDbRegAppTableRecord
  2
partlineartxt_2
 70
     0
  0
APPID
  5
B51
330
9
100
AcDbSymbolTableRecord
100
AcDbRegAppTableRecord
  2
partlineartxt_3
 70
     0
  0
APPID
  5
B52
330
9
100
AcDbSymbolTableRecord
100
AcDbRegAppTableRecord
  2
partlineartxt_4
 70
     0
  0
APPID
  5
B53
330
9
100
AcDbSymbolTableRecord
100
AcDbRegAppTableRecord
  2
partlineartxt_5
 70
     0
  0
APPID
  5
B54
330
9
100
AcDbSymbolTableRecord
100
AcDbRegAppTableRecord
  2
partlineartxt_6
 70
     0
  0
APPID
  5
B55
330
9
100
AcDbSymbolTableRecord
100
AcDbRegAppTableRecord
  2
partleader2_1
 70
     0
  0
APPID
  5
BF9
330
9
100
AcDbSymbolTableRecord
100
AcDbRegAppTableRecord
  2
CONTENTBLOCKICON
 70
     0
  0
APPID
  5
CA3
330
9
100
AcDbSymbolTableRecord
100
AcDbRegAppTableRecord
  2
TCAD
 70
     0
  0
APPID
  5
CA4
330
9
100
AcDbSymbolTableRecord
100
AcDbRegAppTableRecord
  2
pntflag
 70
     0
  0
APPID
  5
1097
330
9
100
AcDbSymbolTableRecord
100
AcDbRegAppTableRecord
  2
partleader_1
 70
     0
  0
APPID
  5
109A
330
9
100
AcDbSymbolTableRecord
100
AcDbRegAppTableRecord
  2
partgeo_1
 70
     0
  0
APPID
  5
109B
330
9
100
AcDbSymbolTableRecord
100
AcDbRegAppTableRecord
  2
partgeo_2
 70
     0
  0
APPID
  5
109D
330
9
100
AcDbSymbolTableRecord
100
AcDbRegAppTableRecord
  2
boltgbase_1
 70
     0
  0
APPID
  5
109E
330
9
100
AcDbSymbolTableRecord
100
AcDbRegAppTableRecord
  2
boltgbase_2
 70
     0
  0
APPID
  5
109F
330
9
100
AcDbSymbolTableRecord
100
AcDbRegAppTableRecord
  2
boltgbase_3
 70
     0
  0
APPID
  5
12C3
330
9
100
AcDbSymbolTableRecord
100
AcDbRegAppTableRecord
  2
sheetflag
 70
     0
  0
APPID
  5
12C5
330
9
100
AcDbSymbolTableRecord
100
AcDbRegAppTableRecord
  2
sheettxtflag
 70
     0
  0
APPID
  5
12D5
330
9
100
AcDbSymbolTableRecord
100
AcDbRegAppTableRecord
  2
series
 70
     0
  0
APPID
  5
12D6
330
9
100
AcDbSymbolTableRecord
100
AcDbRegAppTableRecord
  2
msize
 70
     0
  0
APPID
  5
12D9
330
9
100
AcDbSymbolTableRecord
100
AcDbRegAppTableRecord
  2
savename
 70
     0
  0
APPID
  5
12DF
330
9
100
AcDbSymbolTableRecord
100
AcDbRegAppTableRecord
  2
sheetnoteflag
 70
     0
  0
APPID
  5
142E
330
9
100
AcDbSymbolTableRecord
100
AcDbRegAppTableRecord
  2
multi_txt
 70
     0
  0
APPID
  5
1454
330
9
100
AcDbSymbolTableRecord
100
AcDbRegAppTableRecord
  2
eview
 70
     0
  0
APPID
  5
1455
330
9
100
AcDbSymbolTableRecord
100
AcDbRegAppTableRecord
  2
handle
 70
     0
  0
APPID
  5
1456
330
9
100
AcDbSymbolTableRecord
100
AcDbRegAppTableRecord
  2
po
 70
     0
  0
APPID
  5
145C
330
9
100
AcDbSymbolTableRecord
100
AcDbRegAppTableRecord
  2
viewe
 70
     0
  0
APPID
  5
145D
330
9
100
AcDbSymbolTableRecord
100
AcDbRegAppTableRecord
  2
str_drawtype
 70
     0
  0
APPID
  5
1654
330
9
100
AcDbSymbolTableRecord
100
AcDbRegAppTableRecord
  2
BLKBOM
 70
     0
  0
APPID
  5
2108
330
9
100
AcDbSymbolTableRecord
100
AcDbRegAppTableRecord
  2
ACAD_PSEXT
 70
     0
  0
APPID
  5
EFB0
330
9
100
AcDbSymbolTableRecord
100
AcDbRegAppTableRecord
  2
ACAD_DSTYLE_DIMFLIPARROW_SYMBOL
 70
     0
  0
APPID
  5
EFB1
330
9
100
AcDbSymbolTableRecord
100
AcDbRegAppTableRecord
  2
ACAD_DSTYLE_DIMFLIPARROW_WHICH_SYMBOL
 70
     0
  0
APPID
  5
1E3A7
330
9
100
AcDbSymbolTableRecord
100
AcDbRegAppTableRecord
  2
partlineartxt_7
 70
     0
  0
APPID
  5
1E3A8
330
9
100
AcDbSymbolTableRecord
100
AcDbRegAppTableRecord
  2
partlineartxt_8
 70
     0
  0
APPID
  5
1E3A9
330
9
100
AcDbSymbolTableRecord
100
AcDbRegAppTableRecord
  2
partlineartxt_9
 70
     0
  0
APPID
  5
1E3AA
330
9
100
AcDbSymbolTableRecord
100
AcDbRegAppTableRecord
  2
partlineartxt_10
 70
     0
  0
APPID
  5
1E3AB
330
9
100
AcDbSymbolTableRecord
100
AcDbRegAppTableRecord
  2
partlineartxt_11
 70
     0
  0
ENDTAB
  0
TABLE
  2
DIMSTYLE
  5
A
330
0
100
AcDbSymbolTable
 70
     2
100
AcDbDimStyleTable
 71
     1
340
27
  0
DIMSTYLE
105
27
330
A
100
AcDbSymbolTableRecord
100
AcDbDimStyleTableRecord
  2
ISO-25
 70
     0
 40
2.0
 41
2.399999999999999
 42
0.7
 43
3.2
 44
0.7
 73
     0
 74
     0
 77
     1
 78
     8
140
2.5
141
2.5
143
0.03937007874016
147
0.7
171
     3
172
     1
176
   256
177
   256
178
   256
271
     2
272
     8
274
     3
283
     0
284
     8
340
11
  0
DIMSTYLE
105
CA2
330
A
100
AcDbSymbolTableRecord
100
AcDbDimStyleTableRecord
  2
Standard
 70
     0
 40
2.0
340
11
  0
ENDTAB
  0
TABLE
  2
BLOCK_RECORD
  5
1
330
0
100
AcDbSymbolTable
 70
    17
  0
BLOCK_RECORD
  5
1F
102
{ACAD_XDICTIONARY
360
37F6
102
}
330
1
100
AcDbSymbolTableRecord
100
AcDbBlockTableRecord
  2
*Model_Space
340
22
  0
BLOCK_RECORD
  5
1B
330
1
100
AcDbSymbolTableRecord
100
AcDbBlockTableRecord
  2
*Paper_Space
340
1E
  0
BLOCK_RECORD
  5
23
330
1
100
AcDbSymbolTableRecord
100
AcDbBlockTableRecord
  2
*Paper_Space0
340
26
  0
BLOCK_RECORD
  5
1202
330
1
100
AcDbSymbolTableRecord
100
AcDbBlockTableRecord
  2
a4hc_HG
340
0
  0
BLOCK_RECORD
  5
13FE
330
1
100
AcDbSymbolTableRecord
100
AcDbBlockTableRecord
  2
f04s
340
0
  0
BLOCK_RECORD
  5
140E
330
1
100
AcDbSymbolTableRecord
100
AcDbBlockTableRecord
  2
f04s1
340
0
  0
BLOCK_RECORD
  5
144C
330
1
100
AcDbSymbolTableRecord
100
AcDbBlockTableRecord
  2
eview
340
0
  0
BLOCK_RECORD
  5
1457
330
1
100
AcDbSymbolTableRecord
100
AcDbBlockTableRecord
  2
viewe
340
0
  0
BLOCK_RECORD
  5
1E1CC
102
{ACAD_XDICTIONARY
360
1E1CD
102
}
330
1
100
AcDbSymbolTableRecord
100
AcDbBlockTableRecord
  2
a4hc_RG
340
0
  0
BLOCK_RECORD
  5
1E382
330
1
100
AcDbSymbolTableRecord
100
AcDbBlockTableRecord
  2
_DotSmall
340
0
  0
BLOCK_RECORD
  5
1E386
330
1
100
AcDbSymbolTableRecord
100
AcDbBlockTableRecord
  2
4
340
0
102
{BLKREFS
331
1E3A0
102
}
  0
BLOCK_RECORD
  5
1E38A
330
1
100
AcDbSymbolTableRecord
100
AcDbBlockTableRecord
  2
blk_c
340
0
  0
BLOCK_RECORD
  5
1E38F
330
1
100
AcDbSymbolTableRecord
100
AcDbBlockTableRecord
  2
blk_a
340
0
  0
BLOCK_RECORD
  5
1E394
330
1
100
AcDbSymbolTableRecord
100
AcDbBlockTableRecord
  2
blk_d
340
0
  0
BLOCK_RECORD
  5
1E399
330
1
100
AcDbSymbolTableRecord
100
AcDbBlockTableRecord
  2
blk_b
340
0
  0
BLOCK_RECORD
  5
1E39E
330
1
100
AcDbSymbolTableRecord
100
AcDbBlockTableRecord
  2
2
340
0
1001
ACAD
1000
DesignCenter Data
1002
{
1070
     1
1070
     4
1002
}
  0
BLOCK_RECORD
  5
1EC49
102
{ACAD_XDICTIONARY
360
1ECC2
102
}
330
1
100
AcDbSymbolTableRecord
100
AcDbBlockTableRecord
  2
A$C2BEC5252
340
0
  0
BLOCK_RECORD
  5
20347
102
{ACAD_XDICTIONARY
360
20357
102
}
330
1
100
AcDbSymbolTableRecord
100
AcDbBlockTableRecord
  2
A$C51E2538E
340
0
  0
BLOCK_RECORD
  5
2035B
102
{ACAD_XDICTIONARY
360
20368
102
}
330
1
100
AcDbSymbolTableRecord
100
AcDbBlockTableRecord
  2
A$C3310154B
340
0
  0
ENDTAB
  0
ENDSEC
  0
SECTION
  2
BLOCKS
  0
BLOCK
  5
20
330
1F
100
AcDbEntity
  8
0
100
AcDbBlockBegin
  2
*Model_Space
 70
     0
 10
0.0
 20
0.0
 30
0.0
  3
*Model_Space
  1

  0
ENDBLK
  5
21
330
1F
100
AcDbEntity
  8
0
100
AcDbBlockEnd
  0
BLOCK
  5
1C
330
1B
100
AcDbEntity
 67
     1
  8
0
100
AcDbBlockBegin
  2
*Paper_Space
 70
     0
 10
0.0
 20
0.0
 30
0.0
  3
*Paper_Space
  1

  0
ENDBLK
  5
1D
330
1B
100
AcDbEntity
 67
     1
  8
0
100
AcDbBlockEnd
  0
BLOCK
  5
24
330
23
100
AcDbEntity
  8
0
100
AcDbBlockBegin
  2
*Paper_Space0
 70
     0
 10
0.0
 20
0.0
 30
0.0
  3
*Paper_Space0
  1

  0
ENDBLK
  5
25
330
23
100
AcDbEntity
  8
0
100
AcDbBlockEnd
  0
BLOCK
  5
12C0
330
1202
100
AcDbEntity
  8
0
 62
     7
 48
0.27
100
AcDbBlockBegin
  2
a4hc_HG
 70
     0
 10
0.0
 20
0.0
 30
0.0
  3
a4hc_HG
  1

  0
HATCH
  5
1203
330
1202
100
AcDbEntity
  8
文字
100
AcDbHatch
 10
0.0
 20
0.0
 30
0.0
210
0.0
220
0.0
230
1.0
  2
SOLID
 70
     1
 71
     0
 91
        5
 92
        7
 72
     1
 73
     1
 93
       25
 10
87.31284730300007
 20
-88.66045918365001
 42
0.0
 10
85.7376951546
 20
-88.66045918365001
 42
0.0
 10
85.60907954220002
 20
-89.14045918365001
 42
0.0
 10
85.7763054527
 20
-89.14045918365001
 42
-0.4931454259997348
 10
86.0081276509956
 20
-89.44257575446648
 42
0.0
 10
84.81011119419003
 20
-93.91363403988721
 42
-0.3394542588631269
 10
84.46237789672606
 20
-94.18045918365001
 42
0.0
 10
84.25861561239997
 20
-94.18045918365001
 42
0.0
 10
84.13000000000002
 20
-94.66045918365001
 42
0.0
 10
86.05000000000002
 20
-94.66045918365001
 42
0.0
 10
86.17861561239999
 20
-94.18045918365001
 42
0.0
 10
85.8827740895
 20
-94.18045918365001
 42
-0.4931454260042405
 10
85.65095189120532
 20
-93.87834261283016
 42
0.0
 10
86.6437023613
 20
-90.17334741915
 42
0.0
 10
88.93
 20
-94.66045918365001
 42
0.0
 10
89.77000000000002
 20
-94.66045918365001
 42
0.0
 10
91.17758396041134
 20
-89.40728432740771
 42
-0.33945425885905
 10
91.52531725787396
 20
-89.14045918365001
 42
0.0
 10
91.62423169070001
 20
-89.14045918365001
 42
0.0
 10
91.75284730299997
 20
-88.66045918365001
 42
0.0
 10
89.83284730299999
 20
-88.66045918365001
 42
0.0
 10
89.70423169069997
 20
-89.14045918365001
 42
0.0
 10
90.09630545270002
 20
-89.14045918365001
 42
-0.49314542600108
 10
90.32812765099533
 20
-89.4425757544675
 42
0.0
 10
89.42628221460003
 20
-92.80830874384998
 42
0.0
 97
        0
 92
        7
 72
     1
 73
     1
 93
       16
 10
84.48141582100573
 20
-89.31834261282872
 42
-0.3394542588673643
 10
84.71323801931598
 20
-89.14045918365001
 42
0.0
 10
85.12907954219997
 20
-89.14045918365001
 42
0.0
 10
85.25769515459996
 20
-88.66045918365001
 42
0.0
 10
82.85769515459998
 20
-88.66045918365001
 42
0.0
 10
82.72907954220002
 20
-89.14045918365001
 42
0.0
 10
83.17269249750001
 20
-89.14045918365001
 42
-0.4931454258380596
 10
83.28860359660103
 20
-89.29151746904622
 42
0.0
 10
82.02627933359531
 20
-94.00257575446746
 42
-0.3394542588719629
 10
81.79445713528403
 20
-94.18045918365001
 42
0.0
 10
81.37861561240004
 20
-94.18045918365001
 42
0.0
 10
81.25000000000003
 20
-94.66045918365001
 42
0.0
 10
83.65
 20
-94.66045918365001
 42
0.0
 10
83.77861561240004
 20
-94.18045918365001
 42
0.0
 10
83.49138970180002
 20
-94.18045918365001
 42
-0.4931454260061948
 10
83.2595675035057
 20
-93.87834261282872
 42
0.0
 97
        0
 92
        7
 72
     1
 73
     1
 93
       31
 10
81.84769145359755
 20
-89.26045918365428
 42
-0.2679491924366411
 10
82.05553755050829
 20
-89.14045918365001
 42
0.0
 10
82.36907954220001
 20
-89.14045918365001
 42
0.0
 10
82.4976951546
 20
-88.66045918365001
 42
0.0
 10
80.33769515459999
 20
-88.66045918365001
 42
0.0
 10
80.20907954220005
 20
-89.14045918365001
 42
0.0
 10
80.56289929950001
 20
-89.14045918365001
 42
-0.5628963153237844
 10
80.72256124950014
 20
-89.40357393404978
 42
0.0
 10
78.89163332860002
 20
-92.92075374574997
 42
0.0
 10
78.82777920529955
 20
-89.26255347242422
 42
-0.4193348017625921
 10
78.94776092871828
 20
-89.14045918365001
 42
0.0
 10
79.24907954219998
 20
-89.14045918365001
 42
0.0
 10
79.37769515459999
 20
-88.66045918365001
 42
0.0
 10
77.09769515460002
 20
-88.66045918365001
 42
0.0
 10
76.96907954220003
 20
-89.14045918365001
 42
0.0
 10
77.1255890983
 20
-89.14045918365001
 42
-0.5773502691742179
 10
77.54128129210283
 20
-89.8604591836451
 42
0.0
 10
75.77171508830002
 20
-92.92543775595001
 42
0.0
 10
75.70991036910072
 20
-89.38464776119046
 42
-0.4193348017528848
 10
75.94987381593833
 20
-89.14045918365001
 42
0.0
 10
76.24907954220003
 20
-89.14045918365001
 42
0.0
 10
76.37769515459999
 20
-88.66045918365001
 42
0.0
 10
73.97769515459998
 20
-88.66045918365001
 42
0.0
 10
73.8490795422
 20
-89.14045918365001
 42
0.0
 10
74.17924157699999
 20
-89.14045918365001
 42
-0.4014906669321768
 10
74.41901315020141
 20
-89.36999053068218
 42
0.0
 10
74.64999999999998
 20
-94.66045918365001
 42
0.0
 10
75.61000000000001
 20
-94.66045918365001
 42
0.0
 10
77.7149916749
 20
-91.50903434665009
 42
0.0
 10
77.77000000000001
 20
-94.66045918365001
 42
0.0
 10
78.73000000000001
 20
-94.66045918365001
 42
0.0
 97
        0
 92
        7
 72
     1
 73
     1
 93
       16
 10
72.84141582100571
 20
-89.31834261282872
 42
-0.3394542588673603
 10
73.07323801931596
 20
-89.14045918365001
 42
0.0
 10
73.48907954220002
 20
-89.14045918365001
 42
0.0
 10
73.6176951546
 20
-88.66045918365001
 42
0.0
 10
71.21769515459999
 20
-88.66045918365001
 42
0.0
 10
71.08907954220004
 20
-89.14045918365001
 42
0.0
 10
71.53269249749996
 20
-89.14045918365001
 42
-0.4931454258381302
 10
71.64860359660102
 20
-89.29151746904622
 42
0.0
 10
70.38627933359535
 20
-94.00257575446746
 42
-0.3394542588719971
 10
70.15445713528404
 20
-94.18045918365001
 42
0.0
 10
69.73861561239999
 20
-94.18045918365001
 42
0.0
 10
69.61000000000004
 20
-94.66045918365001
 42
0.0
 10
72.01000000000002
 20
-94.66045918365001
 42
0.0
 10
72.1386156124
 20
-94.18045918365001
 42
0.0
 10
71.8513897018
 20
-94.18045918365001
 42
-0.4931454260061438
 10
71.61956750350572
 20
-93.87834261282874
 42
0.0
 97
        0
 92
        7
 72
     1
 73
     1
 93
       40
 10
70.08141582100572
 20
-89.31834261282872
 42
-0.3394542588673941
 10
70.313238019316
 20
-89.14045918365001
 42
0.0
 10
70.72907954219999
 20
-89.14045918365001
 42
0.0
 10
70.8576951546
 20
-88.66045918365001
 42
0.0
 10
68.4576951546
 20
-88.66045918365001
 42
0.0
 10
68.32907954220002
 20
-89.14045918365001
 42
0.0
 10
68.77269249749997
 20
-89.14045918365001
 42
-0.4931454258321303
 10
68.88860359660163
 20
-89.291517469044
 42
0.0
 10
68.37414114719493
 20
-91.21151746906901
 42
-0.3394542588472685
 10
68.25823004804203
 20
-91.30045918365
 42
0.0
 10
66.10669633130001
 20
-91.30045918365
 42
-0.4931454258316102
 10
65.99078523219836
 20
-91.14940089825617
 42
0.0
 10
66.4814158210034
 20
-89.31834261283734
 42
-0.339454258877745
 10
66.71323801931598
 20
-89.14045918365001
 42
0.0
 10
67.1290795422
 20
-89.14045918365001
 42
0.0
 10
67.25769515459998
 20
-88.66045918365001
 42
0.0
 10
64.85769515460001
 20
-88.66045918365001
 42
0.0
 10
64.72907954219997
 20
-89.14045918365001
 42
0.0
 10
65.1726924975
 20
-89.14045918365001
 42
-0.4931454258380596
 10
65.28860359660104
 20
-89.29151746904622
 42
0.0
 10
64.02627933359531
 20
-94.00257575446746
 42
-0.3394542588719629
 10
63.79445713528403
 20
-94.18045918365001
 42
0.0
 10
63.37861561240003
 20
-94.18045918365001
 42
0.0
 10
63.25
 20
-94.66045918365001
 42
0.0
 10
65.65000000000003
 20
-94.66045918365001
 42
0.0
 10
65.77861561240005
 20
-94.18045918365001
 42
0.0
 10
65.64777674660001
 20
-94.18045918365001
 42
-0.4931454260592977
 10
65.30004344911154
 20
-93.72728432740695
 42
0.0
 10
65.73355400740609
 20
-92.10940089822733
 42
-0.339454258838397
 10
65.849465106558
 20
-92.02045918365
 42
0.0
 10
68.00099882329999
 20
-92.02045918365
 42
-0.4931454258316087
 10
68.11690992240165
 20
-92.17151746904383
 42
0.0
 10
67.62627933359661
 20
-94.00257575446266
 42
-0.3394542588777114
 10
67.39445713528406
 20
-94.18045918365001
 42
0.0
 10
66.97861561240003
 20
-94.18045918365001
 42
0.0
 10
66.85000000000002
 20
-94.66045918365001
 42
0.0
 10
69.25
 20
-94.66045918365001
 42
0.0
 10
69.37861561240001
 20
-94.18045918365001
 42
0.0
 10
69.09138970180001
 20
-94.18045918365001
 42
-0.4931454260061438
 10
68.85956750350572
 20
-93.87834261282874
 42
0.0
 97
        0
 75
     0
 76
     1
 47
0.0375180088224066
 98
        5
 10
88.20901055367233
 20
-91.69475157655403
 10
83.70319790931592
 20
-90.83183694378936
 10
80.21119388198883
 20
-91.16949944083188
 10
71.95053736733552
 20
-90.64424730510967
 10
69.05930767299003
 20
-90.90687337297078
  0
CIRCLE
  5
1204
330
1202
100
AcDbEntity
  8
文字
100
AcDbCircle
 10
92.35440421570002
 20
-93.78229363355
 30
0.0
 40
1.199999999999988
  0
LINE
  5
1205
330
1202
100
AcDbEntity
  8
文字
100
AcDbLine
 10
89.83284730299999
 20
-88.66045918365001
 30
0.0
 11
91.75284730300001
 21
-88.66045918365001
 31
0.0
  0
LINE
  5
1206
330
1202
100
AcDbEntity
  8
文字
100
AcDbLine
 10
87.31284730300002
 20
-88.66045918365001
 30
0.0
 11
85.7376951546
 21
-88.66045918365001
 31
0.0
  0
LINE
  5
1207
330
1202
100
AcDbEntity
  8
文字
100
AcDbLine
 10
89.7042316907
 20
-89.14045918365001
 30
0.0
 11
90.09630545270002
 21
-89.14045918365001
 31
0.0
  0
LINE
  5
1208
330
1202
100
AcDbEntity
  8
文字
100
AcDbLine
 10
91.52531725790002
 20
-89.14045918365001
 30
0.0
 11
91.62423169070001
 21
-89.14045918365001
 31
0.0
  0
ARC
  5
1209
330
1202
100
AcDbEntity
  8
文字
100
AcDbCircle
 10
90.09630545270002
 20
-89.38045918365
 30
0.0
 40
0.24
100
AcDbArc
 50
345.0000109816997
 51
90.0
  0
ARC
  5
120A
330
1202
100
AcDbEntity
  8
文字
100
AcDbCircle
 10
91.52531725790002
 20
-89.50045918365001
 30
0.0
 40
0.36
100
AcDbArc
 50
90.0
 51
165.0000052521
  0
TEXT
  5
120B
330
1202
100
AcDbEntity
  8
文字
100
AcDbText
 10
91.70403496470001
 20
-94.61179976495001
 30
0.0
 40
1.558055249599999
  1
R
 41
0.75
 51
5.000000159199999
  7
SIMPLEX
100
AcDbText
  0
LINE
  5
120C
330
1202
100
AcDbEntity
  8
文字
100
AcDbLine
 10
89.77000000000002
 20
-94.66045918365001
 30
0.0
 11
91.17758396040001
 21
-89.40728432745
 31
0.0
  0
LINE
  5
120D
330
1202
100
AcDbEntity
  8
文字
100
AcDbLine
 10
85.12907954220001
 20
-89.14045918365001
 30
0.0
 11
84.71323801930001
 21
-89.14045918365001
 31
0.0
  0
ARC
  5
120E
330
1202
100
AcDbEntity
  8
文字
100
AcDbCircle
 10
84.71323801930001
 20
-89.38045918365
 30
0.0
 40
0.24
100
AcDbArc
 50
90.0
 51
165.0000052521
  0
LINE
  5
120F
330
1202
100
AcDbEntity
  8
文字
100
AcDbLine
 10
85.7763054527
 20
-89.14045918365001
 30
0.0
 11
85.60907954220002
 21
-89.14045918365001
 31
0.0
  0
ARC
  5
1210
330
1202
100
AcDbEntity
  8
文字
100
AcDbCircle
 10
85.7763054527
 20
-89.38045918365
 30
0.0
 40
0.24
100
AcDbArc
 50
345.0000109816997
 51
90.0
  0
LINE
  5
1211
330
1202
100
AcDbEntity
  8
文字
100
AcDbLine
 10
86.05000000000002
 20
-94.66045918365001
 30
0.0
 11
84.13
 21
-94.66045918365001
 31
0.0
  0
LINE
  5
1212
330
1202
100
AcDbEntity
  8
文字
100
AcDbLine
 10
86.17861561239999
 20
-94.18045918365001
 30
0.0
 11
85.8827740895
 21
-94.18045918365001
 31
0.0
  0
LINE
  5
1213
330
1202
100
AcDbEntity
  8
文字
100
AcDbLine
 10
84.13
 20
-94.66045918365001
 30
0.0
 11
84.25861561240001
 21
-94.18045918365001
 31
0.0
  0
LINE
  5
1214
330
1202
100
AcDbEntity
  8
文字
100
AcDbLine
 10
86.05000000000002
 20
-94.66045918365001
 30
0.0
 11
86.17861561239999
 21
-94.18045918365001
 31
0.0
  0
LINE
  5
1215
330
1202
100
AcDbEntity
  8
文字
100
AcDbLine
 10
84.46237789670002
 20
-94.18045918365001
 30
0.0
 11
84.25861561240001
 21
-94.18045918365001
 31
0.0
  0
ARC
  5
1216
330
1202
100
AcDbEntity
  8
文字
100
AcDbCircle
 10
84.46237789670002
 20
-93.82045918364999
 30
0.0
 40
0.36
100
AcDbArc
 50
270.0
 51
345.0000109816995
  0
ARC
  5
1217
330
1202
100
AcDbEntity
  8
文字
100
AcDbCircle
 10
85.8827740895
 20
-93.94045918365
 30
0.0
 40
0.24
100
AcDbArc
 50
165.0000052521
 51
270.0
  0
LINE
  5
1218
330
1202
100
AcDbEntity
  8
文字
100
AcDbLine
 10
86.008127651
 20
-89.44257575445
 30
0.0
 11
84.81011119420001
 21
-93.91363403985002
 31
0.0
  0
LINE
  5
1219
330
1202
100
AcDbEntity
  8
文字
100
AcDbLine
 10
86.6437023613
 20
-90.17334741915
 30
0.0
 11
85.6509518912
 21
-93.87834261285
 31
0.0
  0
LINE
  5
121A
330
1202
100
AcDbEntity
  8
文字
100
AcDbLine
 10
88.93
 20
-94.66045918365001
 30
0.0
 11
86.6437023613
 21
-90.17334741915
 31
0.0
  0
LINE
  5
121B
330
1202
100
AcDbEntity
  8
文字
100
AcDbLine
 10
88.93
 20
-94.66045918365001
 30
0.0
 11
89.77000000000002
 21
-94.66045918365001
 31
0.0
  0
LINE
  5
121C
330
1202
100
AcDbEntity
  8
文字
100
AcDbLine
 10
89.42628221460001
 20
-92.80830874385001
 30
0.0
 11
90.32812765100002
 21
-89.44257575445
 31
0.0
  0
LINE
  5
121D
330
1202
100
AcDbEntity
  8
文字
100
AcDbLine
 10
85.12907954220001
 20
-89.14045918365001
 30
0.0
 11
85.25769515460002
 21
-88.66045918365001
 31
0.0
  0
LINE
  5
121E
330
1202
100
AcDbEntity
  8
文字
100
AcDbLine
 10
85.60907954220002
 20
-89.14045918365001
 30
0.0
 11
85.7376951546
 21
-88.66045918365001
 31
0.0
  0
LINE
  5
121F
330
1202
100
AcDbEntity
  8
文字
100
AcDbLine
 10
89.42628221460001
 20
-92.80830874385001
 30
0.0
 11
87.31284730300002
 21
-88.66045918365001
 31
0.0
  0
LINE
  5
1220
330
1202
100
AcDbEntity
  8
文字
100
AcDbLine
 10
89.7042316907
 20
-89.14045918365001
 30
0.0
 11
89.83284730299999
 21
-88.66045918365001
 31
0.0
  0
LINE
  5
1221
330
1202
100
AcDbEntity
  8
文字
100
AcDbLine
 10
91.62423169070001
 20
-89.14045918365001
 30
0.0
 11
91.75284730300001
 21
-88.66045918365001
 31
0.0
  0
LINE
  5
1222
330
1202
100
AcDbEntity
  8
文字
100
AcDbLine
 10
82.4976951546
 20
-88.66045918365001
 30
0.0
 11
80.33769515459999
 21
-88.66045918365001
 31
0.0
  0
LINE
  5
1223
330
1202
100
AcDbEntity
  8
文字
100
AcDbLine
 10
76.37769515460002
 20
-88.66045918365001
 30
0.0
 11
73.97769515460002
 21
-88.66045918365001
 31
0.0
  0
LINE
  5
1224
330
1202
100
AcDbEntity
  8
文字
100
AcDbLine
 10
79.37769515460002
 20
-88.66045918365001
 30
0.0
 11
77.09769515460002
 21
-88.66045918365001
 31
0.0
  0
LINE
  5
1225
330
1202
100
AcDbEntity
  8
文字
100
AcDbLine
 10
70.8576951546
 20
-88.66045918365001
 30
0.0
 11
68.4576951546
 21
-88.66045918365001
 31
0.0
  0
LINE
  5
1226
330
1202
100
AcDbEntity
  8
文字
100
AcDbLine
 10
67.25769515460001
 20
-88.66045918365001
 30
0.0
 11
64.85769515460001
 21
-88.66045918365001
 31
0.0
  0
LINE
  5
1227
330
1202
100
AcDbEntity
  8
文字
100
AcDbLine
 10
73.6176951546
 20
-88.66045918365001
 30
0.0
 11
71.21769515459999
 21
-88.66045918365001
 31
0.0
  0
LINE
  5
1228
330
1202
100
AcDbEntity
  8
文字
100
AcDbLine
 10
82.36907954220001
 20
-89.14045918365001
 30
0.0
 11
82.05553755050003
 21
-89.14045918365001
 31
0.0
  0
ARC
  5
1229
330
1202
100
AcDbEntity
  8
文字
100
AcDbCircle
 10
82.05553755050003
 20
-89.38045918365
 30
0.0
 40
0.24
100
AcDbArc
 50
90.0
 51
150.0000047745997
  0
ARC
  5
122A
330
1202
100
AcDbEntity
  8
文字
100
AcDbCircle
 10
83.17269249750001
 20
-89.26045918365
 30
0.0
 40
0.12
100
AcDbArc
 50
345.0000109816994
 51
90.0
  0
LINE
  5
122B
330
1202
100
AcDbEntity
  8
文字
100
AcDbLine
 10
83.17269249750001
 20
-89.14045918365001
 30
0.0
 11
82.7290795422
 21
-89.14045918365001
 31
0.0
  0
LINE
  5
122C
330
1202
100
AcDbEntity
  8
文字
100
AcDbLine
 10
79.2490795422
 20
-89.14045918365001
 30
0.0
 11
78.94776092879999
 21
-89.14045918365001
 31
0.0
  0
LINE
  5
122D
330
1202
100
AcDbEntity
  8
文字
100
AcDbLine
 10
80.56289929950001
 20
-89.14045918365001
 30
0.0
 11
80.20907954220001
 21
-89.14045918365001
 31
0.0
  0
LINE
  5
122E
330
1202
100
AcDbEntity
  8
文字
100
AcDbLine
 10
78.89163332859999
 20
-92.92075374575
 30
0.0
 11
78.8277792053
 21
-89.26255347245001
 31
0.0
  0
LINE
  5
122F
330
1202
100
AcDbEntity
  8
文字
100
AcDbLine
 10
78.89163332859999
 20
-92.92075374575
 30
0.0
 11
80.72256124950001
 21
-89.40357393404999
 31
0.0
  0
ARC
  5
1230
330
1202
100
AcDbEntity
  8
文字
100
AcDbCircle
 10
78.94776092879999
 20
-89.26045918365
 30
0.0
 40
0.12
100
AcDbArc
 50
90.0
 51
181.0000057614001
  0
ARC
  5
1231
330
1202
100
AcDbEntity
  8
文字
100
AcDbCircle
 10
80.56289929950001
 20
-89.32045918365
 30
0.0
 40
0.18
100
AcDbArc
 50
332.5000105837975
 51
90.0
  0
ARC
  5
1232
330
1202
100
AcDbEntity
  8
文字
100
AcDbCircle
 10
83.49138970180002
 20
-93.94045918365
 30
0.0
 40
0.24
100
AcDbArc
 50
165.0000052521
 51
270.0
  0
LINE
  5
1233
330
1202
100
AcDbEntity
  8
文字
100
AcDbLine
 10
83.77861561240001
 20
-94.18045918365001
 30
0.0
 11
83.49138970180002
 21
-94.18045918365001
 31
0.0
  0
LINE
  5
1234
330
1202
100
AcDbEntity
  8
文字
100
AcDbLine
 10
83.65
 20
-94.66045918365001
 30
0.0
 11
83.77861561240001
 21
-94.18045918365001
 31
0.0
  0
LINE
  5
1235
330
1202
100
AcDbEntity
  8
文字
100
AcDbLine
 10
81.7944571353
 20
-94.18045918365001
 30
0.0
 11
81.37861561240001
 21
-94.18045918365001
 31
0.0
  0
ARC
  5
1236
330
1202
100
AcDbEntity
  8
文字
100
AcDbCircle
 10
81.7944571353
 20
-93.94045918365
 30
0.0
 40
0.24
100
AcDbArc
 50
270.0
 51
345.0000109816997
  0
LINE
  5
1237
330
1202
100
AcDbEntity
  8
文字
100
AcDbLine
 10
83.65
 20
-94.66045918365001
 30
0.0
 11
81.25
 21
-94.66045918365001
 31
0.0
  0
LINE
  5
1238
330
1202
100
AcDbEntity
  8
文字
100
AcDbLine
 10
81.25
 20
-94.66045918365001
 30
0.0
 11
81.37861561240001
 21
-94.18045918365001
 31
0.0
  0
LINE
  5
1239
330
1202
100
AcDbEntity
  8
文字
100
AcDbLine
 10
78.73000000000001
 20
-94.66045918365001
 30
0.0
 11
81.84769145360002
 21
-89.26045918365
 31
0.0
  0
LINE
  5
123A
330
1202
100
AcDbEntity
  8
文字
100
AcDbLine
 10
82.0262793336
 20
-94.00257575445001
 30
0.0
 11
83.28860359660001
 21
-89.29151746905001
 31
0.0
  0
LINE
  5
123B
330
1202
100
AcDbEntity
  8
文字
100
AcDbLine
 10
76.24907954220001
 20
-89.14045918365001
 30
0.0
 11
75.94987381590001
 21
-89.14045918365001
 31
0.0
  0
LINE
  5
123C
330
1202
100
AcDbEntity
  8
文字
100
AcDbLine
 10
77.1255890983
 20
-89.14045918365001
 30
0.0
 11
76.96907954220001
 21
-89.14045918365001
 31
0.0
  0
LINE
  5
123D
330
1202
100
AcDbEntity
  8
文字
100
AcDbLine
 10
75.7717150883
 20
-92.92543775594999
 30
0.0
 11
77.54128129209999
 21
-89.86045918365
 31
0.0
  0
ARC
  5
123E
330
1202
100
AcDbEntity
  8
文字
100
AcDbCircle
 10
77.1255890983
 20
-89.62045918364999
 30
0.0
 40
0.4800000000000001
100
AcDbArc
 50
330.0000105041998
 51
90.0
  0
LINE
  5
123F
330
1202
100
AcDbEntity
  8
文字
100
AcDbLine
 10
73.48907954220002
 20
-89.14045918365001
 30
0.0
 11
73.07323801930002
 21
-89.14045918365001
 31
0.0
  0
LINE
  5
1240
330
1202
100
AcDbEntity
  8
文字
100
AcDbLine
 10
74.17924157699999
 20
-89.14045918365001
 30
0.0
 11
73.8490795422
 21
-89.14045918365001
 31
0.0
  0
ARC
  5
1241
330
1202
100
AcDbEntity
  8
文字
100
AcDbCircle
 10
74.17924157699999
 20
-89.38045918365
 30
0.0
 40
0.24
100
AcDbArc
 50
2.500000079599775
 51
90.0
  0
LINE
  5
1242
330
1202
100
AcDbEntity
  8
文字
100
AcDbLine
 10
75.7717150883
 20
-92.92543775594999
 30
0.0
 11
75.70991036910001
 21
-89.38464776115001
 31
0.0
  0
ARC
  5
1243
330
1202
100
AcDbEntity
  8
文字
100
AcDbCircle
 10
75.94987381590001
 20
-89.38045918365
 30
0.0
 40
0.24
100
AcDbArc
 50
90.0
 51
181.0000057613999
  0
LINE
  5
1244
330
1202
100
AcDbEntity
  8
文字
100
AcDbLine
 10
74.65
 20
-94.66045918365001
 30
0.0
 11
75.61000000000001
 21
-94.66045918365001
 31
0.0
  0
LINE
  5
1245
330
1202
100
AcDbEntity
  8
文字
100
AcDbLine
 10
74.65
 20
-94.66045918365001
 30
0.0
 11
74.41901315020001
 21
-89.36999053064999
 31
0.0
  0
LINE
  5
1246
330
1202
100
AcDbEntity
  8
文字
100
AcDbLine
 10
75.61000000000001
 20
-94.66045918365001
 30
0.0
 11
77.7149916749
 21
-91.50903434665002
 31
0.0
  0
LINE
  5
1247
330
1202
100
AcDbEntity
  8
文字
100
AcDbLine
 10
77.77000000000001
 20
-94.66045918365001
 30
0.0
 11
77.7149916749
 21
-91.50903434665002
 31
0.0
  0
LINE
  5
1248
330
1202
100
AcDbEntity
  8
文字
100
AcDbLine
 10
77.77000000000001
 20
-94.66045918365001
 30
0.0
 11
78.73000000000001
 21
-94.66045918365001
 31
0.0
  0
LINE
  5
1249
330
1202
100
AcDbEntity
  8
文字
100
AcDbLine
 10
70.72907954219999
 20
-89.14045918365001
 30
0.0
 11
70.3132380193
 21
-89.14045918365001
 31
0.0
  0
LINE
  5
124A
330
1202
100
AcDbEntity
  8
文字
100
AcDbLine
 10
71.5326924975
 20
-89.14045918365001
 30
0.0
 11
71.08907954220001
 21
-89.14045918365001
 31
0.0
  0
ARC
  5
124B
330
1202
100
AcDbEntity
  8
文字
100
AcDbCircle
 10
71.5326924975
 20
-89.26045918365
 30
0.0
 40
0.12
100
AcDbArc
 50
345.0000109816994
 51
90.0
  0
LINE
  5
124C
330
1202
100
AcDbEntity
  8
文字
100
AcDbLine
 10
68.7726924975
 20
-89.14045918365001
 30
0.0
 11
68.32907954220002
 21
-89.14045918365001
 31
0.0
  0
LINE
  5
124D
330
1202
100
AcDbEntity
  8
文字
100
AcDbLine
 10
68.37414114720002
 20
-91.21151746905001
 30
0.0
 11
68.8886035966
 21
-89.29151746905001
 31
0.0
  0
ARC
  5
124E
330
1202
100
AcDbEntity
  8
文字
100
AcDbCircle
 10
68.7726924975
 20
-89.26045918365
 30
0.0
 40
0.12
100
AcDbArc
 50
345.0000109816994
 51
90.0
  0
ARC
  5
124F
330
1202
100
AcDbEntity
  8
文字
100
AcDbCircle
 10
68.258230048
 20
-91.18045918365
 30
0.0
 40
0.12
100
AcDbArc
 50
270.0
 51
345.0000109816994
  0
ARC
  5
1250
330
1202
100
AcDbEntity
  8
文字
100
AcDbCircle
 10
68.00099882329999
 20
-92.14045918365
 30
0.0
 40
0.12
100
AcDbArc
 50
345.0000109816994
 51
90.0
  0
ARC
  5
1251
330
1202
100
AcDbEntity
  8
文字
100
AcDbCircle
 10
70.3132380193
 20
-89.38045918365
 30
0.0
 40
0.24
100
AcDbArc
 50
90.0
 51
165.0000052521
  0
ARC
  5
1252
330
1202
100
AcDbEntity
  8
文字
100
AcDbCircle
 10
70.15445713530002
 20
-93.94045918365
 30
0.0
 40
0.24
100
AcDbArc
 50
270.0
 51
345.0000109816997
  0
LINE
  5
1253
330
1202
100
AcDbEntity
  8
文字
100
AcDbLine
 10
72.01000000000002
 20
-94.66045918365001
 30
0.0
 11
72.1386156124
 21
-94.18045918365001
 31
0.0
  0
LINE
  5
1254
330
1202
100
AcDbEntity
  8
文字
100
AcDbLine
 10
72.1386156124
 20
-94.18045918365001
 30
0.0
 11
71.8513897018
 21
-94.18045918365001
 31
0.0
  0
ARC
  5
1255
330
1202
100
AcDbEntity
  8
文字
100
AcDbCircle
 10
71.8513897018
 20
-93.94045918365
 30
0.0
 40
0.24
100
AcDbArc
 50
165.0000052521
 51
270.0
  0
LINE
  5
1256
330
1202
100
AcDbEntity
  8
文字
100
AcDbLine
 10
69.25
 20
-94.66045918365001
 30
0.0
 11
69.37861561240001
 21
-94.18045918365001
 31
0.0
  0
LINE
  5
1257
330
1202
100
AcDbEntity
  8
文字
100
AcDbLine
 10
69.37861561240001
 20
-94.18045918365001
 30
0.0
 11
69.09138970180001
 21
-94.18045918365001
 31
0.0
  0
ARC
  5
1258
330
1202
100
AcDbEntity
  8
文字
100
AcDbCircle
 10
67.3944571353
 20
-93.94045918365
 30
0.0
 40
0.24
100
AcDbArc
 50
270.0
 51
345.0000109816997
  0
ARC
  5
1259
330
1202
100
AcDbEntity
  8
文字
100
AcDbCircle
 10
69.09138970180001
 20
-93.94045918365
 30
0.0
 40
0.24
100
AcDbArc
 50
165.0000052521
 51
270.0
  0
LINE
  5
125A
330
1202
100
AcDbEntity
  8
文字
100
AcDbLine
 10
69.61000000000002
 20
-94.66045918365001
 30
0.0
 11
69.73861561239999
 21
-94.18045918365001
 31
0.0
  0
LINE
  5
125B
330
1202
100
AcDbEntity
  8
文字
100
AcDbLine
 10
70.15445713530002
 20
-94.18045918365001
 30
0.0
 11
69.73861561239999
 21
-94.18045918365001
 31
0.0
  0
LINE
  5
125C
330
1202
100
AcDbEntity
  8
文字
100
AcDbLine
 10
72.01000000000002
 20
-94.66045918365001
 30
0.0
 11
69.61000000000002
 21
-94.66045918365001
 31
0.0
  0
LINE
  5
125D
330
1202
100
AcDbEntity
  8
文字
100
AcDbLine
 10
67.6262793336
 20
-94.00257575445001
 30
0.0
 11
68.11690992239999
 21
-92.17151746905001
 31
0.0
  0
LINE
  5
125E
330
1202
100
AcDbEntity
  8
文字
100
AcDbLine
 10
68.85956750350001
 20
-93.87834261285
 30
0.0
 11
70.08141582100001
 21
-89.31834261285001
 31
0.0
  0
LINE
  5
125F
330
1202
100
AcDbEntity
  8
文字
100
AcDbLine
 10
70.38627933360001
 20
-94.00257575445001
 30
0.0
 11
71.6486035966
 21
-89.29151746905001
 31
0.0
  0
LINE
  5
1260
330
1202
100
AcDbEntity
  8
文字
100
AcDbLine
 10
71.6195675035
 20
-93.87834261285
 30
0.0
 11
72.841415821
 21
-89.31834261285001
 31
0.0
  0
LINE
  5
1261
330
1202
100
AcDbEntity
  8
文字
100
AcDbLine
 10
67.1290795422
 20
-89.14045918365001
 30
0.0
 11
66.7132380193
 21
-89.14045918365001
 31
0.0
  0
LINE
  5
1262
330
1202
100
AcDbEntity
  8
文字
100
AcDbLine
 10
65.1726924975
 20
-89.14045918365001
 30
0.0
 11
64.7290795422
 21
-89.14045918365001
 31
0.0
  0
LINE
  5
1263
330
1202
100
AcDbEntity
  8
文字
100
AcDbLine
 10
65.99078523220001
 20
-91.14940089825001
 30
0.0
 11
66.48141582100001
 21
-89.31834261285001
 31
0.0
  0
ARC
  5
1264
330
1202
100
AcDbEntity
  8
文字
100
AcDbCircle
 10
65.1726924975
 20
-89.26045918365
 30
0.0
 40
0.12
100
AcDbArc
 50
345.0000109816994
 51
90.0
  0
ARC
  5
1265
330
1202
100
AcDbEntity
  8
文字
100
AcDbCircle
 10
66.7132380193
 20
-89.38045918365
 30
0.0
 40
0.24
100
AcDbArc
 50
90.0
 51
165.0000052521
  0
ARC
  5
1266
330
1202
100
AcDbEntity
  8
文字
100
AcDbCircle
 10
65.8494651066
 20
-92.14045918365
 30
0.0
 40
0.12
100
AcDbArc
 50
90.0
 51
165.0000052521
  0
ARC
  5
1267
330
1202
100
AcDbEntity
  8
文字
100
AcDbCircle
 10
66.10669633130001
 20
-91.18045918365
 30
0.0
 40
0.12
100
AcDbArc
 50
165.0000052521
 51
270.0
  0
LINE
  5
1268
330
1202
100
AcDbEntity
  8
文字
100
AcDbLine
 10
65.77861561240002
 20
-94.18045918365001
 30
0.0
 11
65.64777674660001
 21
-94.18045918365001
 31
0.0
  0
LINE
  5
1269
330
1202
100
AcDbEntity
  8
文字
100
AcDbLine
 10
65.65000000000001
 20
-94.66045918365001
 30
0.0
 11
65.77861561240002
 21
-94.18045918365001
 31
0.0
  0
LINE
  5
126A
330
1202
100
AcDbEntity
  8
文字
100
AcDbLine
 10
66.84999999999999
 20
-94.66045918365001
 30
0.0
 11
66.9786156124
 21
-94.18045918365001
 31
0.0
  0
ARC
  5
126B
330
1202
100
AcDbEntity
  8
文字
100
AcDbCircle
 10
65.64777674660001
 20
-93.82045918364999
 30
0.0
 40
0.36
100
AcDbArc
 50
165.0000052521
 51
270.0
  0
LINE
  5
126C
330
1202
100
AcDbEntity
  8
文字
100
AcDbLine
 10
63.7944571353
 20
-94.18045918365001
 30
0.0
 11
63.37861561240001
 21
-94.18045918365001
 31
0.0
  0
LINE
  5
126D
330
1202
100
AcDbEntity
  8
文字
100
AcDbLine
 10
63.25
 20
-94.66045918365001
 30
0.0
 11
63.37861561240001
 21
-94.18045918365001
 31
0.0
  0
ARC
  5
126E
330
1202
100
AcDbEntity
  8
文字
100
AcDbCircle
 10
63.7944571353
 20
-93.94045918365
 30
0.0
 40
0.24
100
AcDbArc
 50
270.0
 51
345.0000109816997
  0
LINE
  5
126F
330
1202
100
AcDbEntity
  8
文字
100
AcDbLine
 10
65.65000000000001
 20
-94.66045918365001
 30
0.0
 11
63.25
 21
-94.66045918365001
 31
0.0
  0
LINE
  5
1270
330
1202
100
AcDbEntity
  8
文字
100
AcDbLine
 10
64.0262793336
 20
-94.00257575445001
 30
0.0
 11
65.28860359660001
 21
-89.29151746905001
 31
0.0
  0
LINE
  5
1271
330
1202
100
AcDbEntity
  8
文字
100
AcDbLine
 10
65.3000434491
 20
-93.72728432745001
 30
0.0
 11
65.73355400740002
 21
-92.10940089824999
 31
0.0
  0
LINE
  5
1272
330
1202
100
AcDbEntity
  8
文字
100
AcDbLine
 10
67.3944571353
 20
-94.18045918365001
 30
0.0
 11
66.9786156124
 21
-94.18045918365001
 31
0.0
  0
LINE
  5
1273
330
1202
100
AcDbEntity
  8
文字
100
AcDbLine
 10
69.25
 20
-94.66045918365001
 30
0.0
 11
66.84999999999999
 21
-94.66045918365001
 31
0.0
  0
LINE
  5
1274
330
1202
100
AcDbEntity
  8
文字
100
AcDbLine
 10
66.10669633130001
 20
-91.30045918365
 30
0.0
 11
68.258230048
 21
-91.30045918365
 31
0.0
  0
LINE
  5
1275
330
1202
100
AcDbEntity
  8
文字
100
AcDbLine
 10
65.8494651066
 20
-92.02045918365
 30
0.0
 11
68.00099882329999
 21
-92.02045918365
 31
0.0
  0
ARC
  5
1276
330
1202
100
AcDbEntity
  8
文字
100
AcDbCircle
 10
73.07323801930002
 20
-89.38045918365
 30
0.0
 40
0.24
100
AcDbArc
 50
90.0
 51
165.0000052521
  0
LINE
  5
1277
330
1202
100
AcDbEntity
  8
文字
100
AcDbLine
 10
64.7290795422
 20
-89.14045918365001
 30
0.0
 11
64.85769515460001
 21
-88.66045918365001
 31
0.0
  0
LINE
  5
1278
330
1202
100
AcDbEntity
  8
文字
100
AcDbLine
 10
67.1290795422
 20
-89.14045918365001
 30
0.0
 11
67.25769515460001
 21
-88.66045918365001
 31
0.0
  0
LINE
  5
1279
330
1202
100
AcDbEntity
  8
文字
100
AcDbLine
 10
68.32907954220002
 20
-89.14045918365001
 30
0.0
 11
68.4576951546
 21
-88.66045918365001
 31
0.0
  0
LINE
  5
127A
330
1202
100
AcDbEntity
  8
文字
100
AcDbLine
 10
70.72907954219999
 20
-89.14045918365001
 30
0.0
 11
70.8576951546
 21
-88.66045918365001
 31
0.0
  0
LINE
  5
127B
330
1202
100
AcDbEntity
  8
文字
100
AcDbLine
 10
71.08907954220001
 20
-89.14045918365001
 30
0.0
 11
71.21769515459999
 21
-88.66045918365001
 31
0.0
  0
LINE
  5
127C
330
1202
100
AcDbEntity
  8
文字
100
AcDbLine
 10
73.48907954220002
 20
-89.14045918365001
 30
0.0
 11
73.6176951546
 21
-88.66045918365001
 31
0.0
  0
LINE
  5
127D
330
1202
100
AcDbEntity
  8
文字
100
AcDbLine
 10
73.8490795422
 20
-89.14045918365001
 30
0.0
 11
73.97769515460002
 21
-88.66045918365001
 31
0.0
  0
LINE
  5
127E
330
1202
100
AcDbEntity
  8
文字
100
AcDbLine
 10
76.24907954220001
 20
-89.14045918365001
 30
0.0
 11
76.37769515460002
 21
-88.66045918365001
 31
0.0
  0
LINE
  5
127F
330
1202
100
AcDbEntity
  8
文字
100
AcDbLine
 10
76.96907954220001
 20
-89.14045918365001
 30
0.0
 11
77.09769515460002
 21
-88.66045918365001
 31
0.0
  0
LINE
  5
1280
330
1202
100
AcDbEntity
  8
文字
100
AcDbLine
 10
79.2490795422
 20
-89.14045918365001
 30
0.0
 11
79.37769515460002
 21
-88.66045918365001
 31
0.0
  0
LINE
  5
1281
330
1202
100
AcDbEntity
  8
文字
100
AcDbLine
 10
80.20907954220001
 20
-89.14045918365001
 30
0.0
 11
80.33769515459999
 21
-88.66045918365001
 31
0.0
  0
LINE
  5
1282
330
1202
100
AcDbEntity
  8
文字
100
AcDbLine
 10
82.36907954220001
 20
-89.14045918365001
 30
0.0
 11
82.4976951546
 21
-88.66045918365001
 31
0.0
  0
LINE
  5
1283
330
1202
100
AcDbEntity
  8
文字
100
AcDbLine
 10
82.7290795422
 20
-89.14045918365001
 30
0.0
 11
82.85769515460001
 21
-88.66045918365001
 31
0.0
  0
LINE
  5
1284
330
1202
100
AcDbEntity
  8
文字
100
AcDbLine
 10
85.25769515460002
 20
-88.66045918365001
 30
0.0
 11
82.85769515460001
 21
-88.66045918365001
 31
0.0
  0
LINE
  5
1285
330
1202
100
AcDbEntity
  8
文字
100
AcDbLine
 10
83.2595675035
 20
-93.87834261285
 30
0.0
 11
84.48141582100001
 21
-89.31834261285001
 31
0.0
  0
LINE
  5
1286
330
1202
100
AcDbEntity
  8
圖框
100
AcDbLine
 10
137.5
 20
-45.56045918365
 30
0.0
 11
62.5
 21
-45.56045918365
 31
0.0
  0
TEXT
  5
1287
330
1202
100
AcDbEntity
  8
文字
100
AcDbText
 10
95.52649007453704
 20
-94.35242673930732
 30
0.0
 40
3.264802668514023
  1
TECHNOLOGIES CORP.
 51
5.0
  7
型式I
 72
     1
 11
116.3057866166815
 21
-95.27234351330852
 31
0.0
100
AcDbText
 73
     1
  0
TEXT
  5
1288
330
1202
100
AcDbEntity
  8
文字
100
AcDbText
 10
129.2516159000329
 20
93.68953067375702
 30
0.0
 40
2.0
  1
APP
  7
型式1
 72
     1
 11
131.815569388405
 21
93.09650741794307
 31
0.0
100
AcDbText
 73
     1
  0
TEXT
  5
1289
330
1202
100
AcDbEntity
  8
文字
100
AcDbText
 10
116.1171397230732
 20
93.68953067375702
 30
0.0
 40
2.0
  1
DATE
  7
型式1
 72
     1
 11
119.8438839091197
 21
93.09650741794307
 31
0.0
100
AcDbText
 73
     1
  0
TEXT
  5
128A
330
1202
100
AcDbEntity
  8
文字
100
AcDbText
 10
81.50767723018667
 20
93.68953067375702
 30
0.0
 40
2.0
  1
MODIFICATION
  7
型式1
 72
     1
 11
91.75913071855877
 21
93.09650741794307
 31
0.0
100
AcDbText
 73
     1
  0
LINE
  5
128B
330
1202
100
AcDbEntity
  8
圖框
100
AcDbLine
 10
70.5
 20
92.46045918365
 30
0.0
 11
137.5
 21
92.46045918365
 31
0.0
  0
LINE
  5
128C
330
1202
100
AcDbEntity
  8
圖框
100
AcDbLine
 10
113.5
 20
96.46045918365
 30
0.0
 11
113.5
 21
88.46045918365
 31
0.0
  0
LINE
  5
128D
330
1202
100
AcDbEntity
  8
圖框
100
AcDbLine
 10
125.5
 20
96.46045918365
 30
0.0
 11
125.5
 21
88.46045918365
 31
0.0
  0
LINE
  5
128E
330
1202
100
AcDbEntity
  8
圖框
100
AcDbLine
 10
70.5
 20
88.46045918365
 30
0.0
 11
70.5
 21
96.46045918365
 31
0.0
  0
TEXT
  5
128F
330
1202
100
AcDbEntity
  8
文字
 62
     2
100
AcDbText
 10
129.4000000000001
 20
93.46045918365
 30
0.0
 40
1.8
  1
APP
 41
0.85
  7
COMPLEX
100
AcDbText
  0
TEXT
  5
1290
330
1202
100
AcDbEntity
  8
文字
 62
     2
100
AcDbText
 10
116.7
 20
93.46045918365
 30
0.0
 40
1.8
  1
DATE
 41
0.85
  7
COMPLEX
100
AcDbText
  0
TEXT
  5
1291
330
1202
100
AcDbEntity
  8
文字
 62
     2
100
AcDbText
 10
84.29999999999996
 20
93.46045918365
 30
0.0
 40
1.8
  1
MODIFICATION
 41
0.85
  7
COMPLEX
100
AcDbText
  0
LINE
  5
1292
330
1202
100
AcDbEntity
  8
圖框
100
AcDbLine
 10
137.5
 20
-17.96045918365
 30
0.0
 11
62.5
 21
-17.96045918365
 31
0.0
  0
LINE
  5
1293
330
1202
100
AcDbEntity
  8
圖框
100
AcDbLine
 10
137.5
 20
-6.960459183650002
 30
0.0
 11
62.5
 21
-6.960459183650002
 31
0.0
  0
LINE
  5
1294
330
1202
100
AcDbEntity
  8
圖框
100
AcDbLine
 10
137.5
 20
-12.46045918365
 30
0.0
 11
62.5
 21
-12.46045918365
 31
0.0
  0
LINE
  5
1295
330
1202
100
AcDbEntity
  8
圖框
100
AcDbLine
 10
137.5
 20
-23.46045918365
 30
0.0
 11
62.5
 21
-23.46045918365
 31
0.0
  0
LINE
  5
1296
330
1202
100
AcDbEntity
  8
圖框
100
AcDbLine
 10
137.5
 20
-28.96045918365
 30
0.0
 11
62.5
 21
-28.96045918365
 31
0.0
  0
LINE
  5
1297
330
1202
100
AcDbEntity
  8
圖框
100
AcDbLine
 10
137.5
 20
-34.46045918365
 30
0.0
 11
62.5
 21
-34.46045918365
 31
0.0
  0
LINE
  5
1298
330
1202
100
AcDbEntity
  8
圖框
100
AcDbLine
 10
137.5
 20
-39.96045918365
 30
0.0
 11
62.5
 21
-39.96045918365
 31
0.0
  0
LINE
  5
1299
330
1202
100
AcDbEntity
  8
圖框
100
AcDbLine
 10
112.5
 20
-12.46045918365
 30
0.0
 11
112.5
 21
-45.56045918365001
 31
0.0
  0
LINE
  5
129A
330
1202
100
AcDbEntity
  8
圖框
100
AcDbLine
 10
62.5
 20
-6.960459183650002
 30
0.0
 11
62.5
 21
-45.56045918365001
 31
0.0
  0
TEXT
  5
129B
330
1202
100
AcDbEntity
  8
文字
 62
     2
100
AcDbText
 10
64.19520365879884
 20
-68.48550702672961
 30
0.0
 40
3.5
  1
LINEAR MOTION GUIDEWAY
 41
0.7000000000000001
  7
COMPLEX
100
AcDbText
  0
LINE
  5
129C
330
1202
100
AcDbEntity
  8
圖框
100
AcDbLine
 10
137.5
 20
-81.86045918365001
 30
0.0
 11
117.5
 21
-81.86045918365001
 31
0.0
  0
LINE
  5
129D
330
1202
100
AcDbEntity
  8
圖框
100
AcDbLine
 10
137.5
 20
-76.86045918365
 30
0.0
 11
117.5
 21
-76.86045918365
 31
0.0
  0
LINE
  5
129E
330
1202
100
AcDbEntity
  8
圖框
100
AcDbLine
 10
137.5
 20
-72.06045918364999
 30
0.0
 11
117.5
 21
-72.06045918364999
 31
0.0
  0
LINE
  5
129F
330
1202
100
AcDbEntity
  8
圖框
100
AcDbLine
 10
137.5
 20
-67.26045918365
 30
0.0
 11
117.5
 21
-67.26045918365
 31
0.0
  0
LINE
  5
12A0
330
1202
100
AcDbEntity
  8
圖框
100
AcDbLine
 10
137.5
 20
-46.36045918365
 30
0.0
 11
62.5
 21
-46.36045918365
 31
0.0
  0
LINE
  5
12A1
330
1202
100
AcDbEntity
  8
圖框
100
AcDbLine
 10
137.5
 20
-54.46045918365
 30
0.0
 11
62.5
 21
-54.46045918365
 31
0.0
  0
LINE
  5
12A2
330
1202
100
AcDbEntity
  8
圖框
100
AcDbLine
 10
137.5
 20
-62.76045918364999
 30
0.0
 11
62.5
 21
-62.76045918364999
 31
0.0
  0
LINE
  5
12A3
330
1202
100
AcDbEntity
  8
圖框
100
AcDbLine
 10
117.5
 20
-70.46045918365
 30
0.0
 11
62.5
 21
-70.46045918365
 31
0.0
  0
LINE
  5
12A4
330
1202
100
AcDbEntity
  8
圖框
100
AcDbLine
 10
117.5
 20
-78.46045918365
 30
0.0
 11
62.5
 21
-78.46045918365
 31
0.0
  0
LINE
  5
12A5
330
1202
100
AcDbEntity
  8
圖框
100
AcDbLine
 10
137.5
 20
-86.86045918365001
 30
0.0
 11
62.5
 21
-86.86045918365001
 31
0.0
  0
LINE
  5
12A6
330
1202
100
AcDbEntity
  8
圖框
100
AcDbLine
 10
62.5
 20
-46.36045918365
 30
0.0
 11
62.5
 21
-96.46045918365
 31
0.0
  0
LINE
  5
12A7
330
1202
100
AcDbEntity
  8
圖框
100
AcDbLine
 10
117.5
 20
-62.76045918364999
 30
0.0
 11
117.5
 21
-86.86045918365001
 31
0.0
  0
TEXT
  5
12A8
330
1202
100
AcDbEntity
  8
文字
 62
     2
100
AcDbText
 10
94.75440421570002
 20
-94.46045918364999
 30
0.0
 40
4.0
  1
TECHNOLOGIES CORP.
 41
0.6
 51
5.000000159199999
  7
COMPLEX
100
AcDbText
  0
LINE
  5
12A9
330
1202
100
AcDbEntity
  8
圖框
100
AcDbLine
 10
-137.5
 20
-96.46045918365
 30
0.0
 11
-137.5
 21
96.46045918365
 31
0.0
  0
LINE
  5
12AA
330
1202
100
AcDbEntity
  8
圖框
100
AcDbLine
 10
137.5
 20
-96.46045918365
 30
0.0
 11
-137.5
 21
-96.46045918365
 31
0.0
  0
LINE
  5
12AB
330
1202
100
AcDbEntity
  8
圖框
100
AcDbLine
 10
137.5
 20
96.46045918365
 30
0.0
 11
137.5
 21
-96.46045918365
 31
0.0
  0
LINE
  5
12AC
330
1202
100
AcDbEntity
  8
圖框
100
AcDbLine
 10
-137.5
 20
96.46045918365
 30
0.0
 11
137.5
 21
96.46045918365
 31
0.0
  0
TEXT
  5
12AD
330
1202
100
AcDbEntity
  8
文字
100
AcDbText
 10
93.21511627906977
 20
-10.94926101297211
 30
0.0
 40
3.0
  1
規    格
  7
型式1
 72
     1
 11
100.0
 21
-11.83879589669304
 31
0.0
100
AcDbText
 73
     1
  0
TEXT
  5
12AE
330
1202
100
AcDbEntity
  8
文字
100
AcDbText
 10
80.05813953488372
 20
-16.39060938413577
 30
0.0
 40
2.5
  1
滑塊型式
  7
型式1
 72
     1
 11
87.5
 21
-17.13188845390321
 31
0.0
100
AcDbText
 73
     1
  0
TEXT
  5
12AF
330
1202
100
AcDbEntity
  8
文字
100
AcDbText
 10
70.75581395348837
 20
-21.89060938413577
 30
0.0
 40
2.5
  1
單根滑軌上滑塊個數
  7
型式1
 72
     1
 11
87.5
 21
-22.63188845390322
 31
0.0
100
AcDbText
 73
     1
  0
TEXT
  5
12B0
330
1202
100
AcDbEntity
  8
文字
100
AcDbText
 10
80.05813953488372
 20
-27.39060938413578
 30
0.0
 40
2.5
  1
精度等級
  7
型式1
 72
     1
 11
87.5
 21
-28.13188845390321
 31
0.0
100
AcDbText
 73
     1
  0
TEXT
  5
12B1
330
1202
100
AcDbEntity
  8
文字
100
AcDbText
 10
80.05813953488372
 20
-32.89060938413577
 30
0.0
 40
2.5
  1
預壓等級
  7
型式1
 72
     1
 11
87.5
 21
-33.63188845390322
 31
0.0
100
AcDbText
 73
     1
  0
TEXT
  5
12B2
330
1202
100
AcDbEntity
  8
文字
100
AcDbText
 10
70.75581395348837
 20
-38.39060938413577
 30
0.0
 40
2.5
  1
同一軸使用之滑軌數
  7
型式1
 72
     1
 11
87.5
 21
-39.13188845390322
 31
0.0
100
AcDbText
 73
     1
  0
TEXT
  5
12B3
330
1202
100
AcDbEntity
  8
文字
100
AcDbText
 10
74.47674418604652
 20
-43.94060938413576
 30
0.0
 40
2.5
  1
滑塊內預封油脂
  7
型式1
 72
     1
 11
87.5
 21
-44.68188845390321
 31
0.0
100
AcDbText
 73
     1
  0
TEXT
  5
12B4
330
1202
100
AcDbEntity
  8
文字
100
AcDbText
 10
63.10000000000002
 20
-49.22348098820744
 30
0.0
 40
2.0
  1
客戶
  7
型式1
100
AcDbText
  0
TEXT
  5
12B5
330
1202
100
AcDbEntity
  8
文字
100
AcDbText
 10
63.10000000000002
 20
-57.22348098820745
 30
0.0
 40
2.0
  1
機型
  7
型式1
100
AcDbText
  0
TEXT
  5
12B6
330
1202
100
AcDbEntity
  8
文字
100
AcDbText
 10
70.67493132672578
 20
-68.12481386985424
 30
0.0
 40
3.731202987961495
  1
LINEAR GUIDEWAY
  7
型式2
 72
     1
 11
90.46473722972597
 21
-69.17614730845112
 31
0.0
100
AcDbText
 73
     1
  0
TEXT
  5
12B7
330
1202
100
AcDbEntity
  8
文字
100
AcDbText
 10
63.10000000000002
 20
-73.22348098820746
 30
0.0
 40
2.0
  1
型號
  7
型式1
100
AcDbText
  0
TEXT
  5
12B8
330
1202
100
AcDbEntity
  8
文字
100
AcDbText
 10
63.10000000000002
 20
-81.22348098820745
 30
0.0
 40
2.0
  1
圖號
  7
型式1
100
AcDbText
  0
TEXT
  5
12B9
330
1202
100
AcDbEntity
  8
文字
100
AcDbText
 10
118.0422826873949
 20
-69.09858188128906
 30
0.0
 40
1.399999999999999
  1
DATE
  7
型式1
100
AcDbText
  0
TEXT
  5
12BA
330
1202
100
AcDbEntity
  8
文字
100
AcDbText
 10
118.0422826873949
 20
-73.79398308954567
 30
0.0
 40
1.399999999999999
  1
DR
  7
型式1
100
AcDbText
  0
TEXT
  5
12BB
330
1202
100
AcDbEntity
  8
文字
100
AcDbText
 10
118.0422826873949
 20
-78.72376718588485
 30
0.0
 40
1.399999999999999
  1
CK
  7
型式1
100
AcDbText
  0
TEXT
  5
12BC
330
1202
100
AcDbEntity
  8
文字
100
AcDbText
 10
118.0422826873949
 20
-83.584745409562
 30
0.0
 40
1.399999999999999
  1
APP
  7
型式1
100
AcDbText
  0
LINE
  5
12BD
330
1202
100
AcDbEntity
  8
圖框
100
AcDbLine
 10
70.5
 20
88.46045918365
 30
0.0
 11
137.5
 21
88.46045918365
 31
0.0
  0
LINE
  5
12BE
330
1202
100
AcDbEntity
  8
圖框
100
AcDbLine
 10
137.5
 20
-61.96045918365
 30
0.0
 11
62.5
 21
-61.96045918365
 31
0.0
  0
TEXT
  5
12BF
330
1202
100
AcDbEntity
  8
文字
100
AcDbText
 10
118.0422826873949
 20
-64.59858188128906
 30
0.0
 40
1.399999999999999
  1
SCALE
  7
型式1
100
AcDbText
  0
ENDBLK
  5
12C1
330
1202
100
AcDbEntity
  8
0
 62
     7
 48
0.27
100
AcDbBlockEnd
  0
BLOCK
  5
1409
330
13FE
100
AcDbEntity
  8
0
 48
0.27
100
AcDbBlockBegin
  2
f04s
 70
     0
 10
0.0
 20
0.0
 30
0.0
  3
f04s
  1

  0
TEXT
  5
13FF
330
13FE
100
AcDbEntity
  8
標註線
100
AcDbText
 10
-0.9033659168728007
 20
2.483302084097783
 30
0.0
 40
1.729999999999999
  1
G
  7
ROMANS
100
AcDbText
  0
LINE
  5
1400
330
13FE
100
AcDbEntity
  8
標註線
100
AcDbLine
 10
-2.170837012152986
 20
0.0000000000000107
 30
0.0
 11
-3.25625551822948
 21
1.880000000000009
 31
0.0
  0
LINE
  5
1401
330
13FE
100
AcDbEntity
  8
標註線
100
AcDbLine
 10
-2.170837012152986
 20
0.0000000000000107
 30
0.0
 11
-1.085418506076493
 21
1.880000000000009
 31
0.0
  0
LINE
  5
1402
330
13FE
100
AcDbEntity
  8
標註線
100
AcDbLine
 10
-3.25625551822948
 20
1.880000000000009
 30
0.0
 11
-1.085418506076493
 21
1.880000000000009
 31
0.0
  0
LINE
  5
1403
330
13FE
100
AcDbEntity
  8
標註線
100
AcDbLine
 10
0.0
 20
0.0000000000000107
 30
0.0
 11
-1.085418506076493
 21
1.880000000000009
 31
0.0
  0
LINE
  5
1404
330
13FE
100
AcDbEntity
  8
標註線
100
AcDbLine
 10
0.0
 20
0.0000000000000107
 30
0.0
 11
1.085418506076493
 21
1.880000000000009
 31
0.0
  0
LINE
  5
1405
330
13FE
100
AcDbEntity
  8
標註線
100
AcDbLine
 10
-1.085418506076493
 20
1.880000000000009
 30
0.0
 11
1.085418506076493
 21
1.880000000000016
 31
0.0
  0
LINE
  5
1406
330
13FE
100
AcDbEntity
  8
標註線
100
AcDbLine
 10
2.170837012152986
 20
0.0000000000000142
 30
0.0
 11
1.085418506076493
 21
1.880000000000016
 31
0.0
  0
LINE
  5
1407
330
13FE
100
AcDbEntity
  8
標註線
100
AcDbLine
 10
2.170837012153015
 20
0.0000000000000142
 30
0.0
 11
3.256255518229508
 21
1.880000000000016
 31
0.0
  0
LINE
  5
1408
330
13FE
100
AcDbEntity
  8
標註線
100
AcDbLine
 10
1.085418506076493
 20
1.880000000000016
 30
0.0
 11
3.256255518229508
 21
1.880000000000016
 31
0.0
  0
ENDBLK
  5
140A
330
13FE
100
AcDbEntity
  8
0
 48
0.27
100
AcDbBlockEnd
  0
BLOCK
  5
1419
330
140E
100
AcDbEntity
  8
0
 48
0.27
100
AcDbBlockBegin
  2
f04s1
 70
     0
 10
0.0
 20
0.0
 30
0.0
  3
f04s1
  1

  0
TEXT
  5
140F
330
140E
100
AcDbEntity
  8
標註線
100
AcDbText
 10
0.7754438084131437
 20
4.163453471782446
 30
0.0
 40
1.727447620285638
  1
G
 50
180.0
  7
ROMANS
100
AcDbText
  0
LINE
  5
1410
330
140E
100
AcDbEntity
  8
標註線
100
AcDbLine
 10
-2.174660276251742
 20
0.0000000000000107
 30
0.0
 11
-3.261990414377606
 21
1.883311043834908
 31
0.0
  0
LINE
  5
1411
330
140E
100
AcDbEntity
  8
標註線
100
AcDbLine
 10
-2.174660276251742
 20
0.0000000000000107
 30
0.0
 11
-1.087330138125849
 21
1.883311043834908
 31
0.0
  0
LINE
  5
1412
330
140E
100
AcDbEntity
  8
標註線
100
AcDbLine
 10
-3.261990414377606
 20
1.883311043834908
 30
0.0
 11
-1.087330138125849
 21
1.883311043834908
 31
0.0
  0
LINE
  5
1413
330
140E
100
AcDbEntity
  8
標註線
100
AcDbLine
 10
0.0
 20
0.0000000000000107
 30
0.0
 11
-1.087330138125849
 21
1.883311043834908
 31
0.0
  0
LINE
  5
1414
330
140E
100
AcDbEntity
  8
標註線
100
AcDbLine
 10
0.0000000000000142
 20
0.0000000000000107
 30
0.0
 11
1.087330138125878
 21
1.883311043834908
 31
0.0
  0
LINE
  5
1415
330
140E
100
AcDbEntity
  8
標註線
100
AcDbLine
 10
-1.087330138125849
 20
1.883311043834908
 30
0.0
 11
1.087330138125878
 21
1.883311043834911
 31
0.0
  0
LINE
  5
1416
330
140E
100
AcDbEntity
  8
標註線
100
AcDbLine
 10
2.174660276251771
 20
0.0000000000000142
 30
0.0
 11
1.087330138125878
 21
1.883311043834911
 31
0.0
  0
LINE
  5
1417
330
140E
100
AcDbEntity
  8
標註線
100
AcDbLine
 10
2.174660276251771
 20
0.0000000000000142
 30
0.0
 11
3.261990414377635
 21
1.883311043834911
 31
0.0
  0
LINE
  5
1418
330
140E
100
AcDbEntity
  8
標註線
100
AcDbLine
 10
1.087330138125878
 20
1.883311043834911
 30
0.0
 11
3.261990414377635
 21
1.883311043834911
 31
0.0
  0
ENDBLK
  5
141A
330
140E
100
AcDbEntity
  8
0
 48
0.27
100
AcDbBlockEnd
  0
BLOCK
  5
1451
330
144C
100
AcDbEntity
  8
0
 48
0.27
100
AcDbBlockBegin
  2
eview
 70
     0
 10
0.0
 20
0.0
 30
0.0
  3
eview
  1

  0
TEXT
  5
144D
330
144C
100
AcDbEntity
  8
標註線
100
AcDbText
 10
-14.57901903109095
 20
1.030983075552512
 30
0.0
 40
3.5
  1
E
 72
     4
 11
-13.35401903109096
 21
2.780983075552512
 31
0.0
100
AcDbText
  0
LINE
  5
144E
330
144C
100
AcDbEntity
  8
標註線
100
AcDbLine
 10
-8.052285146048632
 20
-0.7968465076999678
 30
0.0
 11
-7.722792918948641
 21
1.071796769700029
 31
0.0
  0
LINE
  5
144F
330
144C
100
AcDbEntity
  8
標註線
100
AcDbLine
 10
-3.722792918948641
 20
0.0
 30
0.0
 11
-7.722792918948641
 21
1.071796769700029
 31
0.0
  0
LINE
  5
1450
330
144C
100
AcDbEntity
  8
標註線
100
AcDbLine
 10
-3.722792918948641
 20
0.0
 30
0.0
 11
-11.72279291894864
 21
0.0
 31
0.0
  0
ENDBLK
  5
1452
330
144C
100
AcDbEntity
  8
0
 48
0.27
100
AcDbBlockEnd
  0
BLOCK
  5
1459
330
1457
100
AcDbEntity
  8
0
 48
0.27
100
AcDbBlockBegin
  2
viewe
 70
     0
 10
0.0
 20
0.0
 30
0.0
  3
viewe
  1

  0
TEXT
  5
1458
330
1457
100
AcDbEntity
  8
標註線
100
AcDbText
 10
-6.677902407900195
 20
-4.794621995899788
 30
0.0
 40
3.5
  1
VIEW E
 72
     1
 11
0.4970975920998058
 21
-1.294621995899788
 31
0.0
100
AcDbText
 73
     3
  0
ENDBLK
  5
145A
330
1457
100
AcDbEntity
  8
0
 48
0.27
100
AcDbBlockEnd
  0
BLOCK
  5
1E1CE
330
1E1CC
100
AcDbEntity
  8
0
 62
     7
 48
0.27
100
AcDbBlockBegin
  2
a4hc_RG
 70
     0
 10
0.0
 20
0.0
 30
0.0
  3
a4hc_RG
  1

  0
HATCH
  5
1E1CF
330
1E1CC
100
AcDbEntity
  8
文字
100
AcDbHatch
 10
0.0
 20
0.0
 30
0.0
210
0.0
220
0.0
230
1.0
  2
SOLID
 70
     1
 71
     0
 91
        5
 92
        7
 72
     1
 73
     1
 93
       25
 10
87.31284730300007
 20
-88.66045918365001
 42
0.0
 10
85.7376951546
 20
-88.66045918365001
 42
0.0
 10
85.60907954220002
 20
-89.14045918365001
 42
0.0
 10
85.7763054527
 20
-89.14045918365001
 42
-0.4931454259997348
 10
86.0081276509956
 20
-89.44257575446648
 42
0.0
 10
84.81011119419003
 20
-93.91363403988721
 42
-0.3394542588631269
 10
84.46237789672606
 20
-94.18045918365001
 42
0.0
 10
84.25861561239997
 20
-94.18045918365001
 42
0.0
 10
84.13000000000002
 20
-94.66045918365001
 42
0.0
 10
86.05000000000002
 20
-94.66045918365001
 42
0.0
 10
86.17861561239999
 20
-94.18045918365001
 42
0.0
 10
85.8827740895
 20
-94.18045918365001
 42
-0.4931454260042405
 10
85.65095189120532
 20
-93.87834261283016
 42
0.0
 10
86.6437023613
 20
-90.17334741915
 42
0.0
 10
88.93
 20
-94.66045918365001
 42
0.0
 10
89.77000000000002
 20
-94.66045918365001
 42
0.0
 10
91.17758396041134
 20
-89.40728432740771
 42
-0.33945425885905
 10
91.52531725787396
 20
-89.14045918365001
 42
0.0
 10
91.62423169070001
 20
-89.14045918365001
 42
0.0
 10
91.75284730299997
 20
-88.66045918365001
 42
0.0
 10
89.83284730299999
 20
-88.66045918365001
 42
0.0
 10
89.70423169069997
 20
-89.14045918365001
 42
0.0
 10
90.09630545270002
 20
-89.14045918365001
 42
-0.49314542600108
 10
90.32812765099533
 20
-89.4425757544675
 42
0.0
 10
89.42628221460003
 20
-92.80830874384998
 42
0.0
 97
        0
 92
        7
 72
     1
 73
     1
 93
       16
 10
84.48141582100573
 20
-89.31834261282872
 42
-0.3394542588673643
 10
84.71323801931598
 20
-89.14045918365001
 42
0.0
 10
85.12907954219997
 20
-89.14045918365001
 42
0.0
 10
85.25769515459996
 20
-88.66045918365001
 42
0.0
 10
82.85769515459998
 20
-88.66045918365001
 42
0.0
 10
82.72907954220002
 20
-89.14045918365001
 42
0.0
 10
83.17269249750001
 20
-89.14045918365001
 42
-0.4931454258380596
 10
83.28860359660103
 20
-89.29151746904622
 42
0.0
 10
82.02627933359531
 20
-94.00257575446746
 42
-0.3394542588719629
 10
81.79445713528403
 20
-94.18045918365001
 42
0.0
 10
81.37861561240004
 20
-94.18045918365001
 42
0.0
 10
81.25000000000003
 20
-94.66045918365001
 42
0.0
 10
83.65
 20
-94.66045918365001
 42
0.0
 10
83.77861561240004
 20
-94.18045918365001
 42
0.0
 10
83.49138970180002
 20
-94.18045918365001
 42
-0.4931454260061948
 10
83.2595675035057
 20
-93.87834261282872
 42
0.0
 97
        0
 92
        7
 72
     1
 73
     1
 93
       31
 10
81.84769145359755
 20
-89.26045918365428
 42
-0.2679491924366411
 10
82.05553755050829
 20
-89.14045918365001
 42
0.0
 10
82.36907954220001
 20
-89.14045918365001
 42
0.0
 10
82.4976951546
 20
-88.66045918365001
 42
0.0
 10
80.33769515459999
 20
-88.66045918365001
 42
0.0
 10
80.20907954220005
 20
-89.14045918365001
 42
0.0
 10
80.56289929950001
 20
-89.14045918365001
 42
-0.5628963153237844
 10
80.72256124950014
 20
-89.40357393404978
 42
0.0
 10
78.89163332860002
 20
-92.92075374574997
 42
0.0
 10
78.82777920529955
 20
-89.26255347242422
 42
-0.4193348017625921
 10
78.94776092871828
 20
-89.14045918365001
 42
0.0
 10
79.24907954219998
 20
-89.14045918365001
 42
0.0
 10
79.37769515459999
 20
-88.66045918365001
 42
0.0
 10
77.09769515460002
 20
-88.66045918365001
 42
0.0
 10
76.96907954220003
 20
-89.14045918365001
 42
0.0
 10
77.1255890983
 20
-89.14045918365001
 42
-0.5773502691742179
 10
77.54128129210283
 20
-89.8604591836451
 42
0.0
 10
75.77171508830002
 20
-92.92543775595001
 42
0.0
 10
75.70991036910072
 20
-89.38464776119046
 42
-0.4193348017528848
 10
75.94987381593833
 20
-89.14045918365001
 42
0.0
 10
76.24907954220003
 20
-89.14045918365001
 42
0.0
 10
76.37769515459999
 20
-88.66045918365001
 42
0.0
 10
73.97769515459998
 20
-88.66045918365001
 42
0.0
 10
73.8490795422
 20
-89.14045918365001
 42
0.0
 10
74.17924157699999
 20
-89.14045918365001
 42
-0.4014906669321768
 10
74.41901315020141
 20
-89.36999053068218
 42
0.0
 10
74.64999999999998
 20
-94.66045918365001
 42
0.0
 10
75.61000000000001
 20
-94.66045918365001
 42
0.0
 10
77.7149916749
 20
-91.50903434665009
 42
0.0
 10
77.77000000000001
 20
-94.66045918365001
 42
0.0
 10
78.73000000000001
 20
-94.66045918365001
 42
0.0
 97
        0
 92
        7
 72
     1
 73
     1
 93
       16
 10
72.84141582100571
 20
-89.31834261282872
 42
-0.3394542588673603
 10
73.07323801931596
 20
-89.14045918365001
 42
0.0
 10
73.48907954220002
 20
-89.14045918365001
 42
0.0
 10
73.6176951546
 20
-88.66045918365001
 42
0.0
 10
71.21769515459999
 20
-88.66045918365001
 42
0.0
 10
71.08907954220004
 20
-89.14045918365001
 42
0.0
 10
71.53269249749996
 20
-89.14045918365001
 42
-0.4931454258381302
 10
71.64860359660102
 20
-89.29151746904622
 42
0.0
 10
70.38627933359535
 20
-94.00257575446746
 42
-0.3394542588719971
 10
70.15445713528404
 20
-94.18045918365001
 42
0.0
 10
69.73861561239999
 20
-94.18045918365001
 42
0.0
 10
69.61000000000004
 20
-94.66045918365001
 42
0.0
 10
72.01000000000002
 20
-94.66045918365001
 42
0.0
 10
72.1386156124
 20
-94.18045918365001
 42
0.0
 10
71.8513897018
 20
-94.18045918365001
 42
-0.4931454260061438
 10
71.61956750350572
 20
-93.87834261282874
 42
0.0
 97
        0
 92
        7
 72
     1
 73
     1
 93
       40
 10
70.08141582100572
 20
-89.31834261282872
 42
-0.3394542588673941
 10
70.313238019316
 20
-89.14045918365001
 42
0.0
 10
70.72907954219999
 20
-89.14045918365001
 42
0.0
 10
70.8576951546
 20
-88.66045918365001
 42
0.0
 10
68.4576951546
 20
-88.66045918365001
 42
0.0
 10
68.32907954220002
 20
-89.14045918365001
 42
0.0
 10
68.77269249749997
 20
-89.14045918365001
 42
-0.4931454258321303
 10
68.88860359660163
 20
-89.291517469044
 42
0.0
 10
68.37414114719493
 20
-91.21151746906901
 42
-0.3394542588472685
 10
68.25823004804203
 20
-91.30045918365
 42
0.0
 10
66.10669633130001
 20
-91.30045918365
 42
-0.4931454258316102
 10
65.99078523219836
 20
-91.14940089825617
 42
0.0
 10
66.4814158210034
 20
-89.31834261283734
 42
-0.339454258877745
 10
66.71323801931598
 20
-89.14045918365001
 42
0.0
 10
67.1290795422
 20
-89.14045918365001
 42
0.0
 10
67.25769515459998
 20
-88.66045918365001
 42
0.0
 10
64.85769515460001
 20
-88.66045918365001
 42
0.0
 10
64.72907954219997
 20
-89.14045918365001
 42
0.0
 10
65.1726924975
 20
-89.14045918365001
 42
-0.4931454258380596
 10
65.28860359660104
 20
-89.29151746904622
 42
0.0
 10
64.02627933359531
 20
-94.00257575446746
 42
-0.3394542588719629
 10
63.79445713528403
 20
-94.18045918365001
 42
0.0
 10
63.37861561240003
 20
-94.18045918365001
 42
0.0
 10
63.25
 20
-94.66045918365001
 42
0.0
 10
65.65000000000003
 20
-94.66045918365001
 42
0.0
 10
65.77861561240005
 20
-94.18045918365001
 42
0.0
 10
65.64777674660001
 20
-94.18045918365001
 42
-0.4931454260592977
 10
65.30004344911154
 20
-93.72728432740695
 42
0.0
 10
65.73355400740609
 20
-92.10940089822733
 42
-0.339454258838397
 10
65.849465106558
 20
-92.02045918365
 42
0.0
 10
68.00099882329999
 20
-92.02045918365
 42
-0.4931454258316087
 10
68.11690992240165
 20
-92.17151746904383
 42
0.0
 10
67.62627933359661
 20
-94.00257575446266
 42
-0.3394542588777114
 10
67.39445713528406
 20
-94.18045918365001
 42
0.0
 10
66.97861561240003
 20
-94.18045918365001
 42
0.0
 10
66.85000000000002
 20
-94.66045918365001
 42
0.0
 10
69.25
 20
-94.66045918365001
 42
0.0
 10
69.37861561240001
 20
-94.18045918365001
 42
0.0
 10
69.09138970180001
 20
-94.18045918365001
 42
-0.4931454260061438
 10
68.85956750350572
 20
-93.87834261282874
 42
0.0
 97
        0
 75
     0
 76
     1
 47
0.0375180088224066
 98
        5
 10
88.20901055367233
 20
-91.69475157655403
 10
83.70319790931592
 20
-90.83183694378936
 10
80.21119388198883
 20
-91.16949944083188
 10
71.95053736733552
 20
-90.64424730510967
 10
69.05930767299003
 20
-90.90687337297078
  0
CIRCLE
  5
1E1D0
330
1E1CC
100
AcDbEntity
  8
文字
100
AcDbCircle
 10
92.35440421570002
 20
-93.78229363355
 30
0.0
 40
1.199999999999988
  0
LINE
  5
1E1D1
330
1E1CC
100
AcDbEntity
  8
文字
100
AcDbLine
 10
89.83284730299999
 20
-88.66045918365001
 30
0.0
 11
91.75284730300001
 21
-88.66045918365001
 31
0.0
  0
LINE
  5
1E1D2
330
1E1CC
100
AcDbEntity
  8
文字
100
AcDbLine
 10
87.31284730300002
 20
-88.66045918365001
 30
0.0
 11
85.7376951546
 21
-88.66045918365001
 31
0.0
  0
LINE
  5
1E1D3
330
1E1CC
100
AcDbEntity
  8
文字
100
AcDbLine
 10
89.7042316907
 20
-89.14045918365001
 30
0.0
 11
90.09630545270002
 21
-89.14045918365001
 31
0.0
  0
LINE
  5
1E1D4
330
1E1CC
100
AcDbEntity
  8
文字
100
AcDbLine
 10
91.52531725790002
 20
-89.14045918365001
 30
0.0
 11
91.62423169070001
 21
-89.14045918365001
 31
0.0
  0
ARC
  5
1E1D5
330
1E1CC
100
AcDbEntity
  8
文字
100
AcDbCircle
 10
90.09630545270002
 20
-89.38045918365
 30
0.0
 40
0.24
100
AcDbArc
 50
345.0000109816997
 51
90.0
  0
ARC
  5
1E1D6
330
1E1CC
100
AcDbEntity
  8
文字
100
AcDbCircle
 10
91.52531725790002
 20
-89.50045918365001
 30
0.0
 40
0.36
100
AcDbArc
 50
90.0
 51
165.0000052521
  0
TEXT
  5
1E1D7
330
1E1CC
100
AcDbEntity
  8
文字
100
AcDbText
 10
91.70403496470001
 20
-94.61179976495001
 30
0.0
 40
1.558055249599999
  1
R
 41
0.75
 51
5.000000159199999
  7
SIMPLEX
100
AcDbText
  0
LINE
  5
1E1D8
330
1E1CC
100
AcDbEntity
  8
文字
100
AcDbLine
 10
89.77000000000002
 20
-94.66045918365001
 30
0.0
 11
91.17758396040001
 21
-89.40728432745
 31
0.0
  0
LINE
  5
1E1D9
330
1E1CC
100
AcDbEntity
  8
文字
100
AcDbLine
 10
85.12907954220001
 20
-89.14045918365001
 30
0.0
 11
84.71323801930001
 21
-89.14045918365001
 31
0.0
  0
ARC
  5
1E1DA
330
1E1CC
100
AcDbEntity
  8
文字
100
AcDbCircle
 10
84.71323801930001
 20
-89.38045918365
 30
0.0
 40
0.24
100
AcDbArc
 50
90.0
 51
165.0000052521
  0
LINE
  5
1E1DB
330
1E1CC
100
AcDbEntity
  8
文字
100
AcDbLine
 10
85.7763054527
 20
-89.14045918365001
 30
0.0
 11
85.60907954220002
 21
-89.14045918365001
 31
0.0
  0
ARC
  5
1E1DC
330
1E1CC
100
AcDbEntity
  8
文字
100
AcDbCircle
 10
85.7763054527
 20
-89.38045918365
 30
0.0
 40
0.24
100
AcDbArc
 50
345.0000109816997
 51
90.0
  0
LINE
  5
1E1DD
330
1E1CC
100
AcDbEntity
  8
文字
100
AcDbLine
 10
86.05000000000002
 20
-94.66045918365001
 30
0.0
 11
84.13
 21
-94.66045918365001
 31
0.0
  0
LINE
  5
1E1DE
330
1E1CC
100
AcDbEntity
  8
文字
100
AcDbLine
 10
86.17861561239999
 20
-94.18045918365001
 30
0.0
 11
85.8827740895
 21
-94.18045918365001
 31
0.0
  0
LINE
  5
1E1DF
330
1E1CC
100
AcDbEntity
  8
文字
100
AcDbLine
 10
84.13
 20
-94.66045918365001
 30
0.0
 11
84.25861561240001
 21
-94.18045918365001
 31
0.0
  0
LINE
  5
1E1E0
330
1E1CC
100
AcDbEntity
  8
文字
100
AcDbLine
 10
86.05000000000002
 20
-94.66045918365001
 30
0.0
 11
86.17861561239999
 21
-94.18045918365001
 31
0.0
  0
LINE
  5
1E1E1
330
1E1CC
100
AcDbEntity
  8
文字
100
AcDbLine
 10
84.46237789670002
 20
-94.18045918365001
 30
0.0
 11
84.25861561240001
 21
-94.18045918365001
 31
0.0
  0
ARC
  5
1E1E2
330
1E1CC
100
AcDbEntity
  8
文字
100
AcDbCircle
 10
84.46237789670002
 20
-93.82045918364999
 30
0.0
 40
0.36
100
AcDbArc
 50
270.0
 51
345.0000109816995
  0
ARC
  5
1E1E3
330
1E1CC
100
AcDbEntity
  8
文字
100
AcDbCircle
 10
85.8827740895
 20
-93.94045918365
 30
0.0
 40
0.24
100
AcDbArc
 50
165.0000052521
 51
270.0
  0
LINE
  5
1E1E4
330
1E1CC
100
AcDbEntity
  8
文字
100
AcDbLine
 10
86.008127651
 20
-89.44257575445
 30
0.0
 11
84.81011119420001
 21
-93.91363403985002
 31
0.0
  0
LINE
  5
1E1E5
330
1E1CC
100
AcDbEntity
  8
文字
100
AcDbLine
 10
86.6437023613
 20
-90.17334741915
 30
0.0
 11
85.6509518912
 21
-93.87834261285
 31
0.0
  0
LINE
  5
1E1E6
330
1E1CC
100
AcDbEntity
  8
文字
100
AcDbLine
 10
88.93
 20
-94.66045918365001
 30
0.0
 11
86.6437023613
 21
-90.17334741915
 31
0.0
  0
LINE
  5
1E1E7
330
1E1CC
100
AcDbEntity
  8
文字
100
AcDbLine
 10
88.93
 20
-94.66045918365001
 30
0.0
 11
89.77000000000002
 21
-94.66045918365001
 31
0.0
  0
LINE
  5
1E1E8
330
1E1CC
100
AcDbEntity
  8
文字
100
AcDbLine
 10
89.42628221460001
 20
-92.80830874385001
 30
0.0
 11
90.32812765100002
 21
-89.44257575445
 31
0.0
  0
LINE
  5
1E1E9
330
1E1CC
100
AcDbEntity
  8
文字
100
AcDbLine
 10
85.12907954220001
 20
-89.14045918365001
 30
0.0
 11
85.25769515460002
 21
-88.66045918365001
 31
0.0
  0
LINE
  5
1E1EA
330
1E1CC
100
AcDbEntity
  8
文字
100
AcDbLine
 10
85.60907954220002
 20
-89.14045918365001
 30
0.0
 11
85.7376951546
 21
-88.66045918365001
 31
0.0
  0
LINE
  5
1E1EB
330
1E1CC
100
AcDbEntity
  8
文字
100
AcDbLine
 10
89.42628221460001
 20
-92.80830874385001
 30
0.0
 11
87.31284730300002
 21
-88.66045918365001
 31
0.0
  0
LINE
  5
1E1EC
330
1E1CC
100
AcDbEntity
  8
文字
100
AcDbLine
 10
89.7042316907
 20
-89.14045918365001
 30
0.0
 11
89.83284730299999
 21
-88.66045918365001
 31
0.0
  0
LINE
  5
1E1ED
330
1E1CC
100
AcDbEntity
  8
文字
100
AcDbLine
 10
91.62423169070001
 20
-89.14045918365001
 30
0.0
 11
91.75284730300001
 21
-88.66045918365001
 31
0.0
  0
LINE
  5
1E1EE
330
1E1CC
100
AcDbEntity
  8
文字
100
AcDbLine
 10
82.4976951546
 20
-88.66045918365001
 30
0.0
 11
80.33769515459999
 21
-88.66045918365001
 31
0.0
  0
LINE
  5
1E1EF
330
1E1CC
100
AcDbEntity
  8
文字
100
AcDbLine
 10
76.37769515460002
 20
-88.66045918365001
 30
0.0
 11
73.97769515460002
 21
-88.66045918365001
 31
0.0
  0
LINE
  5
1E1F0
330
1E1CC
100
AcDbEntity
  8
文字
100
AcDbLine
 10
79.37769515460002
 20
-88.66045918365001
 30
0.0
 11
77.09769515460002
 21
-88.66045918365001
 31
0.0
  0
LINE
  5
1E1F1
330
1E1CC
100
AcDbEntity
  8
文字
100
AcDbLine
 10
70.8576951546
 20
-88.66045918365001
 30
0.0
 11
68.4576951546
 21
-88.66045918365001
 31
0.0
  0
LINE
  5
1E1F2
330
1E1CC
100
AcDbEntity
  8
文字
100
AcDbLine
 10
67.25769515460001
 20
-88.66045918365001
 30
0.0
 11
64.85769515460001
 21
-88.66045918365001
 31
0.0
  0
LINE
  5
1E1F3
330
1E1CC
100
AcDbEntity
  8
文字
100
AcDbLine
 10
73.6176951546
 20
-88.66045918365001
 30
0.0
 11
71.21769515459999
 21
-88.66045918365001
 31
0.0
  0
LINE
  5
1E1F4
330
1E1CC
100
AcDbEntity
  8
文字
100
AcDbLine
 10
82.36907954220001
 20
-89.14045918365001
 30
0.0
 11
82.05553755050003
 21
-89.14045918365001
 31
0.0
  0
ARC
  5
1E1F5
330
1E1CC
100
AcDbEntity
  8
文字
100
AcDbCircle
 10
82.05553755050003
 20
-89.38045918365
 30
0.0
 40
0.24
100
AcDbArc
 50
90.0
 51
150.0000047745997
  0
ARC
  5
1E1F6
330
1E1CC
100
AcDbEntity
  8
文字
100
AcDbCircle
 10
83.17269249750001
 20
-89.26045918365
 30
0.0
 40
0.12
100
AcDbArc
 50
345.0000109816994
 51
90.0
  0
LINE
  5
1E1F7
330
1E1CC
100
AcDbEntity
  8
文字
100
AcDbLine
 10
83.17269249750001
 20
-89.14045918365001
 30
0.0
 11
82.7290795422
 21
-89.14045918365001
 31
0.0
  0
LINE
  5
1E1F8
330
1E1CC
100
AcDbEntity
  8
文字
100
AcDbLine
 10
79.2490795422
 20
-89.14045918365001
 30
0.0
 11
78.94776092879999
 21
-89.14045918365001
 31
0.0
  0
LINE
  5
1E1F9
330
1E1CC
100
AcDbEntity
  8
文字
100
AcDbLine
 10
80.56289929950001
 20
-89.14045918365001
 30
0.0
 11
80.20907954220001
 21
-89.14045918365001
 31
0.0
  0
LINE
  5
1E1FA
330
1E1CC
100
AcDbEntity
  8
文字
100
AcDbLine
 10
78.89163332859999
 20
-92.92075374575
 30
0.0
 11
78.8277792053
 21
-89.26255347245001
 31
0.0
  0
LINE
  5
1E1FB
330
1E1CC
100
AcDbEntity
  8
文字
100
AcDbLine
 10
78.89163332859999
 20
-92.92075374575
 30
0.0
 11
80.72256124950001
 21
-89.40357393404999
 31
0.0
  0
ARC
  5
1E1FC
330
1E1CC
100
AcDbEntity
  8
文字
100
AcDbCircle
 10
78.94776092879999
 20
-89.26045918365
 30
0.0
 40
0.12
100
AcDbArc
 50
90.0
 51
181.0000057614001
  0
ARC
  5
1E1FD
330
1E1CC
100
AcDbEntity
  8
文字
100
AcDbCircle
 10
80.56289929950001
 20
-89.32045918365
 30
0.0
 40
0.18
100
AcDbArc
 50
332.5000105837975
 51
90.0
  0
ARC
  5
1E1FE
330
1E1CC
100
AcDbEntity
  8
文字
100
AcDbCircle
 10
83.49138970180002
 20
-93.94045918365
 30
0.0
 40
0.24
100
AcDbArc
 50
165.0000052521
 51
270.0
  0
LINE
  5
1E1FF
330
1E1CC
100
AcDbEntity
  8
文字
100
AcDbLine
 10
83.77861561240001
 20
-94.18045918365001
 30
0.0
 11
83.49138970180002
 21
-94.18045918365001
 31
0.0
  0
LINE
  5
1E200
330
1E1CC
100
AcDbEntity
  8
文字
100
AcDbLine
 10
83.65
 20
-94.66045918365001
 30
0.0
 11
83.77861561240001
 21
-94.18045918365001
 31
0.0
  0
LINE
  5
1E201
330
1E1CC
100
AcDbEntity
  8
文字
100
AcDbLine
 10
81.7944571353
 20
-94.18045918365001
 30
0.0
 11
81.37861561240001
 21
-94.18045918365001
 31
0.0
  0
ARC
  5
1E202
330
1E1CC
100
AcDbEntity
  8
文字
100
AcDbCircle
 10
81.7944571353
 20
-93.94045918365
 30
0.0
 40
0.24
100
AcDbArc
 50
270.0
 51
345.0000109816997
  0
LINE
  5
1E203
330
1E1CC
100
AcDbEntity
  8
文字
100
AcDbLine
 10
83.65
 20
-94.66045918365001
 30
0.0
 11
81.25
 21
-94.66045918365001
 31
0.0
  0
LINE
  5
1E204
330
1E1CC
100
AcDbEntity
  8
文字
100
AcDbLine
 10
81.25
 20
-94.66045918365001
 30
0.0
 11
81.37861561240001
 21
-94.18045918365001
 31
0.0
  0
LINE
  5
1E205
330
1E1CC
100
AcDbEntity
  8
文字
100
AcDbLine
 10
78.73000000000001
 20
-94.66045918365001
 30
0.0
 11
81.84769145360002
 21
-89.26045918365
 31
0.0
  0
LINE
  5
1E206
330
1E1CC
100
AcDbEntity
  8
文字
100
AcDbLine
 10
82.0262793336
 20
-94.00257575445001
 30
0.0
 11
83.28860359660001
 21
-89.29151746905001
 31
0.0
  0
LINE
  5
1E207
330
1E1CC
100
AcDbEntity
  8
文字
100
AcDbLine
 10
76.24907954220001
 20
-89.14045918365001
 30
0.0
 11
75.94987381590001
 21
-89.14045918365001
 31
0.0
  0
LINE
  5
1E208
330
1E1CC
100
AcDbEntity
  8
文字
100
AcDbLine
 10
77.1255890983
 20
-89.14045918365001
 30
0.0
 11
76.96907954220001
 21
-89.14045918365001
 31
0.0
  0
LINE
  5
1E209
330
1E1CC
100
AcDbEntity
  8
文字
100
AcDbLine
 10
75.7717150883
 20
-92.92543775594999
 30
0.0
 11
77.54128129209999
 21
-89.86045918365
 31
0.0
  0
ARC
  5
1E20A
330
1E1CC
100
AcDbEntity
  8
文字
100
AcDbCircle
 10
77.1255890983
 20
-89.62045918364999
 30
0.0
 40
0.4800000000000001
100
AcDbArc
 50
330.0000105041998
 51
90.0
  0
LINE
  5
1E20B
330
1E1CC
100
AcDbEntity
  8
文字
100
AcDbLine
 10
73.48907954220002
 20
-89.14045918365001
 30
0.0
 11
73.07323801930002
 21
-89.14045918365001
 31
0.0
  0
LINE
  5
1E20C
330
1E1CC
100
AcDbEntity
  8
文字
100
AcDbLine
 10
74.17924157699999
 20
-89.14045918365001
 30
0.0
 11
73.8490795422
 21
-89.14045918365001
 31
0.0
  0
ARC
  5
1E20D
330
1E1CC
100
AcDbEntity
  8
文字
100
AcDbCircle
 10
74.17924157699999
 20
-89.38045918365
 30
0.0
 40
0.24
100
AcDbArc
 50
2.500000079599775
 51
90.0
  0
LINE
  5
1E20E
330
1E1CC
100
AcDbEntity
  8
文字
100
AcDbLine
 10
75.7717150883
 20
-92.92543775594999
 30
0.0
 11
75.70991036910001
 21
-89.38464776115001
 31
0.0
  0
ARC
  5
1E20F
330
1E1CC
100
AcDbEntity
  8
文字
100
AcDbCircle
 10
75.94987381590001
 20
-89.38045918365
 30
0.0
 40
0.24
100
AcDbArc
 50
90.0
 51
181.0000057613999
  0
LINE
  5
1E210
330
1E1CC
100
AcDbEntity
  8
文字
100
AcDbLine
 10
74.65
 20
-94.66045918365001
 30
0.0
 11
75.61000000000001
 21
-94.66045918365001
 31
0.0
  0
LINE
  5
1E211
330
1E1CC
100
AcDbEntity
  8
文字
100
AcDbLine
 10
74.65
 20
-94.66045918365001
 30
0.0
 11
74.41901315020001
 21
-89.36999053064999
 31
0.0
  0
LINE
  5
1E212
330
1E1CC
100
AcDbEntity
  8
文字
100
AcDbLine
 10
75.61000000000001
 20
-94.66045918365001
 30
0.0
 11
77.7149916749
 21
-91.50903434665002
 31
0.0
  0
LINE
  5
1E213
330
1E1CC
100
AcDbEntity
  8
文字
100
AcDbLine
 10
77.77000000000001
 20
-94.66045918365001
 30
0.0
 11
77.7149916749
 21
-91.50903434665002
 31
0.0
  0
LINE
  5
1E214
330
1E1CC
100
AcDbEntity
  8
文字
100
AcDbLine
 10
77.77000000000001
 20
-94.66045918365001
 30
0.0
 11
78.73000000000001
 21
-94.66045918365001
 31
0.0
  0
LINE
  5
1E215
330
1E1CC
100
AcDbEntity
  8
文字
100
AcDbLine
 10
70.72907954219999
 20
-89.14045918365001
 30
0.0
 11
70.3132380193
 21
-89.14045918365001
 31
0.0
  0
LINE
  5
1E216
330
1E1CC
100
AcDbEntity
  8
文字
100
AcDbLine
 10
71.5326924975
 20
-89.14045918365001
 30
0.0
 11
71.08907954220001
 21
-89.14045918365001
 31
0.0
  0
ARC
  5
1E217
330
1E1CC
100
AcDbEntity
  8
文字
100
AcDbCircle
 10
71.5326924975
 20
-89.26045918365
 30
0.0
 40
0.12
100
AcDbArc
 50
345.0000109816994
 51
90.0
  0
LINE
  5
1E218
330
1E1CC
100
AcDbEntity
  8
文字
100
AcDbLine
 10
68.7726924975
 20
-89.14045918365001
 30
0.0
 11
68.32907954220002
 21
-89.14045918365001
 31
0.0
  0
LINE
  5
1E219
330
1E1CC
100
AcDbEntity
  8
文字
100
AcDbLine
 10
68.37414114720002
 20
-91.21151746905001
 30
0.0
 11
68.8886035966
 21
-89.29151746905001
 31
0.0
  0
ARC
  5
1E21A
330
1E1CC
100
AcDbEntity
  8
文字
100
AcDbCircle
 10
68.7726924975
 20
-89.26045918365
 30
0.0
 40
0.12
100
AcDbArc
 50
345.0000109816994
 51
90.0
  0
ARC
  5
1E21B
330
1E1CC
100
AcDbEntity
  8
文字
100
AcDbCircle
 10
68.258230048
 20
-91.18045918365
 30
0.0
 40
0.12
100
AcDbArc
 50
270.0
 51
345.0000109816994
  0
ARC
  5
1E21C
330
1E1CC
100
AcDbEntity
  8
文字
100
AcDbCircle
 10
68.00099882329999
 20
-92.14045918365
 30
0.0
 40
0.12
100
AcDbArc
 50
345.0000109816994
 51
90.0
  0
ARC
  5
1E21D
330
1E1CC
100
AcDbEntity
  8
文字
100
AcDbCircle
 10
70.3132380193
 20
-89.38045918365
 30
0.0
 40
0.24
100
AcDbArc
 50
90.0
 51
165.0000052521
  0
ARC
  5
1E21E
330
1E1CC
100
AcDbEntity
  8
文字
100
AcDbCircle
 10
70.15445713530002
 20
-93.94045918365
 30
0.0
 40
0.24
100
AcDbArc
 50
270.0
 51
345.0000109816997
  0
LINE
  5
1E21F
330
1E1CC
100
AcDbEntity
  8
文字
100
AcDbLine
 10
72.01000000000002
 20
-94.66045918365001
 30
0.0
 11
72.1386156124
 21
-94.18045918365001
 31
0.0
  0
LINE
  5
1E220
330
1E1CC
100
AcDbEntity
  8
文字
100
AcDbLine
 10
72.1386156124
 20
-94.18045918365001
 30
0.0
 11
71.8513897018
 21
-94.18045918365001
 31
0.0
  0
ARC
  5
1E221
330
1E1CC
100
AcDbEntity
  8
文字
100
AcDbCircle
 10
71.8513897018
 20
-93.94045918365
 30
0.0
 40
0.24
100
AcDbArc
 50
165.0000052521
 51
270.0
  0
LINE
  5
1E222
330
1E1CC
100
AcDbEntity
  8
文字
100
AcDbLine
 10
69.25
 20
-94.66045918365001
 30
0.0
 11
69.37861561240001
 21
-94.18045918365001
 31
0.0
  0
LINE
  5
1E223
330
1E1CC
100
AcDbEntity
  8
文字
100
AcDbLine
 10
69.37861561240001
 20
-94.18045918365001
 30
0.0
 11
69.09138970180001
 21
-94.18045918365001
 31
0.0
  0
ARC
  5
1E224
330
1E1CC
100
AcDbEntity
  8
文字
100
AcDbCircle
 10
67.3944571353
 20
-93.94045918365
 30
0.0
 40
0.24
100
AcDbArc
 50
270.0
 51
345.0000109816997
  0
ARC
  5
1E225
330
1E1CC
100
AcDbEntity
  8
文字
100
AcDbCircle
 10
69.09138970180001
 20
-93.94045918365
 30
0.0
 40
0.24
100
AcDbArc
 50
165.0000052521
 51
270.0
  0
LINE
  5
1E226
330
1E1CC
100
AcDbEntity
  8
文字
100
AcDbLine
 10
69.61000000000002
 20
-94.66045918365001
 30
0.0
 11
69.73861561239999
 21
-94.18045918365001
 31
0.0
  0
LINE
  5
1E227
330
1E1CC
100
AcDbEntity
  8
文字
100
AcDbLine
 10
70.15445713530002
 20
-94.18045918365001
 30
0.0
 11
69.73861561239999
 21
-94.18045918365001
 31
0.0
  0
LINE
  5
1E228
330
1E1CC
100
AcDbEntity
  8
文字
100
AcDbLine
 10
72.01000000000002
 20
-94.66045918365001
 30
0.0
 11
69.61000000000002
 21
-94.66045918365001
 31
0.0
  0
LINE
  5
1E229
330
1E1CC
100
AcDbEntity
  8
文字
100
AcDbLine
 10
67.6262793336
 20
-94.00257575445001
 30
0.0
 11
68.11690992239999
 21
-92.17151746905001
 31
0.0
  0
LINE
  5
1E22A
330
1E1CC
100
AcDbEntity
  8
文字
100
AcDbLine
 10
68.85956750350001
 20
-93.87834261285
 30
0.0
 11
70.08141582100001
 21
-89.31834261285001
 31
0.0
  0
LINE
  5
1E22B
330
1E1CC
100
AcDbEntity
  8
文字
100
AcDbLine
 10
70.38627933360001
 20
-94.00257575445001
 30
0.0
 11
71.6486035966
 21
-89.29151746905001
 31
0.0
  0
LINE
  5
1E22C
330
1E1CC
100
AcDbEntity
  8
文字
100
AcDbLine
 10
71.6195675035
 20
-93.87834261285
 30
0.0
 11
72.841415821
 21
-89.31834261285001
 31
0.0
  0
LINE
  5
1E22D
330
1E1CC
100
AcDbEntity
  8
文字
100
AcDbLine
 10
67.1290795422
 20
-89.14045918365001
 30
0.0
 11
66.7132380193
 21
-89.14045918365001
 31
0.0
  0
LINE
  5
1E22E
330
1E1CC
100
AcDbEntity
  8
文字
100
AcDbLine
 10
65.1726924975
 20
-89.14045918365001
 30
0.0
 11
64.7290795422
 21
-89.14045918365001
 31
0.0
  0
LINE
  5
1E22F
330
1E1CC
100
AcDbEntity
  8
文字
100
AcDbLine
 10
65.99078523220001
 20
-91.14940089825001
 30
0.0
 11
66.48141582100001
 21
-89.31834261285001
 31
0.0
  0
ARC
  5
1E230
330
1E1CC
100
AcDbEntity
  8
文字
100
AcDbCircle
 10
65.1726924975
 20
-89.26045918365
 30
0.0
 40
0.12
100
AcDbArc
 50
345.0000109816994
 51
90.0
  0
ARC
  5
1E231
330
1E1CC
100
AcDbEntity
  8
文字
100
AcDbCircle
 10
66.7132380193
 20
-89.38045918365
 30
0.0
 40
0.24
100
AcDbArc
 50
90.0
 51
165.0000052521
  0
ARC
  5
1E232
330
1E1CC
100
AcDbEntity
  8
文字
100
AcDbCircle
 10
65.8494651066
 20
-92.14045918365
 30
0.0
 40
0.12
100
AcDbArc
 50
90.0
 51
165.0000052521
  0
ARC
  5
1E233
330
1E1CC
100
AcDbEntity
  8
文字
100
AcDbCircle
 10
66.10669633130001
 20
-91.18045918365
 30
0.0
 40
0.12
100
AcDbArc
 50
165.0000052521
 51
270.0
  0
LINE
  5
1E234
330
1E1CC
100
AcDbEntity
  8
文字
100
AcDbLine
 10
65.77861561240002
 20
-94.18045918365001
 30
0.0
 11
65.64777674660001
 21
-94.18045918365001
 31
0.0
  0
LINE
  5
1E235
330
1E1CC
100
AcDbEntity
  8
文字
100
AcDbLine
 10
65.65000000000001
 20
-94.66045918365001
 30
0.0
 11
65.77861561240002
 21
-94.18045918365001
 31
0.0
  0
LINE
  5
1E236
330
1E1CC
100
AcDbEntity
  8
文字
100
AcDbLine
 10
66.84999999999999
 20
-94.66045918365001
 30
0.0
 11
66.9786156124
 21
-94.18045918365001
 31
0.0
  0
ARC
  5
1E237
330
1E1CC
100
AcDbEntity
  8
文字
100
AcDbCircle
 10
65.64777674660001
 20
-93.82045918364999
 30
0.0
 40
0.36
100
AcDbArc
 50
165.0000052521
 51
270.0
  0
LINE
  5
1E238
330
1E1CC
100
AcDbEntity
  8
文字
100
AcDbLine
 10
63.7944571353
 20
-94.18045918365001
 30
0.0
 11
63.37861561240001
 21
-94.18045918365001
 31
0.0
  0
LINE
  5
1E239
330
1E1CC
100
AcDbEntity
  8
文字
100
AcDbLine
 10
63.25
 20
-94.66045918365001
 30
0.0
 11
63.37861561240001
 21
-94.18045918365001
 31
0.0
  0
ARC
  5
1E23A
330
1E1CC
100
AcDbEntity
  8
文字
100
AcDbCircle
 10
63.7944571353
 20
-93.94045918365
 30
0.0
 40
0.24
100
AcDbArc
 50
270.0
 51
345.0000109816997
  0
LINE
  5
1E23B
330
1E1CC
100
AcDbEntity
  8
文字
100
AcDbLine
 10
65.65000000000001
 20
-94.66045918365001
 30
0.0
 11
63.25
 21
-94.66045918365001
 31
0.0
  0
LINE
  5
1E23C
330
1E1CC
100
AcDbEntity
  8
文字
100
AcDbLine
 10
64.0262793336
 20
-94.00257575445001
 30
0.0
 11
65.28860359660001
 21
-89.29151746905001
 31
0.0
  0
LINE
  5
1E23D
330
1E1CC
100
AcDbEntity
  8
文字
100
AcDbLine
 10
65.3000434491
 20
-93.72728432745001
 30
0.0
 11
65.73355400740002
 21
-92.10940089824999
 31
0.0
  0
LINE
  5
1E23E
330
1E1CC
100
AcDbEntity
  8
文字
100
AcDbLine
 10
67.3944571353
 20
-94.18045918365001
 30
0.0
 11
66.9786156124
 21
-94.18045918365001
 31
0.0
  0
LINE
  5
1E23F
330
1E1CC
100
AcDbEntity
  8
文字
100
AcDbLine
 10
69.25
 20
-94.66045918365001
 30
0.0
 11
66.84999999999999
 21
-94.66045918365001
 31
0.0
  0
LINE
  5
1E240
330
1E1CC
100
AcDbEntity
  8
文字
100
AcDbLine
 10
66.10669633130001
 20
-91.30045918365
 30
0.0
 11
68.258230048
 21
-91.30045918365
 31
0.0
  0
LINE
  5
1E241
330
1E1CC
100
AcDbEntity
  8
文字
100
AcDbLine
 10
65.8494651066
 20
-92.02045918365
 30
0.0
 11
68.00099882329999
 21
-92.02045918365
 31
0.0
  0
ARC
  5
1E242
330
1E1CC
100
AcDbEntity
  8
文字
100
AcDbCircle
 10
73.07323801930002
 20
-89.38045918365
 30
0.0
 40
0.24
100
AcDbArc
 50
90.0
 51
165.0000052521
  0
LINE
  5
1E243
330
1E1CC
100
AcDbEntity
  8
文字
100
AcDbLine
 10
64.7290795422
 20
-89.14045918365001
 30
0.0
 11
64.85769515460001
 21
-88.66045918365001
 31
0.0
  0
LINE
  5
1E244
330
1E1CC
100
AcDbEntity
  8
文字
100
AcDbLine
 10
67.1290795422
 20
-89.14045918365001
 30
0.0
 11
67.25769515460001
 21
-88.66045918365001
 31
0.0
  0
LINE
  5
1E245
330
1E1CC
100
AcDbEntity
  8
文字
100
AcDbLine
 10
68.32907954220002
 20
-89.14045918365001
 30
0.0
 11
68.4576951546
 21
-88.66045918365001
 31
0.0
  0
LINE
  5
1E246
330
1E1CC
100
AcDbEntity
  8
文字
100
AcDbLine
 10
70.72907954219999
 20
-89.14045918365001
 30
0.0
 11
70.8576951546
 21
-88.66045918365001
 31
0.0
  0
LINE
  5
1E247
330
1E1CC
100
AcDbEntity
  8
文字
100
AcDbLine
 10
71.08907954220001
 20
-89.14045918365001
 30
0.0
 11
71.21769515459999
 21
-88.66045918365001
 31
0.0
  0
LINE
  5
1E248
330
1E1CC
100
AcDbEntity
  8
文字
100
AcDbLine
 10
73.48907954220002
 20
-89.14045918365001
 30
0.0
 11
73.6176951546
 21
-88.66045918365001
 31
0.0
  0
LINE
  5
1E249
330
1E1CC
100
AcDbEntity
  8
文字
100
AcDbLine
 10
73.8490795422
 20
-89.14045918365001
 30
0.0
 11
73.97769515460002
 21
-88.66045918365001
 31
0.0
  0
LINE
  5
1E24A
330
1E1CC
100
AcDbEntity
  8
文字
100
AcDbLine
 10
76.24907954220001
 20
-89.14045918365001
 30
0.0
 11
76.37769515460002
 21
-88.66045918365001
 31
0.0
  0
LINE
  5
1E24B
330
1E1CC
100
AcDbEntity
  8
文字
100
AcDbLine
 10
76.96907954220001
 20
-89.14045918365001
 30
0.0
 11
77.09769515460002
 21
-88.66045918365001
 31
0.0
  0
LINE
  5
1E24C
330
1E1CC
100
AcDbEntity
  8
文字
100
AcDbLine
 10
79.2490795422
 20
-89.14045918365001
 30
0.0
 11
79.37769515460002
 21
-88.66045918365001
 31
0.0
  0
LINE
  5
1E24D
330
1E1CC
100
AcDbEntity
  8
文字
100
AcDbLine
 10
80.20907954220001
 20
-89.14045918365001
 30
0.0
 11
80.33769515459999
 21
-88.66045918365001
 31
0.0
  0
LINE
  5
1E24E
330
1E1CC
100
AcDbEntity
  8
文字
100
AcDbLine
 10
82.36907954220001
 20
-89.14045918365001
 30
0.0
 11
82.4976951546
 21
-88.66045918365001
 31
0.0
  0
LINE
  5
1E24F
330
1E1CC
100
AcDbEntity
  8
文字
100
AcDbLine
 10
82.7290795422
 20
-89.14045918365001
 30
0.0
 11
82.85769515460001
 21
-88.66045918365001
 31
0.0
  0
LINE
  5
1E250
330
1E1CC
100
AcDbEntity
  8
文字
100
AcDbLine
 10
85.25769515460002
 20
-88.66045918365001
 30
0.0
 11
82.85769515460001
 21
-88.66045918365001
 31
0.0
  0
LINE
  5
1E251
330
1E1CC
100
AcDbEntity
  8
文字
100
AcDbLine
 10
83.2595675035
 20
-93.87834261285
 30
0.0
 11
84.48141582100001
 21
-89.31834261285001
 31
0.0
  0
LINE
  5
1E252
330
1E1CC
100
AcDbEntity
  8
圖框
100
AcDbLine
 10
137.5
 20
-45.56045918365
 30
0.0
 11
62.5
 21
-45.56045918365
 31
0.0
  0
TEXT
  5
1E253
330
1E1CC
100
AcDbEntity
  8
文字
100
AcDbText
 10
95.52649007453704
 20
-94.35242673930732
 30
0.0
 40
3.264802668514023
  1
TECHNOLOGIES CORP.
 51
5.0
  7
型式I
 72
     1
 11
116.3057866166815
 21
-95.27234351330852
 31
0.0
100
AcDbText
 73
     1
  0
TEXT
  5
1E254
330
1E1CC
100
AcDbEntity
  8
文字
100
AcDbText
 10
129.2516159000329
 20
93.68953067375702
 30
0.0
 40
2.0
  1
APP
  7
型式1
 72
     1
 11
131.815569388405
 21
93.09650741794307
 31
0.0
100
AcDbText
 73
     1
  0
TEXT
  5
1E255
330
1E1CC
100
AcDbEntity
  8
文字
100
AcDbText
 10
116.1171397230732
 20
93.68953067375702
 30
0.0
 40
2.0
  1
DATE
  7
型式1
 72
     1
 11
119.8438839091197
 21
93.09650741794307
 31
0.0
100
AcDbText
 73
     1
  0
TEXT
  5
1E256
330
1E1CC
100
AcDbEntity
  8
文字
100
AcDbText
 10
81.50767723018667
 20
93.68953067375702
 30
0.0
 40
2.0
  1
MODIFICATION
  7
型式1
 72
     1
 11
91.75913071855877
 21
93.09650741794307
 31
0.0
100
AcDbText
 73
     1
  0
LINE
  5
1E257
330
1E1CC
100
AcDbEntity
  8
圖框
100
AcDbLine
 10
70.5
 20
92.46045918365
 30
0.0
 11
137.5
 21
92.46045918365
 31
0.0
  0
LINE
  5
1E258
330
1E1CC
100
AcDbEntity
  8
圖框
100
AcDbLine
 10
113.5
 20
96.46045918365
 30
0.0
 11
113.5
 21
88.46045918365
 31
0.0
  0
LINE
  5
1E259
330
1E1CC
100
AcDbEntity
  8
圖框
100
AcDbLine
 10
125.5
 20
96.46045918365
 30
0.0
 11
125.5
 21
88.46045918365
 31
0.0
  0
LINE
  5
1E25A
330
1E1CC
100
AcDbEntity
  8
圖框
100
AcDbLine
 10
70.5
 20
88.46045918365
 30
0.0
 11
70.5
 21
96.46045918365
 31
0.0
  0
TEXT
  5
1E25B
330
1E1CC
100
AcDbEntity
  8
文字
 62
     2
100
AcDbText
 10
129.4000000000001
 20
93.46045918365
 30
0.0
 40
1.8
  1
APP
 41
0.85
  7
COMPLEX
100
AcDbText
  0
TEXT
  5
1E25C
330
1E1CC
100
AcDbEntity
  8
文字
 62
     2
100
AcDbText
 10
116.7
 20
93.46045918365
 30
0.0
 40
1.8
  1
DATE
 41
0.85
  7
COMPLEX
100
AcDbText
  0
TEXT
  5
1E25D
330
1E1CC
100
AcDbEntity
  8
文字
 62
     2
100
AcDbText
 10
84.29999999999996
 20
93.46045918365
 30
0.0
 40
1.8
  1
MODIFICATION
 41
0.85
  7
COMPLEX
100
AcDbText
  0
LINE
  5
1E25E
330
1E1CC
100
AcDbEntity
  8
圖框
100
AcDbLine
 10
137.5
 20
-17.96045918365
 30
0.0
 11
62.5
 21
-17.96045918365
 31
0.0
  0
LINE
  5
1E25F
330
1E1CC
100
AcDbEntity
  8
圖框
100
AcDbLine
 10
137.5
 20
-6.960459183650002
 30
0.0
 11
62.5
 21
-6.960459183650002
 31
0.0
  0
LINE
  5
1E260
330
1E1CC
100
AcDbEntity
  8
圖框
100
AcDbLine
 10
137.5
 20
-12.46045918365
 30
0.0
 11
62.5
 21
-12.46045918365
 31
0.0
  0
LINE
  5
1E261
330
1E1CC
100
AcDbEntity
  8
圖框
100
AcDbLine
 10
137.5
 20
-23.46045918365
 30
0.0
 11
62.5
 21
-23.46045918365
 31
0.0
  0
LINE
  5
1E262
330
1E1CC
100
AcDbEntity
  8
圖框
100
AcDbLine
 10
137.5
 20
-28.96045918365
 30
0.0
 11
62.5
 21
-28.96045918365
 31
0.0
  0
LINE
  5
1E263
330
1E1CC
100
AcDbEntity
  8
圖框
100
AcDbLine
 10
137.5
 20
-34.46045918365
 30
0.0
 11
62.5
 21
-34.46045918365
 31
0.0
  0
LINE
  5
1E264
330
1E1CC
100
AcDbEntity
  8
圖框
100
AcDbLine
 10
137.5
 20
-39.96045918365
 30
0.0
 11
62.5
 21
-39.96045918365
 31
0.0
  0
LINE
  5
1E265
330
1E1CC
100
AcDbEntity
  8
圖框
100
AcDbLine
 10
112.5
 20
-12.46045918365
 30
0.0
 11
112.5
 21
-45.56045918365001
 31
0.0
  0
LINE
  5
1E266
330
1E1CC
100
AcDbEntity
  8
圖框
100
AcDbLine
 10
62.5
 20
-6.960459183650002
 30
0.0
 11
62.5
 21
-45.56045918365001
 31
0.0
  0
TEXT
  5
1E267
330
1E1CC
100
AcDbEntity
  8
文字
 62
     2
100
AcDbText
 10
64.19520365879884
 20
-68.48550702672961
 30
0.0
 40
3.5
  1
LINEAR MOTION GUIDEWAY
 41
0.7000000000000001
  7
COMPLEX
100
AcDbText
  0
LINE
  5
1E268
330
1E1CC
100
AcDbEntity
  8
圖框
100
AcDbLine
 10
137.5
 20
-81.86045918365001
 30
0.0
 11
117.5
 21
-81.86045918365001
 31
0.0
  0
LINE
  5
1E269
330
1E1CC
100
AcDbEntity
  8
圖框
100
AcDbLine
 10
137.5
 20
-76.86045918365
 30
0.0
 11
117.5
 21
-76.86045918365
 31
0.0
  0
LINE
  5
1E26A
330
1E1CC
100
AcDbEntity
  8
圖框
100
AcDbLine
 10
137.5
 20
-72.06045918364999
 30
0.0
 11
117.5
 21
-72.06045918364999
 31
0.0
  0
LINE
  5
1E26B
330
1E1CC
100
AcDbEntity
  8
圖框
100
AcDbLine
 10
137.5
 20
-67.26045918365
 30
0.0
 11
117.5
 21
-67.26045918365
 31
0.0
  0
LINE
  5
1E26C
330
1E1CC
100
AcDbEntity
  8
圖框
100
AcDbLine
 10
137.5
 20
-46.36045918365
 30
0.0
 11
62.5
 21
-46.36045918365
 31
0.0
  0
LINE
  5
1E26D
330
1E1CC
100
AcDbEntity
  8
圖框
100
AcDbLine
 10
137.5
 20
-54.46045918365
 30
0.0
 11
62.5
 21
-54.46045918365
 31
0.0
  0
LINE
  5
1E26E
330
1E1CC
100
AcDbEntity
  8
圖框
100
AcDbLine
 10
137.5
 20
-62.76045918364999
 30
0.0
 11
62.5
 21
-62.76045918364999
 31
0.0
  0
LINE
  5
1E26F
330
1E1CC
100
AcDbEntity
  8
圖框
100
AcDbLine
 10
117.5
 20
-70.46045918365
 30
0.0
 11
62.5
 21
-70.46045918365
 31
0.0
  0
LINE
  5
1E270
330
1E1CC
100
AcDbEntity
  8
圖框
100
AcDbLine
 10
117.5
 20
-78.46045918365
 30
0.0
 11
62.5
 21
-78.46045918365
 31
0.0
  0
LINE
  5
1E271
330
1E1CC
100
AcDbEntity
  8
圖框
100
AcDbLine
 10
137.5
 20
-86.86045918365001
 30
0.0
 11
62.5
 21
-86.86045918365001
 31
0.0
  0
LINE
  5
1E272
330
1E1CC
100
AcDbEntity
  8
圖框
100
AcDbLine
 10
62.5
 20
-46.36045918365
 30
0.0
 11
62.5
 21
-96.46045918365
 31
0.0
  0
LINE
  5
1E273
330
1E1CC
100
AcDbEntity
  8
圖框
100
AcDbLine
 10
117.5
 20
-62.76045918364999
 30
0.0
 11
117.5
 21
-86.86045918365001
 31
0.0
  0
TEXT
  5
1E274
330
1E1CC
100
AcDbEntity
  8
文字
 62
     2
100
AcDbText
 10
94.75440421570002
 20
-94.46045918364999
 30
0.0
 40
4.0
  1
TECHNOLOGIES CORP.
 41
0.6
 51
5.000000159199999
  7
COMPLEX
100
AcDbText
  0
LINE
  5
1E275
330
1E1CC
100
AcDbEntity
  8
圖框
100
AcDbLine
 10
-137.5
 20
-96.46045918365
 30
0.0
 11
-137.5
 21
96.46045918365
 31
0.0
  0
LINE
  5
1E276
330
1E1CC
100
AcDbEntity
  8
圖框
100
AcDbLine
 10
137.5
 20
-96.46045918365
 30
0.0
 11
-137.5
 21
-96.46045918365
 31
0.0
  0
LINE
  5
1E277
330
1E1CC
100
AcDbEntity
  8
圖框
100
AcDbLine
 10
137.5
 20
96.46045918365
 30
0.0
 11
137.5
 21
-96.46045918365
 31
0.0
  0
LINE
  5
1E278
330
1E1CC
100
AcDbEntity
  8
圖框
100
AcDbLine
 10
-137.5
 20
96.46045918365
 30
0.0
 11
137.5
 21
96.46045918365
 31
0.0
  0
TEXT
  5
1E279
330
1E1CC
100
AcDbEntity
  8
文字
100
AcDbText
 10
93.21511627906977
 20
-10.94926101297211
 30
0.0
 40
3.0
  1
規    格
  7
型式1
 72
     1
 11
100.0
 21
-11.83879589669304
 31
0.0
100
AcDbText
 73
     1
  0
TEXT
  5
1E27A
330
1E1CC
100
AcDbEntity
  8
文字
100
AcDbText
 10
80.05813953488372
 20
-16.39060938413577
 30
0.0
 40
2.5
  1
滑塊型式
  7
型式1
 72
     1
 11
87.5
 21
-17.13188845390321
 31
0.0
100
AcDbText
 73
     1
  0
TEXT
  5
1E27B
330
1E1CC
100
AcDbEntity
  8
文字
100
AcDbText
 10
70.75581395348837
 20
-21.89060938413577
 30
0.0
 40
2.5
  1
單根滑軌上滑塊個數
  7
型式1
 72
     1
 11
87.5
 21
-22.63188845390322
 31
0.0
100
AcDbText
 73
     1
  0
TEXT
  5
1E27C
330
1E1CC
100
AcDbEntity
  8
文字
100
AcDbText
 10
80.05813953488372
 20
-27.39060938413578
 30
0.0
 40
2.5
  1
精度等級
  7
型式1
 72
     1
 11
87.5
 21
-28.13188845390321
 31
0.0
100
AcDbText
 73
     1
  0
TEXT
  5
1E27D
330
1E1CC
100
AcDbEntity
  8
文字
100
AcDbText
 10
80.05813953488372
 20
-32.89060938413577
 30
0.0
 40
2.5
  1
預壓等級
  7
型式1
 72
     1
 11
87.5
 21
-33.63188845390322
 31
0.0
100
AcDbText
 73
     1
  0
TEXT
  5
1E27E
330
1E1CC
100
AcDbEntity
  8
文字
100
AcDbText
 10
70.75581395348837
 20
-38.39060938413577
 30
0.0
 40
2.5
  1
同一軸使用之滑軌數
  7
型式1
 72
     1
 11
87.5
 21
-39.13188845390322
 31
0.0
100
AcDbText
 73
     1
  0
TEXT
  5
1E27F
330
1E1CC
100
AcDbEntity
  8
文字
100
AcDbText
 10
74.47674418604652
 20
-43.94060938413576
 30
0.0
 40
2.5
  1
滑塊內預封油脂
  7
型式1
 72
     1
 11
87.5
 21
-44.68188845390321
 31
0.0
100
AcDbText
 73
     1
  0
TEXT
  5
1E280
330
1E1CC
100
AcDbEntity
  8
文字
100
AcDbText
 10
63.10000000000002
 20
-49.22348098820744
 30
0.0
 40
2.0
  1
客戶
  7
型式1
100
AcDbText
  0
TEXT
  5
1E281
330
1E1CC
100
AcDbEntity
  8
文字
100
AcDbText
 10
63.10000000000002
 20
-57.22348098820745
 30
0.0
 40
2.0
  1
機型
  7
型式1
100
AcDbText
  0
TEXT
  5
1E282
330
1E1CC
100
AcDbEntity
  8
文字
100
AcDbText
 10
70.67493132672578
 20
-68.12481386985424
 30
0.0
 40
3.731202987961495
  1
LINEAR GUIDEWAY
  7
型式2
 72
     1
 11
90.46473722972597
 21
-69.17614730845112
 31
0.0
100
AcDbText
 73
     1
  0
TEXT
  5
1E283
330
1E1CC
100
AcDbEntity
  8
文字
100
AcDbText
 10
63.10000000000002
 20
-73.22348098820746
 30
0.0
 40
2.0
  1
型號
  7
型式1
100
AcDbText
  0
TEXT
  5
1E284
330
1E1CC
100
AcDbEntity
  8
文字
100
AcDbText
 10
63.10000000000002
 20
-81.22348098820745
 30
0.0
 40
2.0
  1
圖號
  7
型式1
100
AcDbText
  0
TEXT
  5
1E285
330
1E1CC
100
AcDbEntity
  8
文字
100
AcDbText
 10
118.0422826873949
 20
-69.09858188128906
 30
0.0
 40
1.399999999999999
  1
DATE
  7
型式1
100
AcDbText
  0
TEXT
  5
1E286
330
1E1CC
100
AcDbEntity
  8
文字
100
AcDbText
 10
118.0422826873949
 20
-73.79398308954567
 30
0.0
 40
1.399999999999999
  1
DR
  7
型式1
100
AcDbText
  0
TEXT
  5
1E287
330
1E1CC
100
AcDbEntity
  8
文字
100
AcDbText
 10
118.0422826873949
 20
-78.72376718588485
 30
0.0
 40
1.399999999999999
  1
CK
  7
型式1
100
AcDbText
  0
TEXT
  5
1E288
330
1E1CC
100
AcDbEntity
  8
文字
100
AcDbText
 10
118.0422826873949
 20
-83.584745409562
 30
0.0
 40
1.399999999999999
  1
APP
  7
型式1
100
AcDbText
  0
LINE
  5
1E289
330
1E1CC
100
AcDbEntity
  8
圖框
100
AcDbLine
 10
70.5
 20
88.46045918365
 30
0.0
 11
137.5
 21
88.46045918365
 31
0.0
  0
LINE
  5
1E28A
330
1E1CC
100
AcDbEntity
  8
圖框
100
AcDbLine
 10
137.5
 20
-61.96045918365
 30
0.0
 11
62.5
 21
-61.96045918365
 31
0.0
  0
TEXT
  5
1E28B
330
1E1CC
100
AcDbEntity
  8
文字
100
AcDbText
 10
118.0422826873949
 20
-64.59858188128906
 30
0.0
 40
1.399999999999999
  1
SCALE
  7
型式1
100
AcDbText
  0
ENDBLK
  5
1E28C
330
1E1CC
100
AcDbEntity
  8
0
 62
     7
 48
0.27
100
AcDbBlockEnd
  0
BLOCK
  5
1E383
330
1E382
100
AcDbEntity
  8
0
100
AcDbBlockBegin
  2
_DotSmall
 70
     0
 10
0.0
 20
0.0
 30
0.0
  3
_DotSmall
  1

  0
LWPOLYLINE
  5
1E384
330
1E382
100
AcDbEntity
  8
0
  6
ByBlock
 62
     0
100
AcDbPolyline
 90
        2
 70
     1
 43
0.5
 10
-0.0625
 20
0.0
 42
1.0
 10
0.0625
 20
0.0
 42
1.0
  0
ENDBLK
  5
1E385
330
1E382
100
AcDbEntity
  8
0
100
AcDbBlockEnd
  0
BLOCK
  5
1E387
330
1E386
100
AcDbEntity
  8
0
 48
0.27
100
AcDbBlockBegin
  2
4
 70
     0
 10
0.0
 20
0.0
 30
0.0
  3
4
  1

  0
TEXT
  5
1E388
330
1E386
100
AcDbEntity
  8
HIWIN
 62
     5
100
AcDbText
 10
-1.539074279503282
 20
-1.527162655385474
 30
0.0
 40
3.0
  1
※
  7
SIMPLEX1
100
AcDbText
  0
ENDBLK
  5
1E389
330
1E386
100
AcDbEntity
  8
0
 48
0.27
100
AcDbBlockEnd
  0
BLOCK
  5
1E38B
330
1E38A
100
AcDbEntity
  8
0
 48
0.27
100
AcDbBlockBegin
  2
blk_c
 70
     0
 10
0.0
 20
0.0
 30
0.0
  3
blk_c
  1

  0
TEXT
  5
1E38C
330
1E38A
100
AcDbEntity
  8
標註線
 48
0.27
100
AcDbText
 10
-0.8936554201758141
 20
-1.139401422013806
 30
0.0
 40
2.499999999999962
  1
C
  7
型式2
 72
     4
 11
-0.0096775196233413
 21
0.02772564980938
 31
0.0
100
AcDbText
  0
LWPOLYLINE
  5
1E38D
330
1E38A
100
AcDbEntity
  8
標註線
 48
0.27
100
AcDbPolyline
 90
        4
 70
     1
 43
0.0
 10
1.75
 20
-1.749999999999972
 10
1.75
 20
1.749999999999972
 10
-1.75
 20
1.749999999999972
 10
-1.75
 20
-1.749999999999972
  0
ENDBLK
  5
1E38E
330
1E38A
100
AcDbEntity
  8
0
 48
0.27
100
AcDbBlockEnd
  0
BLOCK
  5
1E390
330
1E38F
100
AcDbEntity
  8
0
 48
0.27
100
AcDbBlockBegin
  2
blk_a
 70
     0
 10
0.0
 20
0.0
 30
0.0
  3
blk_a
  1

  0
LWPOLYLINE
  5
1E391
330
1E38F
100
AcDbEntity
  8
標註線
 48
0.27
100
AcDbPolyline
 90
        4
 70
     1
 43
0.0
 10
1.75
 20
-1.749999999999972
 10
1.75
 20
1.749999999999972
 10
-1.75
 20
1.749999999999972
 10
-1.75
 20
-1.749999999999972
  0
TEXT
  5
1E392
330
1E38F
100
AcDbEntity
  8
標註線
 48
0.27
100
AcDbText
 10
-0.8936554201758141
 20
-1.153213576709939
 30
0.0
 40
2.499999999999962
  1
A
  7
型式2
 72
     4
 11
-0.0096775196233413
 21
0.02772564980938
 31
0.0
100
AcDbText
  0
ENDBLK
  5
1E393
330
1E38F
100
AcDbEntity
  8
0
 48
0.27
100
AcDbBlockEnd
  0
BLOCK
  5
1E395
330
1E394
100
AcDbEntity
  8
0
 48
0.27
100
AcDbBlockBegin
  2
blk_d
 70
     0
 10
0.0
 20
0.0
 30
0.0
  3
blk_d
  1

  0
LWPOLYLINE
  5
1E396
330
1E394
100
AcDbEntity
  8
標註線
 48
0.27
100
AcDbPolyline
 90
        4
 70
     1
 43
0.0
 10
1.75
 20
-1.749999999999972
 10
1.75
 20
1.749999999999972
 10
-1.75
 20
1.749999999999972
 10
-1.75
 20
-1.749999999999972
  0
TEXT
  5
1E397
330
1E394
100
AcDbEntity
  8
標註線
 48
0.27
100
AcDbText
 10
-0.8936554201758141
 20
-1.139401422013806
 30
0.0
 40
2.499999999999962
  1
D
  7
型式2
 72
     4
 11
-0.0096775196233413
 21
0.02772564980938
 31
0.0
100
AcDbText
  0
ENDBLK
  5
1E398
330
1E394
100
AcDbEntity
  8
0
 48
0.27
100
AcDbBlockEnd
  0
BLOCK
  5
1E39A
330
1E399
100
AcDbEntity
  8
0
 48
0.27
100
AcDbBlockBegin
  2
blk_b
 70
     0
 10
0.0
 20
0.0
 30
0.0
  3
blk_b
  1

  0
LWPOLYLINE
  5
1E39B
330
1E399
100
AcDbEntity
  8
標註線
 48
0.27
100
AcDbPolyline
 90
        4
 70
     1
 43
0.0
 10
1.75
 20
-1.749999999999972
 10
1.75
 20
1.749999999999972
 10
-1.75
 20
1.749999999999972
 10
-1.75
 20
-1.749999999999972
  0
TEXT
  5
1E39C
330
1E399
100
AcDbEntity
  8
標註線
 48
0.27
100
AcDbText
 10
-0.8936554201758141
 20
-1.139401422013808
 30
0.0
 40
2.499999999999962
  1
B
  7
型式2
 72
     4
 11
-0.0096775196233413
 21
0.0277256498093788
 31
0.0
100
AcDbText
  0
ENDBLK
  5
1E39D
330
1E399
100
AcDbEntity
  8
0
 48
0.27
100
AcDbBlockEnd
  0
BLOCK
  5
1E39F
330
1E39E
100
AcDbEntity
  8
0
 48
0.27
100
AcDbBlockBegin
  2
2
 70
     0
 10
0.0
 20
0.0
 30
0.0
  3
2
  1

  0
INSERT
  5
1E3A0
330
1E39E
100
AcDbEntity
  8
標註線
 48
0.27
100
AcDbBlockReference
  2
4
 10
0.3603011646182495
 20
0.3432206475278008
 30
-5.0
 41
5.399999999999181
 42
5.400000000000034
 43
5.400000000000002
  0
ENDBLK
  5
1E3A1
330
1E39E
100
AcDbEntity
  8
0
 48
0.27
100
AcDbBlockEnd
  0
BLOCK
  5
1ECC4
330
1EC49
100
AcDbEntity
  8
0
 48
0.27
100
AcDbBlockBegin
  2
A$C2BEC5252
 70
     0
 10
0.0
 20
0.0
 30
0.0
  3
A$C2BEC5252
  1

  0
LINE
  5
1EC4A
330
1EC49
100
AcDbEntity
  8
0
 62
     1
 48
0.27
100
AcDbLine
 10
2.309433720339256
 20
8.000117384725399
 30
0.0
 11
6.928302351121601
 21
8.000117384725399
 31
0.0
  0
LINE
  5
1EC4B
330
1EC49
100
AcDbEntity
  8
0
 62
     1
 48
0.27
100
AcDbLine
 10
6.928303687141124
 20
0.0000006438144737
 30
0.0
 11
2.309433720339256
 21
0.0000006438144737
 31
0.0
  0
ARC
  5
1EC4C
330
1EC49
100
AcDbEntity
  8
0
 62
     1
 48
0.27
100
AcDbCircle
 10
4.618868035729974
 20
4.000059682279697
 30
0.0
 40
4.000057702445608
100
AcDbArc
 50
48.5903779988978
 51
311.4096220031896
  0
LINE
  5
1EC4D
330
1EC49
100
AcDbEntity
  8
0
 62
     1
 48
0.27
100
AcDbLine
 10
2.309433720339256
 20
8.000117384725399
 30
0.0
 11
-0.00000059505237
 21
4.000059682279697
 31
0.0
  0
LINE
  5
1EC4E
330
1EC49
100
AcDbEntity
  8
0
 62
     1
 48
0.27
100
AcDbLine
 10
-0.00000059505237
 20
4.000059682279697
 30
0.0
 11
2.309433720339256
 21
0.0000006438144737
 31
0.0
  0
LWPOLYLINE
  5
1EC4F
330
1EC49
100
AcDbEntity
  8
0
 62
     1
 48
0.27
100
AcDbPolyline
 90
       17
 70
     0
 43
0.0
 10
13.57068639155295
 20
4.000059682279697
 10
13.60423518250991
 20
3.783019272639194
 10
13.63712665167531
 20
3.720114120701964
 10
13.67369751913247
 20
3.690572052912557
 10
13.70767517234799
 20
3.690879337396381
 10
13.74416855067375
 20
3.721084070956294
 10
13.77551290906376
 20
3.780854920656111
 10
13.80489999859128
 20
3.910929799460973
 10
13.8098673198765
 20
4.000059682279697
 10
13.77631986493907
 20
4.217098755901133
 10
13.74342705975414
 20
4.280003907838363
 10
13.70685619229698
 20
4.309545975628225
 10
13.67287987510099
 20
4.309238691043901
 10
13.63638516075571
 20
4.279033957484443
 10
13.60504213838521
 20
4.219263107784172
 10
13.57565371283817
 20
4.089188229079354
 10
13.57068639155295
 20
4.000059682279697
  0
LINE
  5
1EC50
330
1EC49
100
AcDbEntity
  8
0
 62
     1
 48
0.27
100
AcDbLine
 10
14.36275235569701
 20
3.650518182030282
 30
0.0
 11
14.37592684604442
 21
4.000059682279697
 31
0.0
  0
LINE
  5
1EC51
330
1EC49
100
AcDbEntity
  8
0
 62
     1
 48
0.27
100
AcDbLine
 10
14.32373523614296
 20
3.31440902399072
 30
0.0
 11
14.36275235569701
 21
3.650518182030282
 31
0.0
  0
LINE
  5
1EC52
330
1EC49
100
AcDbEntity
  8
0
 62
     1
 48
0.27
100
AcDbLine
 10
14.37592684604442
 20
4.000059682279697
 30
0.0
 11
14.36275235569701
 21
4.349601182529568
 31
0.0
  0
LINE
  5
1EC53
330
1EC49
100
AcDbEntity
  8
0
 62
     1
 48
0.27
100
AcDbLine
 10
14.2603745014585
 20
3.004650182565455
 30
0.0
 11
14.32373523614296
 21
3.31440902399072
 31
0.0
  0
LINE
  5
1EC54
330
1EC49
100
AcDbEntity
  8
0
 62
     1
 48
0.27
100
AcDbLine
 10
14.36275235569701
 20
4.349601182529568
 30
0.0
 11
14.32373523614296
 21
4.685709004549607
 31
0.0
  0
LINE
  5
1EC55
330
1EC49
100
AcDbEntity
  8
0
 62
     1
 48
0.27
100
AcDbLine
 10
14.17510437956207
 20
2.733142921522357
 30
0.0
 11
14.2603745014585
 21
3.004650182565455
 31
0.0
  0
LINE
  5
1EC56
330
1EC49
100
AcDbEntity
  8
0
 62
     1
 48
0.27
100
AcDbLine
 10
13.41573883389537
 20
2.361726770569021
 30
0.0
 11
13.41763731789888
 21
2.36265530421906
 31
0.0
  0
LINE
  5
1EC57
330
1EC49
100
AcDbEntity
  8
0
 62
     1
 48
0.27
100
AcDbLine
 10
14.32373523614296
 20
4.685709004549607
 30
0.0
 11
14.2603745014585
 21
4.995469181994394
 31
0.0
  0
LINE
  5
1EC58
330
1EC49
100
AcDbEntity
  8
0
 62
     1
 48
0.27
100
AcDbLine
 10
14.07120346289866
 20
2.510322890543193
 30
0.0
 11
14.17510437956207
 21
2.733142921522357
 31
0.0
  0
LINE
  5
1EC59
330
1EC49
100
AcDbEntity
  8
0
 62
     1
 48
0.27
100
AcDbLine
 10
14.2603745014585
 20
4.995469181994394
 30
0.0
 11
14.17510437956207
 21
5.266975107017515
 31
0.0
  0
LINE
  5
1EC5A
330
1EC49
100
AcDbEntity
  8
0
 62
     1
 48
0.27
100
AcDbLine
 10
10.49748167351754
 20
1.963488688019424
 30
0.0
 11
10.73860784642693
 21
2.061893219577996
 31
0.0
  0
LINE
  5
1EC5B
330
1EC49
100
AcDbEntity
  8
0
 62
     1
 48
0.27
100
AcDbLine
 10
10.49748167351754
 20
6.036629340520903
 30
0.0
 11
10.73860784642693
 21
5.938226144982309
 31
0.0
  0
LINE
  5
1EC5C
330
1EC49
100
AcDbEntity
  8
0
 62
     1
 48
0.27
100
AcDbLine
 10
13.95266377832013
 20
2.344753976195079
 30
0.0
 11
14.07120346289866
 21
2.510322890543193
 31
0.0
  0
LINE
  5
1EC5D
330
1EC49
100
AcDbEntity
  8
0
 62
     1
 48
0.27
100
AcDbLine
 10
14.17510437956207
 20
5.266975107017515
 30
0.0
 11
14.07120346289866
 21
5.489795137996679
 31
0.0
  0
LINE
  5
1EC5E
330
1EC49
100
AcDbEntity
  8
0
 62
     1
 48
0.27
100
AcDbLine
 10
10.73860784642693
 20
2.061893219577996
 30
0.0
 11
10.95353467292534
 21
2.052765532982903
 31
0.0
  0
LINE
  5
1EC5F
330
1EC49
100
AcDbEntity
  8
0
 62
     1
 48
0.27
100
AcDbLine
 10
10.73860784642693
 20
5.938226144982309
 30
0.0
 11
10.95353467292534
 21
5.94735249555697
 31
0.0
  0
LINE
  5
1EC60
330
1EC49
100
AcDbEntity
  8
0
 62
     1
 48
0.27
100
AcDbLine
 10
12.57354808241052
 20
1.495694747382458
 30
0.0
 11
13.82404115290683
 21
2.242795632178513
 31
0.0
  0
LINE
  5
1EC61
330
1EC49
100
AcDbEntity
  8
0
 62
     1
 48
0.27
100
AcDbLine
 10
13.82404115290683
 20
2.242795632178513
 30
0.0
 11
13.95266377832013
 21
2.344753976195079
 31
0.0
  0
LINE
  5
1EC62
330
1EC49
100
AcDbEntity
  8
0
 62
     1
 48
0.27
100
AcDbLine
 10
14.07120346289866
 20
5.489795137996679
 30
0.0
 11
13.95266377832013
 21
5.655364052344793
 31
0.0
  0
LINE
  5
1EC63
330
1EC49
100
AcDbEntity
  8
0
 62
     1
 48
0.27
100
AcDbLine
 10
12.38291543832292
 20
1.446630759621712
 30
0.0
 11
12.57354808241052
 21
1.495694747382458
 31
0.0
  0
LINE
  5
1EC64
330
1EC49
100
AcDbEntity
  8
0
 62
     1
 48
0.27
100
AcDbLine
 10
12.02207789143631
 20
1.474514826917129
 30
0.0
 11
12.38291543832292
 21
1.446630759621712
 31
0.0
  0
LINE
  5
1EC65
330
1EC49
100
AcDbEntity
  8
0
 62
     1
 48
0.27
100
AcDbLine
 10
10.95353467292534
 20
2.052765532982903
 30
0.0
 11
11.50748986056169
 21
1.687543169412037
 31
0.0
  0
LINE
  5
1EC66
330
1EC49
100
AcDbEntity
  8
0
 62
     1
 48
0.27
100
AcDbLine
 10
13.69027752367401
 20
2.208369076312465
 30
0.0
 11
13.82404115290683
 21
2.242795632178513
 31
0.0
  0
LINE
  5
1EC67
330
1EC49
100
AcDbEntity
  8
0
 62
     1
 48
0.27
100
AcDbLine
 10
12.57354808241052
 20
6.504424617176937
 30
0.0
 11
13.82404115290683
 21
5.757322396362269
 31
0.0
  0
LINE
  5
1EC68
330
1EC49
100
AcDbEntity
  8
0
 62
     1
 48
0.27
100
AcDbLine
 10
13.82404115290683
 20
5.757322396362269
 30
0.0
 11
13.95266377832013
 21
5.655364052344793
 31
0.0
  0
LINE
  5
1EC69
330
1EC49
100
AcDbEntity
  8
0
 62
     1
 48
0.27
100
AcDbLine
 10
12.38291543832292
 20
6.55348726891907
 30
0.0
 11
12.57354808241052
 21
6.504424617176937
 31
0.0
  0
LINE
  5
1EC6A
330
1EC49
100
AcDbEntity
  8
0
 62
     1
 48
0.27
100
AcDbLine
 10
12.02207789143631
 20
6.525604537543131
 30
0.0
 11
12.38291543832292
 21
6.55348726891907
 31
0.0
  0
LINE
  5
1EC6B
330
1EC49
100
AcDbEntity
  8
0
 62
     1
 48
0.27
100
AcDbLine
 10
10.7626962818349
 20
2.197270760661467
 30
0.0
 11
10.90277928418254
 21
2.086228818592644
 31
0.0
  0
LINE
  5
1EC6C
330
1EC49
100
AcDbEntity
  8
0
 62
     1
 48
0.27
100
AcDbLine
 10
11.50748986056169
 20
1.687543169412037
 30
0.0
 11
11.83352676602317
 21
1.523041734840717
 31
0.0
  0
LINE
  5
1EC6D
330
1EC49
100
AcDbEntity
  8
0
 62
     1
 48
0.27
100
AcDbLine
 10
11.83352676602317
 20
1.523041734840717
 30
0.0
 11
12.02207789143631
 21
1.474514826917129
 31
0.0
  0
LINE
  5
1EC6E
330
1EC49
100
AcDbEntity
  8
0
 62
     1
 48
0.27
100
AcDbLine
 10
10.95353467292534
 20
5.94735249555697
 30
0.0
 11
11.50748986056169
 21
6.312574859128744
 31
0.0
  0
LINE
  5
1EC6F
330
1EC49
100
AcDbEntity
  8
0
 62
     1
 48
0.27
100
AcDbLine
 10
10.7626962818349
 20
5.802847267879315
 30
0.0
 11
10.90277928418254
 21
5.913889209947683
 31
0.0
  0
LINE
  5
1EC70
330
1EC49
100
AcDbEntity
  8
0
 62
     1
 48
0.27
100
AcDbLine
 10
12.19228145821489
 20
1.495694747382458
 30
0.0
 11
12.38291543832292
 21
1.446630759621712
 31
0.0
  0
LINE
  5
1EC71
330
1EC49
100
AcDbEntity
  8
0
 62
     1
 48
0.27
100
AcDbLine
 10
11.83352676602317
 20
6.477076293699155
 30
0.0
 11
12.02207789143631
 21
6.525604537543131
 31
0.0
  0
LINE
  5
1EC72
330
1EC49
100
AcDbEntity
  8
0
 62
     1
 48
0.27
100
AcDbLine
 10
11.50748986056169
 20
6.312574859128744
 30
0.0
 11
11.83352676602317
 21
6.477076293699155
 31
0.0
  0
LINE
  5
1EC73
330
1EC49
100
AcDbEntity
  8
0
 62
     1
 48
0.27
100
AcDbLine
 10
10.7626962818349
 20
2.197270760661467
 30
0.0
 11
10.63359402532387
 21
2.377592004581401
 31
0.0
  0
LINE
  5
1EC74
330
1EC49
100
AcDbEntity
  8
0
 62
     1
 48
0.27
100
AcDbLine
 10
13.55651389454215
 20
2.242795632178513
 30
0.0
 11
13.69027752367401
 21
2.208369076312465
 31
0.0
  0
LINE
  5
1EC75
330
1EC49
100
AcDbEntity
  8
0
 62
     1
 48
0.27
100
AcDbLine
 10
13.69027752367401
 20
5.791748952228317
 30
0.0
 11
13.82404115290683
 21
5.757322396362269
 31
0.0
  0
LINE
  5
1EC76
330
1EC49
100
AcDbEntity
  8
0
 62
     1
 48
0.27
100
AcDbLine
 10
12.19228145821489
 20
6.504424617176937
 30
0.0
 11
12.38291543832292
 21
6.55348726891907
 31
0.0
  0
LINE
  5
1EC77
330
1EC49
100
AcDbEntity
  8
0
 62
     1
 48
0.27
100
AcDbLine
 10
11.33822417966894
 20
6.17840107181064
 30
0.0
 11
11.50748986056169
 21
6.312574859128744
 31
0.0
  0
LINE
  5
1EC78
330
1EC49
100
AcDbEntity
  8
0
 62
     1
 48
0.27
100
AcDbLine
 10
10.63359402532387
 20
5.62252602395938
 30
0.0
 11
10.7626962818349
 21
5.802847267879315
 31
0.0
  0
LINE
  5
1EC79
330
1EC49
100
AcDbEntity
  8
0
 62
     1
 48
0.27
100
AcDbLine
 10
10.63359402532387
 20
2.377592004581401
 30
0.0
 11
10.5204358281735
 21
2.620263952347613
 31
0.0
  0
LINE
  5
1EC7A
330
1EC49
100
AcDbEntity
  8
0
 62
     1
 48
0.27
100
AcDbLine
 10
12.00897421012269
 20
1.640998914819192
 30
0.0
 11
12.19228145821489
 21
1.495694747382458
 31
0.0
  0
LINE
  5
1EC7B
330
1EC49
100
AcDbEntity
  8
0
 62
     1
 48
0.27
100
AcDbLine
 10
10.5204358281735
 20
5.379854076193169
 30
0.0
 11
10.63359402532387
 21
5.62252602395938
 31
0.0
  0
LINE
  5
1EC7C
330
1EC49
100
AcDbEntity
  8
0
 62
     1
 48
0.27
100
AcDbLine
 10
13.42788993310932
 20
2.344753976195079
 30
0.0
 11
13.55651389454215
 21
2.242795632178513
 31
0.0
  0
LINE
  5
1EC7D
330
1EC49
100
AcDbEntity
  8
0
 62
     1
 48
0.27
100
AcDbLine
 10
12.00897421012269
 20
6.35911911372068
 30
0.0
 11
12.19228145821489
 21
6.504424617176937
 31
0.0
  0
LINE
  5
1EC7E
330
1EC49
100
AcDbEntity
  8
0
 62
     1
 48
0.27
100
AcDbLine
 10
13.55651389454215
 20
5.757322396362269
 30
0.0
 11
13.69027752367401
 21
5.791748952228317
 31
0.0
  0
LINE
  5
1EC7F
330
1EC49
100
AcDbEntity
  8
0
 62
     1
 48
0.27
100
AcDbLine
 10
10.5204358281735
 20
2.620263952347613
 30
0.0
 11
10.42756909822492
 21
2.915961186280128
 31
0.0
  0
LINE
  5
1EC80
330
1EC49
100
AcDbEntity
  8
0
 62
     1
 48
0.27
100
AcDbLine
 10
10.42756909822492
 20
5.084156842260199
 30
0.0
 11
10.5204358281735
 21
5.379854076193169
 31
0.0
  0
LINE
  5
1EC81
330
1EC49
100
AcDbEntity
  8
0
 62
     1
 48
0.27
100
AcDbLine
 10
12.00897421012269
 20
1.640998914819192
 30
0.0
 11
11.84003719012617
 21
1.87696137157809
 31
0.0
  0
LINE
  5
1EC82
330
1EC49
100
AcDbEntity
  8
0
 62
     1
 48
0.27
100
AcDbLine
 10
10.42756909822492
 20
2.915961186280128
 30
0.0
 11
10.35856368026998
 21
3.253319522848414
 31
0.0
  0
LINE
  5
1EC83
330
1EC49
100
AcDbEntity
  8
0
 62
     1
 48
0.27
100
AcDbLine
 10
13.42788993310932
 20
5.655364052344793
 30
0.0
 11
13.55651389454215
 21
5.757322396362269
 31
0.0
  0
LINE
  5
1EC84
330
1EC49
100
AcDbEntity
  8
0
 62
     1
 48
0.27
100
AcDbLine
 10
13.42788993310932
 20
2.344753976195079
 30
0.0
 11
13.30935024853079
 21
2.510322890543193
 31
0.0
  0
LINE
  5
1EC85
330
1EC49
100
AcDbEntity
  8
0
 62
     1
 48
0.27
100
AcDbLine
 10
11.84003719012617
 20
6.123156656961782
 30
0.0
 11
12.00897421012269
 21
6.35911911372068
 31
0.0
  0
LINE
  5
1EC86
330
1EC49
100
AcDbEntity
  8
0
 62
     1
 48
0.27
100
AcDbLine
 10
10.35856368026998
 20
4.746798505692368
 30
0.0
 11
10.42756909822492
 21
5.084156842260199
 31
0.0
  0
LINE
  5
1EC87
330
1EC49
100
AcDbEntity
  8
0
 62
     1
 48
0.27
100
AcDbLine
 10
10.35856368026998
 20
3.253319522848414
 30
0.0
 11
10.31606890146941
 21
3.619374226665058
 31
0.0
  0
LINE
  5
1EC88
330
1EC49
100
AcDbEntity
  8
0
 62
     1
 48
0.27
100
AcDbLine
 10
10.31606890146941
 20
4.380743801875269
 30
0.0
 11
10.35856368026998
 21
4.746798505692368
 31
0.0
  0
LINE
  5
1EC89
330
1EC49
100
AcDbEntity
  8
0
 62
     1
 48
0.27
100
AcDbLine
 10
10.31606890146941
 20
3.619374226665058
 30
0.0
 11
10.30172138580474
 21
4.000059682279697
 31
0.0
  0
LINE
  5
1EC8A
330
1EC49
100
AcDbEntity
  8
0
 62
     1
 48
0.27
100
AcDbLine
 10
10.30172138580474
 20
4.000059682279697
 30
0.0
 11
10.31606890146941
 21
4.380743801875269
 31
0.0
  0
LINE
  5
1EC8B
330
1EC49
100
AcDbEntity
  8
0
 62
     1
 48
0.27
100
AcDbLine
 10
11.84003719012617
 20
1.87696137157809
 30
0.0
 11
11.69196211775488
 21
2.194513215922142
 31
0.0
  0
LINE
  5
1EC8C
330
1EC49
100
AcDbEntity
  8
0
 62
     1
 48
0.27
100
AcDbLine
 10
13.30935024853079
 20
5.489795137996679
 30
0.0
 11
13.42788993310932
 21
5.655364052344793
 31
0.0
  0
LINE
  5
1EC8D
330
1EC49
100
AcDbEntity
  8
0
 62
     1
 48
0.27
100
AcDbLine
 10
13.30935024853079
 20
2.510322890543193
 30
0.0
 11
13.20544933186738
 21
2.733142921522357
 31
0.0
  0
LINE
  5
1EC8E
330
1EC49
100
AcDbEntity
  8
0
 62
     1
 48
0.27
100
AcDbLine
 10
11.69196211775488
 20
5.805606148638162
 30
0.0
 11
11.84003719012617
 21
6.123156656961782
 31
0.0
  0
LINE
  5
1EC8F
330
1EC49
100
AcDbEntity
  8
0
 62
     1
 48
0.27
100
AcDbLine
 10
13.20544933186738
 20
5.266975107017515
 30
0.0
 11
13.30935024853079
 21
5.489795137996679
 31
0.0
  0
LINE
  5
1EC90
330
1EC49
100
AcDbEntity
  8
0
 62
     1
 48
0.27
100
AcDbLine
 10
11.69196211775488
 20
2.194513215922142
 30
0.0
 11
11.57044043716178
 21
2.58144990775736
 31
0.0
  0
LINE
  5
1EC91
330
1EC49
100
AcDbEntity
  8
0
 62
     1
 48
0.27
100
AcDbLine
 10
13.20544933186738
 20
2.733142921522357
 30
0.0
 11
13.12018054599048
 21
3.004650182565455
 31
0.0
  0
LINE
  5
1EC92
330
1EC49
100
AcDbEntity
  8
0
 62
     1
 48
0.27
100
AcDbLine
 10
11.57044043716178
 20
5.418668120682923
 30
0.0
 11
11.69196211775488
 21
5.805606148638162
 31
0.0
  0
LINE
  5
1EC93
330
1EC49
100
AcDbEntity
  8
0
 62
     1
 48
0.27
100
AcDbLine
 10
13.12018054599048
 20
4.995469181994394
 30
0.0
 11
13.20544933186738
 21
5.266975107017515
 31
0.0
  0
LINE
  5
1EC94
330
1EC49
100
AcDbEntity
  8
0
 62
     1
 48
0.27
100
AcDbLine
 10
11.57044043716178
 20
2.58144990775736
 30
0.0
 11
11.48014153708391
 21
3.022904219835709
 31
0.0
  0
LINE
  5
1EC95
330
1EC49
100
AcDbEntity
  8
0
 62
     1
 48
0.27
100
AcDbLine
 10
13.12018054599048
 20
3.004650182565455
 30
0.0
 11
13.0568198113051
 21
3.31440902399072
 31
0.0
  0
LINE
  5
1EC96
330
1EC49
100
AcDbEntity
  8
0
 62
     1
 48
0.27
100
AcDbLine
 10
11.48014153708391
 20
4.977213808704618
 30
0.0
 11
11.57044043716178
 21
5.418668120682923
 31
0.0
  0
LINE
  5
1EC97
330
1EC49
100
AcDbEntity
  8
0
 62
     1
 48
0.27
100
AcDbLine
 10
13.0568198113051
 20
4.685709004549607
 30
0.0
 11
13.12018054599048
 21
4.995469181994394
 31
0.0
  0
LINE
  5
1EC98
330
1EC49
100
AcDbEntity
  8
0
 62
     1
 48
0.27
100
AcDbLine
 10
11.48014153708391
 20
3.022904219835709
 30
0.0
 11
11.42453639687119
 21
3.501910037880861
 31
0.0
  0
LINE
  5
1EC99
330
1EC49
100
AcDbEntity
  8
0
 62
     1
 48
0.27
100
AcDbLine
 10
13.0568198113051
 20
3.31440902399072
 30
0.0
 11
13.01780135573244
 21
3.650518182030282
 31
0.0
  0
LINE
  5
1EC9A
330
1EC49
100
AcDbEntity
  8
0
 62
     1
 48
0.27
100
AcDbLine
 10
11.42453639687119
 20
4.498207990659921
 30
0.0
 11
11.48014153708391
 21
4.977213808704618
 31
0.0
  0
LINE
  5
1EC9B
330
1EC49
100
AcDbEntity
  8
0
 62
     1
 48
0.27
100
AcDbLine
 10
13.01780135573244
 20
4.349601182529568
 30
0.0
 11
13.0568198113051
 21
4.685709004549607
 31
0.0
  0
LINE
  5
1EC9C
330
1EC49
100
AcDbEntity
  8
0
 62
     1
 48
0.27
100
AcDbLine
 10
11.42453639687119
 20
3.501910037880861
 30
0.0
 11
11.40575997587802
 21
4.000059682279697
 31
0.0
  0
LINE
  5
1EC9D
330
1EC49
100
AcDbEntity
  8
0
 62
     1
 48
0.27
100
AcDbLine
 10
13.01780135573244
 20
3.650518182030282
 30
0.0
 11
13.00462686538503
 21
4.000059682279697
 31
0.0
  0
LINE
  5
1EC9E
330
1EC49
100
AcDbEntity
  8
0
 62
     1
 48
0.27
100
AcDbLine
 10
13.00462686538503
 20
4.000059682279697
 30
0.0
 11
13.01780135573244
 21
4.349601182529568
 31
0.0
  0
LINE
  5
1EC9F
330
1EC49
100
AcDbEntity
  8
0
 62
     1
 48
0.27
100
AcDbLine
 10
11.40575997587802
 20
4.000059682279697
 30
0.0
 11
11.42453639687119
 21
4.498207990659921
 31
0.0
  0
LINE
  5
1ECA0
330
1EC49
100
AcDbEntity
  8
0
 62
     1
 48
0.27
100
AcDbLine
 10
10.90277928418254
 20
2.086228818592644
 30
0.0
 11
10.95353467292534
 21
2.052765532982903
 31
0.0
  0
LINE
  5
1ECA1
330
1EC49
100
AcDbEntity
  8
0
 62
     1
 48
0.27
100
AcDbLine
 10
10.6902532852182
 20
2.063946681942525
 30
0.0
 11
10.73860784642693
 21
2.061893219577996
 31
0.0
  0
LINE
  5
1ECA2
330
1EC49
100
AcDbEntity
  8
0
 62
     1
 48
0.27
100
AcDbLine
 10
10.90277928418254
 20
5.913889209947683
 30
0.0
 11
10.95353467292534
 21
5.94735249555697
 31
0.0
  0
LINE
  5
1ECA3
330
1EC49
100
AcDbEntity
  8
0
 62
     1
 48
0.27
100
AcDbLine
 10
7.505661931983922
 20
1.000015403431007
 30
0.0
 11
6.928303687141124
 21
0.0000006438144737
 31
0.0
  0
LINE
  5
1ECA4
330
1EC49
100
AcDbEntity
  8
0
 62
     1
 48
0.27
100
AcDbLine
 10
5.920393051104838
 20
1.000015403431007
 30
0.0
 11
8.934505617444301
 21
1.000015403431007
 31
0.0
  0
LINE
  5
1ECA5
330
1EC49
100
AcDbEntity
  8
0
 62
     1
 48
0.27
100
AcDbLine
 10
8.997405425303441
 20
6.715411521482565
 30
0.0
 11
8.934505617444301
 21
7.00010262510932
 31
0.0
  0
LINE
  5
1ECA6
330
1EC49
100
AcDbEntity
  8
0
 62
     1
 48
0.27
100
AcDbLine
 10
8.934505617444301
 20
1.000015403431007
 30
0.0
 11
8.997405425303441
 21
1.284706507057762
 31
0.0
  0
LINE
  5
1ECA7
330
1EC49
100
AcDbEntity
  8
0
 62
     1
 48
0.27
100
AcDbLine
 10
5.920393051104838
 20
7.00010262510932
 30
0.0
 11
8.934505617444301
 21
7.00010262510932
 31
0.0
  0
LINE
  5
1ECA8
330
1EC49
100
AcDbEntity
  8
0
 62
     1
 48
0.27
100
AcDbLine
 10
8.271668831664101
 20
1.000015403431007
 30
0.0
 11
8.495645855626207
 21
1.057660645813484
 31
0.0
  0
LINE
  5
1ECA9
330
1EC49
100
AcDbEntity
  8
0
 62
     1
 48
0.27
100
AcDbLine
 10
8.271668831664101
 20
7.00010262510932
 30
0.0
 11
8.495645855626207
 21
6.942457382726843
 31
0.0
  0
LINE
  5
1ECAA
330
1EC49
100
AcDbEntity
  8
0
 62
     1
 48
0.27
100
AcDbLine
 10
8.047691807701085
 20
1.057660645813484
 30
0.0
 11
8.271668831664101
 21
1.000015403431007
 31
0.0
  0
LINE
  5
1ECAB
330
1EC49
100
AcDbEntity
  8
0
 62
     1
 48
0.27
100
AcDbLine
 10
8.047691807701085
 20
6.942457382726843
 30
0.0
 11
8.271668831664101
 21
7.00010262510932
 31
0.0
  0
LINE
  5
1ECAC
330
1EC49
100
AcDbEntity
  8
0
 62
     1
 48
0.27
100
AcDbLine
 10
7.832322758649752
 20
1.228379916117319
 30
0.0
 11
8.047691807701085
 21
1.057660645813484
 31
0.0
  0
LINE
  5
1ECAD
330
1EC49
100
AcDbEntity
  8
0
 62
     1
 48
0.27
100
AcDbLine
 10
7.832322758649752
 20
6.771738112422553
 30
0.0
 11
8.047691807701085
 21
6.942457382726843
 31
0.0
  0
LINE
  5
1ECAE
330
1EC49
100
AcDbEntity
  8
0
 62
     1
 48
0.27
100
AcDbLine
 10
5.257556265325547
 20
4.000059682279697
 30
0.0
 11
5.920393051104838
 21
7.00010262510932
 31
0.0
  0
LINE
  5
1ECAF
330
1EC49
100
AcDbEntity
  8
0
 62
     1
 48
0.27
100
AcDbLine
 10
5.257556265325547
 20
4.000059682279697
 30
0.0
 11
6.9459952601037
 21
4.000059682279697
 31
0.0
  0
LINE
  5
1ECB0
330
1EC49
100
AcDbEntity
  8
0
 62
     1
 48
0.27
100
AcDbLine
 10
5.920393051104838
 20
1.000015403431007
 30
0.0
 11
5.257556265325547
 21
4.000059682279697
 31
0.0
  0
LINE
  5
1ECB1
330
1EC49
100
AcDbEntity
  8
0
 62
     1
 48
0.27
100
AcDbLine
 10
7.832322758649752
 20
1.228379916117319
 30
0.0
 11
7.633836990766212
 21
1.505613357719084
 31
0.0
  0
LINE
  5
1ECB2
330
1EC49
100
AcDbEntity
  8
0
 62
     1
 48
0.27
100
AcDbLine
 10
7.633836990766212
 20
6.494504670821243
 30
0.0
 11
7.832322758649752
 21
6.771738112422553
 31
0.0
  0
LINE
  5
1ECB3
330
1EC49
100
AcDbEntity
  8
0
 62
     1
 48
0.27
100
AcDbLine
 10
7.633836990766212
 20
1.505613357719084
 30
0.0
 11
7.459863176370163
 21
1.878707549359205
 31
0.0
  0
LINE
  5
1ECB4
330
1EC49
100
AcDbEntity
  8
0
 62
     1
 48
0.27
100
AcDbLine
 10
7.459863176370163
 20
6.121410479181122
 30
0.0
 11
7.633836990766212
 21
6.494504670821243
 31
0.0
  0
LINE
  5
1ECB5
330
1EC49
100
AcDbEntity
  8
0
 62
     1
 48
0.27
100
AcDbLine
 10
7.6088320458839
 20
1.000015403431007
 30
0.0
 11
6.9459952601037
 21
4.000059682279697
 31
0.0
  0
LINE
  5
1ECB6
330
1EC49
100
AcDbEntity
  8
0
 62
     1
 48
0.27
100
AcDbLine
 10
6.9459952601037
 20
4.000059682279697
 30
0.0
 11
7.6088320458839
 21
7.00010262510932
 31
0.0
  0
LINE
  5
1ECB7
330
1EC49
100
AcDbEntity
  8
0
 62
     1
 48
0.27
100
AcDbLine
 10
7.459863176370163
 20
1.878707549359205
 30
0.0
 11
7.317085422199852
 21
2.333324327609716
 31
0.0
  0
LINE
  5
1ECB8
330
1EC49
100
AcDbEntity
  8
0
 62
     1
 48
0.27
100
AcDbLine
 10
7.317085422199852
 20
5.666793700931066
 30
0.0
 11
7.459863176370163
 21
6.121410479181122
 31
0.0
  0
LINE
  5
1ECB9
330
1EC49
100
AcDbEntity
  8
0
 62
     1
 48
0.27
100
AcDbLine
 10
7.317085422199852
 20
2.333324327609716
 30
0.0
 11
7.210993433263865
 21
2.851992562724262
 31
0.0
  0
LINE
  5
1ECBA
330
1EC49
100
AcDbEntity
  8
0
 62
     1
 48
0.27
100
AcDbLine
 10
7.210993433263865
 20
5.148126801835587
 30
0.0
 11
7.317085422199852
 21
5.666793700931066
 31
0.0
  0
LINE
  5
1ECBB
330
1EC49
100
AcDbEntity
  8
0
 62
     1
 48
0.27
100
AcDbLine
 10
7.210993433263865
 20
2.851992562724262
 30
0.0
 11
7.145662069521677
 21
3.414780176547083
 31
0.0
  0
LINE
  5
1ECBC
330
1EC49
100
AcDbEntity
  8
0
 62
     1
 48
0.27
100
AcDbLine
 10
7.145662069521677
 20
4.585339187913177
 30
0.0
 11
7.210993433263865
 21
5.148126801835587
 31
0.0
  0
LINE
  5
1ECBD
330
1EC49
100
AcDbEntity
  8
0
 62
     1
 48
0.27
100
AcDbLine
 10
7.145662069521677
 20
3.414780176547083
 30
0.0
 11
7.123601712108211
 21
4.000059682279697
 31
0.0
  0
LINE
  5
1ECBE
330
1EC49
100
AcDbEntity
  8
0
 62
     1
 48
0.27
100
AcDbLine
 10
7.123601712108211
 20
4.000059682279697
 30
0.0
 11
7.145662069521677
 21
4.585339187913177
 31
0.0
  0
LINE
  5
1ECBF
330
1EC49
100
AcDbEntity
  8
0
 62
     1
 48
0.27
100
AcDbLine
 10
8.495645855626207
 20
1.057660645813484
 30
0.0
 11
10.49748167351754
 21
1.963488688019424
 31
0.0
  0
LINE
  5
1ECC0
330
1EC49
100
AcDbEntity
  8
0
 62
     1
 48
0.27
100
AcDbLine
 10
8.495645855626207
 20
6.942457382726843
 30
0.0
 11
10.49748167351754
 21
6.036629340520903
 31
0.0
  0
LINE
  5
1ECC1
330
1EC49
100
AcDbEntity
  8
0
 62
     1
 48
0.27
100
AcDbLine
 10
7.505661931983922
 20
7.00010262510932
 30
0.0
 11
6.928302351121601
 21
8.000117384725399
 31
0.0
  0
ENDBLK
  5
1ECC5
330
1EC49
100
AcDbEntity
  8
0
 48
0.27
100
AcDbBlockEnd
  0
BLOCK
  5
20359
330
20347
100
AcDbEntity
  8
0
 62
     1
 48
0.27
100
AcDbBlockBegin
  2
A$C51E2538E
 70
     0
 10
0.0
 20
0.0
 30
0.0
  3
A$C51E2538E
  1

  0
LINE
  5
20348
330
20347
100
AcDbEntity
  8
虛線
 48
0.25
100
AcDbLine
 10
9.230939415452212
 20
1.99838789798423
 30
0.0
 11
2.230939415459943
 21
1.998387897983548
 31
0.0
  0
LINE
  5
20349
330
20347
100
AcDbEntity
  8
虛線
 48
0.25
100
AcDbLine
 10
9.230939415453576
 20
15.79841841556197
 30
0.0
 11
9.230939415452212
 21
1.99838789798423
 31
0.0
  0
LINE
  5
2034A
330
20347
100
AcDbEntity
  8
虛線
 48
0.25
100
AcDbLine
 10
0.2309394154581241
 20
24.698418415562
 30
0.0
 11
0.2309394154590336
 21
16.09842604495623
 31
0.0
  0
LINE
  5
2034B
330
20347
100
AcDbEntity
  8
虛線
 48
0.25
100
AcDbLine
 10
2.230939415453576
 20
15.79841841556191
 30
0.0
 11
2.230939415459943
 21
1.998387897983576
 31
0.0
  0
LINE
  5
2034C
330
20347
100
AcDbEntity
  8
虛線
 48
0.25
100
AcDbLine
 10
0.2309394154590336
 20
16.09835738040544
 30
0.0
 11
11.23093941545221
 21
16.09835738040573
 31
0.0
  0
LINE
  5
2034D
330
20347
100
AcDbEntity
  8
中心線
 48
0.25
100
AcDbLine
 10
5.730939415455679
 20
27.09841841556201
 30
0.0
 11
5.730939415449938
 21
0.0
 31
0.0
  0
LINE
  5
2034E
330
20347
100
AcDbEntity
  8
虛線
 48
0.25
100
AcDbLine
 10
2.230939415459943
 20
1.998387897983548
 30
0.0
 11
1.730939415460852
 21
1.498387897984002
 31
0.0
  0
LINE
  5
2034F
330
20347
100
AcDbEntity
  8
虛線
 48
0.25
100
AcDbLine
 10
9.230939415452212
 20
1.99838789798423
 30
0.0
 11
9.730939415451302
 21
1.498387897984287
 31
0.0
  0
LINE
  5
20350
330
20347
100
AcDbEntity
  8
虛線
 48
0.25
100
AcDbLine
 10
11.23093941545358
 20
24.698418415562
 30
0.0
 11
11.23093941545221
 21
16.09835738040573
 31
0.0
  0
LINE
  5
20351
330
20347
100
AcDbEntity
  8
虛線
 48
0.25
100
AcDbLine
 10
0.2309394154535767
 20
24.698418415562
 30
0.0
 11
11.23093941545358
 21
24.698418415562
 31
0.0
  0
LINE
  5
20352
330
20347
100
AcDbEntity
  8
虛線
 48
0.25
100
AcDbLine
 10
2.230939415453576
 20
15.79841841556197
 30
0.0
 11
9.230939415453576
 21
15.79841841556197
 31
0.0
  0
LINE
  5
20353
330
20347
100
AcDbEntity
  8
虛線
 48
0.25
100
AcDbLine
 10
1.930939415453394
 20
16.09841841556192
 30
0.0
 11
2.230939415453576
 21
15.79841841556191
 31
0.0
  0
LINE
  5
20354
330
20347
100
AcDbEntity
  8
虛線
 48
0.25
100
AcDbLine
 10
0.2309394154535767
 20
24.698418415562
 30
0.0
 11
-0.0000006922223292
 21
25.09841841556204
 31
0.0
  0
LINE
  5
20355
330
20347
100
AcDbEntity
  8
虛線
 48
0.25
100
AcDbLine
 10
9.230939415453576
 20
15.79841841556197
 30
0.0
 11
9.530939415453758
 21
16.09841841556198
 31
0.0
  0
LINE
  5
20356
330
20347
100
AcDbEntity
  8
虛線
 48
0.25
100
AcDbLine
 10
11.23093941545358
 20
24.698418415562
 30
0.0
 11
11.46187952312948
 21
25.09841841556204
 31
0.0
  0
ENDBLK
  5
2035A
330
20347
100
AcDbEntity
  8
0
 62
     1
 48
0.27
100
AcDbBlockEnd
  0
BLOCK
  5
2036A
330
2035B
100
AcDbEntity
  8
0
 62
     1
 48
0.27
100
AcDbBlockBegin
  2
A$C3310154B
 70
     0
 10
0.0
 20
0.0
 30
0.0
  3
A$C3310154B
  1

  0
LINE
  5
2035C
330
2035B
100
AcDbEntity
  8
虛線
 48
0.2
100
AcDbLine
 10
0.4999707651827521
 20
12.80115016654724
 30
0.0
 11
0.4999707651836616
 21
5.30113016654775
 31
0.0
  0
LINE
  5
2035D
330
2035B
100
AcDbEntity
  8
虛線
 48
0.2
100
AcDbLine
 10
6.499970765181842
 20
12.80111016654831
 30
0.0
 11
6.499970765183661
 21
5.301130166548432
 31
0.0
  0
LINE
  5
2035E
330
2035B
100
AcDbEntity
  8
虛線
 48
0.2
100
AcDbLine
 10
6.499970765183661
 20
5.301130166548432
 30
0.0
 11
0.4999707651836616
 21
5.30113016654775
 31
0.0
  0
LINE
  5
2035F
330
2035B
100
AcDbEntity
  8
中心線
 48
0.25
100
AcDbLine
 10
3.49999076518344
 20
15.30112016654811
 30
0.0
 11
3.499990765177699
 21
0.000000166540076
 31
0.0
  0
LINE
  5
20360
330
2035B
100
AcDbEntity
  8
虛線
 48
0.2
100
AcDbLine
 10
5.999980765182044
 20
12.30112016654846
 30
0.0
 11
5.999980765187501
 21
2.30113016655747
 31
0.0
  0
LINE
  5
20361
330
2035B
100
AcDbEntity
  8
虛線
 48
0.2
100
AcDbLine
 10
1.000000765181994
 20
12.30112016654812
 30
0.0
 11
1.000000765187905
 21
2.301130166554685
 31
0.0
  0
LINE
  5
20362
330
2035B
100
AcDbEntity
  8
虛線
 48
0.2
100
AcDbLine
 10
5.999980765187501
 20
2.30113016655747
 30
0.0
 11
1.000000765187905
 21
2.301130166554685
 31
0.0
  0
LINE
  5
20363
330
2035B
100
AcDbEntity
  8
虛線
 48
0.2
100
AcDbLine
 10
5.999980765182499
 20
12.3011201665484
 30
0.0
 11
1.000000765181994
 21
12.30112016654817
 31
0.0
  0
LINE
  5
20364
330
2035B
100
AcDbEntity
  8
虛線
 48
0.2
100
AcDbLine
 10
5.999980765182044
 20
12.3011201665484
 30
0.0
 11
6.999980765182499
 21
13.30112016654863
 31
0.0
  0
LINE
  5
20365
330
2035B
100
AcDbEntity
  8
虛線
 48
0.2
100
AcDbLine
 10
5.999980765187956
 20
2.301130166557413
 30
0.0
 11
3.499990765183611
 21
0.801130166544965
 31
0.0
  0
LINE
  5
20366
330
2035B
100
AcDbEntity
  8
虛線
 48
0.2
100
AcDbLine
 10
1.000000765187905
 20
2.30113016657259
 30
0.0
 11
3.499990765178154
 21
0.801130166544965
 31
0.0
  0
LINE
  5
20367
330
2035B
100
AcDbEntity
  8
虛線
 48
0.2
100
AcDbLine
 10
1.00000076518495
 20
12.30112016654834
 30
0.0
 11
0.0000007651844385
 21
13.30112016654854
 31
0.0
  0
ENDBLK
  5
2036B
330
2035B
100
AcDbEntity
  8
0
 62
     1
 48
0.27
100
AcDbBlockEnd
  0
ENDSEC
  0
SECTION
  2
ENTITIES
  0
TEXT
  5
BC0B
330
1F
100
AcDbEntity
  8
標註線
100
AcDbText
 10
548.8276282314106
 20
-272.6528804859577
 30
0.0
 40
2.43
  1

  7
型式2
100
AcDbText
1001
sheetnoteflag
1010
348.0
1020
200.0
1030
0.0
  0
CIRCLE
  5
CCA9
330
1F
100
AcDbEntity
  8
0
  6
Continuous
 62
     7
100
AcDbCircle
 10
264.7628588512472
 20
-1235.460235227634
 30
0.0
 40
0.75
  0
CIRCLE
  5
CCAA
330
1F
100
AcDbEntity
  8
0
  6
Continuous
 62
     7
100
AcDbCircle
 10
264.7628588512472
 20
-1235.460235227634
 30
0.0
 40
5.15
  0
CIRCLE
  5
CCAB
330
1F
100
AcDbEntity
  8
0
  6
Continuous
 62
     7
100
AcDbCircle
 10
177.7628588512472
 20
-1235.460235227634
 30
0.0
 40
0.75
  0
CIRCLE
  5
CCAC
330
1F
100
AcDbEntity
  8
0
  6
Continuous
 62
     7
100
AcDbCircle
 10
177.7628588512472
 20
-1235.460235227634
 30
0.0
 40
5.15
  0
CIRCLE
  5
CCAD
330
1F
100
AcDbEntity
  8
0
  6
Continuous
 62
     7
100
AcDbCircle
 10
177.7628588512472
 20
-1337.880305652058
 30
0.0
 40
2.9999258795
  0
CIRCLE
  5
CCAE
330
1F
100
AcDbEntity
  8
0
  6
Continuous
 62
     7
100
AcDbCircle
 10
177.7628588512472
 20
-1337.880305652058
 30
0.0
 40
2.499956716699999
  0
CIRCLE
  5
CCAF
330
1F
100
AcDbEntity
  8
0
  6
Continuous
 62
     7
100
AcDbCircle
 10
177.7628588512472
 20
-1337.880305652058
 30
0.0
 40
0.75
  0
CIRCLE
  5
CCCF
330
1F
100
AcDbEntity
  8
0
  6
Continuous
 62
     7
100
AcDbCircle
 10
264.7628588512472
 20
-1337.880305652058
 30
0.0
 40
2.9999258795
  0
CIRCLE
  5
CCD0
330
1F
100
AcDbEntity
  8
0
  6
Continuous
 62
     7
100
AcDbCircle
 10
264.7628588512472
 20
-1337.880305652058
 30
0.0
 40
0.75
  0
CIRCLE
  5
CCD1
330
1F
100
AcDbEntity
  8
0
  6
Continuous
 62
     7
100
AcDbCircle
 10
264.7628588512472
 20
-1337.880305652058
 30
0.0
 40
2.499956716699999
  0
LINE
  5
CD25
330
1F
100
AcDbEntity
  8
0
  6
Continuous
 62
     7
100
AcDbLine
 10
273.7628588512472
 20
-1264.960235227634
 30
0.0
 11
273.7628588512472
 21
-1205.960235227634
 31
0.0
  0
LINE
  5
CD26
330
1F
100
AcDbEntity
  8
0
  6
Continuous
 62
     7
100
AcDbLine
 10
256.7628588512472
 20
-1265.460235227634
 30
0.0
 11
256.7628588512472
 21
-1205.460235227634
 31
0.0
  0
LINE
  5
CD27
330
1F
100
AcDbEntity
  8
0
  6
Continuous
 62
     7
100
AcDbLine
 10
185.7628588512472
 20
-1205.460235227634
 30
0.0
 11
256.7628588512472
 21
-1205.460235227634
 31
0.0
  0
LINE
  5
CD28
330
1F
100
AcDbEntity
  8
0
  6
Continuous
 62
     7
100
AcDbLine
 10
168.7628588512472
 20
-1205.960235227634
 30
0.0
 11
185.7628588512472
 21
-1205.960235227634
 31
0.0
  0
LINE
  5
CD29
330
1F
100
AcDbEntity
  8
0
  6
Continuous
 62
     7
100
AcDbLine
 10
276.1628588512471
 20
-1205.960235227634
 30
0.0
 11
256.7628588512472
 21
-1205.960235227634
 31
0.0
  0
LINE
  5
CD2A
330
1F
100
AcDbEntity
  8
0
  6
Continuous
 62
     7
100
AcDbLine
 10
185.7628588512472
 20
-1206.960235227634
 30
0.0
 11
256.7628588512472
 21
-1206.960235227634
 31
0.0
  0
LINE
  5
CD2B
330
1F
100
AcDbEntity
  8
0
  6
Continuous
 62
     7
100
AcDbLine
 10
168.7628588512472
 20
-1207.460235227634
 30
0.0
 11
185.7628588512472
 21
-1207.460235227634
 31
0.0
  0
LINE
  5
CD2C
330
1F
100
AcDbEntity
  8
0
  6
Continuous
 62
     7
100
AcDbLine
 10
276.1628588512471
 20
-1207.460235227634
 30
0.0
 11
256.7628588512472
 21
-1207.460235227634
 31
0.0
  0
LINE
  5
CD76
330
1F
100
AcDbEntity
  8
0
  6
Continuous
 62
     7
100
AcDbLine
 10
276.1628588512471
 20
-1221.460235223734
 30
0.0
 11
361.2628588512474
 21
-1221.460235223734
 31
0.0
  0
LINE
  5
CD77
330
1F
100
AcDbEntity
  8
0
  6
Continuous
 62
     7
100
AcDbLine
 10
185.7628588512472
 20
-1221.460235227634
 30
0.0
 11
256.7628588512472
 21
-1221.460235227634
 31
0.0
  0
LINE
  5
CD78
330
1F
100
AcDbEntity
  8
0
  6
Continuous
 62
     7
100
AcDbLine
 10
81.26285885124673
 20
-1221.460235223735
 30
0.0
 11
166.3628588512471
 21
-1221.460235223734
 31
0.0
  0
LINE
  5
CD7C
330
1F
100
AcDbEntity
  8
0
  6
Continuous
 62
     7
100
AcDbLine
 10
185.7628588512472
 20
-1221.960235227634
 30
0.0
 11
256.7628588512472
 21
-1221.960235227634
 31
0.0
  0
LINE
  5
CD7E
330
1F
100
AcDbEntity
  8
0
  6
Continuous
 62
     7
100
AcDbLine
 10
256.7628588512472
 20
-1225.084499296335
 30
0.0
 11
273.7628588512472
 21
-1225.084499296335
 31
0.0
  0
LINE
  5
CD7F
330
1F
100
AcDbEntity
  8
0
  6
Continuous
 62
     7
100
AcDbLine
 10
185.7628588512472
 20
-1225.084499296335
 30
0.0
 11
168.7628588512472
 21
-1225.084499296335
 31
0.0
  0
LINE
  5
CD80
330
1F
100
AcDbEntity
  8
0
  6
Continuous
 62
     7
100
AcDbLine
 10
168.7628588512472
 20
-1225.584499296435
 30
0.0
 11
185.7628588512472
 21
-1225.584499296435
 31
0.0
  0
LINE
  5
CD81
330
1F
100
AcDbEntity
  8
0
  6
Continuous
 62
     7
100
AcDbLine
 10
273.7628588512472
 20
-1225.584499296334
 30
0.0
 11
256.7628588512472
 21
-1225.584499296334
 31
0.0
  0
LINE
  5
CD82
330
1F
100
AcDbEntity
  8
0
  6
Continuous
 62
     7
100
AcDbLine
 10
185.7628588512472
 20
-1227.460235227634
 30
0.0
 11
256.7628588512472
 21
-1227.460235227634
 31
0.0
  0
LINE
  5
CD83
330
1F
100
AcDbEntity
  8
0
  6
Continuous
 62
     7
100
AcDbLine
 10
185.7628588512472
 20
-1227.960235227634
 30
0.0
 11
256.7628588512472
 21
-1227.960235227634
 31
0.0
  0
LINE
  5
CD88
330
1F
100
AcDbEntity
  8
0
  6
Continuous
 62
     7
100
AcDbLine
 10
185.7628588512472
 20
-1242.960235227634
 30
0.0
 11
256.7628588512472
 21
-1242.960235227634
 31
0.0
  0
LINE
  5
CD89
330
1F
100
AcDbEntity
  8
0
  6
Continuous
 62
     7
100
AcDbLine
 10
185.7628588512472
 20
-1243.460235227634
 30
0.0
 11
256.7628588512472
 21
-1243.460235227634
 31
0.0
  0
LINE
  5
CD8A
330
1F
100
AcDbEntity
  8
0
  6
Continuous
 62
     7
100
AcDbLine
 10
168.7628588512472
 20
-1245.335971158934
 30
0.0
 11
185.7628588512472
 21
-1245.335971158934
 31
0.0
  0
LINE
  5
CD8B
330
1F
100
AcDbEntity
  8
0
  6
Continuous
 62
     7
100
AcDbLine
 10
273.7628588512472
 20
-1245.335971158934
 30
0.0
 11
256.7628588512472
 21
-1245.335971158934
 31
0.0
  0
LINE
  5
CD8C
330
1F
100
AcDbEntity
  8
0
  6
Continuous
 62
     7
100
AcDbLine
 10
256.7628588512472
 20
-1245.835971158935
 30
0.0
 11
273.7628588512472
 21
-1245.835971158935
 31
0.0
  0
LINE
  5
CD8D
330
1F
100
AcDbEntity
  8
0
  6
Continuous
 62
     7
100
AcDbLine
 10
185.7628588512472
 20
-1245.835971158935
 30
0.0
 11
168.7628588512472
 21
-1245.835971158935
 31
0.0
  0
LINE
  5
CD8F
330
1F
100
AcDbEntity
  8
0
  6
Continuous
 62
     7
100
AcDbLine
 10
185.7628588512472
 20
-1248.960235227634
 30
0.0
 11
256.7628588512472
 21
-1248.960235227634
 31
0.0
  0
LINE
  5
CD93
330
1F
100
AcDbEntity
  8
0
  6
Continuous
 62
     7
100
AcDbLine
 10
185.7628588512472
 20
-1249.460235227634
 30
0.0
 11
256.7628588512472
 21
-1249.460235227634
 31
0.0
  0
LINE
  5
CD94
330
1F
100
AcDbEntity
  8
0
  6
Continuous
 62
     7
100
AcDbLine
 10
166.3628588512471
 20
-1249.460235231634
 30
0.0
 11
81.26285885124696
 21
-1249.460235231635
 31
0.0
  0
LINE
  5
CDDF
330
1F
100
AcDbEntity
  8
0
  6
Continuous
 62
     7
100
AcDbLine
 10
168.7628588512472
 20
-1263.460235227634
 30
0.0
 11
185.7628588512472
 21
-1263.460235227634
 31
0.0
  0
LINE
  5
CDE0
330
1F
100
AcDbEntity
  8
0
  6
Continuous
 62
     7
100
AcDbLine
 10
276.1628588512471
 20
-1263.460235227634
 30
0.0
 11
256.7628588512472
 21
-1263.460235227634
 31
0.0
  0
LINE
  5
CDE1
330
1F
100
AcDbEntity
  8
0
  6
Continuous
 62
     7
100
AcDbLine
 10
185.7628588512472
 20
-1263.960235227634
 30
0.0
 11
256.7628588512472
 21
-1263.960235227634
 31
0.0
  0
LINE
  5
CDE2
330
1F
100
AcDbEntity
  8
0
  6
Continuous
 62
     7
100
AcDbLine
 10
168.7628588512472
 20
-1264.960235227634
 30
0.0
 11
185.7628588512472
 21
-1264.960235227634
 31
0.0
  0
LINE
  5
CDE3
330
1F
100
AcDbEntity
  8
0
  6
Continuous
 62
     7
100
AcDbLine
 10
276.1628588512471
 20
-1264.960235227634
 30
0.0
 11
256.7628588512472
 21
-1264.960235227634
 31
0.0
  0
LINE
  5
CDE4
330
1F
100
AcDbEntity
  8
0
  6
Continuous
 62
     7
100
AcDbLine
 10
185.7628588512472
 20
-1265.460235227634
 30
0.0
 11
256.7628588512472
 21
-1265.460235227634
 31
0.0
  0
LINE
  5
CDE5
330
1F
100
AcDbEntity
  8
0
  6
Continuous
 62
     7
100
AcDbLine
 10
185.7628588512472
 20
-1205.460235227634
 30
0.0
 11
185.7628588512472
 21
-1265.460235227634
 31
0.0
  0
LINE
  5
CDE6
330
1F
100
AcDbEntity
  8
0
  6
Continuous
 62
     7
100
AcDbLine
 10
168.7628588512472
 20
-1264.960235227634
 30
0.0
 11
168.7628588512472
 21
-1205.960235227634
 31
0.0
  0
LINE
  5
CDF6
330
1F
100
AcDbEntity
  8
0
  6
Continuous
 62
     7
100
AcDbLine
 10
273.7628588512472
 20
-1366.580305652058
 30
0.0
 11
273.7628588512472
 21
-1330.880305652058
 31
0.0
  0
LINE
  5
CE50
330
1F
100
AcDbEntity
  8
0
  6
Continuous
 62
     7
100
AcDbLine
 10
256.7628588512472
 20
-1366.580305652058
 30
0.0
 11
256.7628588512472
 21
-1327.580305652058
 31
0.0
  0
LINE
  5
CE7A
330
1F
100
AcDbEntity
  8
0
  6
Continuous
 62
     7
100
AcDbLine
 10
185.7628588512472
 20
-1327.580305652058
 30
0.0
 11
256.7628588512472
 21
-1327.580305652058
 31
0.0
  0
LINE
  5
CE7B
330
1F
100
AcDbEntity
  8
0
  6
Continuous
 62
     7
100
AcDbLine
 10
185.7628588512472
 20
-1329.080305652058
 30
0.0
 11
256.7628588512472
 21
-1329.080305652058
 31
0.0
  0
LINE
  5
CE7C
330
1F
100
AcDbEntity
  8
0
  6
Continuous
 62
     7
100
AcDbLine
 10
168.7628588512472
 20
-1330.880305652058
 30
0.0
 11
185.7628588512472
 21
-1330.880305652058
 31
0.0
  0
LINE
  5
CE7D
330
1F
100
AcDbEntity
  8
0
  6
Continuous
 62
     7
100
AcDbLine
 10
273.7628588512472
 20
-1330.880305652058
 30
0.0
 11
256.7628588512472
 21
-1330.880305652058
 31
0.0
  0
LINE
  5
CE7E
330
1F
100
AcDbEntity
  8
0
  6
Continuous
 62
     7
100
AcDbLine
 10
166.3628588512471
 20
-1331.380305652058
 30
0.0
 11
185.7628588512472
 21
-1331.380305652058
 31
0.0
  0
LINE
  5
CE7F
330
1F
100
AcDbEntity
  8
0
  6
Continuous
 62
     7
100
AcDbLine
 10
276.1628588512471
 20
-1331.380305652058
 30
0.0
 11
256.7628588512472
 21
-1331.380305652058
 31
0.0
  0
LINE
  5
CE80
330
1F
100
AcDbEntity
  8
0
  6
Continuous
 62
     7
100
AcDbLine
 10
166.3628588512471
 20
-1332.880305652058
 30
0.0
 11
185.7628588512472
 21
-1332.880305652058
 31
0.0
  0
LINE
  5
CE81
330
1F
100
AcDbEntity
  8
0
  6
Continuous
 62
     7
100
AcDbLine
 10
276.1628588512471
 20
-1332.880305652058
 30
0.0
 11
256.7628588512472
 21
-1332.880305652058
 31
0.0
  0
LINE
  5
CE95
330
1F
100
AcDbEntity
  8
0
  6
Continuous
 62
     7
100
AcDbLine
 10
276.1628588512471
 20
-1344.580305652058
 30
0.0
 11
361.2628588512474
 21
-1344.580305652058
 31
0.0
  0
LINE
  5
CE96
330
1F
100
AcDbEntity
  8
0
  6
Continuous
 62
     7
100
AcDbLine
 10
81.26285885124696
 20
-1344.580305652058
 30
0.0
 11
166.3628588512469
 21
-1344.580305652059
 31
0.0
  0
LINE
  5
CF17
330
1F
100
AcDbEntity
  8
0
  6
Continuous
 62
     7
100
AcDbLine
 10
166.3628588512471
 20
-1365.080305652058
 30
0.0
 11
185.7628588512472
 21
-1365.080305652058
 31
0.0
  0
LINE
  5
CF18
330
1F
100
AcDbEntity
  8
0
  6
Continuous
 62
     7
100
AcDbLine
 10
276.1628588512471
 20
-1365.080305652058
 30
0.0
 11
256.7628588512472
 21
-1365.080305652058
 31
0.0
  0
LINE
  5
CF1D
330
1F
100
AcDbEntity
  8
0
  6
Continuous
 62
     7
100
AcDbLine
 10
166.3628588512467
 20
-1366.580305652058
 30
0.0
 11
185.7628588512472
 21
-1366.580305652058
 31
0.0
  0
LINE
  5
CF1E
330
1F
100
AcDbEntity
  8
0
  6
Continuous
 62
     7
100
AcDbLine
 10
276.1628588512471
 20
-1366.580305652058
 30
0.0
 11
256.7628588512472
 21
-1366.580305652058
 31
0.0
  0
LINE
  5
CF1F
330
1F
100
AcDbEntity
  8
0
  6
Continuous
 62
     7
100
AcDbLine
 10
185.7628588512472
 20
-1366.580305652058
 30
0.0
 11
256.7628588512472
 21
-1366.580305652058
 31
0.0
  0
LINE
  5
CF26
330
1F
100
AcDbEntity
  8
0
  6
Continuous
 62
     7
100
AcDbLine
 10
81.26285885124719
 20
-1372.580305652058
 30
0.0
 11
361.2628588512472
 21
-1372.580305652058
 31
0.0
  0
LINE
  5
CF27
330
1F
100
AcDbEntity
  8
0
  6
Continuous
 62
     7
100
AcDbLine
 10
185.7628588512472
 20
-1327.580305652058
 30
0.0
 11
185.7628588512472
 21
-1366.580305652058
 31
0.0
  0
LINE
  5
CF58
330
1F
100
AcDbEntity
  8
0
  6
Continuous
 62
     7
100
AcDbLine
 10
168.7628588512472
 20
-1366.580305652058
 30
0.0
 11
168.7628588512472
 21
-1330.880305652058
 31
0.0
  0
LINE
  5
CF5E
330
1F
100
AcDbEntity
  8
0
  6
Continuous
 62
     7
100
AcDbLine
 10
27.85218242058272
 20
-1327.580305652058
 30
0.0
 11
29.35218242058272
 21
-1329.080305652058
 31
0.0
  0
LINE
  5
CF5F
330
1F
100
AcDbEntity
  8
0
  6
Continuous
 62
     7
100
AcDbLine
 10
27.35218242058272
 20
-1331.380305652058
 30
0.0
 11
28.85218242058272
 21
-1332.880305652058
 31
0.0
  0
LINE
  5
CF60
330
1F
100
AcDbEntity
  8
0
  6
Continuous
 62
     7
100
AcDbLine
 10
29.35218242058272
 20
-1364.580305652058
 30
0.0
 11
27.35218242058255
 21
-1366.580305652058
 31
0.0
  0
LINE
  5
CF63
330
1F
100
AcDbEntity
  8
0
  6
Continuous
 62
     7
100
AcDbLine
 10
29.35218242058272
 20
-1329.080305652058
 30
0.0
 11
29.35218242058272
 21
-1364.580305652058
 31
0.0
  0
LINE
  5
CF64
330
1F
100
AcDbEntity
  8
0
  6
Continuous
 62
     7
100
AcDbLine
 10
28.85218242058272
 20
-1365.080305652058
 30
0.0
 11
28.85218242058272
 21
-1332.880305652058
 31
0.0
  0
LINE
  5
CF69
330
1F
100
AcDbEntity
  8
0
  6
Continuous
 62
     7
100
AcDbLine
 10
13.35218242458268
 20
-1371.080305648158
 30
0.0
 11
11.85218242058272
 21
-1372.580305652058
 31
0.0
  0
LINE
  5
CF70
330
1F
100
AcDbEntity
  8
0
  6
Continuous
 62
     7
100
AcDbLine
 10
6.852182420582721
 20
-1327.580305652058
 30
0.0
 11
7.352182420582721
 21
-1328.080305652058
 31
0.0
  0
LINE
  5
CF71
330
1F
100
AcDbEntity
  8
0
  6
Continuous
 62
     7
100
AcDbLine
 10
9.227918351882635
 20
-1330.880305652058
 30
0.0
 11
9.727918351882635
 21
-1331.380305652058
 31
0.0
  0
LINE
  5
CF72
330
1F
100
AcDbEntity
  8
0
  6
Continuous
 62
     7
100
AcDbLine
 10
13.35218242058272
 20
-1327.580305652058
 30
0.0
 11
27.85218242058272
 21
-1327.580305652058
 31
0.0
  0
LINE
  5
CF73
330
1F
100
AcDbEntity
  8
0
  6
Continuous
 62
     7
100
AcDbLine
 10
-8.147817579417278
 20
-1327.580305652058
 30
0.0
 11
6.852182420582721
 21
-1327.580305652058
 31
0.0
  0
LINE
  5
CF74
330
1F
100
AcDbEntity
  8
0
  6
Continuous
 62
     7
100
AcDbLine
 10
-29.14781757941728
 20
-1327.580305652058
 30
0.0
 11
-14.64781757941728
 21
-1327.580305652058
 31
0.0
  0
LINE
  5
CF75
330
1F
100
AcDbEntity
  8
0
  6
Continuous
 62
     7
100
AcDbLine
 10
7.352182420582721
 20
-1328.080305652058
 30
0.0
 11
12.85218242058272
 21
-1328.080305652058
 31
0.0
  0
LINE
  5
CF76
330
1F
100
AcDbEntity
  8
0
  6
Continuous
 62
     7
100
AcDbLine
 10
-14.14781757941728
 20
-1328.080305652058
 30
0.0
 11
-8.647817579417278
 21
-1328.080305652058
 31
0.0
  0
LINE
  5
CF88
330
1F
100
AcDbEntity
  8
0
  6
Continuous
 62
     7
100
AcDbLine
 10
9.227918351882635
 20
-1330.880305652058
 30
0.0
 11
-10.52355351071719
 21
-1330.880305652058
 31
0.0
  0
LINE
  5
CF89
330
1F
100
AcDbEntity
  8
0
  6
Continuous
 62
     7
100
AcDbLine
 10
27.35218242058272
 20
-1331.380305652058
 30
0.0
 11
-28.64781757941728
 21
-1331.380305652058
 31
0.0
  0
LINE
  5
CF8E
330
1F
100
AcDbEntity
  8
0
  6
Continuous
 62
     7
100
AcDbLine
 10
5.252182420582812
 20
-1372.080305652058
 30
0.0
 11
4.752182420582812
 21
-1372.580305652058
 31
0.0
  0
LINE
  5
CFB4
330
1F
100
AcDbEntity
  8
0
  6
Continuous
 62
     7
100
AcDbLine
 10
15.10218242458268
 20
-1347.705401593258
 30
0.0
 11
15.10218242458268
 21
-1344.355431917958
 31
0.0
  0
LINE
  5
CFB5
330
1F
100
AcDbEntity
  8
0
  6
Continuous
 62
     7
100
AcDbLine
 10
15.10218242458268
 20
-1365.980305652058
 30
0.0
 11
15.10218242458268
 21
-1363.855209710858
 31
0.0
  0
LINE
  5
CFC1
330
1F
100
AcDbEntity
  8
0
  6
Continuous
 62
     7
100
AcDbLine
 10
15.10218242458268
 20
-1344.355431917958
 30
0.0
 11
13.57705615868281
 21
-1342.830305652058
 31
0.0
  0
LINE
  5
CFC3
330
1F
100
AcDbEntity
  8
0
  6
Continuous
 62
     7
100
AcDbLine
 10
13.07999988388269
 20
-1344.030305652058
 30
0.0
 11
13.90218242458286
 21
-1344.852488192758
 31
0.0
  0
LINE
  5
CFC4
330
1F
100
AcDbEntity
  8
0
  6
Continuous
 62
     7
100
AcDbLine
 10
12.85218242458268
 20
-1344.580305652058
 30
0.0
 11
13.35218242458268
 21
-1345.080305652179
 31
0.0
  0
LINE
  5
CFD2
330
1F
100
AcDbEntity
  8
0
  6
Continuous
 62
     7
100
AcDbLine
 10
13.90218242458286
 20
-1347.208345318638
 30
0.0
 11
13.90218242458286
 21
-1344.852488192758
 31
0.0
  0
LINE
  5
CFD3
330
1F
100
AcDbEntity
  8
0
  6
Continuous
 62
     7
100
AcDbLine
 10
13.90218242458286
 20
-1364.352265985578
 30
0.0
 11
13.90218242458286
 21
-1365.980305652058
 31
0.0
  0
LINE
  5
CFD4
330
1F
100
AcDbEntity
  8
0
  6
Continuous
 62
     7
100
AcDbLine
 10
13.35218242458268
 20
-1364.58008344498
 30
0.0
 11
13.35218242458268
 21
-1371.080305648158
 31
0.0
  0
LINE
  5
CFD5
330
1F
100
AcDbEntity
  8
0
  6
Continuous
 62
     7
100
AcDbLine
 10
13.35218242458268
 20
-1345.080305652179
 30
0.0
 11
13.35218242458268
 21
-1346.980527859275
 31
0.0
  0
LINE
  5
CFF0
330
1F
100
AcDbEntity
  8
0
  6
Continuous
 62
     7
100
AcDbLine
 10
-8.897817579417278
 20
-1372.080305652058
 30
0.0
 11
-9.397817579417278
 21
-1372.580305652058
 31
0.0
  0
LINE
  5
CFF1
330
1F
100
AcDbEntity
  8
0
  6
Continuous
 62
     7
100
AcDbLine
 10
9.602182420582721
 20
-1353.205401600058
 30
0.0
 11
15.10218242458268
 21
-1347.705401593258
 31
0.0
  0
LINE
  5
CFF3
330
1F
100
AcDbEntity
  8
0
  6
Continuous
 62
     7
100
AcDbLine
 10
13.90218242458286
 20
-1347.208345318638
 30
0.0
 11
8.402182420582676
 21
-1352.708345325358
 31
0.0
  0
LINE
  5
CFF4
330
1F
100
AcDbEntity
  8
0
  6
Continuous
 62
     7
100
AcDbLine
 10
9.602182420582721
 20
-1353.205401600058
 30
0.0
 11
9.602182420582721
 21
-1358.355209704158
 31
0.0
  0
LINE
  5
CFF6
330
1F
100
AcDbEntity
  8
0
  6
Continuous
 62
     7
100
AcDbLine
 10
8.402182420582676
 20
-1358.852265978858
 30
0.0
 11
8.402182420582676
 21
-1352.708345325358
 31
0.0
  0
LINE
  5
CFF7
330
1F
100
AcDbEntity
  8
0
  6
Continuous
 62
     7
100
AcDbLine
 10
7.85218242238261
 20
-1352.480527864334
 30
0.0
 11
7.852182422382611
 21
-1359.08008343947
 31
0.0
  0
LINE
  5
CFF8
330
1F
100
AcDbEntity
  8
0
  6
Continuous
 62
     7
100
AcDbLine
 10
-14.64781757941728
 20
-1327.580305652058
 30
0.0
 11
-14.14781757941728
 21
-1328.080305652058
 31
0.0
  0
LINE
  5
D000
330
1F
100
AcDbEntity
  8
0
  6
Continuous
 62
     7
100
AcDbLine
 10
-14.87269131751736
 20
-1342.830305652058
 30
0.0
 11
13.57705615868281
 21
-1342.830305652058
 31
0.0
  0
LINE
  5
D002
330
1F
100
AcDbEntity
  8
0
  6
Continuous
 62
     7
100
AcDbLine
 10
13.07999988388269
 20
-1344.030305652058
 30
0.0
 11
-14.37563504261743
 21
-1344.030305652058
 31
0.0
  0
LINE
  5
D003
330
1F
100
AcDbEntity
  8
0
  6
Continuous
 62
     7
100
AcDbLine
 10
-14.14781758331719
 20
-1344.580305652058
 30
0.0
 11
12.85218242458268
 21
-1344.580305652058
 31
0.0
  0
LINE
  5
D007
330
1F
100
AcDbEntity
  8
0
  6
Continuous
 62
     7
100
AcDbLine
 10
13.35218242458268
 20
-1346.980527859275
 30
0.0
 11
7.85218242238261
 21
-1352.480527864334
 31
0.0
  0
LINE
  5
D011
330
1F
100
AcDbEntity
  8
0
  6
Continuous
 62
     7
100
AcDbLine
 10
15.10218242458268
 20
-1363.855209710858
 30
0.0
 11
9.602182420582721
 21
-1358.355209704158
 31
0.0
  0
LINE
  5
D01C
330
1F
100
AcDbEntity
  8
0
  6
Continuous
 62
     7
100
AcDbLine
 10
-14.64781758331719
 20
-1364.580083445027
 30
0.0
 11
-9.147817581217168
 21
-1359.080083439466
 31
0.0
  0
LINE
  5
D01D
330
1F
100
AcDbEntity
  8
0
  6
Continuous
 62
     7
100
AcDbLine
 10
8.402182420582676
 20
-1358.852265978858
 30
0.0
 11
13.90218242458286
 21
-1364.352265985578
 31
0.0
  0
LINE
  5
D01E
330
1F
100
AcDbEntity
  8
0
  6
Continuous
 62
     7
100
AcDbLine
 10
7.852182422382611
 20
-1359.08008343947
 30
0.0
 11
13.35218242458268
 21
-1364.58008344498
 31
0.0
  0
LINE
  5
D02B
330
1F
100
AcDbEntity
  8
0
  6
Continuous
 62
     7
100
AcDbLine
 10
-15.19781758331737
 20
-1364.352265985478
 30
0.0
 11
-9.697817579417232
 21
-1358.852265978858
 31
0.0
  0
LINE
  5
D02D
330
1F
100
AcDbEntity
  8
0
  6
Continuous
 62
     7
100
AcDbLine
 10
-10.89781757941728
 20
-1358.355209704158
 30
0.0
 11
-16.39781758331719
 21
-1363.855209710858
 31
0.0
  0
LINE
  5
D07F
330
1F
100
AcDbEntity
  8
0
  6
Continuous
 62
     7
100
AcDbLine
 10
12.85218242058272
 20
-1328.080305652058
 30
0.0
 11
13.35218242058272
 21
-1327.580305652058
 31
0.0
  0
LINE
  5
D081
330
1F
100
AcDbEntity
  8
0
  6
Continuous
 62
     7
100
AcDbLine
 10
-9.147817581217168
 20
-1352.480527864334
 30
0.0
 11
-14.64781758331719
 21
-1346.980527859374
 31
0.0
  0
LINE
  5
D082
330
1F
100
AcDbEntity
  8
0
  6
Continuous
 62
     7
100
AcDbLine
 10
-9.697817579417232
 20
-1352.708345325358
 30
0.0
 11
-15.19781758331737
 21
-1347.208345318738
 31
0.0
  0
LINE
  5
D084
330
1F
100
AcDbEntity
  8
0
  6
Continuous
 62
     7
100
AcDbLine
 10
-16.39781758331719
 20
-1347.705401593258
 30
0.0
 11
-10.89781757941728
 21
-1353.205401600058
 31
0.0
  0
LINE
  5
D08E
330
1F
100
AcDbEntity
  8
0
  6
Continuous
 62
     7
100
AcDbLine
 10
-9.147817581217168
 20
-1359.080083439466
 30
0.0
 11
-9.147817581217168
 21
-1352.480527864334
 31
0.0
  0
LINE
  5
D08F
330
1F
100
AcDbEntity
  8
0
  6
Continuous
 62
     7
100
AcDbLine
 10
-9.697817579417232
 20
-1352.708345325358
 30
0.0
 11
-9.697817579417232
 21
-1358.852265978858
 31
0.0
  0
LINE
  5
D091
330
1F
100
AcDbEntity
  8
0
  6
Continuous
 62
     7
100
AcDbLine
 10
8.102182420582721
 20
-1372.580305652058
 30
0.0
 11
7.602182420582721
 21
-1372.080305652058
 31
0.0
  0
LINE
  5
D092
330
1F
100
AcDbEntity
  8
0
  6
Continuous
 62
     7
100
AcDbLine
 10
-30.14781757941728
 20
-1337.580305652058
 30
0.0
 11
-30.64781757941728
 21
-1337.080305652058
 31
0.0
  0
LINE
  5
D0A3
330
1F
100
AcDbEntity
  8
0
  6
Continuous
 62
     7
100
AcDbLine
 10
-10.89781757941728
 20
-1358.355209704158
 30
0.0
 11
-10.89781757941728
 21
-1353.205401600058
 31
0.0
  0
LINE
  5
D0A7
330
1F
100
AcDbEntity
  8
0
  6
Continuous
 62
     7
100
AcDbLine
 10
-14.64781758331719
 20
-1345.080305652058
 30
0.0
 11
-14.14781758331719
 21
-1344.580305652058
 31
0.0
  0
LINE
  5
D0A8
330
1F
100
AcDbEntity
  8
0
  6
Continuous
 62
     7
100
AcDbLine
 10
-15.19781758331737
 20
-1344.852488192758
 30
0.0
 11
-14.37563504261743
 21
-1344.030305652058
 31
0.0
  0
LINE
  5
D0B6
330
1F
100
AcDbEntity
  8
0
  6
Continuous
 62
     7
100
AcDbLine
 10
-14.64781758331719
 20
-1346.980527859374
 30
0.0
 11
-14.64781758331719
 21
-1345.080305652058
 31
0.0
  0
LINE
  5
D0B7
330
1F
100
AcDbEntity
  8
0
  6
Continuous
 62
     7
100
AcDbLine
 10
-14.64781758331719
 20
-1371.080305648158
 30
0.0
 11
-14.64781758331719
 21
-1364.580083445027
 31
0.0
  0
LINE
  5
D0B8
330
1F
100
AcDbEntity
  8
0
  6
Continuous
 62
     7
100
AcDbLine
 10
-15.19781758331737
 20
-1364.352265985478
 30
0.0
 11
-15.19781758331737
 21
-1365.980305652058
 31
0.0
  0
LINE
  5
D0B9
330
1F
100
AcDbEntity
  8
0
  6
Continuous
 62
     7
100
AcDbLine
 10
-15.19781758331737
 20
-1344.852488192758
 30
0.0
 11
-15.19781758331737
 21
-1347.208345318738
 31
0.0
  0
LINE
  5
D0BD
330
1F
100
AcDbEntity
  8
0
  6
Continuous
 62
     7
100
AcDbLine
 10
13.90218242458286
 20
-1365.980305652058
 30
0.0
 11
15.10218242458268
 21
-1365.980305652058
 31
0.0
  0
LINE
  5
D0BE
330
1F
100
AcDbEntity
  8
0
  6
Continuous
 62
     7
100
AcDbLine
 10
-16.39781758331719
 20
-1365.980305652058
 30
0.0
 11
-15.19781758331737
 21
-1365.980305652058
 31
0.0
  0
LINE
  5
D0BF
330
1F
100
AcDbEntity
  8
0
  6
Continuous
 62
     7
100
AcDbLine
 10
-14.64781758331719
 20
-1366.580305652058
 30
0.0
 11
-28.64781757941705
 21
-1366.580305652058
 31
0.0
  0
LINE
  5
D0C2
330
1F
100
AcDbEntity
  8
0
  6
Continuous
 62
     7
100
AcDbLine
 10
27.35218242058255
 20
-1366.580305652058
 30
0.0
 11
13.35218242458268
 21
-1366.580305652058
 31
0.0
  0
LINE
  5
D0C4
330
1F
100
AcDbEntity
  8
0
  6
Continuous
 62
     7
100
AcDbLine
 10
-14.87269131751736
 20
-1342.830305652058
 30
0.0
 11
-16.39781758331719
 21
-1344.355431917958
 31
0.0
  0
LINE
  5
D0CE
330
1F
100
AcDbEntity
  8
0
  6
Continuous
 62
     7
100
AcDbLine
 10
-16.39781758331719
 20
-1363.855209710858
 30
0.0
 11
-16.39781758331719
 21
-1365.980305652058
 31
0.0
  0
LINE
  5
D0CF
330
1F
100
AcDbEntity
  8
0
  6
Continuous
 62
     7
100
AcDbLine
 10
-16.39781758331719
 20
-1344.355431917958
 30
0.0
 11
-16.39781758331719
 21
-1347.705401593258
 31
0.0
  0
LINE
  5
D0E3
330
1F
100
AcDbEntity
  8
0
  6
Continuous
 62
     7
100
AcDbLine
 10
-6.047817579417369
 20
-1372.580305652058
 30
0.0
 11
-6.547817579417369
 21
-1372.080305652058
 31
0.0
  0
LINE
  5
D0E4
330
1F
100
AcDbEntity
  8
0
  6
Continuous
 62
     7
100
AcDbLine
 10
-6.547817579417369
 20
-1372.080305652058
 30
0.0
 11
-8.897817579417278
 21
-1372.080305652058
 31
0.0
  0
LINE
  5
D0E5
330
1F
100
AcDbEntity
  8
0
  6
Continuous
 62
     7
100
AcDbLine
 10
7.602182420582721
 20
-1372.080305652058
 30
0.0
 11
5.252182420582812
 21
-1372.080305652058
 31
0.0
  0
LINE
  5
D0E6
330
1F
100
AcDbEntity
  8
0
  6
Continuous
 62
     7
100
AcDbLine
 10
-11.02355351071719
 20
-1331.380305652058
 30
0.0
 11
-10.52355351071719
 21
-1330.880305652058
 31
0.0
  0
LINE
  5
D0E7
330
1F
100
AcDbEntity
  8
0
  6
Continuous
 62
     7
100
AcDbLine
 10
-8.647817579417278
 20
-1328.080305652058
 30
0.0
 11
-8.147817579417278
 21
-1327.580305652058
 31
0.0
  0
LINE
  5
D0ED
330
1F
100
AcDbEntity
  8
0
  6
Continuous
 62
     7
100
AcDbLine
 10
-9.397817579417278
 20
-1372.580305652058
 30
0.0
 11
-13.14781757941728
 21
-1372.580305652058
 31
0.0
  0
LINE
  5
D0EE
330
1F
100
AcDbEntity
  8
0
  6
Continuous
 62
     7
100
AcDbLine
 10
4.752182420582812
 20
-1372.580305652058
 30
0.0
 11
-6.047817579417369
 21
-1372.580305652058
 31
0.0
  0
LINE
  5
D0EF
330
1F
100
AcDbEntity
  8
0
  6
Continuous
 62
     7
100
AcDbLine
 10
11.85218242058272
 20
-1372.580305652058
 30
0.0
 11
8.102182420582721
 21
-1372.580305652058
 31
0.0
  0
LINE
  5
D0F0
330
1F
100
AcDbEntity
  8
0
  6
Continuous
 62
     7
100
AcDbLine
 10
-13.14781757941728
 20
-1372.580305652058
 30
0.0
 11
-14.64781758331719
 21
-1371.080305648158
 31
0.0
  0
LINE
  5
D0F2
330
1F
100
AcDbEntity
  8
0
  6
Continuous
 62
     7
100
AcDbLine
 10
-30.14781757941728
 20
-1365.080305652058
 30
0.0
 11
-30.14781757941728
 21
-1332.880305652058
 31
0.0
  0
LINE
  5
D0F3
330
1F
100
AcDbEntity
  8
0
  6
Continuous
 62
     7
100
AcDbLine
 10
-28.64781757941705
 20
-1366.580305652058
 30
0.0
 11
-30.14781757941728
 21
-1365.080305652058
 31
0.0
  0
LINE
  5
D0F4
330
1F
100
AcDbEntity
  8
0
  6
Continuous
 62
     7
100
AcDbLine
 10
-30.64781757941728
 20
-1337.080305652058
 30
0.0
 11
-30.64781757941728
 21
-1329.080305652058
 31
0.0
  0
LINE
  5
D0F5
330
1F
100
AcDbEntity
  8
0
  6
Continuous
 62
     7
100
AcDbLine
 10
-30.14781757941728
 20
-1332.880305652058
 30
0.0
 11
-28.64781757941728
 21
-1331.380305652058
 31
0.0
  0
LINE
  5
D0F6
330
1F
100
AcDbEntity
  8
0
  6
Continuous
 62
     7
100
AcDbLine
 10
-30.64781757941728
 20
-1329.080305652058
 30
0.0
 11
-29.14781757941728
 21
-1327.580305652058
 31
0.0
  0
LINE
  5
D18E
330
1F
100
AcDbEntity
  8
0
 48
0.27
100
AcDbLine
 10
-2.957251894807995
 20
-1333.080247949612
 30
0.0
 11
1.661616735974348
 21
-1333.080247949612
 31
0.0
  0
LINE
  5
D18F
330
1F
100
AcDbEntity
  8
0
 48
0.27
100
AcDbLine
 10
1.661618071993871
 20
-1341.080364690523
 30
0.0
 11
-2.957251894807995
 21
-1341.080364690523
 31
0.0
  0
ARC
  5
D190
330
1F
100
AcDbEntity
  8
0
 48
0.27
100
AcDbCircle
 10
-0.6478175794172785
 20
-1337.080305652058
 30
0.0
 40
4.000057702445608
100
AcDbArc
 50
48.59037799889873
 51
311.4096220031896
  0
LINE
  5
D191
330
1F
100
AcDbEntity
  8
0
 48
0.27
100
AcDbLine
 10
-2.957251894807995
 20
-1333.080247949612
 30
0.0
 11
-5.266686210199623
 21
-1337.080305652058
 31
0.0
  0
LINE
  5
D192
330
1F
100
AcDbEntity
  8
0
 48
0.27
100
AcDbLine
 10
-5.266686210199623
 20
-1337.080305652058
 30
0.0
 11
-2.957251894807995
 21
-1341.080364690523
 31
0.0
  0
LWPOLYLINE
  5
D193
330
1F
100
AcDbEntity
  8
0
 48
0.27
100
AcDbPolyline
 90
       17
 70
     0
 43
0.0
 10
8.3040007764057
 20
-1337.080305652058
 10
8.337549567362657
 20
-1337.297346061699
 10
8.370441036528063
 20
-1337.360251213636
 10
8.407011903985221
 20
-1337.389793281425
 10
8.440989557200737
 20
-1337.389485996941
 10
8.477482935526495
 20
-1337.359281263381
 10
8.50882729391651
 20
-1337.299510413682
 10
8.538214383444028
 20
-1337.169435534877
 10
8.543181704729249
 20
-1337.080305652058
 10
8.509634249791815
 20
-1336.863266578437
 10
8.476741444606886
 20
-1336.800361426499
 10
8.440170577149729
 20
-1336.770819358709
 10
8.406194259953736
 20
-1336.771126643294
 10
8.369699545608455
 20
-1336.801331376853
 10
8.338356523237962
 20
-1336.861102226553
 10
8.308968097690922
 20
-1336.991177105258
 10
8.3040007764057
 20
-1337.080305652058
  0
LINE
  5
D194
330
1F
100
AcDbEntity
  8
0
 48
0.27
100
AcDbLine
 10
9.096066740549758
 20
-1337.429847152307
 30
0.0
 11
9.109241230897168
 21
-1337.080305652058
 31
0.0
  0
LINE
  5
D195
330
1F
100
AcDbEntity
  8
0
 48
0.27
100
AcDbLine
 10
9.057049620995712
 20
-1337.765956310347
 30
0.0
 11
9.096066740549758
 21
-1337.429847152307
 31
0.0
  0
LINE
  5
D196
330
1F
100
AcDbEntity
  8
0
 48
0.27
100
AcDbLine
 10
9.109241230897168
 20
-1337.080305652058
 30
0.0
 11
9.096066740549758
 21
-1336.730764151808
 31
0.0
  0
LINE
  5
D197
330
1F
100
AcDbEntity
  8
0
 48
0.27
100
AcDbLine
 10
8.993688886311247
 20
-1338.075715151772
 30
0.0
 11
9.057049620995712
 21
-1337.765956310347
 31
0.0
  0
LINE
  5
D198
330
1F
100
AcDbEntity
  8
0
 48
0.27
100
AcDbLine
 10
9.096066740549758
 20
-1336.730764151808
 30
0.0
 11
9.057049620995712
 21
-1336.394656329788
 31
0.0
  0
LINE
  5
D199
330
1F
100
AcDbEntity
  8
0
 48
0.27
100
AcDbLine
 10
8.908418764414818
 20
-1338.347222412815
 30
0.0
 11
8.993688886311247
 21
-1338.075715151772
 31
0.0
  0
LINE
  5
D19A
330
1F
100
AcDbEntity
  8
0
 48
0.27
100
AcDbLine
 10
8.149053218748122
 20
-1338.718638563769
 30
0.0
 11
8.150951702751626
 21
-1338.717710030119
 31
0.0
  0
LINE
  5
D19B
330
1F
100
AcDbEntity
  8
0
 48
0.27
100
AcDbLine
 10
9.057049620995712
 20
-1336.394656329788
 30
0.0
 11
8.993688886311247
 21
-1336.084896152343
 31
0.0
  0
LINE
  5
D19C
330
1F
100
AcDbEntity
  8
0
 48
0.27
100
AcDbLine
 10
8.804517847751412
 20
-1338.570042443794
 30
0.0
 11
8.908418764414818
 21
-1338.347222412815
 31
0.0
  0
LINE
  5
D19D
330
1F
100
AcDbEntity
  8
0
 48
0.27
100
AcDbLine
 10
8.993688886311247
 20
-1336.084896152343
 30
0.0
 11
8.908418764414818
 21
-1335.81339022732
 31
0.0
  0
LINE
  5
D19E
330
1F
100
AcDbEntity
  8
0
 48
0.27
100
AcDbLine
 10
5.230796058370287
 20
-1339.116876646318
 30
0.0
 11
5.471922231280018
 21
-1339.01847211476
 31
0.0
  0
LINE
  5
D19F
330
1F
100
AcDbEntity
  8
0
 48
0.27
100
AcDbLine
 10
5.230796058370287
 20
-1335.043735993817
 30
0.0
 11
5.471922231279677
 21
-1335.142139189355
 31
0.0
  0
LINE
  5
D1A0
330
1F
100
AcDbEntity
  8
0
 48
0.27
100
AcDbLine
 10
8.685978163172876
 20
-1338.735611358143
 30
0.0
 11
8.804517847751412
 21
-1338.570042443794
 31
0.0
  0
LINE
  5
D1A1
330
1F
100
AcDbEntity
  8
0
 48
0.27
100
AcDbLine
 10
8.908418764414818
 20
-1335.81339022732
 30
0.0
 11
8.804517847751412
 21
-1335.590570196341
 31
0.0
  0
LINE
  5
D1A2
330
1F
100
AcDbEntity
  8
0
 48
0.27
100
AcDbLine
 10
5.471922231280018
 20
-1339.01847211476
 30
0.0
 11
5.68684905777809
 21
-1339.027599801355
 31
0.0
  0
LINE
  5
D1A3
330
1F
100
AcDbEntity
  8
0
 48
0.27
100
AcDbLine
 10
5.471922231279677
 20
-1335.142139189355
 30
0.0
 11
5.68684905777809
 21
-1335.133012838781
 31
0.0
  0
LINE
  5
D1A4
330
1F
100
AcDbEntity
  8
0
 48
0.27
100
AcDbLine
 10
7.306862467263272
 20
-1339.584670586955
 30
0.0
 11
8.557355537759576
 21
-1338.837569702159
 31
0.0
  0
LINE
  5
D1A5
330
1F
100
AcDbEntity
  8
0
 48
0.27
100
AcDbLine
 10
8.557355537759576
 20
-1338.837569702159
 30
0.0
 11
8.685978163172876
 21
-1338.735611358143
 31
0.0
  0
LINE
  5
D1A6
330
1F
100
AcDbEntity
  8
0
 48
0.27
100
AcDbLine
 10
8.804517847751412
 20
-1335.590570196341
 30
0.0
 11
8.685978163172876
 21
-1335.425001281993
 31
0.0
  0
LINE
  5
D1A7
330
1F
100
AcDbEntity
  8
0
 48
0.27
100
AcDbLine
 10
7.116229823175672
 20
-1339.633734574716
 30
0.0
 11
7.306862467263272
 21
-1339.584670586955
 31
0.0
  0
LINE
  5
D1A8
330
1F
100
AcDbEntity
  8
0
 48
0.27
100
AcDbLine
 10
6.755392276289057
 20
-1339.60585050742
 30
0.0
 11
7.116229823175672
 21
-1339.633734574716
 31
0.0
  0
LINE
  5
D1A9
330
1F
100
AcDbEntity
  8
0
 48
0.27
100
AcDbLine
 10
5.68684905777809
 20
-1339.027599801355
 30
0.0
 11
6.240804245414437
 21
-1339.392822164926
 31
0.0
  0
LINE
  5
D1AA
330
1F
100
AcDbEntity
  8
0
 48
0.27
100
AcDbLine
 10
8.423591908526759
 20
-1338.871996258025
 30
0.0
 11
8.557355537759576
 21
-1338.837569702159
 31
0.0
  0
LINE
  5
D1AB
330
1F
100
AcDbEntity
  8
0
 48
0.27
100
AcDbLine
 10
7.306862467263272
 20
-1334.575940717161
 30
0.0
 11
8.557355537759576
 21
-1335.323042937975
 31
0.0
  0
LINE
  5
D1AC
330
1F
100
AcDbEntity
  8
0
 48
0.27
100
AcDbLine
 10
8.557355537759576
 20
-1335.323042937975
 30
0.0
 11
8.685978163172876
 21
-1335.425001281993
 31
0.0
  0
LINE
  5
D1AD
330
1F
100
AcDbEntity
  8
0
 48
0.27
100
AcDbLine
 10
7.116229823175672
 20
-1334.526878065419
 30
0.0
 11
7.306862467263272
 21
-1334.575940717161
 31
0.0
  0
LINE
  5
D1AE
330
1F
100
AcDbEntity
  8
0
 48
0.27
100
AcDbLine
 10
6.755392276289057
 20
-1334.554760796794
 30
0.0
 11
7.116229823175672
 21
-1334.526878065419
 31
0.0
  0
LINE
  5
D1AF
330
1F
100
AcDbEntity
  8
0
 48
0.27
100
AcDbLine
 10
5.496010666687652
 20
-1338.883094573676
 30
0.0
 11
5.63609366903529
 21
-1338.994136515745
 31
0.0
  0
LINE
  5
D1B0
330
1F
100
AcDbEntity
  8
0
 48
0.27
100
AcDbLine
 10
6.240804245414437
 20
-1339.392822164926
 30
0.0
 11
6.566841150875916
 21
-1339.557323599497
 31
0.0
  0
LINE
  5
D1B1
330
1F
100
AcDbEntity
  8
0
 48
0.27
100
AcDbLine
 10
6.566841150875916
 20
-1339.557323599497
 30
0.0
 11
6.755392276289057
 21
-1339.60585050742
 31
0.0
  0
LINE
  5
D1B2
330
1F
100
AcDbEntity
  8
0
 48
0.27
100
AcDbLine
 10
5.68684905777809
 20
-1335.133012838781
 30
0.0
 11
6.240804245414437
 21
-1334.767790475209
 31
0.0
  0
LINE
  5
D1B3
330
1F
100
AcDbEntity
  8
0
 48
0.27
100
AcDbLine
 10
5.496010666687652
 20
-1335.277518066458
 30
0.0
 11
5.63609366903529
 21
-1335.16647612439
 31
0.0
  0
LINE
  5
D1B4
330
1F
100
AcDbEntity
  8
0
 48
0.27
100
AcDbLine
 10
6.92559584306764
 20
-1339.584670586955
 30
0.0
 11
7.116229823175672
 21
-1339.633734574716
 31
0.0
  0
LINE
  5
D1B5
330
1F
100
AcDbEntity
  8
0
 48
0.27
100
AcDbLine
 10
6.566841150875916
 20
-1334.603289040638
 30
0.0
 11
6.755392276289057
 21
-1334.554760796794
 31
0.0
  0
LINE
  5
D1B6
330
1F
100
AcDbEntity
  8
0
 48
0.27
100
AcDbLine
 10
6.240804245414437
 20
-1334.767790475209
 30
0.0
 11
6.566841150875916
 21
-1334.603289040638
 31
0.0
  0
LINE
  5
D1B7
330
1F
100
AcDbEntity
  8
0
 48
0.27
100
AcDbLine
 10
5.496010666687652
 20
-1338.883094573676
 30
0.0
 11
5.36690841017662
 21
-1338.702773329756
 31
0.0
  0
LINE
  5
D1B8
330
1F
100
AcDbEntity
  8
0
 48
0.27
100
AcDbLine
 10
8.289828279394896
 20
-1338.837569702159
 30
0.0
 11
8.423591908526759
 21
-1338.871996258025
 31
0.0
  0
LINE
  5
D1B9
330
1F
100
AcDbEntity
  8
0
 48
0.27
100
AcDbLine
 10
8.423591908526759
 20
-1335.288616382109
 30
0.0
 11
8.557355537759576
 21
-1335.323042937975
 31
0.0
  0
LINE
  5
D1BA
330
1F
100
AcDbEntity
  8
0
 48
0.27
100
AcDbLine
 10
6.92559584306764
 20
-1334.575940717161
 30
0.0
 11
7.116229823175672
 21
-1334.526878065419
 31
0.0
  0
LINE
  5
D1BC
330
1F
100
AcDbEntity
  8
0
 48
0.27
100
AcDbLine
 10
5.36690841017662
 20
-1335.457839310378
 30
0.0
 11
5.496010666687652
 21
-1335.277518066458
 31
0.0
  0
LINE
  5
D1BD
330
1F
100
AcDbEntity
  8
0
 48
0.27
100
AcDbLine
 10
5.36690841017662
 20
-1338.702773329756
 30
0.0
 11
5.253750213026251
 21
-1338.46010138199
 31
0.0
  0
LINE
  5
D1BE
330
1F
100
AcDbEntity
  8
0
 48
0.27
100
AcDbLine
 10
6.742288594975434
 20
-1339.439366419518
 30
0.0
 11
6.92559584306764
 21
-1339.584670586955
 31
0.0
  0
LINE
  5
D1BF
330
1F
100
AcDbEntity
  8
0
 48
0.27
100
AcDbLine
 10
5.253750213026251
 20
-1335.700511258145
 30
0.0
 11
5.36690841017662
 21
-1335.457839310378
 31
0.0
  0
LINE
  5
D1C0
330
1F
100
AcDbEntity
  8
0
 48
0.27
100
AcDbLine
 10
8.161204317962074
 20
-1338.735611358143
 30
0.0
 11
8.289828279394896
 21
-1338.837569702159
 31
0.0
  0
LINE
  5
D1C1
330
1F
100
AcDbEntity
  8
0
 48
0.27
100
AcDbLine
 10
6.742288594975434
 20
-1334.721246220617
 30
0.0
 11
6.92559584306764
 21
-1334.575940717161
 31
0.0
  0
LINE
  5
D1C2
330
1F
100
AcDbEntity
  8
0
 48
0.27
100
AcDbLine
 10
8.289828279394896
 20
-1335.323042937975
 30
0.0
 11
8.423591908526759
 21
-1335.288616382109
 31
0.0
  0
LINE
  5
D1C3
330
1F
100
AcDbEntity
  8
0
 48
0.27
100
AcDbLine
 10
5.253750213026251
 20
-1338.46010138199
 30
0.0
 11
5.160883483077668
 21
-1338.164404148058
 31
0.0
  0
LINE
  5
D1C4
330
1F
100
AcDbEntity
  8
0
 48
0.27
100
AcDbLine
 10
5.160883483077668
 20
-1335.996208492077
 30
0.0
 11
5.253750213026251
 21
-1335.700511258145
 31
0.0
  0
LINE
  5
D1C5
330
1F
100
AcDbEntity
  8
0
 48
0.27
100
AcDbLine
 10
6.742288594975434
 20
-1339.439366419518
 30
0.0
 11
6.573351574978914
 21
-1339.20340396276
 31
0.0
  0
LINE
  5
D1C6
330
1F
100
AcDbEntity
  8
0
 48
0.27
100
AcDbLine
 10
5.160883483077668
 20
-1338.164404148058
 30
0.0
 11
5.091878065122728
 21
-1337.827045811489
 31
0.0
  0
LINE
  5
D1C7
330
1F
100
AcDbEntity
  8
0
 48
0.27
100
AcDbLine
 10
8.161204317962074
 20
-1335.425001281993
 30
0.0
 11
8.289828279394896
 21
-1335.323042937975
 31
0.0
  0
LINE
  5
D1C8
330
1F
100
AcDbEntity
  8
0
 48
0.27
100
AcDbLine
 10
8.161204317962074
 20
-1338.735611358143
 30
0.0
 11
8.042664633383537
 21
-1338.570042443794
 31
0.0
  0
LINE
  5
D1C9
330
1F
100
AcDbEntity
  8
0
 48
0.27
100
AcDbLine
 10
6.573351574978914
 20
-1334.957208677376
 30
0.0
 11
6.742288594975434
 21
-1334.721246220617
 31
0.0
  0
LINE
  5
D1CA
330
1F
100
AcDbEntity
  8
0
 48
0.27
100
AcDbLine
 10
5.091878065122728
 20
-1336.333566828645
 30
0.0
 11
5.160883483077668
 21
-1335.996208492077
 31
0.0
  0
LINE
  5
D1CB
330
1F
100
AcDbEntity
  8
0
 48
0.27
100
AcDbLine
 10
5.091878065122728
 20
-1337.827045811489
 30
0.0
 11
5.049383286322154
 21
-1337.460991107673
 31
0.0
  0
LINE
  5
D1CC
330
1F
100
AcDbEntity
  8
0
 48
0.27
100
AcDbLine
 10
5.049383286322154
 20
-1336.699621532462
 30
0.0
 11
5.091878065122728
 21
-1336.333566828645
 31
0.0
  0
LINE
  5
D1CD
330
1F
100
AcDbEntity
  8
0
 48
0.27
100
AcDbLine
 10
5.049383286322154
 20
-1337.460991107673
 30
0.0
 11
5.035035770657486
 21
-1337.080305652058
 31
0.0
  0
LINE
  5
D1CE
330
1F
100
AcDbEntity
  8
0
 48
0.27
100
AcDbLine
 10
5.035035770657486
 20
-1337.080305652058
 30
0.0
 11
5.049383286322154
 21
-1336.699621532462
 31
0.0
  0
LINE
  5
D1CF
330
1F
100
AcDbEntity
  8
0
 48
0.27
100
AcDbLine
 10
6.573351574978914
 20
-1339.20340396276
 30
0.0
 11
6.42527650260763
 21
-1338.885852118415
 31
0.0
  0
LINE
  5
D1D0
330
1F
100
AcDbEntity
  8
0
 48
0.27
100
AcDbLine
 10
8.042664633383537
 20
-1335.590570196341
 30
0.0
 11
8.161204317962074
 21
-1335.425001281993
 31
0.0
  0
LINE
  5
D1D1
330
1F
100
AcDbEntity
  8
0
 48
0.27
100
AcDbLine
 10
8.042664633383537
 20
-1338.570042443794
 30
0.0
 11
7.938763716720131
 21
-1338.347222412815
 31
0.0
  0
LINE
  5
D1D2
330
1F
100
AcDbEntity
  8
0
 48
0.27
100
AcDbLine
 10
6.42527650260763
 20
-1335.274759185699
 30
0.0
 11
6.573351574978914
 21
-1334.957208677376
 31
0.0
  0
LINE
  5
D1D3
330
1F
100
AcDbEntity
  8
0
 48
0.27
100
AcDbLine
 10
7.938763716720131
 20
-1335.81339022732
 30
0.0
 11
8.042664633383537
 21
-1335.590570196341
 31
0.0
  0
LINE
  5
D1D4
330
1F
100
AcDbEntity
  8
0
 48
0.27
100
AcDbLine
 10
6.42527650260763
 20
-1338.885852118415
 30
0.0
 11
6.303754822014525
 21
-1338.49891542658
 31
0.0
  0
LINE
  5
D1D5
330
1F
100
AcDbEntity
  8
0
 48
0.27
100
AcDbLine
 10
7.938763716720131
 20
-1338.347222412815
 30
0.0
 11
7.853494930843226
 21
-1338.075715151772
 31
0.0
  0
LINE
  5
D1D6
330
1F
100
AcDbEntity
  8
0
 48
0.27
100
AcDbLine
 10
6.303754822014525
 20
-1335.661697213655
 30
0.0
 11
6.42527650260763
 21
-1335.274759185699
 31
0.0
  0
LINE
  5
D1D7
330
1F
100
AcDbEntity
  8
0
 48
0.27
100
AcDbLine
 10
7.853494930843226
 20
-1336.084896152343
 30
0.0
 11
7.938763716720131
 21
-1335.81339022732
 31
0.0
  0
LINE
  5
D1D8
330
1F
100
AcDbEntity
  8
0
 48
0.27
100
AcDbLine
 10
6.303754822014525
 20
-1338.49891542658
 30
0.0
 11
6.213455921936656
 21
-1338.057461114502
 31
0.0
  0
LINE
  5
D1D9
330
1F
100
AcDbEntity
  8
0
 48
0.27
100
AcDbLine
 10
7.853494930843226
 20
-1338.075715151772
 30
0.0
 11
7.79013419615785
 21
-1337.765956310347
 31
0.0
  0
LINE
  5
D1DA
330
1F
100
AcDbEntity
  8
0
 48
0.27
100
AcDbLine
 10
6.213455921936656
 20
-1336.103151525633
 30
0.0
 11
6.303754822014525
 21
-1335.661697213655
 31
0.0
  0
LINE
  5
D1DB
330
1F
100
AcDbEntity
  8
0
 48
0.27
100
AcDbLine
 10
7.79013419615785
 20
-1336.394656329788
 30
0.0
 11
7.853494930843226
 21
-1336.084896152343
 31
0.0
  0
LINE
  5
D1DC
330
1F
100
AcDbEntity
  8
0
 48
0.27
100
AcDbLine
 10
6.213455921936656
 20
-1338.057461114502
 30
0.0
 11
6.157850781723936
 21
-1337.578455296457
 31
0.0
  0
LINE
  5
D1DD
330
1F
100
AcDbEntity
  8
0
 48
0.27
100
AcDbLine
 10
7.79013419615785
 20
-1337.765956310347
 30
0.0
 11
7.751115740585191
 21
-1337.429847152307
 31
0.0
  0
LINE
  5
D1DE
330
1F
100
AcDbEntity
  8
0
 48
0.27
100
AcDbLine
 10
6.157850781723936
 20
-1336.582157343678
 30
0.0
 11
6.213455921936656
 21
-1336.103151525633
 31
0.0
  0
LINE
  5
D1DF
330
1F
100
AcDbEntity
  8
0
 48
0.27
100
AcDbLine
 10
7.751115740585191
 20
-1336.730764151808
 30
0.0
 11
7.79013419615785
 21
-1336.394656329788
 31
0.0
  0
LINE
  5
D1E0
330
1F
100
AcDbEntity
  8
0
 48
0.27
100
AcDbLine
 10
6.157850781723936
 20
-1337.578455296457
 30
0.0
 11
6.139074360730774
 21
-1337.080305652058
 31
0.0
  0
LINE
  5
D1E1
330
1F
100
AcDbEntity
  8
0
 48
0.27
100
AcDbLine
 10
7.751115740585191
 20
-1337.429847152307
 30
0.0
 11
7.737941250237781
 21
-1337.080305652058
 31
0.0
  0
LINE
  5
D1E2
330
1F
100
AcDbEntity
  8
0
 48
0.27
100
AcDbLine
 10
7.737941250237781
 20
-1337.080305652058
 30
0.0
 11
7.751115740585191
 21
-1336.730764151808
 31
0.0
  0
LINE
  5
D1E3
330
1F
100
AcDbEntity
  8
0
 48
0.27
100
AcDbLine
 10
6.139074360730774
 20
-1337.080305652058
 30
0.0
 11
6.157850781723936
 21
-1336.582157343678
 31
0.0
  0
LINE
  5
D1E4
330
1F
100
AcDbEntity
  8
0
 48
0.27
100
AcDbLine
 10
5.63609366903529
 20
-1338.994136515745
 30
0.0
 11
5.68684905777809
 21
-1339.027599801355
 31
0.0
  0
LINE
  5
D1E6
330
1F
100
AcDbEntity
  8
0
 48
0.27
100
AcDbLine
 10
5.63609366903529
 20
-1335.16647612439
 30
0.0
 11
5.68684905777809
 21
-1335.133012838781
 31
0.0
  0
LINE
  5
D1E7
330
1F
100
AcDbEntity
  8
0
 48
0.27
100
AcDbLine
 10
2.238976316836669
 20
-1340.080349930907
 30
0.0
 11
1.661618071993871
 21
-1341.080364690523
 31
0.0
  0
LINE
  5
D1E8
330
1F
100
AcDbEntity
  8
0
 48
0.27
100
AcDbLine
 10
0.6537074359575854
 20
-1340.080349930907
 30
0.0
 11
3.667820002297048
 21
-1340.080349930907
 31
0.0
  0
LINE
  5
D1E9
330
1F
100
AcDbEntity
  8
0
 48
0.27
100
AcDbLine
 10
3.730719810156188
 20
-1334.364953812855
 30
0.0
 11
3.667820002297048
 21
-1334.080262709228
 31
0.0
  0
LINE
  5
D1EA
330
1F
100
AcDbEntity
  8
0
 48
0.27
100
AcDbLine
 10
3.667820002297048
 20
-1340.080349930907
 30
0.0
 11
3.730719810156188
 21
-1339.79565882728
 31
0.0
  0
LINE
  5
D1EB
330
1F
100
AcDbEntity
  8
0
 48
0.27
100
AcDbLine
 10
0.6537074359575854
 20
-1334.080262709228
 30
0.0
 11
3.667820002297048
 21
-1334.080262709228
 31
0.0
  0
LINE
  5
D1EC
330
1F
100
AcDbEntity
  8
0
 48
0.27
100
AcDbLine
 10
3.004983216516848
 20
-1340.080349930907
 30
0.0
 11
3.228960240478954
 21
-1340.022704688524
 31
0.0
  0
LINE
  5
D1ED
330
1F
100
AcDbEntity
  8
0
 48
0.27
100
AcDbLine
 10
3.004983216516848
 20
-1334.080262709228
 30
0.0
 11
3.228960240478954
 21
-1334.137907951611
 31
0.0
  0
LINE
  5
D1EE
330
1F
100
AcDbEntity
  8
0
 48
0.27
100
AcDbLine
 10
2.781006192553832
 20
-1340.022704688524
 30
0.0
 11
3.004983216516848
 21
-1340.080349930907
 31
0.0
  0
LINE
  5
D1EF
330
1F
100
AcDbEntity
  8
0
 48
0.27
100
AcDbLine
 10
2.781006192553832
 20
-1334.137907951611
 30
0.0
 11
3.004983216516848
 21
-1334.080262709228
 31
0.0
  0
LINE
  5
D1F0
330
1F
100
AcDbEntity
  8
0
 48
0.27
100
AcDbLine
 10
2.565637143502499
 20
-1339.85198541822
 30
0.0
 11
2.781006192553832
 21
-1340.022704688524
 31
0.0
  0
LINE
  5
D1F1
330
1F
100
AcDbEntity
  8
0
 48
0.27
100
AcDbLine
 10
2.565637143502499
 20
-1334.308627221915
 30
0.0
 11
2.781006192553832
 21
-1334.137907951611
 31
0.0
  0
LINE
  5
D1F2
330
1F
100
AcDbEntity
  8
0
 48
0.27
100
AcDbLine
 10
-0.0091293498217055
 20
-1337.080305652058
 30
0.0
 11
0.6537074359575854
 21
-1334.080262709228
 31
0.0
  0
LINE
  5
D1F3
330
1F
100
AcDbEntity
  8
0
 48
0.27
100
AcDbLine
 10
-0.0091293498217055
 20
-1337.080305652058
 30
0.0
 11
1.679309644956447
 21
-1337.080305652058
 31
0.0
  0
LINE
  5
D1F4
330
1F
100
AcDbEntity
  8
0
 48
0.27
100
AcDbLine
 10
0.6537074359575854
 20
-1340.080349930907
 30
0.0
 11
-0.0091293498217055
 21
-1337.080305652058
 31
0.0
  0
LINE
  5
D1F5
330
1F
100
AcDbEntity
  8
0
 48
0.27
100
AcDbLine
 10
2.565637143502499
 20
-1339.85198541822
 30
0.0
 11
2.367151375618959
 21
-1339.574751976619
 31
0.0
  0
LINE
  5
D1F6
330
1F
100
AcDbEntity
  8
0
 48
0.27
100
AcDbLine
 10
2.367151375618959
 20
-1334.585860663516
 30
0.0
 11
2.565637143502499
 21
-1334.308627221915
 31
0.0
  0
LINE
  5
D1F7
330
1F
100
AcDbEntity
  8
0
 48
0.27
100
AcDbLine
 10
2.367151375618959
 20
-1339.574751976619
 30
0.0
 11
2.19317756122291
 21
-1339.201657784978
 31
0.0
  0
LINE
  5
D1F8
330
1F
100
AcDbEntity
  8
0
 48
0.27
100
AcDbLine
 10
2.19317756122291
 20
-1334.958954855157
 30
0.0
 11
2.367151375618959
 21
-1334.585860663516
 31
0.0
  0
LINE
  5
D1F9
330
1F
100
AcDbEntity
  8
0
 48
0.27
100
AcDbLine
 10
2.342146430736647
 20
-1340.080349930907
 30
0.0
 11
1.679309644956447
 21
-1337.080305652058
 31
0.0
  0
LINE
  5
D1FA
330
1F
100
AcDbEntity
  8
0
 48
0.27
100
AcDbLine
 10
1.679309644956447
 20
-1337.080305652058
 30
0.0
 11
2.342146430736647
 21
-1334.080262709228
 31
0.0
  0
LINE
  5
D1FB
330
1F
100
AcDbEntity
  8
0
 48
0.27
100
AcDbLine
 10
2.19317756122291
 20
-1339.201657784978
 30
0.0
 11
2.050399807052599
 21
-1338.747041006728
 31
0.0
  0
LINE
  5
D1FC
330
1F
100
AcDbEntity
  8
0
 48
0.27
100
AcDbLine
 10
2.050399807052599
 20
-1335.413571633407
 30
0.0
 11
2.19317756122291
 21
-1334.958954855157
 31
0.0
  0
LINE
  5
D1FD
330
1F
100
AcDbEntity
  8
0
 48
0.27
100
AcDbLine
 10
2.050399807052599
 20
-1338.747041006728
 30
0.0
 11
1.944307818116612
 21
-1338.228372771613
 31
0.0
  0
LINE
  5
D1FE
330
1F
100
AcDbEntity
  8
0
 48
0.27
100
AcDbLine
 10
1.944307818116612
 20
-1335.932238532502
 30
0.0
 11
2.050399807052599
 21
-1335.413571633407
 31
0.0
  0
LINE
  5
D1FF
330
1F
100
AcDbEntity
  8
0
 48
0.27
100
AcDbLine
 10
1.944307818116612
 20
-1338.228372771613
 30
0.0
 11
1.878976454374424
 21
-1337.665585157791
 31
0.0
  0
LINE
  5
D200
330
1F
100
AcDbEntity
  8
0
 48
0.27
100
AcDbLine
 10
1.878976454374424
 20
-1336.495026146425
 30
0.0
 11
1.944307818116612
 21
-1335.932238532502
 31
0.0
  0
LINE
  5
D201
330
1F
100
AcDbEntity
  8
0
 48
0.27
100
AcDbLine
 10
1.878976454374424
 20
-1337.665585157791
 30
0.0
 11
1.856916096960958
 21
-1337.080305652058
 31
0.0
  0
LINE
  5
D202
330
1F
100
AcDbEntity
  8
0
 48
0.27
100
AcDbLine
 10
1.856916096960958
 20
-1337.080305652058
 30
0.0
 11
1.878976454374424
 21
-1336.495026146425
 31
0.0
  0
LINE
  5
D203
330
1F
100
AcDbEntity
  8
0
 48
0.27
100
AcDbLine
 10
3.228960240478954
 20
-1340.022704688524
 30
0.0
 11
5.230796058370287
 21
-1339.116876646318
 31
0.0
  0
LINE
  5
D204
330
1F
100
AcDbEntity
  8
0
 48
0.27
100
AcDbLine
 10
3.228960240478954
 20
-1334.137907951611
 30
0.0
 11
5.230796058370287
 21
-1335.043735993817
 31
0.0
  0
LINE
  5
D205
330
1F
100
AcDbEntity
  8
0
 48
0.27
100
AcDbLine
 10
2.238976316836669
 20
-1334.080262709228
 30
0.0
 11
1.661616735974348
 21
-1333.080247949612
 31
0.0
  0
LINE
  5
D214
330
1F
100
AcDbEntity
  8
0
 62
     3
100
AcDbLine
 10
-26.41444173016225
 20
-1357.169265400817
 30
0.0
 11
-26.89426418882386
 21
-1356.689442942155
 31
0.0
  0
LINE
  5
D215
330
1F
100
AcDbEntity
  8
0
 62
     3
100
AcDbLine
 10
-25.85885783065851
 20
-1356.613681501313
 30
0.0
 11
-26.33868028932023
 21
-1356.133859042651
 31
0.0
  0
CIRCLE
  5
D216
330
1F
100
AcDbEntity
  8
0
 62
     3
100
AcDbCircle
 10
-27.24781757941719
 20
-1355.780305652058
 30
0.0
 40
2.75
  0
LINE
  5
D217
330
1F
100
AcDbEntity
  8
0
 62
     3
100
AcDbLine
 10
-25.85885783065851
 20
-1356.613681501313
 30
0.0
 11
-26.41444173016225
 21
-1357.169265400817
 31
0.0
  0
LINE
  5
D218
330
1F
100
AcDbEntity
  8
0
 62
     3
100
AcDbLine
 10
-28.15695486951461
 20
-1356.133859042651
 30
0.0
 11
-28.63677732817678
 21
-1356.613681501313
 31
0.0
  0
LINE
  5
D219
330
1F
100
AcDbEntity
  8
0
 62
     3
100
AcDbLine
 10
-27.60137097001052
 20
-1356.689442942155
 30
0.0
 11
-28.08119342867303
 21
-1357.169265400817
 31
0.0
  0
LINE
  5
D21A
330
1F
100
AcDbEntity
  8
0
 62
     3
100
AcDbLine
 10
-28.08119342867303
 20
-1354.391345903298
 30
0.0
 11
-27.60137097001063
 21
-1354.871168361961
 31
0.0
  0
LINE
  5
D21B
330
1F
100
AcDbEntity
  8
0
 62
     3
100
AcDbLine
 10
-28.1569548695145
 20
-1355.426752261464
 30
0.0
 11
-28.63677732817678
 21
-1354.946929802802
 31
0.0
  0
LINE
  5
D21C
330
1F
100
AcDbEntity
  8
0
 62
     3
100
AcDbLine
 10
-26.41444173016225
 20
-1354.391345903298
 30
0.0
 11
-25.85885783065851
 21
-1354.946929802802
 31
0.0
  0
LINE
  5
D21D
330
1F
100
AcDbEntity
  8
0
 62
     3
100
AcDbLine
 10
-26.41444173016225
 20
-1354.391345903298
 30
0.0
 11
-26.89426418882386
 21
-1354.87116836196
 31
0.0
  0
LINE
  5
D21E
330
1F
100
AcDbEntity
  8
0
 62
     3
100
AcDbLine
 10
-25.85885783065851
 20
-1354.946929802802
 30
0.0
 11
-26.33868028932034
 21
-1355.426752261465
 31
0.0
  0
LINE
  5
D21F
330
1F
100
AcDbEntity
  8
0
 62
     3
100
AcDbLine
 10
-28.63677732817678
 20
-1354.946929802802
 30
0.0
 11
-28.08119342867303
 21
-1354.391345903298
 31
0.0
  0
LINE
  5
D220
330
1F
100
AcDbEntity
  8
0
 62
     3
100
AcDbLine
 10
-28.08119342867303
 20
-1357.169265400817
 30
0.0
 11
-28.63677732817678
 21
-1356.613681501313
 31
0.0
  0
LINE
  5
D222
330
1F
100
AcDbEntity
  8
0
 62
     3
100
AcDbLine
 10
26.78555826983779
 20
-1357.169265400817
 30
0.0
 11
26.30573581117597
 21
-1356.689442942155
 31
0.0
  0
LINE
  5
D223
330
1F
100
AcDbEntity
  8
0
 62
     3
100
AcDbLine
 10
27.34114216934154
 20
-1356.613681501313
 30
0.0
 11
26.86131971067982
 21
-1356.133859042651
 31
0.0
  0
CIRCLE
  5
D224
330
1F
100
AcDbEntity
  8
0
 62
     3
100
AcDbCircle
 10
25.95218242058263
 20
-1355.780305652058
 30
0.0
 40
2.75
  0
LINE
  5
D225
330
1F
100
AcDbEntity
  8
0
 62
     3
100
AcDbLine
 10
27.34114216934154
 20
-1356.613681501313
 30
0.0
 11
26.78555826983779
 21
-1357.169265400817
 31
0.0
  0
LINE
  5
D226
330
1F
100
AcDbEntity
  8
0
 62
     3
100
AcDbLine
 10
25.04304513048561
 20
-1356.133859042651
 30
0.0
 11
24.56322267182327
 21
-1356.613681501313
 31
0.0
  0
LINE
  5
D227
330
1F
100
AcDbEntity
  8
0
 62
     3
100
AcDbLine
 10
25.59862902998941
 20
-1356.689442942155
 30
0.0
 11
25.11880657132702
 21
-1357.169265400817
 31
0.0
  0
LINE
  5
D228
330
1F
100
AcDbEntity
  8
0
 62
     3
100
AcDbLine
 10
25.11880657132702
 20
-1354.391345903298
 30
0.0
 11
25.59862902366751
 21
-1354.871168361961
 31
0.0
  0
LINE
  5
D229
330
1F
100
AcDbEntity
  8
0
 62
     3
100
AcDbLine
 10
25.04304513048567
 20
-1355.426752261465
 30
0.0
 11
24.56322267182327
 21
-1354.946929802802
 31
0.0
  0
LINE
  5
D22A
330
1F
100
AcDbEntity
  8
0
 62
     3
100
AcDbLine
 10
26.78555826983779
 20
-1354.391345903298
 30
0.0
 11
27.34114216934154
 21
-1354.946929802802
 31
0.0
  0
LINE
  5
D22B
330
1F
100
AcDbEntity
  8
0
 62
     3
100
AcDbLine
 10
26.78555826983779
 20
-1354.391345903298
 30
0.0
 11
26.30573580485429
 21
-1354.87116836196
 31
0.0
  0
LINE
  5
D22C
330
1F
100
AcDbEntity
  8
0
 62
     3
100
AcDbLine
 10
27.34114216934154
 20
-1354.946929802802
 30
0.0
 11
26.86131971067971
 21
-1355.426752261465
 31
0.0
  0
LINE
  5
D22D
330
1F
100
AcDbEntity
  8
0
 62
     3
100
AcDbLine
 10
24.56322267182327
 20
-1354.946929802802
 30
0.0
 11
25.11880657132702
 21
-1354.391345903298
 31
0.0
  0
LINE
  5
D22E
330
1F
100
AcDbEntity
  8
0
 62
     3
100
AcDbLine
 10
25.11880657132702
 20
-1357.169265400817
 30
0.0
 11
24.56322267182327
 21
-1356.613681501313
 31
0.0
  0
LINE
  5
D67C
330
1F
100
AcDbEntity
  8
0
  6
Continuous
 62
     7
100
AcDbLine
 10
165.5628588512471
 20
-1356.530305652058
 30
0.0
 11
165.5628588512471
 21
-1355.780305652058
 31
0.0
  0
ARC
  5
D67D
330
1F
100
AcDbEntity
  8
0
  6
Continuous
 62
     7
100
AcDbCircle
 10
167.5628588512471
 20
-1355.030305652058
 30
0.0
 40
2.0
100
AcDbArc
 50
126.8698976458517
 51
180.0
  0
ARC
  5
D67E
330
1F
100
AcDbEntity
  8
0
  6
Continuous
 62
     7
100
AcDbCircle
 10
167.5628588512471
 20
-1356.530305652058
 30
0.0
 40
2.0
100
AcDbArc
 50
180.0
 51
233.1301023541432
  0
LINE
  5
D67F
330
1F
100
AcDbEntity
  8
0
  6
Continuous
 62
     7
100
AcDbLine
 10
166.3628588512467
 20
-1366.580305652058
 30
0.0
 11
166.3628588512471
 21
-1331.380305652058
 31
0.0
  0
LINE
  5
D68B
330
1F
100
AcDbEntity
  8
0
  6
Continuous
 62
     7
100
AcDbLine
 10
276.1628588512471
 20
-1366.580305652058
 30
0.0
 11
276.1628588512471
 21
-1331.380305652058
 31
0.0
  0
LINE
  5
D695
330
1F
100
AcDbEntity
  8
0
  6
Continuous
 62
     7
100
AcDbLine
 10
165.5628588512471
 20
-1355.780305652058
 30
0.0
 11
165.5628588512471
 21
-1355.030305652058
 31
0.0
  0
LINE
  5
D6AB
330
1F
100
AcDbEntity
  8
0
  6
Continuous
 62
     7
100
AcDbLine
 10
276.9628588512472
 20
-1356.530305652058
 30
0.0
 11
276.9628588512472
 21
-1355.780305652058
 31
0.0
  0
ARC
  5
D6AC
330
1F
100
AcDbEntity
  8
0
  6
Continuous
 62
     7
100
AcDbCircle
 10
274.9628588512472
 20
-1355.030305652058
 30
0.0
 40
2.0
100
AcDbArc
 50
0.000000000000007
 51
53.13010235416184
  0
ARC
  5
D6AD
330
1F
100
AcDbEntity
  8
0
  6
Continuous
 62
     7
100
AcDbCircle
 10
274.9628588512472
 20
-1356.530305652058
 30
0.0
 40
2.0
100
AcDbArc
 50
306.8698976458382
 51
0.000000000000007
  0
LINE
  5
D6AE
330
1F
100
AcDbEntity
  8
0
  6
Continuous
 62
     7
100
AcDbLine
 10
276.9628588512472
 20
-1355.780305652058
 30
0.0
 11
276.9628588512472
 21
-1355.030305652058
 31
0.0
  0
LINE
  5
DAAE
330
1F
100
AcDbEntity
  8
中心線
 48
0.25
100
AcDbLine
 10
10.08673738907146
 20
-1337.080305652058
 30
0.0
 11
-6.280802911384853
 21
-1337.080305652058
 31
0.0
  0
LINE
  5
DACF
330
1F
100
AcDbEntity
  8
0
  6
Continuous
 62
     7
100
AcDbLine
 10
105.7628588512462
 20
-1372.080305652057
 30
0.0
 11
105.7628588512462
 21
-1356.880305652059
 31
0.0
  0
LINE
  5
DAD0
330
1F
100
AcDbEntity
  8
0
  6
Continuous
 62
     7
100
AcDbLine
 10
94.26285885124627
 20
-1356.580305652058
 30
0.0
 11
94.26285885124627
 21
-1344.980305652059
 31
0.0
  0
LINE
  5
DAD1
330
1F
100
AcDbEntity
  8
0
  6
Continuous
 62
     7
100
AcDbLine
 10
108.2628588512463
 20
-1356.580305652058
 30
0.0
 11
108.2628588512463
 21
-1344.980305652059
 31
0.0
  0
LINE
  5
DAD2
330
1F
100
AcDbEntity
  8
0
  6
Continuous
 62
     7
100
AcDbLine
 10
106.0628588512462
 20
-1356.580305652058
 30
0.0
 11
105.7628588512462
 21
-1356.880305652059
 31
0.0
  0
LINE
  5
DAD3
330
1F
100
AcDbEntity
  8
0
  6
Continuous
 62
     7
100
AcDbLine
 10
96.46285885124633
 20
-1356.580305652058
 30
0.0
 11
96.76285885124627
 21
-1356.880305652059
 31
0.0
  0
LINE
  5
DAD4
330
1F
100
AcDbEntity
  8
0
  6
Continuous
 62
     7
100
AcDbLine
 10
105.7628588512462
 20
-1356.880305652059
 30
0.0
 11
96.76285885124627
 21
-1356.880305652059
 31
0.0
  0
LINE
  5
DAD5
330
1F
100
AcDbEntity
  8
0
  6
Continuous
 62
     7
100
AcDbLine
 10
108.2628588512463
 20
-1356.580305652058
 30
0.0
 11
94.26285885124627
 21
-1356.580305652058
 31
0.0
  0
LINE
  5
DAD6
330
1F
100
AcDbEntity
  8
0
  6
Continuous
 62
     7
100
AcDbLine
 10
108.4937989589219
 20
-1344.580305652058
 30
0.0
 11
108.2628588512463
 21
-1344.980305652059
 31
0.0
  0
LINE
  5
DAD7
330
1F
100
AcDbEntity
  8
0
  6
Continuous
 62
     7
100
AcDbLine
 10
94.26285885124627
 20
-1344.980305652059
 30
0.0
 11
94.03191874357037
 21
-1344.580305652058
 31
0.0
  0
LINE
  5
DAD8
330
1F
100
AcDbEntity
  8
0
  6
Continuous
 62
     7
100
AcDbLine
 10
108.2628588512463
 20
-1344.980305652059
 30
0.0
 11
94.26285885124627
 21
-1344.980305652059
 31
0.0
  0
LINE
  5
DAD9
330
1F
100
AcDbEntity
  8
0
  6
Continuous
 62
     7
100
AcDbLine
 10
96.76285885124606
 20
-1372.080305652059
 30
0.0
 11
96.76285885124627
 21
-1356.880305652059
 31
0.0
  0
LINE
  5
DADA
330
1F
100
AcDbEntity
  8
0
  6
Continuous
 62
     7
100
AcDbLine
 10
94.26285885124627
 20
-1356.580305652058
 30
0.0
 11
94.26285885124627
 21
-1344.980305652059
 31
0.0
  0
LINE
  5
DADB
330
1F
100
AcDbEntity
  8
0
  6
Continuous
 62
     7
100
AcDbLine
 10
96.46285885124633
 20
-1356.580305652058
 30
0.0
 11
96.76285885124627
 21
-1356.880305652059
 31
0.0
  0
LINE
  5
DADC
330
1F
100
AcDbEntity
  8
0
  6
Continuous
 62
     7
100
AcDbLine
 10
94.03191874357037
 20
-1344.580305652058
 30
0.0
 11
94.26285885124627
 21
-1344.980305652059
 31
0.0
  0
LINE
  5
DADD
330
1F
100
AcDbEntity
  8
0
  6
Continuous
 62
     7
100
AcDbLine
 10
105.7628588512474
 20
-1372.080305652058
 30
0.0
 11
96.76285885124741
 21
-1372.080305652058
 31
0.0
  0
LINE
  5
DADE
330
1F
100
AcDbEntity
  8
0
  6
Continuous
 62
     7
100
AcDbLine
 10
106.2628588512474
 20
-1372.580305652058
 30
0.0
 11
105.7628588512472
 21
-1372.080305652058
 31
0.0
  0
LINE
  5
DADF
330
1F
100
AcDbEntity
  8
0
  6
Continuous
 62
     7
100
AcDbLine
 10
96.26285885124719
 20
-1372.580305652058
 30
0.0
 11
96.76285885124741
 21
-1372.080305652058
 31
0.0
  0
LINE
  5
DAE0
330
1F
100
AcDbEntity
  8
中心線
 48
0.2
100
AcDbLine
 10
101.2628588512474
 20
-1342.397767504422
 30
0.0
 11
101.2628588512472
 21
-1374.385339919666
 31
0.0
  0
LINE
  5
DAE1
330
1F
100
AcDbEntity
  8
中心線
 48
0.3
100
AcDbLine
 10
164.5991321528687
 20
-1355.780305652058
 30
0.0
 11
168.4187845807231
 21
-1355.780305652058
 31
0.0
  0
LINE
  5
DAE2
330
1F
100
AcDbEntity
  8
中心線
 48
0.3
100
AcDbLine
 10
274.0011347614806
 20
-1355.780305652058
 30
0.0
 11
277.820787189335
 21
-1355.780305652058
 31
0.0
  0
LINE
  5
DC76
330
1F
100
AcDbEntity
  8
中心線
 48
0.2
100
AcDbLine
 10
221.2628588512474
 20
-1366.580305652058
 30
0.0
 11
221.2628588512472
 21
-1374.385339919667
 31
0.0
  0
LINE
  5
DC80
330
1F
100
AcDbEntity
  8
虛線
 48
0.2
100
AcDbLine
 10
145.7628588512474
 20
-1372.080305652058
 30
0.0
 11
136.7628588512474
 21
-1372.080305652058
 31
0.0
  0
LINE
  5
DC81
330
1F
100
AcDbEntity
  8
虛線
 48
0.2
100
AcDbLine
 10
146.2628588512474
 20
-1372.580305652058
 30
0.0
 11
145.7628588512472
 21
-1372.080305652058
 31
0.0
  0
LINE
  5
DC82
330
1F
100
AcDbEntity
  8
虛線
 48
0.2
100
AcDbLine
 10
136.2628588512472
 20
-1372.580305652058
 30
0.0
 11
136.7628588512474
 21
-1372.080305652058
 31
0.0
  0
LINE
  5
DC83
330
1F
100
AcDbEntity
  8
虛線
 48
0.2
100
AcDbLine
 10
185.7628588512464
 20
-1372.080305652058
 30
0.0
 11
185.762858851246
 21
-1366.580305652058
 31
0.0
  0
LINE
  5
DC84
330
1F
100
AcDbEntity
  8
虛線
 48
0.2
100
AcDbLine
 10
176.7628588512459
 20
-1372.080305652058
 30
0.0
 11
176.7628588512462
 21
-1366.580305652058
 31
0.0
  0
LINE
  5
DC85
330
1F
100
AcDbEntity
  8
虛線
 48
0.2
100
AcDbLine
 10
185.7628588512464
 20
-1372.080305652058
 30
0.0
 11
176.7628588512459
 21
-1372.080305652058
 31
0.0
  0
LINE
  5
DC86
330
1F
100
AcDbEntity
  8
虛線
 48
0.2
100
AcDbLine
 10
186.2628588512474
 20
-1372.580305652058
 30
0.0
 11
185.7628588512472
 21
-1372.080305652058
 31
0.0
  0
LINE
  5
DC87
330
1F
100
AcDbEntity
  8
虛線
 48
0.2
100
AcDbLine
 10
176.2628588512472
 20
-1372.580305652057
 30
0.0
 11
176.7628588512474
 21
-1372.080305652058
 31
0.0
  0
LINE
  5
DC88
330
1F
100
AcDbEntity
  8
虛線
 48
0.2
100
AcDbLine
 10
225.7628588512463
 20
-1372.080305652057
 30
0.0
 11
225.7628588512463
 21
-1366.580305652058
 31
0.0
  0
LINE
  5
DC89
330
1F
100
AcDbEntity
  8
虛線
 48
0.2
100
AcDbLine
 10
216.7628588512461
 20
-1372.080305652059
 30
0.0
 11
216.7628588512465
 21
-1366.580305652058
 31
0.0
  0
LINE
  5
DC8A
330
1F
100
AcDbEntity
  8
虛線
 48
0.2
100
AcDbLine
 10
225.7628588512474
 20
-1372.080305652058
 30
0.0
 11
216.7628588512474
 21
-1372.080305652058
 31
0.0
  0
LINE
  5
DC8B
330
1F
100
AcDbEntity
  8
虛線
 48
0.2
100
AcDbLine
 10
226.2628588512474
 20
-1372.580305652058
 30
0.0
 11
225.7628588512472
 21
-1372.080305652058
 31
0.0
  0
LINE
  5
DC8C
330
1F
100
AcDbEntity
  8
虛線
 48
0.2
100
AcDbLine
 10
216.2628588512472
 20
-1372.580305652058
 30
0.0
 11
216.7628588512474
 21
-1372.080305652058
 31
0.0
  0
LINE
  5
DC9F
330
1F
100
AcDbEntity
  8
中心線
 48
0.2
100
AcDbLine
 10
181.2628588512473
 20
-1366.580305652058
 30
0.0
 11
181.2628588512472
 21
-1374.385339919667
 31
0.0
  0
LINE
  5
12FFC
330
1F
100
AcDbEntity
  8
中心線
 48
0.2
100
AcDbLine
 10
-0.6478175794172785
 20
-1325.805472446799
 30
0.0
 11
-0.647817579416369
 21
-1375.133536072873
 31
0.0
  0
LINE
  5
1306F
330
1F
100
AcDbEntity
  8
中心線
 48
0.2
100
AcDbLine
 10
-20.64781757941728
 20
-1326.380305652058
 30
0.0
 11
-20.64781757941637
 21
-1344.293296144812
 31
0.0
  0
LINE
  5
13070
330
1F
100
AcDbEntity
  8
虛線
 48
0.2
100
AcDbLine
 10
-16.64781757941728
 20
-1327.780305652058
 30
0.0
 11
-16.64781757941728
 21
-1337.880305652058
 31
0.0
  0
LINE
  5
13071
330
1F
100
AcDbEntity
  8
虛線
 48
0.2
100
AcDbLine
 10
-24.64781757941728
 20
-1337.880305652058
 30
0.0
 11
-16.64781757941728
 21
-1337.880305652058
 31
0.0
  0
LINE
  5
13072
330
1F
100
AcDbEntity
  8
虛線
 48
0.2
100
AcDbLine
 10
-24.04781757941601
 20
-1341.880305652058
 30
0.0
 11
-17.24781757941673
 21
-1341.880305652058
 31
0.0
  0
LINE
  5
13073
330
1F
100
AcDbEntity
  8
虛線
 48
0.2
100
AcDbLine
 10
-17.24781757941582
 20
-1341.880305652058
 30
0.0
 11
-20.64781757941546
 21
-1343.843296144811
 31
0.0
  0
LINE
  5
13074
330
1F
100
AcDbEntity
  8
虛線
 48
0.2
100
AcDbLine
 10
-24.04781757941601
 20
-1341.880305652058
 30
0.0
 11
-20.64781757941546
 21
-1343.843296144811
 31
0.0
  0
LINE
  5
13075
330
1F
100
AcDbEntity
  8
虛線
 48
0.2
100
AcDbLine
 10
-24.64781757941728
 20
-1327.78030565206
 30
0.0
 11
-24.64781757941728
 21
-1337.880305652058
 31
0.0
  0
LINE
  5
13076
330
1F
100
AcDbEntity
  8
虛線
 48
0.2
100
AcDbLine
 10
-24.04781757941691
 20
-1328.380305652058
 30
0.0
 11
-17.24781757941673
 21
-1328.380305652058
 31
0.0
  0
LINE
  5
13077
330
1F
100
AcDbEntity
  8
虛線
 48
0.2
100
AcDbLine
 10
-17.24781757941673
 20
-1328.380305652058
 30
0.0
 11
-16.44781757941655
 21
-1327.580305652058
 31
0.0
  0
LINE
  5
13078
330
1F
100
AcDbEntity
  8
虛線
 48
0.3
100
AcDbLine
 10
-24.04781757941691
 20
-1328.380305652058
 30
0.0
 11
-24.8478175794171
 21
-1327.580305652058
 31
0.0
  0
LINE
  5
13079
330
1F
100
AcDbEntity
  8
虛線
 48
0.2
100
AcDbLine
 10
-17.24781757941764
 20
-1328.380305652058
 30
0.0
 11
-17.24781757941673
 21
-1341.880305652058
 31
0.0
  0
LINE
  5
1307A
330
1F
100
AcDbEntity
  8
虛線
 48
0.2
100
AcDbLine
 10
-24.04781757941691
 20
-1328.380305652058
 30
0.0
 11
-24.04781757941601
 21
-1341.880305652058
 31
0.0
  0
LINE
  5
1307B
330
1F
100
AcDbEntity
  8
虛線
 48
0.2
100
AcDbLine
 10
2.752182420584176
 20
-1328.680305652058
 30
0.0
 11
2.75218242058321
 21
-1342.830305652058
 31
0.0
  0
LINE
  5
1307C
330
1F
100
AcDbEntity
  8
虛線
 48
0.2
100
AcDbLine
 10
-4.047817579416005
 20
-1328.680305652058
 30
0.0
 11
-4.047817579416005
 21
-1342.830305652058
 31
0.0
  0
LINE
  5
13080
330
1F
100
AcDbEntity
  8
中心線
 48
0.2
100
AcDbLine
 10
19.35218242058454
 20
-1326.380305652058
 30
0.0
 11
19.35218242058363
 21
-1344.293296144812
 31
0.0
  0
LINE
  5
13081
330
1F
100
AcDbEntity
  8
虛線
 48
0.2
100
AcDbLine
 10
15.35218242058454
 20
-1327.780305652058
 30
0.0
 11
15.35218242058454
 21
-1337.880305652058
 31
0.0
  0
LINE
  5
13082
330
1F
100
AcDbEntity
  8
虛線
 48
0.2
100
AcDbLine
 10
23.35218242058454
 20
-1337.880305652058
 30
0.0
 11
15.35218242058454
 21
-1337.880305652058
 31
0.0
  0
LINE
  5
13083
330
1F
100
AcDbEntity
  8
虛線
 48
0.2
100
AcDbLine
 10
22.75218242058327
 20
-1341.880305652058
 30
0.0
 11
15.95218242058399
 21
-1341.880305652058
 31
0.0
  0
LINE
  5
13084
330
1F
100
AcDbEntity
  8
虛線
 48
0.2
100
AcDbLine
 10
15.95218242058308
 20
-1341.880305652058
 30
0.0
 11
19.35218242058272
 21
-1343.843296144811
 31
0.0
  0
LINE
  5
13085
330
1F
100
AcDbEntity
  8
虛線
 48
0.2
100
AcDbLine
 10
22.75218242058327
 20
-1341.880305652058
 30
0.0
 11
19.35218242058272
 21
-1343.843296144811
 31
0.0
  0
LINE
  5
13086
330
1F
100
AcDbEntity
  8
虛線
 48
0.2
100
AcDbLine
 10
23.35218242058454
 20
-1327.78030565206
 30
0.0
 11
23.35218242058454
 21
-1337.880305652058
 31
0.0
  0
LINE
  5
13087
330
1F
100
AcDbEntity
  8
虛線
 48
0.2
100
AcDbLine
 10
22.75218242058418
 20
-1328.380305652058
 30
0.0
 11
15.95218242058399
 21
-1328.380305652058
 31
0.0
  0
LINE
  5
13088
330
1F
100
AcDbEntity
  8
虛線
 48
0.2
100
AcDbLine
 10
15.95218242058399
 20
-1328.380305652058
 30
0.0
 11
15.15218242058381
 21
-1327.580305652058
 31
0.0
  0
LINE
  5
13089
330
1F
100
AcDbEntity
  8
虛線
 48
0.2
100
AcDbLine
 10
22.75218242058418
 20
-1328.380305652058
 30
0.0
 11
23.55218242058436
 21
-1327.580305652058
 31
0.0
  0
LINE
  5
1308A
330
1F
100
AcDbEntity
  8
虛線
 48
0.2
100
AcDbLine
 10
15.9521824205849
 20
-1328.380305652058
 30
0.0
 11
15.95218242058399
 21
-1341.880305652058
 31
0.0
  0
LINE
  5
1308B
330
1F
100
AcDbEntity
  8
虛線
 48
0.2
100
AcDbLine
 10
22.75218242058418
 20
-1328.380305652058
 30
0.0
 11
22.75218242058327
 21
-1341.880305652058
 31
0.0
  0
LINE
  5
1308C
330
1F
100
AcDbEntity
  8
虛線
 48
0.2
100
AcDbLine
 10
3.352182420583631
 20
-1327.780305652058
 30
0.0
 11
3.352182420582721
 21
-1337.880305652058
 31
0.0
  0
LINE
  5
1308D
330
1F
100
AcDbEntity
  8
虛線
 48
0.2
100
AcDbLine
 10
-4.647817579416368
 20
-1337.880305652058
 30
0.0
 11
3.352182420582721
 21
-1337.880305652058
 31
0.0
  0
LINE
  5
1308E
330
1F
100
AcDbEntity
  8
虛線
 48
0.2
100
AcDbLine
 10
-4.647817579416368
 20
-1327.78030565206
 30
0.0
 11
-4.647817579416368
 21
-1337.880305652058
 31
0.0
  0
LINE
  5
1308F
330
1F
100
AcDbEntity
  8
虛線
 48
0.2
100
AcDbLine
 10
-4.047817579416914
 20
-1328.380305652058
 30
0.0
 11
2.752182420584176
 21
-1328.380305652058
 31
0.0
  0
LINE
  5
13090
330
1F
100
AcDbEntity
  8
虛線
 48
0.2
100
AcDbLine
 10
2.752182420584176
 20
-1328.380305652058
 30
0.0
 11
3.552182420585268
 21
-1327.580305652058
 31
0.0
  0
LINE
  5
13091
330
1F
100
AcDbEntity
  8
虛線
 48
0.2
100
AcDbLine
 10
-4.047817579416914
 20
-1328.380305652058
 30
0.0
 11
-4.847817579416187
 21
-1327.580305652058
 31
0.0
  0
LINE
  5
1320C
330
1F
100
AcDbEntity
  8
中心線
 48
0.35
100
AcDbLine
 10
246.2628588512472
 20
-1255.460235227636
 30
0.0
 11
236.2628588512472
 21
-1255.460235227636
 31
0.0
  0
LINE
  5
1320D
330
1F
100
AcDbEntity
  8
中心線
 48
0.35
100
AcDbLine
 10
241.2628588512472
 20
-1260.460235227636
 30
0.0
 11
241.2628588512472
 21
-1250.460235227636
 31
0.0
  0
LINE
  5
1320E
330
1F
100
AcDbEntity
  8
中心線
 48
0.35
100
AcDbLine
 10
241.2628588512474
 20
-1240.460235227636
 30
0.0
 11
241.2628588512474
 21
-1230.460235227636
 31
0.0
  0
LINE
  5
1320F
330
1F
100
AcDbEntity
  8
中心線
 48
0.35
100
AcDbLine
 10
196.2628588512472
 20
-1255.460235227636
 30
0.0
 11
206.2628588512472
 21
-1255.460235227636
 31
0.0
  0
LINE
  5
13210
330
1F
100
AcDbEntity
  8
中心線
 48
0.35
100
AcDbLine
 10
201.2628588512472
 20
-1260.460235227636
 30
0.0
 11
201.2628588512472
 21
-1250.460235227636
 31
0.0
  0
LINE
  5
13211
330
1F
100
AcDbEntity
  8
中心線
 48
0.35
100
AcDbLine
 10
201.2628588512467
 20
-1240.460235227636
 30
0.0
 11
201.2628588512467
 21
-1230.460235227636
 31
0.0
  0
LINE
  5
13212
330
1F
100
AcDbEntity
  8
中心線
 48
0.35
100
AcDbLine
 10
246.2628588512472
 20
-1215.460235227636
 30
0.0
 11
236.2628588512472
 21
-1215.460235227636
 31
0.0
  0
LINE
  5
13213
330
1F
100
AcDbEntity
  8
中心線
 48
0.35
100
AcDbLine
 10
241.2628588512472
 20
-1210.460235227636
 30
0.0
 11
241.2628588512472
 21
-1220.460235227636
 31
0.0
  0
LINE
  5
13214
330
1F
100
AcDbEntity
  8
中心線
 48
0.35
100
AcDbLine
 10
196.2628588512481
 20
-1215.460235227638
 30
0.0
 11
206.2628588512481
 21
-1215.460235227638
 31
0.0
  0
LINE
  5
13215
330
1F
100
AcDbEntity
  8
中心線
 48
0.35
100
AcDbLine
 10
201.2628588512476
 20
-1210.460235227637
 30
0.0
 11
201.2628588512486
 21
-1220.460235227637
 31
0.0
  0
CIRCLE
  5
13217
330
1F
100
AcDbEntity
  8
0
100
AcDbCircle
 10
201.2628588512481
 20
-1215.460235227638
 30
0.0
 40
3.4
  0
ARC
  5
13218
330
1F
100
AcDbEntity
  8
標註線
 62
     1
100
AcDbCircle
 10
201.2628588512481
 20
-1215.460235227638
 30
0.0
 40
4.0
100
AcDbArc
 50
259.9999999988309
 51
172.9892655989735
  0
CIRCLE
  5
13219
330
1F
100
AcDbEntity
  8
0
100
AcDbCircle
 10
201.2628588512467
 20
-1235.460235227634
 30
0.0
 40
3.4
  0
ARC
  5
1321A
330
1F
100
AcDbEntity
  8
標註線
 62
     1
100
AcDbCircle
 10
201.2628588512467
 20
-1235.460235227634
 30
0.0
 40
4.0
100
AcDbArc
 50
259.9999999988309
 51
172.9892655989735
  0
CIRCLE
  5
1321B
330
1F
100
AcDbEntity
  8
0
100
AcDbCircle
 10
201.2628588512472
 20
-1255.460235227636
 30
0.0
 40
3.4
  0
ARC
  5
1321C
330
1F
100
AcDbEntity
  8
標註線
 62
     1
100
AcDbCircle
 10
201.2628588512472
 20
-1255.460235227636
 30
0.0
 40
4.0
100
AcDbArc
 50
259.9999999988309
 51
172.9892655989735
  0
CIRCLE
  5
1321D
330
1F
100
AcDbEntity
  8
0
100
AcDbCircle
 10
241.2628588512472
 20
-1255.460235227636
 30
0.0
 40
3.4
  0
ARC
  5
1321E
330
1F
100
AcDbEntity
  8
標註線
 62
     1
100
AcDbCircle
 10
241.2628588512472
 20
-1255.460235227636
 30
0.0
 40
4.0
100
AcDbArc
 50
259.9999999988309
 51
172.9892655989735
  0
CIRCLE
  5
1321F
330
1F
100
AcDbEntity
  8
0
100
AcDbCircle
 10
241.2628588512474
 20
-1235.460235227635
 30
0.0
 40
3.4
  0
ARC
  5
13220
330
1F
100
AcDbEntity
  8
標註線
 62
     1
100
AcDbCircle
 10
241.2628588512474
 20
-1235.460235227635
 30
0.0
 40
4.0
100
AcDbArc
 50
259.9999999988309
 51
172.9892655989735
  0
CIRCLE
  5
13221
330
1F
100
AcDbEntity
  8
0
100
AcDbCircle
 10
241.2628588512472
 20
-1215.460235227636
 30
0.0
 40
3.4
  0
ARC
  5
13222
330
1F
100
AcDbEntity
  8
標註線
 62
     1
100
AcDbCircle
 10
241.2628588512472
 20
-1215.460235227636
 30
0.0
 40
4.0
100
AcDbArc
 50
259.9999999988309
 51
172.9892655989735
  0
LINE
  5
13226
330
1F
100
AcDbEntity
  8
中心線
 48
0.2
100
AcDbLine
 10
201.2628588512472
 20
-1326.380305652058
 30
0.0
 11
201.2628588512481
 21
-1344.293296144812
 31
0.0
  0
LINE
  5
13227
330
1F
100
AcDbEntity
  8
虛線
 48
0.2
100
AcDbLine
 10
205.2628588512472
 20
-1327.780305652058
 30
0.0
 11
205.2628588512472
 21
-1337.880305652058
 31
0.0
  0
LINE
  5
13228
330
1F
100
AcDbEntity
  8
虛線
 48
0.2
100
AcDbLine
 10
197.2628588512472
 20
-1337.880305652058
 30
0.0
 11
205.2628588512472
 21
-1337.880305652058
 31
0.0
  0
LINE
  5
13229
330
1F
100
AcDbEntity
  8
虛線
 48
0.2
100
AcDbLine
 10
197.8628588512484
 20
-1341.880305652058
 30
0.0
 11
204.6628588512477
 21
-1341.880305652058
 31
0.0
  0
LINE
  5
1322A
330
1F
100
AcDbEntity
  8
虛線
 48
0.2
100
AcDbLine
 10
204.6628588512486
 20
-1341.880305652058
 30
0.0
 11
201.262858851249
 21
-1343.843296144812
 31
0.0
  0
LINE
  5
1322B
330
1F
100
AcDbEntity
  8
虛線
 48
0.2
100
AcDbLine
 10
197.8628588512484
 20
-1341.880305652058
 30
0.0
 11
201.262858851249
 21
-1343.843296144812
 31
0.0
  0
LINE
  5
1322C
330
1F
100
AcDbEntity
  8
虛線
 48
0.2
100
AcDbLine
 10
197.2628588512472
 20
-1327.78030565206
 30
0.0
 11
197.2628588512472
 21
-1337.880305652058
 31
0.0
  0
LINE
  5
1322D
330
1F
100
AcDbEntity
  8
虛線
 48
0.2
100
AcDbLine
 10
197.8628588512475
 20
-1328.380305652058
 30
0.0
 11
204.6628588512477
 21
-1328.380305652058
 31
0.0
  0
LINE
  5
1322E
330
1F
100
AcDbEntity
  8
虛線
 48
0.2
100
AcDbLine
 10
204.6628588512477
 20
-1328.380305652058
 30
0.0
 11
205.4628588512479
 21
-1327.580305652058
 31
0.0
  0
LINE
  5
1322F
330
1F
100
AcDbEntity
  8
虛線
 48
0.2
100
AcDbLine
 10
197.8628588512475
 20
-1328.380305652058
 30
0.0
 11
197.0628588512473
 21
-1327.580305652058
 31
0.0
  0
LINE
  5
13230
330
1F
100
AcDbEntity
  8
虛線
 48
0.2
100
AcDbLine
 10
204.6628588512468
 20
-1328.380305652058
 30
0.0
 11
204.6628588512477
 21
-1341.880305652058
 31
0.0
  0
LINE
  5
13231
330
1F
100
AcDbEntity
  8
虛線
 48
0.2
100
AcDbLine
 10
197.8628588512475
 20
-1328.380305652058
 30
0.0
 11
197.8628588512484
 21
-1341.880305652058
 31
0.0
  0
LINE
  5
13234
330
1F
100
AcDbEntity
  8
虛線
 48
0.2
100
AcDbLine
 10
245.2628588512472
 20
-1327.780305652058
 30
0.0
 11
245.2628588512472
 21
-1337.880305652058
 31
0.0
  0
LINE
  5
13235
330
1F
100
AcDbEntity
  8
虛線
 48
0.2
100
AcDbLine
 10
237.2628588512472
 20
-1337.880305652058
 30
0.0
 11
245.2628588512472
 21
-1337.880305652058
 31
0.0
  0
LINE
  5
13236
330
1F
100
AcDbEntity
  8
虛線
 48
0.2
100
AcDbLine
 10
237.8628588512484
 20
-1341.880305652058
 30
0.0
 11
244.6628588512477
 21
-1341.880305652058
 31
0.0
  0
LINE
  5
13237
330
1F
100
AcDbEntity
  8
虛線
 48
0.2
100
AcDbLine
 10
244.6628588512486
 20
-1341.880305652058
 30
0.0
 11
241.262858851249
 21
-1343.843296144812
 31
0.0
  0
LINE
  5
13238
330
1F
100
AcDbEntity
  8
虛線
 48
0.2
100
AcDbLine
 10
237.8628588512484
 20
-1341.880305652058
 30
0.0
 11
241.262858851249
 21
-1343.843296144812
 31
0.0
  0
LINE
  5
13239
330
1F
100
AcDbEntity
  8
虛線
 48
0.2
100
AcDbLine
 10
237.2628588512472
 20
-1327.78030565206
 30
0.0
 11
237.2628588512472
 21
-1337.880305652058
 31
0.0
  0
LINE
  5
1323A
330
1F
100
AcDbEntity
  8
虛線
 48
0.2
100
AcDbLine
 10
237.8628588512476
 20
-1328.380305652058
 30
0.0
 11
244.6628588512477
 21
-1328.380305652058
 31
0.0
  0
LINE
  5
1323B
330
1F
100
AcDbEntity
  8
虛線
 48
0.2
100
AcDbLine
 10
244.6628588512477
 20
-1328.380305652058
 30
0.0
 11
245.4628588512479
 21
-1327.580305652058
 31
0.0
  0
LINE
  5
1323C
330
1F
100
AcDbEntity
  8
虛線
 48
0.2
100
AcDbLine
 10
237.8628588512476
 20
-1328.380305652058
 30
0.0
 11
237.0628588512474
 21
-1327.580305652058
 31
0.0
  0
LINE
  5
1323D
330
1F
100
AcDbEntity
  8
虛線
 48
0.2
100
AcDbLine
 10
244.6628588512468
 20
-1328.380305652058
 30
0.0
 11
244.6628588512477
 21
-1341.880305652058
 31
0.0
  0
LINE
  5
1323E
330
1F
100
AcDbEntity
  8
虛線
 48
0.2
100
AcDbLine
 10
237.8628588512476
 20
-1328.380305652058
 30
0.0
 11
237.8628588512484
 21
-1341.880305652058
 31
0.0
  0
LINE
  5
133ED
330
1F
100
AcDbEntity
  8
中心線
 48
0.25
100
AcDbLine
 10
151.3628606102639
 20
-1337.080305652058
 30
0.0
 11
166.6673287248005
 21
-1337.080305652058
 31
0.0
  0
ARC
  5
133EE
330
1F
100
AcDbEntity
  8
0
 48
0.27
100
AcDbCircle
 10
165.554475851247
 20
-1339.080286320958
 30
0.0
 40
2.954110999999976
100
AcDbArc
 50
137.3885930045003
 51
222.1075788516062
  0
ARC
  5
133EF
330
1F
100
AcDbEntity
  8
0
 48
0.27
100
AcDbCircle
 10
165.5544768512469
 20
-1335.080286320958
 30
0.0
 40
2.954111999999976
100
AcDbArc
 50
137.3885980021945
 51
222.6114019998938
  0
LWPOLYLINE
  5
133F0
330
1F
100
AcDbEntity
  8
0
 48
0.27
100
AcDbPolyline
 90
       31
 70
     0
 43
0.0
 10
155.2716478512467
 20
-1337.080286320958
 10
155.238829851247
 20
-1336.870031320958
 10
155.194682851247
 20
-1336.764544320958
 10
155.131649851247
 20
-1336.666765320958
 10
155.0521738512472
 20
-1336.582652320958
 10
154.960682851247
 20
-1336.516779320958
 10
154.8627628512469
 20
-1336.471498320958
 10
154.730126851247
 20
-1336.442557320958
 10
154.6071178512467
 20
-1336.445216320958
 10
154.500193851247
 20
-1336.470722320958
 10
154.3839888512467
 20
-1336.526490320958
 10
154.2734188512469
 20
-1336.615979320958
 10
154.185188851247
 20
-1336.730529320959
 10
154.128554851247
 20
-1336.850368320958
 10
154.1007038512472
 20
-1336.954024320958
 10
154.0890828512471
 20
-1337.080286320958
 10
154.1219008512472
 20
-1337.290541320958
 10
154.1660488512472
 20
-1337.396029320958
 10
154.2290808512472
 20
-1337.493807320958
 10
154.3085568512471
 20
-1337.577920320958
 10
154.4000478512472
 20
-1337.643793320958
 10
154.4979678512474
 20
-1337.689074320958
 10
154.6306038512467
 20
-1337.718016320958
 10
154.7536128512471
 20
-1337.715356320958
 10
154.8605368512473
 20
-1337.689851320958
 10
154.9767418512471
 20
-1337.634083320958
 10
155.0873118512473
 20
-1337.544593320958
 10
155.1755418512467
 20
-1337.430044320958
 10
155.2321758512472
 20
-1337.310205320958
 10
155.2600278512474
 20
-1337.206548320958
 10
155.2716478512467
 20
-1337.080286320958
  0
ARC
  5
133F1
330
1F
100
AcDbEntity
  8
0
 48
0.27
100
AcDbCircle
 10
158.8520248512469
 20
-1337.080286320958
 30
0.0
 40
3.999999999999968
100
AcDbArc
 50
90.0
 51
131.4096219996128
  0
ARC
  5
133F2
330
1F
100
AcDbEntity
  8
0
 48
0.27
100
AcDbCircle
 10
158.8520248512469
 20
-1337.080286320958
 30
0.0
 40
3.999999999999968
100
AcDbArc
 50
228.5903779972859
 51
270.0
  0
LINE
  5
133F3
330
1F
100
AcDbEntity
  8
0
 48
0.27
100
AcDbLine
 10
166.3628588512471
 20
-1333.080286320958
 30
0.0
 11
158.8520248512469
 21
-1333.080286320958
 31
0.0
  0
LINE
  5
133F4
330
1F
100
AcDbEntity
  8
0
 48
0.27
100
AcDbLine
 10
158.8520248512469
 20
-1341.080286320958
 30
0.0
 11
166.3628588512471
 21
-1341.080286320958
 31
0.0
  0
LINE
  5
133F5
330
1F
100
AcDbEntity
  8
0
 48
0.27
100
AcDbLine
 10
162.600364851247
 20
-1333.080286320958
 30
0.0
 11
162.600364851247
 21
-1341.080286320958
 31
0.0
  0
LINE
  5
133F6
330
1F
100
AcDbEntity
  8
0
 48
0.27
100
AcDbLine
 10
155.3245878512472
 20
-1334.080286320958
 30
0.0
 11
159.2243638512469
 21
-1334.080286320958
 31
0.0
  0
LINE
  5
133F7
330
1F
100
AcDbEntity
  8
0
 48
0.27
100
AcDbLine
 10
155.0781948512468
 20
-1339.618359320958
 30
0.0
 11
155.3245878512472
 21
-1340.080286320958
 31
0.0
  0
LINE
  5
133F8
330
1F
100
AcDbEntity
  8
0
 48
0.27
100
AcDbLine
 10
155.3245878512472
 20
-1334.080286320958
 30
0.0
 11
155.0781948512468
 21
-1334.542213320958
 31
0.0
  0
LINE
  5
133F9
330
1F
100
AcDbEntity
  8
0
 48
0.27
100
AcDbLine
 10
160.1252058512469
 20
-1337.080286320958
 30
0.0
 11
160.824569851247
 21
-1337.080286320958
 31
0.0
  0
LINE
  5
133FA
330
1F
100
AcDbEntity
  8
0
 48
0.27
100
AcDbLine
 10
159.2243638512469
 20
-1334.080286320958
 30
0.0
 11
160.824569851247
 21
-1337.080286320958
 31
0.0
  0
LINE
  5
133FB
330
1F
100
AcDbEntity
  8
0
 48
0.27
100
AcDbLine
 10
159.2243638512469
 20
-1340.080286320958
 30
0.0
 11
155.3245878512472
 21
-1340.080286320958
 31
0.0
  0
LINE
  5
133FC
330
1F
100
AcDbEntity
  8
0
 48
0.27
100
AcDbLine
 10
160.824569851247
 20
-1337.080286320958
 30
0.0
 11
159.2243638512469
 21
-1340.080286320958
 31
0.0
  0
LINE
  5
133FD
330
1F
100
AcDbEntity
  8
0
 48
0.27
100
AcDbLine
 10
155.4456668512467
 20
-1334.550752320958
 30
0.0
 11
155.8641338512471
 21
-1334.308648320958
 31
0.0
  0
LINE
  5
133FE
330
1F
100
AcDbEntity
  8
0
 48
0.27
100
AcDbLine
 10
155.4456668512467
 20
-1339.609821320958
 30
0.0
 11
155.8641338512471
 21
-1339.851925320958
 31
0.0
  0
LINE
  5
133FF
330
1F
100
AcDbEntity
  8
0
 48
0.27
100
AcDbLine
 10
155.8641338512471
 20
-1334.308648320958
 30
0.0
 11
156.3840738512473
 21
-1334.137930320958
 31
0.0
  0
LINE
  5
13400
330
1F
100
AcDbEntity
  8
0
 48
0.27
100
AcDbLine
 10
155.8641338512471
 20
-1339.851925320958
 30
0.0
 11
156.3840738512473
 21
-1340.022642320958
 31
0.0
  0
LINE
  5
13401
330
1F
100
AcDbEntity
  8
0
 48
0.27
100
AcDbLine
 10
156.3840738512473
 20
-1334.137930320958
 30
0.0
 11
156.9247938512472
 21
-1334.080286320958
 31
0.0
  0
LINE
  5
13402
330
1F
100
AcDbEntity
  8
0
 48
0.27
100
AcDbLine
 10
156.3840738512473
 20
-1340.022642320958
 30
0.0
 11
156.9247938512472
 21
-1340.080286320958
 31
0.0
  0
LINE
  5
13403
330
1F
100
AcDbEntity
  8
0
 48
0.27
100
AcDbLine
 10
156.9247938512472
 20
-1334.080286320958
 30
0.0
 11
157.4655138512472
 21
-1334.137930320958
 31
0.0
  0
LINE
  5
13404
330
1F
100
AcDbEntity
  8
0
 48
0.27
100
AcDbLine
 10
156.9247938512472
 20
-1340.080286320958
 30
0.0
 11
157.4655138512472
 21
-1340.022642320958
 31
0.0
  0
LINE
  5
13405
330
1F
100
AcDbEntity
  8
0
 48
0.27
100
AcDbLine
 10
157.4655138512472
 20
-1334.137930320958
 30
0.0
 11
157.9854538512469
 21
-1334.308648320958
 31
0.0
  0
LINE
  5
13406
330
1F
100
AcDbEntity
  8
0
 48
0.27
100
AcDbLine
 10
157.4655138512472
 20
-1340.022642320958
 30
0.0
 11
157.9854538512469
 21
-1339.851925320958
 31
0.0
  0
LINE
  5
13407
330
1F
100
AcDbEntity
  8
0
 48
0.27
100
AcDbLine
 10
157.9854538512469
 20
-1334.308648320958
 30
0.0
 11
158.4646338512467
 21
-1334.585877320958
 31
0.0
  0
LINE
  5
13408
330
1F
100
AcDbEntity
  8
0
 48
0.27
100
AcDbLine
 10
157.9854538512469
 20
-1339.851925320958
 30
0.0
 11
158.4646338512467
 21
-1339.574695320958
 31
0.0
  0
LINE
  5
13409
330
1F
100
AcDbEntity
  8
0
 48
0.27
100
AcDbLine
 10
158.4646338512467
 20
-1334.585877320958
 30
0.0
 11
158.8846378512472
 21
-1334.958966320958
 31
0.0
  0
LINE
  5
1340A
330
1F
100
AcDbEntity
  8
0
 48
0.27
100
AcDbLine
 10
158.4646338512467
 20
-1339.574695320958
 30
0.0
 11
158.8846378512472
 21
-1339.201607320958
 31
0.0
  0
LINE
  5
1340B
330
1F
100
AcDbEntity
  8
0
 48
0.27
100
AcDbLine
 10
158.5249998512473
 20
-1334.080286320958
 30
0.0
 11
160.1252058512469
 21
-1337.080286320958
 31
0.0
  0
LINE
  5
1340C
330
1F
100
AcDbEntity
  8
0
 48
0.27
100
AcDbLine
 10
160.1252058512469
 20
-1337.080286320958
 30
0.0
 11
158.5249998512473
 21
-1340.080286320958
 31
0.0
  0
LINE
  5
1340D
330
1F
100
AcDbEntity
  8
0
 48
0.27
100
AcDbLine
 10
158.8846378512472
 20
-1334.958966320958
 30
0.0
 11
159.2293268512468
 21
-1335.413576320958
 31
0.0
  0
LINE
  5
1340E
330
1F
100
AcDbEntity
  8
0
 48
0.27
100
AcDbLine
 10
159.2293268512468
 20
-1338.746997320958
 30
0.0
 11
158.8846378512472
 21
-1339.201607320958
 31
0.0
  0
LINE
  5
1340F
330
1F
100
AcDbEntity
  8
0
 48
0.27
100
AcDbLine
 10
159.2293268512468
 20
-1335.413576320958
 30
0.0
 11
159.4854538512469
 21
-1335.932236320958
 31
0.0
  0
LINE
  5
13410
330
1F
100
AcDbEntity
  8
0
 48
0.27
100
AcDbLine
 10
159.4854538512469
 20
-1338.228337320958
 30
0.0
 11
159.2293268512468
 21
-1338.746997320958
 31
0.0
  0
LINE
  5
13411
330
1F
100
AcDbEntity
  8
0
 48
0.27
100
AcDbLine
 10
159.4854538512469
 20
-1335.932236320958
 30
0.0
 11
159.6431758512473
 21
-1336.495015320958
 31
0.0
  0
LINE
  5
13412
330
1F
100
AcDbEntity
  8
0
 48
0.27
100
AcDbLine
 10
159.6431758512473
 20
-1337.665557320958
 30
0.0
 11
159.4854538512469
 21
-1338.228337320958
 31
0.0
  0
LINE
  5
13413
330
1F
100
AcDbEntity
  8
0
 48
0.27
100
AcDbLine
 10
159.6431758512473
 20
-1336.495015320958
 30
0.0
 11
159.696431851247
 21
-1337.080286320958
 31
0.0
  0
LINE
  5
13414
330
1F
100
AcDbEntity
  8
0
 48
0.27
100
AcDbLine
 10
159.696431851247
 20
-1337.080286320958
 30
0.0
 11
159.6431758512473
 21
-1337.665557320958
 31
0.0
  0
LINE
  5
13415
330
1F
100
AcDbEntity
  8
0
 48
0.27
100
AcDbLine
 10
154.0208968512471
 20
-1335.440059320958
 30
0.0
 11
154.023867851247
 21
-1335.441674320958
 31
0.0
  0
LINE
  5
13416
330
1F
100
AcDbEntity
  8
0
 48
0.27
100
AcDbLine
 10
154.0208968512471
 20
-1338.720514320958
 30
0.0
 11
154.023867851247
 21
-1338.718898320958
 31
0.0
  0
LINE
  5
13417
330
1F
100
AcDbEntity
  8
0
 48
0.27
100
AcDbLine
 10
152.9081868512468
 20
-1336.582144320958
 30
0.0
 11
152.8628588512471
 21
-1337.080286320958
 31
0.0
  0
LINE
  5
13418
330
1F
100
AcDbEntity
  8
0
 48
0.27
100
AcDbLine
 10
153.0424288512469
 20
-1336.103146320958
 30
0.0
 11
152.9081868512468
 21
-1336.582144320958
 31
0.0
  0
LINE
  5
13419
330
1F
100
AcDbEntity
  8
0
 48
0.27
100
AcDbLine
 10
152.8628588512471
 20
-1337.080286320958
 30
0.0
 11
152.9081868512468
 21
-1337.578428320958
 31
0.0
  0
LINE
  5
1341A
330
1F
100
AcDbEntity
  8
0
 48
0.27
100
AcDbLine
 10
153.2604258512471
 20
-1335.661698320958
 30
0.0
 11
153.0424288512469
 21
-1336.103146320958
 31
0.0
  0
LINE
  5
1341B
330
1F
100
AcDbEntity
  8
0
 48
0.27
100
AcDbLine
 10
152.9081868512468
 20
-1337.578428320958
 30
0.0
 11
153.0424288512469
 21
-1338.057427320958
 31
0.0
  0
LINE
  5
1341C
330
1F
100
AcDbEntity
  8
0
 48
0.27
100
AcDbLine
 10
153.5538018512471
 20
-1335.274766320958
 30
0.0
 11
153.2604258512471
 21
-1335.661698320958
 31
0.0
  0
LINE
  5
1341D
330
1F
100
AcDbEntity
  8
0
 48
0.27
100
AcDbLine
 10
153.0424288512469
 20
-1338.057427320958
 30
0.0
 11
153.2604258512471
 21
-1338.498874320958
 31
0.0
  0
LINE
  5
1341E
330
1F
100
AcDbEntity
  8
0
 48
0.27
100
AcDbLine
 10
153.5538018512471
 20
-1335.274766320958
 30
0.0
 11
153.911279851247
 21
-1334.957219320958
 31
0.0
  0
LINE
  5
1341F
330
1F
100
AcDbEntity
  8
0
 48
0.27
100
AcDbLine
 10
153.2604258512471
 20
-1338.498874320958
 30
0.0
 11
153.5538018512471
 21
-1338.885806320958
 31
0.0
  0
LINE
  5
13420
330
1F
100
AcDbEntity
  8
0
 48
0.27
100
AcDbLine
 10
153.0568898512471
 20
-1336.730750320958
 30
0.0
 11
153.0250838512471
 21
-1337.080286320958
 31
0.0
  0
LINE
  5
13421
330
1F
100
AcDbEntity
  8
0
 48
0.27
100
AcDbLine
 10
153.1510848512472
 20
-1336.394646320958
 30
0.0
 11
153.0568898512471
 21
-1336.730750320958
 31
0.0
  0
LINE
  5
13422
330
1F
100
AcDbEntity
  8
0
 48
0.27
100
AcDbLine
 10
153.0250838512471
 20
-1337.080286320958
 30
0.0
 11
153.0568898512471
 21
-1337.429822320958
 31
0.0
  0
LINE
  5
13423
330
1F
100
AcDbEntity
  8
0
 48
0.27
100
AcDbLine
 10
153.3040488512471
 20
-1336.084891320958
 30
0.0
 11
153.1510848512472
 21
-1336.394646320958
 31
0.0
  0
LINE
  5
13424
330
1F
100
AcDbEntity
  8
0
 48
0.27
100
AcDbLine
 10
153.0568898512471
 20
-1337.429822320958
 30
0.0
 11
153.1510848512472
 21
-1337.765926320958
 31
0.0
  0
LINE
  5
13425
330
1F
100
AcDbEntity
  8
0
 48
0.27
100
AcDbLine
 10
153.911279851247
 20
-1334.957219320958
 30
0.0
 11
154.3191248512468
 21
-1334.721260320958
 31
0.0
  0
LINE
  5
13426
330
1F
100
AcDbEntity
  8
0
 48
0.27
100
AcDbLine
 10
153.5538018512471
 20
-1338.885806320958
 30
0.0
 11
153.911279851247
 21
-1339.203353320958
 31
0.0
  0
LINE
  5
13427
330
1F
100
AcDbEntity
  8
0
 48
0.27
100
AcDbLine
 10
153.5099048512471
 20
-1335.813389320958
 30
0.0
 11
153.3040488512471
 21
-1336.084891320958
 31
0.0
  0
LINE
  5
13428
330
1F
100
AcDbEntity
  8
0
 48
0.27
100
AcDbLine
 10
153.1510848512472
 20
-1337.765926320958
 30
0.0
 11
153.3040488512471
 21
-1338.075681320958
 31
0.0
  0
LINE
  5
13429
330
1F
100
AcDbEntity
  8
0
 48
0.27
100
AcDbLine
 10
154.3191248512468
 20
-1334.721260320958
 30
0.0
 11
154.7616618512467
 21
-1334.575958320958
 31
0.0
  0
LINE
  5
1342A
330
1F
100
AcDbEntity
  8
0
 48
0.27
100
AcDbLine
 10
153.911279851247
 20
-1339.203353320958
 30
0.0
 11
154.3191248512468
 21
-1339.439312320958
 31
0.0
  0
LINE
  5
1342B
330
1F
100
AcDbEntity
  8
0
 48
0.27
100
AcDbLine
 10
153.5099048512471
 20
-1335.813389320958
 30
0.0
 11
153.7607398512469
 21
-1335.590572320958
 31
0.0
  0
LINE
  5
1342C
330
1F
100
AcDbEntity
  8
0
 48
0.27
100
AcDbLine
 10
153.3040488512471
 20
-1338.075681320958
 30
0.0
 11
153.5099048512471
 21
-1338.347184320958
 31
0.0
  0
LINE
  5
1342D
330
1F
100
AcDbEntity
  8
0
 48
0.27
100
AcDbLine
 10
154.7616618512467
 20
-1334.575958320958
 30
0.0
 11
155.2218848512467
 21
-1334.526895320958
 31
0.0
  0
LINE
  5
1342E
330
1F
100
AcDbEntity
  8
0
 48
0.27
100
AcDbLine
 10
154.3191248512468
 20
-1339.439312320958
 30
0.0
 11
154.7616618512467
 21
-1339.584615320958
 31
0.0
  0
LINE
  5
1342F
330
1F
100
AcDbEntity
  8
0
 48
0.27
100
AcDbLine
 10
153.7607398512469
 20
-1335.590572320958
 30
0.0
 11
154.0469168512474
 21
-1335.425005320958
 31
0.0
  0
LINE
  5
13430
330
1F
100
AcDbEntity
  8
0
 48
0.27
100
AcDbLine
 10
153.5099048512471
 20
-1338.347184320958
 30
0.0
 11
153.7607398512469
 21
-1338.570000320958
 31
0.0
  0
LINE
  5
13431
330
1F
100
AcDbEntity
  8
0
 48
0.27
100
AcDbLine
 10
155.8265438512473
 20
-1334.603305320958
 30
0.0
 11
156.2642478512472
 21
-1334.747021320958
 31
0.0
  0
LINE
  5
13432
330
1F
100
AcDbEntity
  8
0
 48
0.27
100
AcDbLine
 10
154.0469168512474
 20
-1335.425005320958
 30
0.0
 11
154.357435851247
 21
-1335.323049320958
 31
0.0
  0
LINE
  5
13433
330
1F
100
AcDbEntity
  8
0
 48
0.27
100
AcDbLine
 10
153.7607398512469
 20
-1338.570000320958
 30
0.0
 11
154.0469168512474
 21
-1338.735568320958
 31
0.0
  0
LINE
  5
13434
330
1F
100
AcDbEntity
  8
0
 48
0.27
100
AcDbLine
 10
155.6821078512467
 20
-1334.575958320958
 30
0.0
 11
155.8265438512473
 21
-1334.603305320958
 31
0.0
  0
LINE
  5
13435
330
1F
100
AcDbEntity
  8
0
 48
0.27
100
AcDbLine
 10
155.2218848512467
 20
-1334.526895320958
 30
0.0
 11
155.6821078512467
 21
-1334.575958320958
 31
0.0
  0
LINE
  5
13436
330
1F
100
AcDbEntity
  8
0
 48
0.27
100
AcDbLine
 10
154.7616618512467
 20
-1339.584615320958
 30
0.0
 11
155.2218848512467
 21
-1339.633677320958
 31
0.0
  0
LINE
  5
13437
330
1F
100
AcDbEntity
  8
0
 48
0.27
100
AcDbLine
 10
156.2642478512472
 20
-1334.747021320958
 30
0.0
 11
156.667638851247
 21
-1334.980403320958
 31
0.0
  0
LINE
  5
13438
330
1F
100
AcDbEntity
  8
0
 48
0.27
100
AcDbLine
 10
155.8265438512473
 20
-1339.557267320958
 30
0.0
 11
156.2642478512472
 21
-1339.413551320958
 31
0.0
  0
LINE
  5
13439
330
1F
100
AcDbEntity
  8
0
 48
0.27
100
AcDbLine
 10
156.667638851247
 20
-1334.980403320958
 30
0.0
 11
157.0212138512471
 21
-1335.294482320958
 31
0.0
  0
LINE
  5
1343A
330
1F
100
AcDbEntity
  8
0
 48
0.27
100
AcDbLine
 10
156.2642478512472
 20
-1339.413551320958
 30
0.0
 11
156.667638851247
 21
-1339.180169320958
 31
0.0
  0
LINE
  5
1343B
330
1F
100
AcDbEntity
  8
0
 48
0.27
100
AcDbLine
 10
154.357435851247
 20
-1335.323049320958
 30
0.0
 11
154.6803658512473
 21
-1335.288623320958
 31
0.0
  0
LINE
  5
1343C
330
1F
100
AcDbEntity
  8
0
 48
0.27
100
AcDbLine
 10
154.0469168512474
 20
-1338.735568320958
 30
0.0
 11
154.357435851247
 21
-1338.837524320958
 31
0.0
  0
LINE
  5
1343D
330
1F
100
AcDbEntity
  8
0
 48
0.27
100
AcDbLine
 10
155.6821078512467
 20
-1334.575958320958
 30
0.0
 11
156.1246448512467
 21
-1334.721260320958
 31
0.0
  0
LINE
  5
1343E
330
1F
100
AcDbEntity
  8
0
 48
0.27
100
AcDbLine
 10
155.6821078512467
 20
-1339.584615320958
 30
0.0
 11
155.8265438512473
 21
-1339.557267320958
 31
0.0
  0
LINE
  5
1343F
330
1F
100
AcDbEntity
  8
0
 48
0.27
100
AcDbLine
 10
155.2218848512467
 20
-1339.633677320958
 30
0.0
 11
155.6821078512467
 21
-1339.584615320958
 31
0.0
  0
LINE
  5
13440
330
1F
100
AcDbEntity
  8
0
 48
0.27
100
AcDbLine
 10
157.0212138512471
 20
-1335.294482320958
 30
0.0
 11
157.3113848512468
 21
-1335.677189320958
 31
0.0
  0
LINE
  5
13441
330
1F
100
AcDbEntity
  8
0
 48
0.27
100
AcDbLine
 10
156.667638851247
 20
-1339.180169320958
 30
0.0
 11
157.0212138512471
 21
-1338.866090320958
 31
0.0
  0
LINE
  5
13442
330
1F
100
AcDbEntity
  8
0
 48
0.27
100
AcDbLine
 10
154.6803658512473
 20
-1335.288623320958
 30
0.0
 11
155.0032948512472
 21
-1335.323049320958
 31
0.0
  0
LINE
  5
13443
330
1F
100
AcDbEntity
  8
0
 48
0.27
100
AcDbLine
 10
154.357435851247
 20
-1338.837524320958
 30
0.0
 11
154.6803658512473
 21
-1338.871950320958
 31
0.0
  0
LINE
  5
13444
330
1F
100
AcDbEntity
  8
0
 48
0.27
100
AcDbLine
 10
156.1246448512467
 20
-1334.721260320958
 30
0.0
 11
156.532488851247
 21
-1334.957219320958
 31
0.0
  0
LINE
  5
13445
330
1F
100
AcDbEntity
  8
0
 48
0.27
100
AcDbLine
 10
155.6821078512467
 20
-1339.584615320958
 30
0.0
 11
156.1246448512467
 21
-1339.439312320958
 31
0.0
  0
LINE
  5
13446
330
1F
100
AcDbEntity
  8
0
 48
0.27
100
AcDbLine
 10
157.3113848512468
 20
-1335.677189320958
 30
0.0
 11
157.527001851247
 21
-1336.113816320958
 31
0.0
  0
LINE
  5
13447
330
1F
100
AcDbEntity
  8
0
 48
0.27
100
AcDbLine
 10
157.3113848512468
 20
-1338.483383320958
 30
0.0
 11
157.0212138512471
 21
-1338.866090320958
 31
0.0
  0
LINE
  5
13448
330
1F
100
AcDbEntity
  8
0
 48
0.27
100
AcDbLine
 10
157.527001851247
 20
-1336.113816320958
 30
0.0
 11
157.659777851247
 21
-1336.587584320958
 31
0.0
  0
LINE
  5
13449
330
1F
100
AcDbEntity
  8
0
 48
0.27
100
AcDbLine
 10
157.527001851247
 20
-1338.046756320958
 30
0.0
 11
157.3113848512468
 21
-1338.483383320958
 31
0.0
  0
LINE
  5
1344A
330
1F
100
AcDbEntity
  8
0
 48
0.27
100
AcDbLine
 10
156.532488851247
 20
-1334.957219320958
 30
0.0
 11
156.8899678512472
 21
-1335.274766320958
 31
0.0
  0
LINE
  5
1344B
330
1F
100
AcDbEntity
  8
0
 48
0.27
100
AcDbLine
 10
156.1246448512467
 20
-1339.439312320958
 30
0.0
 11
156.532488851247
 21
-1339.203353320958
 31
0.0
  0
LINE
  5
1344C
330
1F
100
AcDbEntity
  8
0
 48
0.27
100
AcDbLine
 10
157.659777851247
 20
-1336.587584320958
 30
0.0
 11
157.7046108512469
 21
-1337.080286320958
 31
0.0
  0
LINE
  5
1344D
330
1F
100
AcDbEntity
  8
0
 48
0.27
100
AcDbLine
 10
157.659777851247
 20
-1337.572988320958
 30
0.0
 11
157.527001851247
 21
-1338.046756320958
 31
0.0
  0
LINE
  5
1344E
330
1F
100
AcDbEntity
  8
0
 48
0.27
100
AcDbLine
 10
155.0032948512472
 20
-1335.323049320958
 30
0.0
 11
155.3138138512469
 21
-1335.425005320958
 31
0.0
  0
LINE
  5
1344F
330
1F
100
AcDbEntity
  8
0
 48
0.27
100
AcDbLine
 10
154.6803658512473
 20
-1338.871950320958
 30
0.0
 11
155.0032948512472
 21
-1338.837524320958
 31
0.0
  0
LINE
  5
13450
330
1F
100
AcDbEntity
  8
0
 48
0.27
100
AcDbLine
 10
157.7046108512469
 20
-1337.080286320958
 30
0.0
 11
157.659777851247
 21
-1337.572988320958
 31
0.0
  0
LINE
  5
13451
330
1F
100
AcDbEntity
  8
0
 48
0.27
100
AcDbLine
 10
156.8899678512472
 20
-1335.274766320958
 30
0.0
 11
157.1833428512469
 21
-1335.661698320958
 31
0.0
  0
LINE
  5
13452
330
1F
100
AcDbEntity
  8
0
 48
0.27
100
AcDbLine
 10
156.532488851247
 20
-1339.203353320958
 30
0.0
 11
156.8899678512472
 21
-1338.885806320958
 31
0.0
  0
LINE
  5
13453
330
1F
100
AcDbEntity
  8
0
 48
0.27
100
AcDbLine
 10
155.3138138512469
 20
-1335.425005320958
 30
0.0
 11
155.5999908512468
 21
-1335.590572320958
 31
0.0
  0
LINE
  5
13454
330
1F
100
AcDbEntity
  8
0
 48
0.27
100
AcDbLine
 10
155.0032948512472
 20
-1338.837524320958
 30
0.0
 11
155.3138138512469
 21
-1338.735568320958
 31
0.0
  0
LINE
  5
13455
330
1F
100
AcDbEntity
  8
0
 48
0.27
100
AcDbLine
 10
157.1833428512469
 20
-1335.661698320958
 30
0.0
 11
157.4013398512471
 21
-1336.103146320958
 31
0.0
  0
LINE
  5
13456
330
1F
100
AcDbEntity
  8
0
 48
0.27
100
AcDbLine
 10
157.1833428512469
 20
-1338.498874320958
 30
0.0
 11
156.8899678512472
 21
-1338.885806320958
 31
0.0
  0
LINE
  5
13457
330
1F
100
AcDbEntity
  8
0
 48
0.27
100
AcDbLine
 10
157.4013398512471
 20
-1336.103146320958
 30
0.0
 11
157.5355828512466
 21
-1336.582144320958
 31
0.0
  0
LINE
  5
13458
330
1F
100
AcDbEntity
  8
0
 48
0.27
100
AcDbLine
 10
157.4013398512471
 20
-1338.057427320958
 30
0.0
 11
157.1833428512469
 21
-1338.498874320958
 31
0.0
  0
LINE
  5
13459
330
1F
100
AcDbEntity
  8
0
 48
0.27
100
AcDbLine
 10
155.5999908512468
 20
-1335.590572320958
 30
0.0
 11
155.8508258512467
 21
-1335.813389320958
 31
0.0
  0
LINE
  5
1345A
330
1F
100
AcDbEntity
  8
0
 48
0.27
100
AcDbLine
 10
155.3138138512469
 20
-1338.735568320958
 30
0.0
 11
155.5999908512468
 21
-1338.570000320958
 31
0.0
  0
LINE
  5
1345B
330
1F
100
AcDbEntity
  8
0
 48
0.27
100
AcDbLine
 10
157.5355828512466
 20
-1336.582144320958
 30
0.0
 11
157.5809108512468
 21
-1337.080286320958
 31
0.0
  0
LINE
  5
1345C
330
1F
100
AcDbEntity
  8
0
 48
0.27
100
AcDbLine
 10
157.5355828512466
 20
-1337.578428320958
 30
0.0
 11
157.4013398512471
 21
-1338.057427320958
 31
0.0
  0
LINE
  5
1345D
330
1F
100
AcDbEntity
  8
0
 48
0.27
100
AcDbLine
 10
157.5809108512468
 20
-1337.080286320958
 30
0.0
 11
157.5355828512466
 21
-1337.578428320958
 31
0.0
  0
LINE
  5
1345E
330
1F
100
AcDbEntity
  8
0
 48
0.27
100
AcDbLine
 10
155.8508258512467
 20
-1335.813389320958
 30
0.0
 11
156.0566818512471
 21
-1336.084891320958
 31
0.0
  0
LINE
  5
1345F
330
1F
100
AcDbEntity
  8
0
 48
0.27
100
AcDbLine
 10
155.5999908512468
 20
-1338.570000320958
 30
0.0
 11
155.8508258512467
 21
-1338.347184320958
 31
0.0
  0
LINE
  5
13460
330
1F
100
AcDbEntity
  8
0
 48
0.27
100
AcDbLine
 10
156.0566818512471
 20
-1336.084891320958
 30
0.0
 11
156.209645851247
 21
-1336.394646320958
 31
0.0
  0
LINE
  5
13461
330
1F
100
AcDbEntity
  8
0
 48
0.27
100
AcDbLine
 10
156.0566818512471
 20
-1338.075681320958
 30
0.0
 11
155.8508258512467
 21
-1338.347184320958
 31
0.0
  0
LINE
  5
13462
330
1F
100
AcDbEntity
  8
0
 48
0.27
100
AcDbLine
 10
156.209645851247
 20
-1336.394646320958
 30
0.0
 11
156.3038408512467
 21
-1336.730750320958
 31
0.0
  0
LINE
  5
13463
330
1F
100
AcDbEntity
  8
0
 48
0.27
100
AcDbLine
 10
156.209645851247
 20
-1337.765926320958
 30
0.0
 11
156.0566818512471
 21
-1338.075681320958
 31
0.0
  0
LINE
  5
13464
330
1F
100
AcDbEntity
  8
0
 48
0.27
100
AcDbLine
 10
156.3038408512467
 20
-1336.730750320958
 30
0.0
 11
156.3356468512466
 21
-1337.080286320958
 31
0.0
  0
LINE
  5
13465
330
1F
100
AcDbEntity
  8
0
 48
0.27
100
AcDbLine
 10
156.3038408512467
 20
-1337.429822320958
 30
0.0
 11
156.209645851247
 21
-1337.765926320958
 31
0.0
  0
LINE
  5
13466
330
1F
100
AcDbEntity
  8
0
 48
0.27
100
AcDbLine
 10
156.3356468512466
 20
-1337.080286320958
 30
0.0
 11
156.3038408512467
 21
-1337.429822320958
 31
0.0
  0
LINE
  5
1347E
330
1F
100
AcDbEntity
  8
0
 48
0.27
100
AcDbLine
 10
166.3628588512471
 20
-1333.080286320958
 30
0.0
 11
166.3628588512471
 21
-1341.080286320958
 31
0.0
  0
LINE
  5
14235
330
1F
100
AcDbEntity
  8
虛線
 48
0.2
100
AcDbLine
 10
3.852182420581812
 20
-1372.080305652057
 30
0.0
 11
3.852182420581812
 21
-1356.880305652058
 31
0.0
  0
LINE
  5
14236
330
1F
100
AcDbEntity
  8
虛線
 48
0.2
100
AcDbLine
 10
-7.647817579418187
 20
-1356.580305652058
 30
0.0
 11
-7.647817579418187
 21
-1344.980305652058
 31
0.0
  0
LINE
  5
14237
330
1F
100
AcDbEntity
  8
虛線
 48
0.2
100
AcDbLine
 10
6.352182420581812
 20
-1356.580305652058
 30
0.0
 11
6.352182420581812
 21
-1344.980305652058
 31
0.0
  0
LINE
  5
14238
330
1F
100
AcDbEntity
  8
虛線
 48
0.2
100
AcDbLine
 10
4.152182420581766
 20
-1356.580305652058
 30
0.0
 11
3.852182420581812
 21
-1356.880305652058
 31
0.0
  0
LINE
  5
14239
330
1F
100
AcDbEntity
  8
虛線
 48
0.2
100
AcDbLine
 10
-5.447817579418142
 20
-1356.580305652058
 30
0.0
 11
-5.147817579418187
 21
-1356.880305652058
 31
0.0
  0
LINE
  5
1423A
330
1F
100
AcDbEntity
  8
虛線
 48
0.2
100
AcDbLine
 10
3.852182420581812
 20
-1356.880305652058
 30
0.0
 11
-5.147817579418187
 21
-1356.880305652058
 31
0.0
  0
LINE
  5
1423B
330
1F
100
AcDbEntity
  8
虛線
 48
0.2
100
AcDbLine
 10
6.352182420581812
 20
-1356.580305652058
 30
0.0
 11
-7.647817579418187
 21
-1356.580305652058
 31
0.0
  0
LINE
  5
1423C
330
1F
100
AcDbEntity
  8
虛線
 48
0.2
100
AcDbLine
 10
6.58312252825749
 20
-1344.580305652058
 30
0.0
 11
6.352182420581812
 21
-1344.980305652058
 31
0.0
  0
LINE
  5
1423D
330
1F
100
AcDbEntity
  8
虛線
 48
0.2
100
AcDbLine
 10
-7.647817579418187
 20
-1344.980305652058
 30
0.0
 11
-7.878757687094093
 21
-1344.580305652058
 31
0.0
  0
LINE
  5
1423E
330
1F
100
AcDbEntity
  8
虛線
 48
0.2
100
AcDbLine
 10
6.352182420581812
 20
-1344.980305652058
 30
0.0
 11
-7.647817579418187
 21
-1344.980305652058
 31
0.0
  0
LINE
  5
1423F
330
1F
100
AcDbEntity
  8
虛線
 48
0.2
100
AcDbLine
 10
-5.147817579418187
 20
-1372.080305652059
 30
0.0
 11
-5.147817579418187
 21
-1356.880305652058
 31
0.0
  0
LINE
  5
14240
330
1F
100
AcDbEntity
  8
虛線
 48
0.2
100
AcDbLine
 10
-7.647817579418187
 20
-1356.580305652058
 30
0.0
 11
-7.647817579418187
 21
-1344.980305652058
 31
0.0
  0
LINE
  5
14241
330
1F
100
AcDbEntity
  8
虛線
 48
0.2
100
AcDbLine
 10
-5.447817579418142
 20
-1356.580305652058
 30
0.0
 11
-5.147817579418187
 21
-1356.880305652058
 31
0.0
  0
LINE
  5
14242
330
1F
100
AcDbEntity
  8
虛線
 48
0.2
100
AcDbLine
 10
-7.878757687094093
 20
-1344.580305652058
 30
0.0
 11
-7.647817579418187
 21
-1344.980305652058
 31
0.0
  0
LINE
  5
14243
330
1F
100
AcDbEntity
  8
虛線
 48
0.2
100
AcDbLine
 10
3.852182420582721
 20
-1372.080305652058
 30
0.0
 11
-5.147817579417278
 21
-1372.080305652058
 31
0.0
  0
LINE
  5
14244
330
1F
100
AcDbEntity
  8
虛線
 48
0.2
100
AcDbLine
 10
4.352182420582948
 20
-1372.580305652058
 30
0.0
 11
3.852182420582721
 21
-1372.080305652058
 31
0.0
  0
LINE
  5
14245
330
1F
100
AcDbEntity
  8
虛線
 48
0.2
100
AcDbLine
 10
-5.647817579417278
 20
-1372.580305652058
 30
0.0
 11
-5.147817579417278
 21
-1372.080305652058
 31
0.0
  0
CIRCLE
  5
1427B
330
1F
100
AcDbEntity
  8
0
 48
0.27
100
AcDbCircle
 10
101.2628588512478
 20
-1235.460235227634
 30
0.0
 40
4.499999999998863
  0
CIRCLE
  5
1427C
330
1F
100
AcDbEntity
  8
0
 48
0.27
100
AcDbCircle
 10
101.2628588512478
 20
-1235.460235227634
 30
0.0
 40
6.999999999998863
  0
LINE
  5
1428B
330
1F
100
AcDbEntity
  8
0
  6
Continuous
 62
     7
100
AcDbLine
 10
361.2628588512474
 20
-1249.460235231636
 30
0.0
 11
276.1628588512471
 21
-1249.460235231635
 31
0.0
  0
LINE
  5
173BD
330
1F
100
AcDbEntity
  8
0
  6
Continuous
 62
     7
100
AcDbLine
 10
276.1628588512471
 20
-1264.960235227634
 30
0.0
 11
276.1628588512471
 21
-1205.960235227634
 31
0.0
  0
LINE
  5
173F7
330
1F
100
AcDbEntity
  8
0
  6
Continuous
 62
     7
100
AcDbLine
 10
81.26285885124696
 20
-1344.580305652058
 30
0.0
 11
81.26285885124719
 21
-1372.580305652058
 31
0.0
  0
LINE
  5
173F8
330
1F
100
AcDbEntity
  8
0
 62
     7
100
AcDbLine
 10
119.805323056099
 20
-1344.580305652058
 30
0.0
 11
117.869905563134
 21
-1349.956666626257
 31
0.0
  0
LINE
  5
173F9
330
1F
100
AcDbEntity
  8
0
 62
     7
100
AcDbLine
 10
117.869905563134
 20
-1349.956666626257
 30
0.0
 11
120.3727341641896
 21
-1355.933791039959
 31
0.0
  0
LINE
  5
173FA
330
1F
100
AcDbEntity
  8
0
 62
     7
100
AcDbLine
 10
120.3727341641896
 20
-1355.933791039959
 30
0.0
 11
117.8366794957245
 21
-1362.801873477652
 31
0.0
  0
LINE
  5
173FB
330
1F
100
AcDbEntity
  8
0
 62
     7
100
AcDbLine
 10
117.8366794957245
 20
-1362.801873477652
 30
0.0
 11
120.3727341641896
 21
-1368.361753218851
 31
0.0
  0
LINE
  5
173FC
330
1F
100
AcDbEntity
  8
0
 62
     7
100
AcDbLine
 10
120.3727341641896
 20
-1368.361753218851
 30
0.0
 11
118.4581030366331
 21
-1372.580305652058
 31
0.0
  0
LINE
  5
173FD
330
1F
100
AcDbEntity
  8
0
  6
Continuous
 62
     7
100
AcDbLine
 10
81.26285885124673
 20
-1221.460235223734
 30
0.0
 11
81.26285885124696
 21
-1249.460235231635
 31
0.0
  0
ARC
  5
1B39E
330
1F
100
AcDbEntity
  8
0
 62
     3
100
AcDbCircle
 10
-27.2478175794173
 20
-1357.042996332748
 30
0.0
 40
0.5
100
AcDbArc
 50
44.99999999997758
 51
134.9999999999955
  0
ARC
  5
1B39F
330
1F
100
AcDbEntity
  8
0
 62
     3
100
AcDbCircle
 10
-28.51050826010783
 20
-1355.780305652058
 30
0.0
 40
0.5
100
AcDbArc
 50
314.9999999999922
 51
45.0
  0
ARC
  5
1B3A0
330
1F
100
AcDbEntity
  8
0
 62
     3
100
AcDbCircle
 10
-27.2478175794173
 20
-1354.517614971367
 30
0.0
 40
0.5
100
AcDbArc
 50
225.0
 51
315.0000000000313
  0
ARC
  5
1B3A1
330
1F
100
AcDbEntity
  8
0
 62
     3
100
AcDbCircle
 10
-25.98512689872701
 20
-1355.780305652058
 30
0.0
 40
0.5
100
AcDbArc
 50
135.0000000000234
 51
225.0
  0
ARC
  5
1B3A2
330
1F
100
AcDbEntity
  8
0
 62
     3
100
AcDbCircle
 10
27.2148731012731
 20
-1355.780305652058
 30
0.0
 40
0.5
100
AcDbArc
 50
135.0000000000234
 51
225.0
  0
ARC
  5
1B3A3
330
1F
100
AcDbEntity
  8
0
 62
     3
100
AcDbCircle
 10
25.95218241426085
 20
-1354.517614971367
 30
0.0
 40
0.5
100
AcDbArc
 50
224.9999999999922
 51
315.0000000000235
  0
ARC
  5
1B3A4
330
1F
100
AcDbEntity
  8
0
 62
     3
100
AcDbCircle
 10
24.68949173989239
 20
-1355.780305652058
 30
0.0
 40
0.5
100
AcDbArc
 50
314.9999999999922
 51
45.0
  0
ARC
  5
1B3A5
330
1F
100
AcDbEntity
  8
0
 62
     3
100
AcDbCircle
 10
25.95218242058263
 20
-1357.042996332748
 30
0.0
 40
0.5
100
AcDbArc
 50
44.99999999999219
 51
134.9999999999922
  0
LINE
  5
1ECF6
330
1F
100
AcDbEntity
  8
0
  6
Continuous
 62
     7
100
AcDbLine
 10
276.9628588512473
 20
-1262.810235227634
 30
0.0
 11
276.9628588512473
 21
-1262.060235227634
 31
0.0
  0
ARC
  5
1ECF7
330
1F
100
AcDbEntity
  8
0
  6
Continuous
 62
     7
100
AcDbCircle
 10
274.9628588512473
 20
-1261.310235227634
 30
0.0
 40
2.0
100
AcDbArc
 50
0.000000000000007
 51
53.13010235415443
  0
ARC
  5
1ECF8
330
1F
100
AcDbEntity
  8
0
  6
Continuous
 62
     7
100
AcDbCircle
 10
274.9628588512473
 20
-1262.810235227634
 30
0.0
 40
2.0
100
AcDbArc
 50
306.8698976458455
 51
0.000000000000007
  0
LINE
  5
1ECF9
330
1F
100
AcDbEntity
  8
0
  6
Continuous
 62
     7
100
AcDbLine
 10
276.9628588512473
 20
-1262.060235227634
 30
0.0
 11
276.9628588512473
 21
-1261.310235227634
 31
0.0
  0
LINE
  5
1ECFA
330
1F
100
AcDbEntity
  8
0
  6
Continuous
 62
     7
100
AcDbLine
 10
276.9628588512473
 20
-1209.610235227635
 30
0.0
 11
276.9628588512473
 21
-1208.860235227634
 31
0.0
  0
ARC
  5
1ECFB
330
1F
100
AcDbEntity
  8
0
  6
Continuous
 62
     7
100
AcDbCircle
 10
274.9628588512473
 20
-1208.110235227634
 30
0.0
 40
2.0
100
AcDbArc
 50
0.000000000000007
 51
53.13010235415274
  0
ARC
  5
1ECFC
330
1F
100
AcDbEntity
  8
0
  6
Continuous
 62
     7
100
AcDbCircle
 10
274.9628588512473
 20
-1209.610235227635
 30
0.0
 40
2.0
100
AcDbArc
 50
306.8698976458473
 51
0.000000000000007
  0
LINE
  5
1ECFD
330
1F
100
AcDbEntity
  8
0
  6
Continuous
 62
     7
100
AcDbLine
 10
276.9628588512473
 20
-1208.860235227634
 30
0.0
 11
276.9628588512473
 21
-1208.110235227634
 31
0.0
  0
LINE
  5
1ED49
330
1F
100
AcDbEntity
  8
中心線
 48
0.3
100
AcDbLine
 10
277.9265855496258
 20
-1208.860235227634
 30
0.0
 11
274.1069331217714
 21
-1208.860235227634
 31
0.0
  0
LINE
  5
1ED4A
330
1F
100
AcDbEntity
  8
中心線
 48
0.3
100
AcDbLine
 10
277.9265855496258
 20
-1262.060235227634
 30
0.0
 11
274.1069331217714
 21
-1262.060235227634
 31
0.0
  0
LINE
  5
1EDE7
330
1F
100
AcDbEntity
  8
中心線
 48
0.5
100
AcDbLine
 10
101.2628588512478
 20
-1243.516304310025
 30
0.0
 11
101.2628588512478
 21
-1227.404166145244
 31
0.0
  0
LINE
  5
1EDE8
330
1F
100
AcDbEntity
  8
中心線
 48
0.5
100
AcDbLine
 10
93.20678976885721
 20
-1235.460235227634
 30
0.0
 11
109.3189279336385
 21
-1235.460235227634
 31
0.0
  0
TEXT
  5
201CF
330
1F
100
AcDbEntity
  8
0
100
AcDbText
 10
255.2595249969269
 20
-1530.489750617194
 30
0.0
 40
2.43
  1

  7
型式2
100
AcDbText
1001
sheetnoteflag
1010
348.0
1020
200.0
1030
0.0
  0
MTEXT
  5
202F2
330
1F
100
AcDbEntity
  8
0
 48
0.27
100
AcDbMText
 10
-15.73703017036464
 20
-1383.95791828501
 30
0.0
 40
5.0
 41
65.71349999999999
 71
     1
 72
     5
  1
\A1;RGH30CA\PC:3980 kgf\PC{\H0.7x;\S^ 0;}:8370 kgf
  7
型式2
 73
     1
 44
1.0
1001
ACAD
1000
MTEXTBEGIN
1070
    73
1070
     1
1070
    44
1040
1.0
1070
    74
1070
     0
1000
MTEXTEND
  0
LINE
  5
20684
330
1F
100
AcDbEntity
  8
0
  6
Continuous
 62
     7
100
AcDbLine
 10
166.3628588512471
 20
-1205.960235227635
 30
0.0
 11
185.7628588512472
 21
-1205.960235227635
 31
0.0
  0
LINE
  5
20685
330
1F
100
AcDbEntity
  8
0
  6
Continuous
 62
     7
100
AcDbLine
 10
166.3628588512471
 20
-1207.460235227635
 30
0.0
 11
185.7628588512472
 21
-1207.460235227635
 31
0.0
  0
LINE
  5
20686
330
1F
100
AcDbEntity
  8
0
  6
Continuous
 62
     7
100
AcDbLine
 10
166.3628588512471
 20
-1263.460235227635
 30
0.0
 11
185.7628588512472
 21
-1263.460235227635
 31
0.0
  0
LINE
  5
20687
330
1F
100
AcDbEntity
  8
0
  6
Continuous
 62
     7
100
AcDbLine
 10
166.3628588512471
 20
-1264.960235227635
 30
0.0
 11
185.7628588512472
 21
-1264.960235227635
 31
0.0
  0
LINE
  5
20688
330
1F
100
AcDbEntity
  8
0
  6
Continuous
 62
     7
100
AcDbLine
 10
166.3628588512471
 20
-1264.960235227635
 30
0.0
 11
166.3628588512471
 21
-1205.960235227635
 31
0.0
  0
LINE
  5
20689
330
1F
100
AcDbEntity
  8
0
  6
Continuous
 62
     7
100
AcDbLine
 10
165.5628588512471
 20
-1262.910235227635
 30
0.0
 11
165.5628588512471
 21
-1262.160235227634
 31
0.0
  0
ARC
  5
2068A
330
1F
100
AcDbEntity
  8
0
  6
Continuous
 62
     7
100
AcDbCircle
 10
167.5628588512471
 20
-1261.410235227635
 30
0.0
 40
2.0
100
AcDbArc
 50
126.8698976458466
 51
180.0
  0
ARC
  5
2068B
330
1F
100
AcDbEntity
  8
0
  6
Continuous
 62
     7
100
AcDbCircle
 10
167.5628588512471
 20
-1262.910235227635
 30
0.0
 40
2.0
100
AcDbArc
 50
180.0
 51
233.1301023541533
  0
LINE
  5
2068C
330
1F
100
AcDbEntity
  8
0
  6
Continuous
 62
     7
100
AcDbLine
 10
165.5628588512471
 20
-1262.160235227635
 30
0.0
 11
165.5628588512471
 21
-1261.410235227635
 31
0.0
  0
LINE
  5
2068D
330
1F
100
AcDbEntity
  8
0
  6
Continuous
 62
     7
100
AcDbLine
 10
165.5628588512471
 20
-1209.710235227635
 30
0.0
 11
165.5628588512471
 21
-1208.960235227635
 31
0.0
  0
ARC
  5
2068E
330
1F
100
AcDbEntity
  8
0
  6
Continuous
 62
     7
100
AcDbCircle
 10
167.5628588512471
 20
-1208.210235227635
 30
0.0
 40
2.0
100
AcDbArc
 50
126.8698976458479
 51
180.0
  0
ARC
  5
2068F
330
1F
100
AcDbEntity
  8
0
  6
Continuous
 62
     7
100
AcDbCircle
 10
167.5628588512471
 20
-1209.710235227635
 30
0.0
 40
2.0
100
AcDbArc
 50
180.0
 51
233.1301023541521
  0
LINE
  5
20690
330
1F
100
AcDbEntity
  8
0
  6
Continuous
 62
     7
100
AcDbLine
 10
165.5628588512471
 20
-1208.960235227635
 30
0.0
 11
165.5628588512471
 21
-1208.210235227635
 31
0.0
  0
LINE
  5
20691
330
1F
100
AcDbEntity
  8
中心線
 48
0.3
100
AcDbLine
 10
164.5991321528686
 20
-1208.960235227635
 30
0.0
 11
168.4187845807231
 21
-1208.960235227635
 31
0.0
  0
LINE
  5
20692
330
1F
100
AcDbEntity
  8
中心線
 48
0.3
100
AcDbLine
 10
164.5991321528686
 20
-1262.160235227635
 30
0.0
 11
168.4187845807231
 21
-1262.160235227635
 31
0.0
  0
ARC
  5
20698
330
1F
100
AcDbEntity
  8
0
  6
Continuous
100
AcDbCircle
 10
160.5197349567426
 20
-1243.708394657729
 30
0.0
 40
2.059673609817604
100
AcDbArc
 50
89.15209883495883
 51
159.1520988349398
  0
LINE
  5
20699
330
1F
100
AcDbEntity
  8
0
  6
Continuous
100
AcDbLine
 10
154.1602895763382
 20
-1241.138500271102
 30
0.0
 11
158.4101354258902
 21
-1242.898844059981
 31
0.0
  0
ARC
  5
2069A
330
1F
100
AcDbEntity
  8
0
  6
Continuous
100
AcDbCircle
 10
155.3441470774875
 20
-1243.573624213525
 30
0.0
 40
2.860349020536762
100
AcDbArc
 50
118.5864858262542
 51
163.5864858262608
  0
ARC
  5
2069B
330
1F
100
AcDbEntity
  8
0
  6
Continuous
100
AcDbCircle
 10
159.0018060287617
 20
-1235.460235227639
 30
0.0
 40
4.0
100
AcDbArc
 50
90.0
 51
210.8352048940846
  0
ARC
  5
2069C
330
1F
100
AcDbEntity
  8
0
  6
Continuous
100
AcDbCircle
 10
170.5677988308804
 20
-1235.460235227639
 30
0.0
 40
7.96743397963368
100
AcDbArc
 50
163.2213499979083
 51
196.7786500020917
  0
LINE
  5
2069D
330
1F
100
AcDbEntity
  8
0
  6
Continuous
100
AcDbLine
 10
162.600364851247
 20
-1238.910235327232
 30
0.0
 11
162.600364851247
 21
-1232.010235128046
 31
0.0
  0
LINE
  5
2069E
330
1F
100
AcDbEntity
  8
0
  6
Continuous
100
AcDbLine
 10
162.9396173933561
 20
-1237.760235028454
 30
0.0
 11
166.3628588512471
 21
-1237.760235028454
 31
0.0
  0
LINE
  5
2069F
330
1F
100
AcDbEntity
  8
0
  6
Continuous
100
AcDbLine
 10
162.9396173933561
 20
-1240.060235227639
 30
0.0
 11
166.3628588512471
 21
-1240.060235227639
 31
0.0
  0
ARC
  5
206A0
330
1F
100
AcDbEntity
  8
0
  6
Continuous
100
AcDbCircle
 10
164.7193748282931
 20
-1238.910235327232
 30
0.0
 40
2.119009977045996
100
AcDbArc
 50
147.1327799989424
 51
212.8672200010575
  0
ARC
  5
206A1
330
1F
100
AcDbEntity
  8
0
  6
Continuous
100
AcDbCircle
 10
159.8533543038535
 20
-1241.292789961057
 30
0.0
 40
1.854133729915247
100
AcDbArc
 50
34.63277999893585
 51
100.3672200010575
  0
LINE
  5
206A2
330
1F
100
AcDbEntity
  8
0
  6
Continuous
100
AcDbLine
 10
160.2742607395163
 20
-1239.460235227639
 30
0.0
 11
162.6729869392617
 21
-1239.460235227639
 31
0.0
  0
LINE
  5
206A3
330
1F
100
AcDbEntity
  8
0
  6
Continuous
100
AcDbLine
 10
158.9475712376985
 20
-1240.850085073969
 30
0.0
 11
159.5196485062139
 21
-1239.468968373593
 31
0.0
  0
ARC
  5
206A4
330
1F
100
AcDbEntity
  8
0
  6
Continuous
100
AcDbCircle
 10
160.4731734823005
 20
-1239.796414094231
 30
0.0
 40
1.854133729915247
100
AcDbArc
 50
214.6327799989359
 51
280.3672200010575
  0
LINE
  5
206A5
330
1F
100
AcDbEntity
  8
0
  6
Continuous
100
AcDbLine
 10
160.8068367058518
 20
-1241.620278327571
 30
0.0
 11
161.3789565992175
 21
-1240.239058721704
 31
0.0
  0
LINE
  5
206A6
330
1F
100
AcDbEntity
  8
0
  6
Continuous
100
AcDbLine
 10
162.9396173933561
 20
-1230.860235227639
 30
0.0
 11
166.3628588512471
 21
-1230.860235227639
 31
0.0
  0
LINE
  5
206A7
330
1F
100
AcDbEntity
  8
0
  6
Continuous
100
AcDbLine
 10
162.9396173933561
 20
-1233.160235426825
 30
0.0
 11
166.3628588512471
 21
-1233.160235426825
 31
0.0
  0
LINE
  5
206A8
330
1F
100
AcDbEntity
  8
0
  6
Continuous
100
AcDbLine
 10
159.0018060287617
 20
-1231.460235227639
 30
0.0
 11
162.6729869392617
 21
-1231.460235227639
 31
0.0
  0
ARC
  5
206A9
330
1F
100
AcDbEntity
  8
0
  6
Continuous
100
AcDbCircle
 10
164.7193748282931
 20
-1232.010235128046
 30
0.0
 40
2.119009977045996
100
AcDbArc
 50
147.1327799989424
 51
212.8672200010575
  0
ARC
  5
206AA
330
1F
100
AcDbEntity
  8
0
  6
Continuous
100
AcDbCircle
 10
159.6425451628539
 20
-1233.913354120171
 30
0.0
 40
6.971504732179473
100
AcDbArc
 50
230.7213499979054
 51
264.2786500020824
  0
ARC
  5
206AB
330
1F
100
AcDbEntity
  8
0
  6
Continuous
100
AcDbCircle
 10
155.1060597847423
 20
-1244.865398645515
 30
0.0
 40
6.971504732179473
100
AcDbArc
 50
50.72134999790535
 51
84.27865000208244
  0
LINE
  5
206AC
330
1F
100
AcDbEntity
  8
0
  6
Continuous
100
AcDbLine
 10
154.9849777251235
 20
-1237.269342467849
 30
0.0
 11
160.5629005636812
 21
-1239.57979375745
 31
0.0
  0
LINE
  5
206AD
330
1F
100
AcDbEntity
  8
0
  6
Continuous
100
AcDbLine
 10
154.1857043839151
 20
-1239.198959008237
 30
0.0
 11
159.7636272224728
 21
-1241.509410297838
 31
0.0
  0
ARC
  5
206AE
330
1F
100
AcDbEntity
  8
0
  6
Continuous
100
AcDbCircle
 10
152.0961387251032
 20
-1240.219226854629
 30
0.0
 40
2.059673609817605
100
AcDbArc
 50
335.8479011650642
 51
45.84790116506693
  0
ARC
  5
206AF
330
1F
100
AcDbEntity
  8
0
  6
Continuous
100
AcDbCircle
 10
154.8952506437432
 20
-1237.485962804629
 30
0.0
 40
1.854133729915247
100
AcDbArc
 50
214.6327799989359
 51
280.3672200010575
  0
ARC
  5
206B0
330
1F
100
AcDbEntity
  8
0
  6
Continuous
100
AcDbCircle
 10
154.2754314652953
 20
-1238.982338671456
 30
0.0
 40
1.854133729915247
100
AcDbArc
 50
34.63277999893585
 51
100.3672200010575
  0
LINE
  5
206B1
330
1F
100
AcDbEntity
  8
0
  6
Continuous
100
AcDbLine
 10
153.3696487211824
 20
-1238.539633917762
 30
0.0
 11
153.9417259896978
 21
-1237.158517217386
 31
0.0
  0
LINE
  5
206B2
330
1F
100
AcDbEntity
  8
0
  6
Continuous
100
AcDbLine
 10
155.2289564413819
 20
-1239.309784392094
 30
0.0
 11
155.8010337098977
 21
-1237.928667691718
 31
0.0
  0
ARC
  5
206B4
330
1F
100
AcDbEntity
  8
0
  6
Continuous
100
AcDbCircle
 10
155.8511291061519
 20
-1243.783623045677
 30
0.0
 40
2.860349020536762
100
AcDbArc
 50
331.4135141737312
 51
16.4135141737392
  0
LINE
  5
206B5
330
1F
100
AcDbEntity
  8
0
  6
Continuous
100
AcDbLine
 10
156.2188448295143
 20
-1247.296201358862
 30
0.0
 11
158.3627897350476
 21
-1245.152256453329
 31
0.0
  0
LINE
  5
206B6
330
1F
100
AcDbEntity
  8
0
  6
Continuous
100
AcDbLine
 10
152.600364851247
 20
-1245.797377876688
 30
0.0
 11
152.600364851247
 21
-1242.765381914302
 31
0.0
  0
LINE
  5
206B7
330
1F
100
AcDbEntity
  8
0
  6
Continuous
100
AcDbLine
 10
152.600364851247
 20
-1245.797377876688
 30
0.0
 11
156.2188448295143
 21
-1247.296201358862
 31
0.0
  0
LINE
  5
206B8
330
1F
100
AcDbEntity
  8
0
  6
Continuous
100
AcDbLine
 10
152.600364851247
 20
-1242.765381914302
 30
0.0
 11
158.3627897350476
 21
-1245.152256453329
 31
0.0
  0
LINE
  5
206BB
330
1F
100
AcDbEntity
  8
中心線
 48
0.2
100
AcDbLine
 10
261.2628588512474
 20
-1366.58030565206
 30
0.0
 11
261.2628588512472
 21
-1374.385339919669
 31
0.0
  0
LINE
  5
206BC
330
1F
100
AcDbEntity
  8
中心線
 48
0.2
100
AcDbLine
 10
341.2628588512474
 20
-1366.580305652061
 30
0.0
 11
341.2628588512472
 21
-1374.38533991967
 31
0.0
  0
LINE
  5
206BE
330
1F
100
AcDbEntity
  8
中心線
 48
0.2
100
AcDbLine
 10
341.2628588512475
 20
-1342.397767504415
 30
0.0
 11
341.2628588512472
 21
-1374.38533991966
 31
0.0
  0
LINE
  5
206BF
330
1F
100
AcDbEntity
  8
虛線
 48
0.3
100
AcDbLine
 10
345.7628588512462
 20
-1372.08030565205
 30
0.0
 11
345.7628588512462
 21
-1356.880305652051
 31
0.0
  0
LINE
  5
206C0
330
1F
100
AcDbEntity
  8
虛線
 48
0.3
100
AcDbLine
 10
348.2628588512462
 20
-1356.580305652051
 30
0.0
 11
348.2628588512462
 21
-1344.980305652051
 31
0.0
  0
LINE
  5
206C1
330
1F
100
AcDbEntity
  8
虛線
 48
0.3
100
AcDbLine
 10
346.0628588512462
 20
-1356.580305652051
 30
0.0
 11
345.7628588512462
 21
-1356.880305652051
 31
0.0
  0
LINE
  5
206C2
330
1F
100
AcDbEntity
  8
虛線
 48
0.3
100
AcDbLine
 10
336.4628588512463
 20
-1356.580305652051
 30
0.0
 11
336.7628588512462
 21
-1356.880305652051
 31
0.0
  0
LINE
  5
206C3
330
1F
100
AcDbEntity
  8
虛線
 48
0.3
100
AcDbLine
 10
345.7628588512462
 20
-1356.880305652051
 30
0.0
 11
336.7628588512462
 21
-1356.880305652051
 31
0.0
  0
LINE
  5
206C4
330
1F
100
AcDbEntity
  8
虛線
 48
0.3
100
AcDbLine
 10
348.2628588512462
 20
-1356.580305652051
 30
0.0
 11
334.2628588512462
 21
-1356.580305652051
 31
0.0
  0
LINE
  5
206C5
330
1F
100
AcDbEntity
  8
虛線
 48
0.3
100
AcDbLine
 10
348.4937989589219
 20
-1344.580305652051
 30
0.0
 11
348.2628588512462
 21
-1344.980305652051
 31
0.0
  0
LINE
  5
206C6
330
1F
100
AcDbEntity
  8
虛線
 48
0.3
100
AcDbLine
 10
348.2628588512462
 20
-1344.980305652051
 30
0.0
 11
334.2628588512462
 21
-1344.980305652051
 31
0.0
  0
LINE
  5
206C7
330
1F
100
AcDbEntity
  8
虛線
 48
0.3
100
AcDbLine
 10
336.7628588512461
 20
-1372.080305652052
 30
0.0
 11
336.7628588512462
 21
-1356.880305652051
 31
0.0
  0
LINE
  5
206C8
330
1F
100
AcDbEntity
  8
虛線
 48
0.3
100
AcDbLine
 10
334.2628588512462
 20
-1356.580305652051
 30
0.0
 11
334.2628588512462
 21
-1344.980305652051
 31
0.0
  0
LINE
  5
206C9
330
1F
100
AcDbEntity
  8
虛線
 48
0.3
100
AcDbLine
 10
336.4628588512463
 20
-1356.580305652051
 30
0.0
 11
336.7628588512462
 21
-1356.880305652051
 31
0.0
  0
LINE
  5
206CA
330
1F
100
AcDbEntity
  8
虛線
 48
0.3
100
AcDbLine
 10
334.0319187435703
 20
-1344.580305652051
 30
0.0
 11
334.2628588512462
 21
-1344.980305652051
 31
0.0
  0
LINE
  5
206CB
330
1F
100
AcDbEntity
  8
虛線
 48
0.3
100
AcDbLine
 10
345.7628588512473
 20
-1372.080305652051
 30
0.0
 11
336.7628588512472
 21
-1372.080305652051
 31
0.0
  0
LINE
  5
206CC
330
1F
100
AcDbEntity
  8
虛線
 48
0.3
100
AcDbLine
 10
346.2628588512475
 20
-1372.580305652051
 30
0.0
 11
345.7628588512473
 21
-1372.080305652051
 31
0.0
  0
LINE
  5
206CD
330
1F
100
AcDbEntity
  8
虛線
 48
0.3
100
AcDbLine
 10
336.2628588512472
 20
-1372.580305652051
 30
0.0
 11
336.7628588512472
 21
-1372.080305652051
 31
0.0
  0
LINE
  5
206CE
330
1F
100
AcDbEntity
  8
中心線
 48
0.2
100
AcDbLine
 10
261.2628588512474
 20
-1366.580305652061
 30
0.0
 11
261.2628588512472
 21
-1374.38533991967
 31
0.0
  0
LINE
  5
206CF
330
1F
100
AcDbEntity
  8
中心線
 48
0.2
100
AcDbLine
 10
261.2628588512473
 20
-1366.580305652058
 30
0.0
 11
261.2628588512472
 21
-1374.38533991966
 31
0.0
  0
LINE
  5
206D0
330
1F
100
AcDbEntity
  8
虛線
 48
0.3
100
AcDbLine
 10
265.7628588512462
 20
-1372.08030565205
 30
0.0
 11
265.7628588512462
 21
-1366.580305652058
 31
0.0
  0
LINE
  5
206D8
330
1F
100
AcDbEntity
  8
虛線
 48
0.3
100
AcDbLine
 10
256.7628588512461
 20
-1372.080305652052
 30
0.0
 11
256.7628588512472
 21
-1366.580305652058
 31
0.0
  0
LINE
  5
206DC
330
1F
100
AcDbEntity
  8
虛線
 48
0.3
100
AcDbLine
 10
265.7628588512472
 20
-1372.080305652051
 30
0.0
 11
256.7628588512472
 21
-1372.080305652051
 31
0.0
  0
LINE
  5
206DD
330
1F
100
AcDbEntity
  8
虛線
 48
0.3
100
AcDbLine
 10
266.2628588512475
 20
-1372.580305652051
 30
0.0
 11
265.7628588512472
 21
-1372.080305652051
 31
0.0
  0
LINE
  5
206DE
330
1F
100
AcDbEntity
  8
虛線
 48
0.3
100
AcDbLine
 10
256.2628588512471
 20
-1372.580305652051
 30
0.0
 11
256.7628588512472
 21
-1372.080305652051
 31
0.0
  0
CIRCLE
  5
206E8
330
1F
100
AcDbEntity
  8
0
 48
0.27
100
AcDbCircle
 10
301.2628588512475
 20
-1235.460235227634
 30
0.0
 40
4.499999999998863
  0
CIRCLE
  5
206E9
330
1F
100
AcDbEntity
  8
0
 48
0.27
100
AcDbCircle
 10
301.2628588512475
 20
-1235.460235227634
 30
0.0
 40
6.999999999998863
  0
LINE
  5
206EA
330
1F
100
AcDbEntity
  8
中心線
 48
0.5
100
AcDbLine
 10
301.2628588512475
 20
-1243.516304310025
 30
0.0
 11
301.2628588512475
 21
-1227.404166145244
 31
0.0
  0
LINE
  5
206EB
330
1F
100
AcDbEntity
  8
中心線
 48
0.5
100
AcDbLine
 10
293.2067897688568
 20
-1235.460235227634
 30
0.0
 11
309.3189279336381
 21
-1235.460235227634
 31
0.0
  0
LINE
  5
206F7
330
1F
100
AcDbEntity
  8
0
  6
Continuous
 62
     7
100
AcDbLine
 10
361.2628588512474
 20
-1345.080305652179
 30
0.0
 11
276.1628588512471
 21
-1345.080305652179
 31
0.0
  0
LINE
  5
206F8
330
1F
100
AcDbEntity
  8
0
  6
Continuous
 62
     7
100
AcDbLine
 10
361.2628588512474
 20
-1346.980527859275
 30
0.0
 11
276.1628588512471
 21
-1346.980527859274
 31
0.0
  0
LINE
  5
206F9
330
1F
100
AcDbEntity
  8
0
  6
Continuous
 62
     7
100
AcDbLine
 10
361.2628588512474
 20
-1352.480527864334
 30
0.0
 11
276.1628588512471
 21
-1352.480527864334
 31
0.0
  0
LINE
  5
206FA
330
1F
100
AcDbEntity
  8
0
  6
Continuous
 62
     7
100
AcDbLine
 10
361.2628588512474
 20
-1359.08008343947
 30
0.0
 11
276.1628588512471
 21
-1359.08008343947
 31
0.0
  0
LINE
  5
206FB
330
1F
100
AcDbEntity
  8
0
  6
Continuous
 62
     7
100
AcDbLine
 10
361.2628588512473
 20
-1364.58008344498
 30
0.0
 11
276.1628588512471
 21
-1364.58008344498
 31
0.0
  0
LINE
  5
206FC
330
1F
100
AcDbEntity
  8
0
  6
Continuous
 62
     7
100
AcDbLine
 10
361.2628588512472
 20
-1371.080305648157
 30
0.0
 11
119.1388926544639
 21
-1371.080305648158
 31
0.0
  0
LINE
  5
206FD
330
1F
100
AcDbEntity
  8
0
  6
Continuous
 62
     7
100
AcDbLine
 10
166.3628588512469
 20
-1345.080305652179
 30
0.0
 11
119.6253297946049
 21
-1345.080305652179
 31
0.0
  0
LINE
  5
206FE
330
1F
100
AcDbEntity
  8
0
  6
Continuous
 62
     7
100
AcDbLine
 10
166.3628588512469
 20
-1346.980527859275
 30
0.0
 11
118.9412754095323
 21
-1346.980527859275
 31
0.0
  0
LINE
  5
206FF
330
1F
100
AcDbEntity
  8
0
  6
Continuous
 62
     7
100
AcDbLine
 10
166.3628588512468
 20
-1352.480527864334
 30
0.0
 11
118.9267335048905
 21
-1352.480527864334
 31
0.0
  0
LINE
  5
20700
330
1F
100
AcDbEntity
  8
0
  6
Continuous
 62
     7
100
AcDbLine
 10
166.3628588512468
 20
-1359.08008343947
 30
0.0
 11
119.2109587195117
 21
-1359.08008343947
 31
0.0
  0
LINE
  5
20701
330
1F
100
AcDbEntity
  8
0
  6
Continuous
 62
     7
100
AcDbLine
 10
166.3628588512468
 20
-1364.580083444981
 30
0.0
 11
118.6477829546244
 21
-1364.58008344498
 31
0.0
  0
LINE
  5
20712
330
1F
100
AcDbEntity
  8
0
  6
Continuous
 62
     7
100
AcDbLine
 10
361.2628588512474
 20
-1344.580305652058
 30
0.0
 11
361.2628588512472
 21
-1372.580305652057
 31
0.0
  0
LINE
  5
20714
330
1F
100
AcDbEntity
  8
虛線
 48
0.2
100
AcDbLine
 10
145.7628588512463
 20
-1372.080305652058
 30
0.0
 11
145.7628588512463
 21
-1356.880305652059
 31
0.0
  0
LINE
  5
2071E
330
1F
100
AcDbEntity
  8
虛線
 48
0.2
100
AcDbLine
 10
136.7628588512461
 20
-1372.08030565206
 30
0.0
 11
136.7628588512463
 21
-1356.88030565206
 31
0.0
  0
LINE
  5
20724
330
1F
100
AcDbEntity
  8
虛線
 48
0.2
100
AcDbLine
 10
134.2628588512461
 20
-1356.580305652058
 30
0.0
 11
134.2628588512461
 21
-1344.980305652059
 31
0.0
  0
LINE
  5
20725
330
1F
100
AcDbEntity
  8
虛線
 48
0.2
100
AcDbLine
 10
148.2628588512461
 20
-1356.580305652058
 30
0.0
 11
148.2628588512461
 21
-1344.980305652059
 31
0.0
  0
LINE
  5
20726
330
1F
100
AcDbEntity
  8
虛線
 48
0.2
100
AcDbLine
 10
146.062858851246
 20
-1356.580305652058
 30
0.0
 11
145.7628588512461
 21
-1356.880305652059
 31
0.0
  0
LINE
  5
20727
330
1F
100
AcDbEntity
  8
虛線
 48
0.2
100
AcDbLine
 10
136.4628588512461
 20
-1356.580305652058
 30
0.0
 11
136.7628588512461
 21
-1356.880305652059
 31
0.0
  0
LINE
  5
20728
330
1F
100
AcDbEntity
  8
虛線
 48
0.2
100
AcDbLine
 10
145.7628588512463
 20
-1356.880305652059
 30
0.0
 11
136.7628588512461
 21
-1356.880305652059
 31
0.0
  0
LINE
  5
20729
330
1F
100
AcDbEntity
  8
虛線
 48
0.2
100
AcDbLine
 10
148.2628588512461
 20
-1356.580305652058
 30
0.0
 11
134.2628588512461
 21
-1356.580305652058
 31
0.0
  0
LINE
  5
2072A
330
1F
100
AcDbEntity
  8
虛線
 48
0.2
100
AcDbLine
 10
148.4937989589218
 20
-1344.580305652058
 30
0.0
 11
148.2628588512461
 21
-1344.980305652059
 31
0.0
  0
LINE
  5
2072B
330
1F
100
AcDbEntity
  8
虛線
 48
0.2
100
AcDbLine
 10
134.2628588512461
 20
-1344.980305652059
 30
0.0
 11
134.0319187435702
 21
-1344.580305652058
 31
0.0
  0
LINE
  5
2072C
330
1F
100
AcDbEntity
  8
虛線
 48
0.2
100
AcDbLine
 10
148.2628588512461
 20
-1344.980305652059
 30
0.0
 11
134.2628588512461
 21
-1344.980305652059
 31
0.0
  0
LINE
  5
2072D
330
1F
100
AcDbEntity
  8
虛線
 48
0.2
100
AcDbLine
 10
134.2628588512461
 20
-1356.580305652058
 30
0.0
 11
134.2628588512461
 21
-1344.980305652059
 31
0.0
  0
LINE
  5
2072E
330
1F
100
AcDbEntity
  8
虛線
 48
0.2
100
AcDbLine
 10
136.4628588512461
 20
-1356.580305652058
 30
0.0
 11
136.7628588512461
 21
-1356.880305652059
 31
0.0
  0
LINE
  5
2072F
330
1F
100
AcDbEntity
  8
虛線
 48
0.2
100
AcDbLine
 10
134.0319187435702
 20
-1344.580305652058
 30
0.0
 11
134.2628588512461
 21
-1344.980305652059
 31
0.0
  0
LINE
  5
20730
330
1F
100
AcDbEntity
  8
中心線
 48
0.2
100
AcDbLine
 10
141.2628588512476
 20
-1342.397767504422
 30
0.0
 11
141.2628588512474
 21
-1374.385339919666
 31
0.0
  0
LINE
  5
20731
330
1F
100
AcDbEntity
  8
中心線
 48
0.2
100
AcDbLine
 10
301.2628588512474
 20
-1366.580305652061
 30
0.0
 11
301.2628588512472
 21
-1374.38533991967
 31
0.0
  0
LINE
  5
20732
330
1F
100
AcDbEntity
  8
中心線
 48
0.2
100
AcDbLine
 10
301.2628588512475
 20
-1342.397767504415
 30
0.0
 11
301.2628588512472
 21
-1374.38533991966
 31
0.0
  0
LINE
  5
20733
330
1F
100
AcDbEntity
  8
虛線
 48
0.3
100
AcDbLine
 10
305.7628588512462
 20
-1372.08030565205
 30
0.0
 11
305.7628588512462
 21
-1356.880305652051
 31
0.0
  0
LINE
  5
20734
330
1F
100
AcDbEntity
  8
虛線
 48
0.3
100
AcDbLine
 10
308.2628588512462
 20
-1356.580305652051
 30
0.0
 11
308.2628588512462
 21
-1344.980305652051
 31
0.0
  0
LINE
  5
20735
330
1F
100
AcDbEntity
  8
虛線
 48
0.3
100
AcDbLine
 10
306.0628588512462
 20
-1356.580305652051
 30
0.0
 11
305.7628588512462
 21
-1356.880305652051
 31
0.0
  0
LINE
  5
20736
330
1F
100
AcDbEntity
  8
虛線
 48
0.3
100
AcDbLine
 10
296.4628588512463
 20
-1356.580305652051
 30
0.0
 11
296.7628588512462
 21
-1356.880305652051
 31
0.0
  0
LINE
  5
20737
330
1F
100
AcDbEntity
  8
虛線
 48
0.3
100
AcDbLine
 10
305.7628588512462
 20
-1356.880305652051
 30
0.0
 11
296.7628588512462
 21
-1356.880305652051
 31
0.0
  0
LINE
  5
20738
330
1F
100
AcDbEntity
  8
虛線
 48
0.3
100
AcDbLine
 10
308.2628588512462
 20
-1356.580305652051
 30
0.0
 11
294.2628588512462
 21
-1356.580305652051
 31
0.0
  0
LINE
  5
20739
330
1F
100
AcDbEntity
  8
虛線
 48
0.3
100
AcDbLine
 10
308.4937989589219
 20
-1344.580305652051
 30
0.0
 11
308.2628588512462
 21
-1344.980305652051
 31
0.0
  0
LINE
  5
2073A
330
1F
100
AcDbEntity
  8
虛線
 48
0.3
100
AcDbLine
 10
308.2628588512462
 20
-1344.980305652051
 30
0.0
 11
294.2628588512462
 21
-1344.980305652051
 31
0.0
  0
LINE
  5
2073B
330
1F
100
AcDbEntity
  8
虛線
 48
0.3
100
AcDbLine
 10
296.7628588512461
 20
-1372.080305652052
 30
0.0
 11
296.7628588512462
 21
-1356.880305652051
 31
0.0
  0
LINE
  5
2073C
330
1F
100
AcDbEntity
  8
虛線
 48
0.3
100
AcDbLine
 10
294.2628588512462
 20
-1356.580305652051
 30
0.0
 11
294.2628588512462
 21
-1344.980305652051
 31
0.0
  0
LINE
  5
2073D
330
1F
100
AcDbEntity
  8
虛線
 48
0.3
100
AcDbLine
 10
296.4628588512463
 20
-1356.580305652051
 30
0.0
 11
296.7628588512462
 21
-1356.880305652051
 31
0.0
  0
LINE
  5
2073E
330
1F
100
AcDbEntity
  8
虛線
 48
0.3
100
AcDbLine
 10
294.0319187435703
 20
-1344.580305652051
 30
0.0
 11
294.2628588512462
 21
-1344.980305652051
 31
0.0
  0
LINE
  5
2073F
330
1F
100
AcDbEntity
  8
虛線
 48
0.3
100
AcDbLine
 10
305.7628588512472
 20
-1372.080305652051
 30
0.0
 11
296.7628588512472
 21
-1372.080305652051
 31
0.0
  0
LINE
  5
20740
330
1F
100
AcDbEntity
  8
虛線
 48
0.3
100
AcDbLine
 10
306.2628588512475
 20
-1372.580305652051
 30
0.0
 11
305.7628588512472
 21
-1372.080305652051
 31
0.0
  0
LINE
  5
20741
330
1F
100
AcDbEntity
  8
虛線
 48
0.3
100
AcDbLine
 10
296.2628588512471
 20
-1372.580305652051
 30
0.0
 11
296.7628588512472
 21
-1372.080305652051
 31
0.0
  0
LINE
  5
20742
330
1F
100
AcDbEntity
  8
中心線
 48
0.2
100
AcDbLine
 10
241.2628588512472
 20
-1326.380305652058
 30
0.0
 11
241.2628588512481
 21
-1344.293296144812
 31
0.0
  0
LINE
  5
20744
330
1F
100
AcDbEntity
  8
0
 48
0.27
100
AcDbLine
 10
361.2628588512474
 20
-1249.460235231636
 30
0.0
 11
361.2628588512474
 21
-1221.460235223734
 31
0.0
  0
CIRCLE
  5
20746
330
1F
100
AcDbEntity
  8
0
 48
0.27
100
AcDbCircle
 10
341.2628588512475
 20
-1235.460235227634
 30
0.0
 40
4.499999999998863
  0
CIRCLE
  5
20747
330
1F
100
AcDbEntity
  8
0
 48
0.27
100
AcDbCircle
 10
341.2628588512475
 20
-1235.460235227634
 30
0.0
 40
6.999999999998863
  0
LINE
  5
20748
330
1F
100
AcDbEntity
  8
中心線
 48
0.5
100
AcDbLine
 10
341.2628588512475
 20
-1243.516304310025
 30
0.0
 11
341.2628588512475
 21
-1227.404166145244
 31
0.0
  0
LINE
  5
20749
330
1F
100
AcDbEntity
  8
中心線
 48
0.5
100
AcDbLine
 10
333.2067897688568
 20
-1235.460235227634
 30
0.0
 11
349.3189279336381
 21
-1235.460235227634
 31
0.0
  0
CIRCLE
  5
2074B
330
1F
100
AcDbEntity
  8
0
 48
0.27
100
AcDbCircle
 10
141.2628588512476
 20
-1235.460235227634
 30
0.0
 40
4.499999999998863
  0
CIRCLE
  5
2074C
330
1F
100
AcDbEntity
  8
0
 48
0.27
100
AcDbCircle
 10
141.2628588512476
 20
-1235.460235227634
 30
0.0
 40
6.999999999998863
  0
LINE
  5
2074D
330
1F
100
AcDbEntity
  8
中心線
 48
0.5
100
AcDbLine
 10
141.2628588512476
 20
-1243.516304310025
 30
0.0
 11
141.2628588512476
 21
-1227.404166145244
 31
0.0
  0
LINE
  5
2074E
330
1F
100
AcDbEntity
  8
中心線
 48
0.5
100
AcDbLine
 10
133.206789768857
 20
-1235.460235227634
 30
0.0
 11
149.3189279336383
 21
-1235.460235227634
 31
0.0
  0
LINE
  5
20757
330
1F
100
AcDbEntity
  8
中心線
 48
0.27
100
AcDbLine
 10
261.1628588512473
 20
-1337.880305652058
 30
0.0
 11
268.3628588512471
 21
-1337.880305652058
 31
0.0
  0
LINE
  5
20758
330
1F
100
AcDbEntity
  8
中心線
 48
0.27
100
AcDbLine
 10
264.7628588512472
 20
-1341.480305652058
 30
0.0
 11
264.7628588512472
 21
-1334.280305652058
 31
0.0
  0
LINE
  5
20759
330
1F
100
AcDbEntity
  8
中心線
 48
0.27
100
AcDbLine
 10
174.1628588512473
 20
-1337.880305652058
 30
0.0
 11
181.3628588512471
 21
-1337.880305652058
 31
0.0
  0
LINE
  5
2075A
330
1F
100
AcDbEntity
  8
中心線
 48
0.27
100
AcDbLine
 10
177.7628588512472
 20
-1341.480305652058
 30
0.0
 11
177.7628588512472
 21
-1334.280305652058
 31
0.0
  0
LINE
  5
2075F
330
1F
100
AcDbEntity
  8
中心線
 48
0.5
100
AcDbLine
 10
221.2628588512472
 20
-1200.460235227634
 30
0.0
 11
221.2628588512472
 21
-1270.460235227634
 31
0.0
  0
LINE
  5
20761
330
1F
100
AcDbEntity
  8
中心線
 48
0.5
100
AcDbLine
 10
261.7628588512472
 20
-1235.460235227634
 30
0.0
 11
180.7628588512472
 21
-1235.460235227634
 31
0.0
  0
ENDSEC
  0
SECTION
  2
OBJECTS
  0
DICTIONARY
  5
C
330
0
100
AcDbDictionary
281
     1
  3
ACAD_COLOR
350
1EAD
  3
ACAD_GROUP
350
D
  3
ACAD_LAYOUT
350
1A
  3
ACAD_MATERIAL
350
1EAC
  3
ACAD_MLINESTYLE
350
17
  3
ACAD_PLOTSETTINGS
350
19
  3
ACAD_PLOTSTYLENAME
350
E
  3
ACAD_TABLESTYLE
350
1EAE
  3
ACDBHEADERROUNDTRIPXREC
350
20798
  3
AcDbVariableDictionary
350
4E
  0
DICTIONARY
  5
B56
330
2
100
AcDbDictionary
280
     1
281
     1
  3
ACAD_LAYERFILTERS
360
1B22B
  3
ACAD_LAYERSTATES
360
B57
  0
DICTIONARY
  5
37F6
330
1F
100
AcDbDictionary
280
     1
281
     1
  3
ACAD_SORTENTS
360
37F7
  0
DICTIONARY
  5
1E1CD
330
1E1CC
100
AcDbDictionary
280
     1
281
     1
  0
DICTIONARY
  5
1ECC2
330
1EC49
100
AcDbDictionary
280
     1
281
     1
  3
ACAD_SORTENTS
360
1ECC3
  0
DICTIONARY
  5
20357
330
20347
100
AcDbDictionary
280
     1
281
     1
  3
ACAD_SORTENTS
360
20358
  0
DICTIONARY
  5
20368
330
2035B
100
AcDbDictionary
280
     1
281
     1
  3
ACAD_SORTENTS
360
20369
  0
DICTIONARY
  5
1EAD
102
{ACAD_REACTORS
330
C
102
}
330
C
100
AcDbDictionary
281
     1
  0
DICTIONARY
  5
D
102
{ACAD_REACTORS
330
C
102
}
330
C
100
AcDbDictionary
281
     1
  3
*A1
350
BFA
  3
*A10
350
F1B
  3
*A11
350
F1C
  3
*A12
350
C03
  3
*A13
350
F1D
  3
*A14
350
10A0
  3
*A15
350
10A1
  3
*A16
350
BFC
  3
*A17
350
10A2
  3
*A18
350
10A3
  3
*A19
350
10A4
  3
*A2
350
F14
  3
*A20
350
10A5
  3
*A21
350
10A6
  3
*A22
350
10A7
  3
*A23
350
C04
  3
*A24
350
10A8
  3
*A25
350
10A9
  3
*A26
350
10AA
  3
*A27
350
10AB
  3
*A28
350
BFD
  3
*A29
350
10AC
  3
*A3
350
F15
  3
*A30
350
BFE
  3
*A31
350
BFF
  3
*A32
350
C00
  3
*A33
350
C01
  3
*A34
350
C05
  3
*A35
350
C02
  3
*A36
350
C06
  3
*A37
350
F10
  3
*A38
350
F11
  3
*A39
350
F12
  3
*A4
350
BFB
  3
*A40
350
F13
  3
*A5
350
F16
  3
*A6
350
F17
  3
*A7
350
F18
  3
*A8
350
F19
  3
*A9
350
F1A
  0
DICTIONARY
  5
1A
102
{ACAD_REACTORS
330
C
102
}
330
C
100
AcDbDictionary
281
     1
  3
Model
350
22
  3
配置1
350
1E
  3
配置2
350
26
  0
DICTIONARY
  5
1EAC
102
{ACAD_REACTORS
330
C
102
}
330
C
100
AcDbDictionary
281
     1
  0
DICTIONARY
  5
17
102
{ACAD_REACTORS
330
C
102
}
330
C
100
AcDbDictionary
281
     1
  3
Standard
350
18
  0
DICTIONARY
  5
19
102
{ACAD_REACTORS
330
C
102
}
330
C
100
AcDbDictionary
281
     1
  3
LANSRO
350
1AB
  0
ACDBDICTIONARYWDFLT
  5
E
102
{ACAD_REACTORS
330
C
102
}
330
C
100
AcDbDictionary
281
     1
  3
Normal
350
F
100
AcDbDictionaryWithDefault
340
F
  0
DICTIONARY
  5
1EAE
102
{ACAD_REACTORS
330
C
102
}
330
C
100
AcDbDictionary
281
     1
  3
Standard
350
1EAF
  0
DICTIONARY
  5
20798
102
{ACAD_REACTORS
330
C
102
}
330
C
100
AcDbDictionary
281
     1
  3
COLORDICT
350
2079A
  3
MATERIALDICT
350
20799
  0
DICTIONARY
  5
4E
102
{ACAD_REACTORS
330
C
102
}
330
C
100
AcDbDictionary
281
     1
  3
CTABLESTYLE
350
1EB7
  3
DIMASSOC
350
A766
  3
PROJECTNAME
350
A767
  3
SORTENTS
350
4F
  0
DICTIONARY
  5
1B22B
102
{ACAD_REACTORS
330
B56
102
}
330
B56
100
AcDbDictionary
281
     1
  0
DICTIONARY
  5
B57
102
{ACAD_REACTORS
330
B56
102
}
330
B56
100
AcDbDictionary
281
     1
  0
SORTENTSTABLE
  5
37F7
102
{ACAD_REACTORS
330
37F6
102
}
330
37F6
100
AcDbSortentsTable
330
1F
  0
SORTENTSTABLE
  5
1ECC3
102
{ACAD_REACTORS
330
1ECC2
102
}
330
1ECC2
100
AcDbSortentsTable
330
1EC49
  0
SORTENTSTABLE
  5
20358
102
{ACAD_REACTORS
330
20357
102
}
330
20357
100
AcDbSortentsTable
330
20347
  0
SORTENTSTABLE
  5
20369
102
{ACAD_REACTORS
330
20368
102
}
330
20368
100
AcDbSortentsTable
330
2035B
  0
GROUP
  5
BFA
102
{ACAD_REACTORS
330
D
102
}
330
D
100
AcDbGroup
300

 70
     1
 71
     1
  0
GROUP
  5
F1B
102
{ACAD_REACTORS
330
D
102
}
330
D
100
AcDbGroup
300

 70
     1
 71
     1
  0
GROUP
  5
F1C
102
{ACAD_REACTORS
330
D
102
}
330
D
100
AcDbGroup
300

 70
     1
 71
     1
  0
GROUP
  5
C03
102
{ACAD_REACTORS
330
D
102
}
330
D
100
AcDbGroup
300

 70
     1
 71
     1
  0
GROUP
  5
F1D
102
{ACAD_REACTORS
330
D
102
}
330
D
100
AcDbGroup
300

 70
     1
 71
     1
  0
GROUP
  5
10A0
102
{ACAD_REACTORS
330
D
102
}
330
D
100
AcDbGroup
300

 70
     1
 71
     1
  0
GROUP
  5
10A1
102
{ACAD_REACTORS
330
D
102
}
330
D
100
AcDbGroup
300

 70
     1
 71
     1
  0
GROUP
  5
BFC
102
{ACAD_REACTORS
330
D
102
}
330
D
100
AcDbGroup
300

 70
     1
 71
     1
  0
GROUP
  5
10A2
102
{ACAD_REACTORS
330
D
102
}
330
D
100
AcDbGroup
300

 70
     1
 71
     1
  0
GROUP
  5
10A3
102
{ACAD_REACTORS
330
D
102
}
330
D
100
AcDbGroup
300

 70
     1
 71
     1
  0
GROUP
  5
10A4
102
{ACAD_REACTORS
330
D
102
}
330
D
100
AcDbGroup
300

 70
     1
 71
     1
  0
GROUP
  5
F14
102
{ACAD_REACTORS
330
D
102
}
330
D
100
AcDbGroup
300

 70
     1
 71
     1
  0
GROUP
  5
10A5
102
{ACAD_REACTORS
330
D
102
}
330
D
100
AcDbGroup
300

 70
     1
 71
     1
  0
GROUP
  5
10A6
102
{ACAD_REACTORS
330
D
102
}
330
D
100
AcDbGroup
300

 70
     1
 71
     1
  0
GROUP
  5
10A7
102
{ACAD_REACTORS
330
D
102
}
330
D
100
AcDbGroup
300

 70
     1
 71
     1
  0
GROUP
  5
C04
102
{ACAD_REACTORS
330
D
102
}
330
D
100
AcDbGroup
300

 70
     1
 71
     1
  0
GROUP
  5
10A8
102
{ACAD_REACTORS
330
D
102
}
330
D
100
AcDbGroup
300

 70
     1
 71
     1
  0
GROUP
  5
10A9
102
{ACAD_REACTORS
330
D
102
}
330
D
100
AcDbGroup
300

 70
     1
 71
     1
  0
GROUP
  5
10AA
102
{ACAD_REACTORS
330
D
102
}
330
D
100
AcDbGroup
300

 70
     1
 71
     1
  0
GROUP
  5
10AB
102
{ACAD_REACTORS
330
D
102
}
330
D
100
AcDbGroup
300

 70
     1
 71
     1
  0
GROUP
  5
BFD
102
{ACAD_REACTORS
330
D
102
}
330
D
100
AcDbGroup
300

 70
     1
 71
     1
  0
GROUP
  5
10AC
102
{ACAD_REACTORS
330
D
102
}
330
D
100
AcDbGroup
300

 70
     1
 71
     1
  0
GROUP
  5
F15
102
{ACAD_REACTORS
330
D
102
}
330
D
100
AcDbGroup
300

 70
     1
 71
     1
  0
GROUP
  5
BFE
102
{ACAD_REACTORS
330
D
102
}
330
D
100
AcDbGroup
300

 70
     1
 71
     1
  0
GROUP
  5
BFF
102
{ACAD_REACTORS
330
D
102
}
330
D
100
AcDbGroup
300

 70
     1
 71
     1
  0
GROUP
  5
C00
102
{ACAD_REACTORS
330
D
102
}
330
D
100
AcDbGroup
300

 70
     1
 71
     1
  0
GROUP
  5
C01
102
{ACAD_REACTORS
330
D
102
}
330
D
100
AcDbGroup
300

 70
     1
 71
     1
  0
GROUP
  5
C05
102
{ACAD_REACTORS
330
D
102
}
330
D
100
AcDbGroup
300

 70
     1
 71
     1
  0
GROUP
  5
C02
102
{ACAD_REACTORS
330
D
102
}
330
D
100
AcDbGroup
300

 70
     1
 71
     1
  0
GROUP
  5
C06
102
{ACAD_REACTORS
330
D
102
}
330
D
100
AcDbGroup
300

 70
     1
 71
     1
  0
GROUP
  5
F10
102
{ACAD_REACTORS
330
D
102
}
330
D
100
AcDbGroup
300

 70
     1
 71
     1
  0
GROUP
  5
F11
102
{ACAD_REACTORS
330
D
102
}
330
D
100
AcDbGroup
300

 70
     1
 71
     1
  0
GROUP
  5
F12
102
{ACAD_REACTORS
330
D
102
}
330
D
100
AcDbGroup
300

 70
     1
 71
     1
  0
GROUP
  5
BFB
102
{ACAD_REACTORS
330
D
102
}
330
D
100
AcDbGroup
300

 70
     1
 71
     1
  0
GROUP
  5
F13
102
{ACAD_REACTORS
330
D
102
}
330
D
100
AcDbGroup
300

 70
     1
 71
     1
  0
GROUP
  5
F16
102
{ACAD_REACTORS
330
D
102
}
330
D
100
AcDbGroup
300

 70
     1
 71
     1
  0
GROUP
  5
F17
102
{ACAD_REACTORS
330
D
102
}
330
D
100
AcDbGroup
300

 70
     1
 71
     1
  0
GROUP
  5
F18
102
{ACAD_REACTORS
330
D
102
}
330
D
100
AcDbGroup
300

 70
     1
 71
     1
  0
GROUP
  5
F19
102
{ACAD_REACTORS
330
D
102
}
330
D
100
AcDbGroup
300

 70
     1
 71
     1
  0
GROUP
  5
F1A
102
{ACAD_REACTORS
330
D
102
}
330
D
100
AcDbGroup
300

 70
     1
 71
     1
  0
LAYOUT
  5
22
102
{ACAD_XDICTIONARY
360
2079D
102
}
102
{ACAD_REACTORS
330
1A
102
}
330
1A
100
AcDbPlotSettings
  1

  2
HP LaserJet 5100 Series
  4
A4
  6

 40
5.027083396911621
 41
5.408084392547607
 42
5.70440673828125
 43
5.365753173828125
 44
209.8886566162109
 45
297.0530090332031
 46
3.33
 47
0.0
 48
-114.3921822345449
 49
-1517.123039014255
140
420.207817765455
141
-1157.636773708224
142
1.0
143
1.867407947496965
 70
 11956
 72
     1
 73
     1
 74
     4
  7
aclt.ctb
 75
     0
147
0.5355016301287456
148
114.3921822345449
149
1517.123039014255
100
AcDbLayout
  1
Model
 70
     1
 71
     0
 10
0.0
 20
0.0
 11
12.0
 21
9.0
 12
0.0
 22
0.0
 32
0.0
 14
0.0
 24
0.0
 34
0.0
 15
0.0
 25
0.0
 35
0.0
146
0.0
 13
0.0
 23
0.0
 33
0.0
 16
1.0
 26
0.0
 36
0.0
 17
0.0
 27
1.0
 37
0.0
 76
     0
330
1F
  0
LAYOUT
  5
1E
102
{ACAD_XDICTIONARY
360
2079B
102
}
102
{ACAD_REACTORS
330
1A
102
}
330
1A
100
AcDbPlotSettings
  1

  2
C:\Program Files\AutoCAD LT 2000i\plotters\DWF Classic.pc3
  4

  6

 40
0.0
 41
0.0
 42
0.0
 43
0.0
 44
0.0
 45
0.0
 46
0.0
 47
0.0
 48
0.0
 49
0.0
140
0.0
141
0.0
142
1.0
143
1.0
 70
   688
 72
     0
 73
     0
 74
     5
  7
aclt.ctb
 75
    16
147
1.0
148
0.0
149
0.0
100
AcDbLayout
  1
配置1
 70
     1
 71
     1
 10
0.0
 20
0.0
 11
420.0
 21
297.0
 12
0.0
 22
0.0
 32
0.0
 14
1.000000000000000E+20
 24
1.000000000000000E+20
 34
1.000000000000000E+20
 15
-1.000000000000000E+20
 25
-1.000000000000000E+20
 35
-1.000000000000000E+20
146
0.0
 13
0.0
 23
0.0
 33
0.0
 16
1.0
 26
0.0
 36
0.0
 17
0.0
 27
1.0
 37
0.0
 76
     0
330
1B
  0
LAYOUT
  5
26
102
{ACAD_XDICTIONARY
360
2079F
102
}
102
{ACAD_REACTORS
330
1A
102
}
330
1A
100
AcDbPlotSettings
  1

  2
C:\Program Files\AutoCAD LT 2000i\plotters\DWF Classic.pc3
  4

  6

 40
0.0
 41
0.0
 42
0.0
 43
0.0
 44
0.0
 45
0.0
 46
0.0
 47
0.0
 48
0.0
 49
0.0
140
0.0
141
0.0
142
1.0
143
1.0
 70
   688
 72
     0
 73
     0
 74
     5
  7
aclt.ctb
 75
    16
147
1.0
148
0.0
149
0.0
100
AcDbLayout
  1
配置2
 70
     1
 71
     2
 10
0.0
 20
0.0
 11
12.0
 21
9.0
 12
0.0
 22
0.0
 32
0.0
 14
0.0
 24
0.0
 34
0.0
 15
0.0
 25
0.0
 35
0.0
146
0.0
 13
0.0
 23
0.0
 33
0.0
 16
1.0
 26
0.0
 36
0.0
 17
0.0
 27
1.0
 37
0.0
 76
     0
330
23
  0
MLINESTYLE
  5
18
102
{ACAD_REACTORS
330
17
102
}
330
17
100
AcDbMlineStyle
  2
STANDARD
 70
     0
  3

 62
   256
 51
90.0
 52
90.0
 71
     2
 49
0.5
 62
   256
  6
BYLAYER
 49
-0.5
 62
   256
  6
BYLAYER
  0
PLOTSETTINGS
  5
1AB
102
{ACAD_XDICTIONARY
360
207A1
102
}
102
{ACAD_REACTORS
330
19
102
}
330
19
100
AcDbPlotSettings
  1
LANSRO
  2
\\1260\HP2200
  4
A4
  6

 40
6.043083190917968
 41
6.762742042541503
 42
7.736419677734375
 43
5.027069091796875
 44
209.9733276367187
 45
296.9683227539062
 46
5.15
 47
0.0
 48
0.0
 49
0.0
140
0.0
141
0.0
142
1.0
143
0.8829829263240881
 70
  1716
 72
     1
 73
     1
 74
     0
  7
AAA.ctb
 75
     0
147
1.132524729739748
148
-132.297014905803
149
-71.78507365635891
  0
ACDBPLACEHOLDER
  5
F
102
{ACAD_REACTORS
330
E
102
}
330
E
  0
ACAD_PROXY_OBJECT
  5
1EAF
102
{ACAD_REACTORS
330
1EAE
102
}
330
1EAE
100
AcDbProxyObject
 90
      499
 91
      505
 95
   983063
 70
     0
 93
     1841
310
4214DD185B99185C9928000000000000F83F0000000000003E0FC00000000000004901028000000C1008070000C3001FDFF8000000C1003FBFF000000182007F7FE00000030400FEFFC00000060801FDFF8000000C1003FBFF000000182000000000000000C2020B0000001820100E000186003FBFF000000182007F7FE000
310
00030400FEFFC00000060801FDFF8000000C1003FBFF000000182007F7FE0000003040000000000000012404160000003040201C00030C007F7FE00000030400FEFFC00000060801FDFF8000000C1003FBFF000000182007F7FE00000030400FEFFC000000608000
340
11
340
11
340
11
 94
        0
1001
ACAD
1000
AcRTDxfName
1000
TABLESTYLE
1000
AcRTDxfName
1000
TABLESTYLE
1000
AcRTDxfName
1000
TABLESTYLE
1000
AcRTDxfName
1000
TABLESTYLE
1000
AcRTDxfName
1000
TABLESTYLE
1000
AcRTDxfName
1000
TABLESTYLE
1000
AcRTDxfName
1000
TABLESTYLE
1000
AcRTDxfName
1000
TABLESTYLE
1000
AcRTDxfName
1000
TABLESTYLE
1000
AcRTDxfName
1000
TABLESTYLE
1000
AcRTDxfName
1000
TABLESTYLE
  0
XRECORD
  5
2079A
102
{ACAD_REACTORS
330
20798
102
}
330
20798
100
AcDbXrecord
280
     1
340
1EAD
  0
XRECORD
  5
20799
102
{ACAD_REACTORS
330
20798
102
}
330
20798
100
AcDbXrecord
280
     1
340
1EAC
  0
DICTIONARYVAR
  5
1EB7
102
{ACAD_REACTORS
330
4E
102
}
330
4E
100
DictionaryVariables
280
     0
  1
STANDARD
  0
DICTIONARYVAR
  5
A766
102
{ACAD_REACTORS
330
4E
102
}
330
4E
100
DictionaryVariables
280
     0
  1
1
  0
DICTIONARYVAR
  5
A767
102
{ACAD_REACTORS
330
4E
102
}
330
4E
100
DictionaryVariables
280
     0
  1

  0
DICTIONARYVAR
  5
4F
102
{ACAD_REACTORS
330
4E
102
}
330
4E
100
DictionaryVariables
280
     0
  1
96
  0
DICTIONARY
  5
2079D
330
22
100
AcDbDictionary
280
     1
281
     1
  3
ACAD_XREC_ROUNDTRIP
360
2079E
  0
DICTIONARY
  5
2079B
330
1E
100
AcDbDictionary
280
     1
281
     1
  3
ACAD_XREC_ROUNDTRIP
360
2079C
  0
DICTIONARY
  5
2079F
330
26
100
AcDbDictionary
280
     1
281
     1
  3
ACAD_XREC_ROUNDTRIP
360
207A0
  0
DICTIONARY
  5
207A1
330
1AB
100
AcDbDictionary
280
     1
281
     1
  3
ACAD_XREC_ROUNDTRIP
360
207A2
  0
XRECORD
  5
2079E
102
{ACAD_REACTORS
330
2079D
102
}
330
2079D
100
AcDbXrecord
280
     1
102
SHADEPLOT
 70
     0
102
SHADEPLOTRESLEVEL
 70
     2
102
SHADEPLOTCUSTOMDPI
 70
   300
  0
XRECORD
  5
2079C
102
{ACAD_REACTORS
330
2079B
102
}
330
2079B
100
AcDbXrecord
280
     1
102
SHADEPLOT
 70
     0
102
SHADEPLOTRESLEVEL
 70
     2
102
SHADEPLOTCUSTOMDPI
 70
   300
  0
XRECORD
  5
207A0
102
{ACAD_REACTORS
330
2079F
102
}
330
2079F
100
AcDbXrecord
280
     1
102
SHADEPLOT
 70
     0
102
SHADEPLOTRESLEVEL
 70
     2
102
SHADEPLOTCUSTOMDPI
 70
   300
  0
XRECORD
  5
207A2
102
{ACAD_REACTORS
330
207A1
102
}
330
207A1
100
AcDbXrecord
280
     1
102
SHADEPLOT
 70
     0
102
SHADEPLOTRESLEVEL
 70
     2
102
SHADEPLOTCUSTOMDPI
 70
   300
  0
ENDSEC
  0
EOF
