  0
SECTION
  2
HEADER
  9
$ACADVER
  1
AC1015
  9
$ACADMAINTVER
 70
    20
  9
$DWGCODEPAGE
  3
ANSI_950
  9
$INSBASE
 10
0.0
 20
0.0
 30
0.0
  9
$EXTMIN
 10
1527.438728922016
 20
1079.437387632897
 30
-0.0000000000000157
  9
$EXTMAX
 10
1856.871570016978
 20
1275.917290232807
 30
0.0000000000000148
  9
$LIMMIN
 10
-10.0
 20
-15.0
  9
$LIMMAX
 10
120.0
 20
90.0
  9
$ORTHOMODE
 70
     1
  9
$REGENMODE
 70
     0
  9
$FILLMODE
 70
     1
  9
$QTEXTMODE
 70
     0
  9
$MIRRTEXT
 70
     0
  9
$LTSCALE
 40
3.0
  9
$ATTMODE
 70
     1
  9
$TEXTSIZE
 40
3.0
  9
$TRACEWID
 40
1.0
  9
$TEXTSTYLE
  7
STANDARD
  9
$CLAYER
  8
0
  9
$CELTYPE
  6
ByLayer
  9
$CECOLOR
 62
   256
  9
$CELTSCALE
 40
1.0
  9
$DISPSILH
 70
     0
  9
$DIMSCALE
 40
1.0
  9
$DIMASZ
 40
3.0
  9
$DIMEXO
 40
1.0
  9
$DIMDLI
 40
6.0
  9
$DIMRND
 40
0.0
  9
$DIMDLE
 40
0.0
  9
$DIMEXE
 40
1.0
  9
$DIMTP
 40
0.0
  9
$DIMTM
 40
0.0
  9
$DIMTXT
 40
3.0
  9
$DIMCEN
 40
1.5
  9
$DIMTSZ
 40
0.0
  9
$DIMTOL
 70
     0
  9
$DIMLIM
 70
     0
  9
$DIMTIH
 70
     1
  9
$DIMTOH
 70
     1
  9
$DIMSE1
 70
     0
  9
$DIMSE2
 70
     0
  9
$DIMTAD
 70
     0
  9
$DIMZIN
 70
     0
  9
$DIMBLK
  1

  9
$DIMASO
 70
     1
  9
$DIMSHO
 70
     0
  9
$DIMPOST
  1

  9
$DIMAPOST
  1

  9
$DIMALT
 70
     0
  9
$DIMALTD
 70
     2
  9
$DIMALTF
 40
25.4
  9
$DIMLFAC
 40
1.0
  9
$DIMTOFL
 70
     1
  9
$DIMTVP
 40
0.0
  9
$DIMTIX
 70
     0
  9
$DIMSOXD
 70
     0
  9
$DIMSAH
 70
     0
  9
$DIMBLK1
  1

  9
$DIMBLK2
  1

  9
$DIMSTYLE
  2
Standard
  9
$DIMCLRD
 70
     0
  9
$DIMCLRE
 70
     0
  9
$DIMCLRT
 70
     0
  9
$DIMTFAC
 40
1.0
  9
$DIMGAP
 40
0.09
  9
$DIMJUST
 70
     0
  9
$DIMSD1
 70
     0
  9
$DIMSD2
 70
     0
  9
$DIMTOLJ
 70
     1
  9
$DIMTZIN
 70
     0
  9
$DIMALTZ
 70
     0
  9
$DIMALTTZ
 70
     0
  9
$DIMUPT
 70
     0
  9
$DIMDEC
 70
     4
  9
$DIMTDEC
 70
     8
  9
$DIMALTU
 70
     2
  9
$DIMALTTD
 70
     2
  9
$DIMTXSTY
  7
STANDARD
  9
$DIMAUNIT
 70
     0
  9
$DIMADEC
 70
     0
  9
$DIMALTRND
 40
0.0
  9
$DIMAZIN
 70
     0
  9
$DIMDSEP
 70
    46
  9
$DIMATFIT
 70
     3
  9
$DIMFRAC
 70
     0
  9
$DIMLDRBLK
  1

  9
$DIMLUNIT
 70
     2
  9
$DIMLWD
 70
    -2
  9
$DIMLWE
 70
    -2
  9
$DIMTMOVE
 70
     2
  9
$LUNITS
 70
     2
  9
$LUPREC
 70
     4
  9
$SKETCHINC
 40
0.5
  9
$FILLETRAD
 40
0.0
  9
$AUNITS
 70
     0
  9
$AUPREC
 70
     0
  9
$MENU
  1
ACAD
  9
$ELEVATION
 40
0.0
  9
$PELEVATION
 40
0.0
  9
$THICKNESS
 40
0.0
  9
$LIMCHECK
 70
     0
  9
$CHAMFERA
 40
0.0
  9
$CHAMFERB
 40
0.0
  9
$CHAMFERC
 40
0.0
  9
$CHAMFERD
 40
0.0
  9
$SKPOLY
 70
     0
  9
$TDCREATE
 40
2444975.333333334
  9
$TDUCREATE
 40
2444975.000000000
  9
$TDUPDATE
 40
2454042.423542477
  9
$TDUUPDATE
 40
2454042.090209144
  9
$TDINDWG
 40
0.3179934722
  9
$TDUSRTIMER
 40
0.0000000000
  9
$USRTIMER
 70
     0
  9
$ANGBASE
 50
0.0
  9
$ANGDIR
 70
     0
  9
$PDMODE
 70
     0
  9
$PDSIZE
 40
0.001
  9
$PLINEWID
 40
0.0
  9
$SPLFRAME
 70
     0
  9
$SPLINETYPE
 70
     6
  9
$SPLINESEGS
 70
  8000
  9
$HANDSEED
  5
EB13
  9
$SURFTAB1
 70
     6
  9
$SURFTAB2
 70
     6
  9
$SURFTYPE
 70
     6
  9
$SURFU
 70
     6
  9
$SURFV
 70
     6
  9
$UCSBASE
  2

  9
$UCSNAME
  2

  9
$UCSORG
 10
0.0
 20
0.0
 30
0.0
  9
$UCSXDIR
 10
1.0
 20
0.0
 30
0.0
  9
$UCSYDIR
 10
0.0
 20
1.0
 30
0.0
  9
$UCSORTHOREF
  2

  9
$UCSORTHOVIEW
 70
     0
  9
$UCSORGTOP
 10
0.0
 20
0.0
 30
0.0
  9
$UCSORGBOTTOM
 10
0.0
 20
0.0
 30
0.0
  9
$UCSORGLEFT
 10
0.0
 20
0.0
 30
0.0
  9
$UCSORGRIGHT
 10
0.0
 20
0.0
 30
0.0
  9
$UCSORGFRONT
 10
0.0
 20
0.0
 30
0.0
  9
$UCSORGBACK
 10
0.0
 20
0.0
 30
0.0
  9
$PUCSBASE
  2

  9
$PUCSNAME
  2

  9
$PUCSORG
 10
0.0
 20
0.0
 30
0.0
  9
$PUCSXDIR
 10
1.0
 20
0.0
 30
0.0
  9
$PUCSYDIR
 10
0.0
 20
1.0
 30
0.0
  9
$PUCSORTHOREF
  2

  9
$PUCSORTHOVIEW
 70
     0
  9
$PUCSORGTOP
 10
0.0
 20
0.0
 30
0.0
  9
$PUCSORGBOTTOM
 10
0.0
 20
0.0
 30
0.0
  9
$PUCSORGLEFT
 10
0.0
 20
0.0
 30
0.0
  9
$PUCSORGRIGHT
 10
0.0
 20
0.0
 30
0.0
  9
$PUCSORGFRONT
 10
0.0
 20
0.0
 30
0.0
  9
$PUCSORGBACK
 10
0.0
 20
0.0
 30
0.0
  9
$USERI1
 70
     0
  9
$USERI2
 70
     0
  9
$USERI3
 70
     0
  9
$USERI4
 70
     0
  9
$USERI5
 70
     0
  9
$USERR1
 40
0.0
  9
$USERR2
 40
0.0
  9
$USERR3
 40
0.0
  9
$USERR4
 40
0.0
  9
$USERR5
 40
0.0
  9
$WORLDVIEW
 70
     1
  9
$SHADEDGE
 70
     3
  9
$SHADEDIF
 70
    70
  9
$TILEMODE
 70
     1
  9
$MAXACTVP
 70
    48
  9
$PINSBASE
 10
0.0
 20
0.0
 30
0.0
  9
$PLIMCHECK
 70
     0
  9
$PEXTMIN
 10
1.000000000000000E+20
 20
1.000000000000000E+20
 30
1.000000000000000E+20
  9
$PEXTMAX
 10
-1.000000000000000E+20
 20
-1.000000000000000E+20
 30
-1.000000000000000E+20
  9
$PLIMMIN
 10
0.0
 20
0.0
  9
$PLIMMAX
 10
12.0
 20
9.0
  9
$UNITMODE
 70
     0
  9
$VISRETAIN
 70
     1
  9
$PLINEGEN
 70
     0
  9
$PSLTSCALE
 70
     0
  9
$TREEDEPTH
 70
  3020
  9
$CMLSTYLE
  2
Standard
  9
$CMLJUST
 70
     0
  9
$CMLSCALE
 40
1.0
  9
$PROXYGRAPHICS
 70
     1
  9
$MEASUREMENT
 70
     0
  9
$CELWEIGHT
370
    -1
  9
$ENDCAPS
280
     0
  9
$JOINSTYLE
280
     0
  9
$LWDISPLAY
290
     0
  9
$INSUNITS
 70
     0
  9
$HYPERLINKBASE
  1

  9
$STYLESHEET
  1

  9
$XEDIT
290
     1
  9
$CEPSNTYPE
380
     0
  9
$PSTYLEMODE
290
     1
  9
$FINGERPRINTGUID
  2
{77095E5F-9CE7-11D7-970D-0040F4541FA8}
  9
$VERSIONGUID
  2
{1EBD997B-B705-4F00-A60B-4BB2A55C91B0}
  9
$EXTNAMES
290
     1
  9
$PSVPSCALE
 40
0.0
  9
$OLESTARTUP
290
     0
  0
ENDSEC
  0
SECTION
  2
CLASSES
  0
CLASS
  1
ACDBDICTIONARYWDFLT
  2
AcDbDictionaryWithDefault
  3
ObjectDBX Classes
 90
        0
280
     0
281
     0
  0
CLASS
  1
ACDBPLACEHOLDER
  2
AcDbPlaceHolder
  3
ObjectDBX Classes
 90
        0
280
     0
281
     0
  0
CLASS
  1
LAYOUT
  2
AcDbLayout
  3
ObjectDBX Classes
 90
        0
280
     0
281
     0
  0
CLASS
  1
LONG_TRANSACTION
  2
AcDbLongTransaction
  3
ObjectDBX Classes
 90
    32768
280
     0
281
     0
  0
CLASS
  1
LWPOLYLINE
  2
AcDbPolyline
  3
ObjectDBX Classes
 90
        0
280
     0
281
     1
  0
CLASS
  1
HATCH
  2
AcDbHatch
  3
ObjectDBX Classes
 90
    32768
280
     0
281
     1
  0
CLASS
  1
XRECORD
  2
AcDbXrecord
  3
ObjectDBX Classes
 90
        0
280
     0
281
     0
  0
CLASS
  1
LONG_TRANSACTION
  2
AcDbLongTransaction
  3
ObjectDBX Classes
 90
    32768
280
     0
281
     0
  0
CLASS
  1
LWPOLYLINE
  2
AcDbPolyline
  3
ObjectDBX Classes
 90
        0
280
     0
281
     1
  0
CLASS
  1
HATCH
  2
AcDbHatch
  3
ObjectDBX Classes
 90
    32768
280
     0
281
     1
  0
CLASS
  1
XRECORD
  2
AcDbXrecord
  3
ObjectDBX Classes
 90
        0
280
     0
281
     0
  0
CLASS
  1
DICTIONARYVAR
  2
AcDbDictionaryVar
  3
ObjectDBX Classes
 90
        0
280
     0
281
     0
  0
CLASS
  1
PLOTSETTINGS
  2
AcDbPlotSettings
  3
ObjectDBX Classes
 90
        0
280
     0
281
     0
  0
CLASS
  1
SORTENTSTABLE
  2
AcDbSortentsTable
  3
ObjectDBX Classes
 90
        0
280
     0
281
     0
  0
CLASS
  1
TABLESTYLE
  2
AcDbTableStyle
  3
ObjectDBX Classes
 90
     2047
280
     0
281
     0
  0
ENDSEC
  0
SECTION
  2
TABLES
  0
TABLE
  2
VPORT
  5
8
330
0
100
AcDbSymbolTable
 70
     4
  0
VPORT
  5
EB09
330
8
100
AcDbSymbolTableRecord
100
AcDbViewportTableRecord
  2
*Active
 70
     0
 10
0.0
 20
0.0
 11
1.0
 21
1.0
 12
1692.826674723377
 22
1187.105392659381
 13
457.9999999999997
 23
1082.0
 14
10.0
 24
10.0
 15
10.0
 25
10.0
 16
0.0
 26
0.0
 36
1.0
 17
0.0
 27
0.0
 37
0.0
 40
236.1548596596351
 41
1.530456852791878
 42
1.0
 43
0.0
 44
0.0
 50
0.0
 51
0.0
 71
     0
 72
  2000
 73
     1
 74
     1
 75
     0
 76
     0
 77
     0
 78
     0
281
     0
 65
     1
110
0.0
120
0.0
130
0.0
111
1.0
121
0.0
131
0.0
112
0.0
122
1.0
132
0.0
 79
     0
146
0.0
  0
ENDTAB
  0
TABLE
  2
LTYPE
  5
5
330
0
100
AcDbSymbolTable
 70
     6
  0
LTYPE
  5
13
330
5
100
AcDbSymbolTableRecord
100
AcDbLinetypeTableRecord
  2
ByBlock
 70
     0
  3

 72
    65
 73
     0
 40
0.0
  0
LTYPE
  5
14
330
5
100
AcDbSymbolTableRecord
100
AcDbLinetypeTableRecord
  2
ByLayer
 70
     0
  3

 72
    65
 73
     0
 40
0.0
  0
LTYPE
  5
15
330
5
100
AcDbSymbolTableRecord
100
AcDbLinetypeTableRecord
  2
CONTINUOUS
 70
     0
  3
連續線 ________________________
 72
    65
 73
     0
 40
0.0
  0
LTYPE
  5
225
330
5
100
AcDbSymbolTableRecord
100
AcDbLinetypeTableRecord
  2
BYBLOCK
 70
     0
  3
Solid line
 72
    65
 73
     0
 40
0.0
  0
LTYPE
  5
226
330
5
100
AcDbSymbolTableRecord
100
AcDbLinetypeTableRecord
  2
BYLAYER
 70
     0
  3
Solid line
 72
    65
 73
     0
 40
0.0
  0
LTYPE
  5
413C
330
5
100
AcDbSymbolTableRecord
100
AcDbLinetypeTableRecord
  2
CENTER2
 70
     0
  3
Center (.5x) ___ _ ___ _ ___ _ ___ _ ___ _ ___
 72
    65
 73
     4
 40
28.575
 49
19.05
 74
     0
 49
-3.174999999999999
 74
     0
 49
3.174999999999999
 74
     0
 49
-3.174999999999999
 74
     0
  0
LTYPE
  5
413D
330
5
100
AcDbSymbolTableRecord
100
AcDbLinetypeTableRecord
  2
DASHED2
 70
     0
  3
Dashed (.5x) _ _ _ _ _ _ _ _ _ _ _ _ _ _ _ _ _
 72
    65
 73
     2
 40
9.524999999999998
 49
6.349999999999999
 74
     0
 49
-3.174999999999999
 74
     0
  0
LTYPE
  5
69DC
330
5
100
AcDbSymbolTableRecord
100
AcDbLinetypeTableRecord
  2
DASHED
 70
     0
  3
__ __ __ __ __ __ __ __ __ __ __ __ __ __ __
 72
    65
 73
     2
 40
4.0
 49
3.0
 74
     0
 49
-1.0
 74
     0
  0
ENDTAB
  0
TABLE
  2
LAYER
  5
2
102
{ACAD_XDICTIONARY
360
43C2
102
}
330
0
100
AcDbSymbolTable
 70
     7
  0
LAYER
  5
10
330
2
100
AcDbSymbolTableRecord
100
AcDbLayerTableRecord
  2
0
 70
     0
 62
     7
  6
CONTINUOUS
370
    -3
390
F
  0
LAYER
  5
413E
330
2
100
AcDbSymbolTableRecord
100
AcDbLayerTableRecord
  2
指線
 70
     0
 62
     3
  6
CONTINUOUS
370
    15
390
F
  0
LAYER
  5
413F
330
2
100
AcDbSymbolTableRecord
100
AcDbLayerTableRecord
  2
中心線
 70
     0
 62
     4
  6
CENTER2
370
    20
390
F
  0
LAYER
  5
4140
330
2
100
AcDbSymbolTableRecord
100
AcDbLayerTableRecord
  2
虛線
 70
     0
 62
     6
  6
DASHED2
290
     0
370
    -3
390
F
  0
LAYER
  5
43B4
330
2
100
AcDbSymbolTableRecord
100
AcDbLayerTableRecord
  2
建構線
 70
     0
 62
     1
  6
CONTINUOUS
370
    -3
390
F
  0
LAYER
  5
69DF
330
2
100
AcDbSymbolTableRecord
100
AcDbLayerTableRecord
  2
標註線
 70
     0
 62
     3
  6
CONTINUOUS
370
    13
390
F
  0
LAYER
  5
C701
330
2
100
AcDbSymbolTableRecord
100
AcDbLayerTableRecord
  2
Defpoints
 70
     0
 62
     7
  6
CONTINUOUS
290
     0
370
    -3
390
F
  0
ENDTAB
  0
TABLE
  2
STYLE
  5
3
330
0
100
AcDbSymbolTable
 70
     1
  0
STYLE
  5
11
330
3
100
AcDbSymbolTableRecord
100
AcDbTextStyleTableRecord
  2
STANDARD
 70
     0
 40
0.0
 41
1.0
 50
0.0
 71
     0
 42
3.0
  3

  4

  0
ENDTAB
  0
TABLE
  2
VIEW
  5
6
330
0
100
AcDbSymbolTable
 70
     0
  0
ENDTAB
  0
TABLE
  2
UCS
  5
7
330
0
100
AcDbSymbolTable
 70
     0
  0
ENDTAB
  0
TABLE
  2
APPID
  5
9
330
0
100
AcDbSymbolTable
 70
     4
  0
APPID
  5
12
330
9
100
AcDbSymbolTableRecord
100
AcDbRegAppTableRecord
  2
ACAD
 70
     0
  0
APPID
  5
230
330
9
100
AcDbSymbolTableRecord
100
AcDbRegAppTableRecord
  2
TCAD
 70
     0
  0
APPID
  5
4142
330
9
100
AcDbSymbolTableRecord
100
AcDbRegAppTableRecord
  2
CONTENTBLOCKICON
 70
     0
  0
APPID
  5
5D91
330
9
100
AcDbSymbolTableRecord
100
AcDbRegAppTableRecord
  2
pntflag
 70
     0
  0
ENDTAB
  0
TABLE
  2
DIMSTYLE
  5
A
330
0
100
AcDbSymbolTable
 70
     1
100
AcDbDimStyleTable
 71
     1
340
3C9D
  0
DIMSTYLE
105
3C9D
330
A
100
AcDbSymbolTableRecord
100
AcDbDimStyleTableRecord
  2
Standard
 70
     0
340
11
  0
ENDTAB
  0
TABLE
  2
BLOCK_RECORD
  5
1
330
0
100
AcDbSymbolTable
 70
     2
  0
BLOCK_RECORD
  5
1E
102
{ACAD_XDICTIONARY
360
3D1E
102
}
330
1
100
AcDbSymbolTableRecord
100
AcDbBlockTableRecord
  2
*Model_Space
340
21
  0
BLOCK_RECORD
  5
1A
102
{ACAD_XDICTIONARY
360
3D20
102
}
330
1
100
AcDbSymbolTableRecord
100
AcDbBlockTableRecord
  2
*Paper_Space
340
1D
  0
BLOCK_RECORD
  5
69B7
102
{ACAD_XDICTIONARY
360
69B8
102
}
330
1
100
AcDbSymbolTableRecord
100
AcDbBlockTableRecord
  2
A$C51E2538E
340
0
102
{BLKREFS
331
9FA5
331
9FA6
331
9FB9
102
}
  0
BLOCK_RECORD
  5
69CB
102
{ACAD_XDICTIONARY
360
69CC
102
}
330
1
100
AcDbSymbolTableRecord
100
AcDbBlockTableRecord
  2
A$C3310154B
340
0
102
{BLKREFS
331
9F7B
331
9F7C
102
}
  0
ENDTAB
  0
ENDSEC
  0
SECTION
  2
BLOCKS
  0
BLOCK
  5
254
330
1E
100
AcDbEntity
  8
0
100
AcDbBlockBegin
  2
*Model_Space
 70
     0
 10
0.0
 20
0.0
 30
0.0
  3
*Model_Space
  1

  0
ENDBLK
  5
255
330
1E
100
AcDbEntity
  8
0
100
AcDbBlockEnd
  0
BLOCK
  5
252
330
1A
100
AcDbEntity
 67
     1
  8
0
100
AcDbBlockBegin
  2
*Paper_Space
 70
     0
 10
0.0
 20
0.0
 30
0.0
  3
*Paper_Space
  1

  0
ENDBLK
  5
253
330
1A
100
AcDbEntity
 67
     1
  8
0
100
AcDbBlockEnd
  0
BLOCK
  5
69BA
330
69B7
100
AcDbEntity
  8
0
 62
     1
 48
0.27
100
AcDbBlockBegin
  2
A$C51E2538E
 70
     0
 10
0.0
 20
0.0
 30
0.0
  3
A$C51E2538E
  1

  0
LINE
  5
69BB
330
69B7
100
AcDbEntity
  8
虛線
 48
0.25
100
AcDbLine
 10
9.230939415452212
 20
1.99838789798423
 30
0.0
 11
2.230939415459943
 21
1.998387897983548
 31
0.0
  0
LINE
  5
69BC
330
69B7
100
AcDbEntity
  8
虛線
 48
0.25
100
AcDbLine
 10
9.230939415453576
 20
15.79841841556197
 30
0.0
 11
9.230939415452212
 21
1.99838789798423
 31
0.0
  0
LINE
  5
69BD
330
69B7
100
AcDbEntity
  8
虛線
 48
0.25
100
AcDbLine
 10
0.2309394154581241
 20
24.698418415562
 30
0.0
 11
0.2309394154590336
 21
16.09842604495623
 31
0.0
  0
LINE
  5
69BE
330
69B7
100
AcDbEntity
  8
虛線
 48
0.25
100
AcDbLine
 10
2.230939415453576
 20
15.79841841556191
 30
0.0
 11
2.230939415459943
 21
1.998387897983576
 31
0.0
  0
LINE
  5
69BF
330
69B7
100
AcDbEntity
  8
虛線
 48
0.25
100
AcDbLine
 10
0.2309394154590336
 20
16.09835738040544
 30
0.0
 11
11.23093941545221
 21
16.09835738040573
 31
0.0
  0
LINE
  5
69C0
330
69B7
100
AcDbEntity
  8
中心線
 48
0.25
100
AcDbLine
 10
5.730939415455679
 20
27.09841841556201
 30
0.0
 11
5.730939415449938
 21
0.0
 31
0.0
  0
LINE
  5
69C1
330
69B7
100
AcDbEntity
  8
虛線
 48
0.25
100
AcDbLine
 10
2.230939415459943
 20
1.998387897983548
 30
0.0
 11
1.730939415460852
 21
1.498387897984002
 31
0.0
  0
LINE
  5
69C2
330
69B7
100
AcDbEntity
  8
虛線
 48
0.25
100
AcDbLine
 10
9.230939415452212
 20
1.99838789798423
 30
0.0
 11
9.730939415451302
 21
1.498387897984287
 31
0.0
  0
LINE
  5
69C3
330
69B7
100
AcDbEntity
  8
虛線
 48
0.25
100
AcDbLine
 10
11.23093941545358
 20
24.698418415562
 30
0.0
 11
11.23093941545221
 21
16.09835738040573
 31
0.0
  0
LINE
  5
69C4
330
69B7
100
AcDbEntity
  8
虛線
 48
0.25
100
AcDbLine
 10
0.2309394154535767
 20
24.698418415562
 30
0.0
 11
11.23093941545358
 21
24.698418415562
 31
0.0
  0
LINE
  5
69C5
330
69B7
100
AcDbEntity
  8
虛線
 48
0.25
100
AcDbLine
 10
2.230939415453576
 20
15.79841841556197
 30
0.0
 11
9.230939415453576
 21
15.79841841556197
 31
0.0
  0
LINE
  5
69C6
330
69B7
100
AcDbEntity
  8
虛線
 48
0.25
100
AcDbLine
 10
1.930939415453394
 20
16.09841841556192
 30
0.0
 11
2.230939415453576
 21
15.79841841556191
 31
0.0
  0
LINE
  5
69C7
330
69B7
100
AcDbEntity
  8
虛線
 48
0.25
100
AcDbLine
 10
0.2309394154535767
 20
24.698418415562
 30
0.0
 11
-0.0000006922223292
 21
25.09841841556204
 31
0.0
  0
LINE
  5
69C8
330
69B7
100
AcDbEntity
  8
虛線
 48
0.25
100
AcDbLine
 10
9.230939415453576
 20
15.79841841556197
 30
0.0
 11
9.530939415453758
 21
16.09841841556198
 31
0.0
  0
LINE
  5
69C9
330
69B7
100
AcDbEntity
  8
虛線
 48
0.25
100
AcDbLine
 10
11.23093941545358
 20
24.698418415562
 30
0.0
 11
11.46187952312948
 21
25.09841841556204
 31
0.0
  0
ENDBLK
  5
69CA
330
69B7
100
AcDbEntity
  8
0
 62
     1
 48
0.27
100
AcDbBlockEnd
  0
BLOCK
  5
69CE
330
69CB
100
AcDbEntity
  8
0
 62
     1
 48
0.27
100
AcDbBlockBegin
  2
A$C3310154B
 70
     0
 10
0.0
 20
0.0
 30
0.0
  3
A$C3310154B
  1

  0
LINE
  5
69CF
330
69CB
100
AcDbEntity
  8
虛線
 48
0.2
100
AcDbLine
 10
0.4999707651827521
 20
12.80115016654724
 30
0.0
 11
0.4999707651836616
 21
5.30113016654775
 31
0.0
  0
LINE
  5
69D0
330
69CB
100
AcDbEntity
  8
虛線
 48
0.2
100
AcDbLine
 10
6.499970765181842
 20
12.80111016654831
 30
0.0
 11
6.499970765183661
 21
5.301130166548432
 31
0.0
  0
LINE
  5
69D1
330
69CB
100
AcDbEntity
  8
虛線
 48
0.2
100
AcDbLine
 10
6.499970765183661
 20
5.301130166548432
 30
0.0
 11
0.4999707651836616
 21
5.30113016654775
 31
0.0
  0
LINE
  5
69D2
330
69CB
100
AcDbEntity
  8
中心線
 48
0.25
100
AcDbLine
 10
3.49999076518344
 20
15.30112016654811
 30
0.0
 11
3.499990765177699
 21
0.000000166540076
 31
0.0
  0
LINE
  5
69D3
330
69CB
100
AcDbEntity
  8
虛線
 48
0.2
100
AcDbLine
 10
5.999980765182044
 20
12.30112016654846
 30
0.0
 11
5.999980765187501
 21
2.30113016655747
 31
0.0
  0
LINE
  5
69D4
330
69CB
100
AcDbEntity
  8
虛線
 48
0.2
100
AcDbLine
 10
1.000000765181994
 20
12.30112016654812
 30
0.0
 11
1.000000765187905
 21
2.301130166554685
 31
0.0
  0
LINE
  5
69D5
330
69CB
100
AcDbEntity
  8
虛線
 48
0.2
100
AcDbLine
 10
5.999980765187501
 20
2.30113016655747
 30
0.0
 11
1.000000765187905
 21
2.301130166554685
 31
0.0
  0
LINE
  5
69D6
330
69CB
100
AcDbEntity
  8
虛線
 48
0.2
100
AcDbLine
 10
5.999980765182499
 20
12.3011201665484
 30
0.0
 11
1.000000765181994
 21
12.30112016654817
 31
0.0
  0
LINE
  5
69D7
330
69CB
100
AcDbEntity
  8
虛線
 48
0.2
100
AcDbLine
 10
5.999980765182044
 20
12.3011201665484
 30
0.0
 11
6.999980765182499
 21
13.30112016654863
 31
0.0
  0
LINE
  5
69D8
330
69CB
100
AcDbEntity
  8
虛線
 48
0.2
100
AcDbLine
 10
5.999980765187956
 20
2.301130166557413
 30
0.0
 11
3.499990765183611
 21
0.801130166544965
 31
0.0
  0
LINE
  5
69D9
330
69CB
100
AcDbEntity
  8
虛線
 48
0.2
100
AcDbLine
 10
1.000000765187905
 20
2.30113016657259
 30
0.0
 11
3.499990765178154
 21
0.801130166544965
 31
0.0
  0
LINE
  5
69DA
330
69CB
100
AcDbEntity
  8
虛線
 48
0.2
100
AcDbLine
 10
1.00000076518495
 20
12.30112016654834
 30
0.0
 11
0.0000007651844385
 21
13.30112016654854
 31
0.0
  0
ENDBLK
  5
69DB
330
69CB
100
AcDbEntity
  8
0
 62
     1
 48
0.27
100
AcDbBlockEnd
  0
ENDSEC
  0
SECTION
  2
ENTITIES
  0
LINE
  5
9F65
330
1E
100
AcDbEntity
  8
中心線
 48
0.2
100
AcDbLine
 10
1695.200868311769
 20
1267.37792276026
 30
0.0
 11
1700.864595010147
 21
1267.37792276026
 31
0.0
  0
ARC
  5
9F66
330
1E
100
AcDbEntity
  8
0
 62
     0
 48
0.27
100
AcDbCircle
 10
1700.364595010147
 20
1267.377922760209
 30
0.0
 40
3.700000000000045
100
AcDbArc
 50
132.5066423026926
 51
227.4933576973074
  0
LINE
  5
9F67
330
1E
100
AcDbEntity
  8
中心線
 48
0.2
100
AcDbLine
 10
1695.200868311769
 20
1230.37792276026
 30
0.0
 11
1700.864595010147
 21
1230.37792276026
 31
0.0
  0
ARC
  5
9F68
330
1E
100
AcDbEntity
  8
0
 62
     0
 48
0.27
100
AcDbCircle
 10
1700.364595010147
 20
1230.37792276021
 30
0.0
 40
3.700000000000045
100
AcDbArc
 50
132.5066423026926
 51
227.4933576973074
  0
LINE
  5
9F69
330
1E
100
AcDbEntity
  8
中心線
 48
0.2
100
AcDbLine
 10
1798.428321708526
 20
1267.37792276026
 30
0.0
 11
1792.764595010147
 21
1267.37792276026
 31
0.0
  0
ARC
  5
9F6A
330
1E
100
AcDbEntity
  8
0
 62
     0
 48
0.27
100
AcDbCircle
 10
1793.264595010148
 20
1267.377922760209
 30
0.0
 40
3.700000000000045
100
AcDbArc
 50
312.5066423026926
 51
47.49335769730743
  0
LINE
  5
9F6B
330
1E
100
AcDbEntity
  8
中心線
 48
0.2
100
AcDbLine
 10
1798.428321708526
 20
1230.37792276026
 30
0.0
 11
1792.764595010147
 21
1230.37792276026
 31
0.0
  0
ARC
  5
9F6C
330
1E
100
AcDbEntity
  8
0
 62
     0
 48
0.27
100
AcDbCircle
 10
1793.264595010148
 20
1230.37792276021
 30
0.0
 40
3.700000000000045
100
AcDbArc
 50
312.5066423026926
 51
47.49335769730743
  0
LINE
  5
9F6D
330
1E
100
AcDbEntity
  8
中心線
 48
0.2
100
AcDbLine
 10
1798.428321708526
 20
1154.99603903049
 30
0.0
 11
1792.764595010147
 21
1154.99603903049
 31
0.0
  0
LINE
  5
9F6E
330
1E
100
AcDbEntity
  8
中心線
 48
0.2
100
AcDbLine
 10
1695.200868311769
 20
1154.99603903049
 30
0.0
 11
1700.864595010148
 21
1154.99603903049
 31
0.0
  0
ARC
  5
9F6F
330
1E
100
AcDbEntity
  8
0
 62
     0
 48
0.27
100
AcDbCircle
 10
1700.364595010147
 20
1154.996039030439
 30
0.0
 40
3.700000000000045
100
AcDbArc
 50
132.5066423026926
 51
227.4933576973074
  0
ARC
  5
9F70
330
1E
100
AcDbEntity
  8
0
 62
     0
 48
0.27
100
AcDbCircle
 10
1793.264595010148
 20
1154.996039030439
 30
0.0
 40
3.700000000000045
100
AcDbArc
 50
312.5066423026926
 51
47.49335769730743
  0
LINE
  5
9F71
330
1E
100
AcDbEntity
  8
0
 62
     0
 48
0.27
100
AcDbLine
 10
1701.364595010147
 20
1145.845286510417
 30
0.0
 11
1701.364595010147
 21
1143.345286510417
 31
0.0
  0
ARC
  5
9F72
330
1E
100
AcDbEntity
  8
0
 62
     0
 48
0.27
100
AcDbCircle
 10
1702.364595010147
 20
1143.345286510417
 30
0.0
 40
1.000000000000014
100
AcDbArc
 50
180.0
 51
270.0
  0
ARC
  5
9F73
330
1E
100
AcDbEntity
  8
0
 62
     0
 48
0.27
100
AcDbCircle
 10
1702.364595010147
 20
1145.845286510417
 30
0.0
 40
1.000000000000028
100
AcDbArc
 50
90.0
 51
180.0
  0
LINE
  5
9F74
330
1E
100
AcDbEntity
  8
0
  6
Continuous
 62
     7
100
AcDbLine
 10
1703.064595010147
 20
1146.845286510417
 30
0.0
 11
1702.364595010147
 21
1146.845286510417
 31
0.0
  0
LINE
  5
9F75
330
1E
100
AcDbEntity
  8
0
  6
Continuous
 62
     7
100
AcDbLine
 10
1702.364595010147
 20
1142.345286510417
 30
0.0
 11
1703.064595010147
 21
1142.345286510417
 31
0.0
  0
LINE
  5
9F76
330
1E
100
AcDbEntity
  8
0
 62
     0
 48
0.27
100
AcDbLine
 10
1792.264595010147
 20
1145.845286510417
 30
0.0
 11
1792.264595010147
 21
1143.345286510417
 31
0.0
  0
ARC
  5
9F77
330
1E
100
AcDbEntity
  8
0
 62
     0
 48
0.27
100
AcDbCircle
 10
1791.264595010147
 20
1143.345286510417
 30
0.0
 40
1.000000000000014
100
AcDbArc
 50
270.0
 51
0.0
  0
ARC
  5
9F78
330
1E
100
AcDbEntity
  8
0
 62
     0
 48
0.27
100
AcDbCircle
 10
1791.264595010147
 20
1145.845286510417
 30
0.0
 40
1.000000000000028
100
AcDbArc
 50
0.0
 51
89.99999999998697
  0
LINE
  5
9F79
330
1E
100
AcDbEntity
  8
0
  6
Continuous
 62
     7
100
AcDbLine
 10
1790.564595010147
 20
1146.845286510417
 30
0.0
 11
1791.264595010147
 21
1146.845286510417
 31
0.0
  0
LINE
  5
9F7A
330
1E
100
AcDbEntity
  8
0
  6
Continuous
 62
     7
100
AcDbLine
 10
1791.264595010147
 20
1142.345286510417
 30
0.0
 11
1790.564595010147
 21
1142.345286510417
 31
0.0
  0
INSERT
  5
9F7B
330
1E
100
AcDbEntity
  8
0
 48
0.27
100
AcDbBlockReference
  2
A$C3310154B
 10
1732.814585775331
 20
1156.909716036569
 30
0.0
 41
-1.0
  0
INSERT
  5
9F7C
330
1E
100
AcDbEntity
  8
0
 48
0.27
100
AcDbBlockReference
  2
A$C3310154B
 10
1767.814585775331
 20
1156.909716036569
 30
0.0
 41
-1.0
  0
LINE
  5
9F7D
330
1E
100
AcDbEntity
  8
中心線
 48
0.12
100
AcDbLine
 10
1729.314595010148
 20
1262.37792276026
 30
0.0
 11
1729.314595010148
 21
1270.37792276026
 31
0.0
  0
LINE
  5
9F7E
330
1E
100
AcDbEntity
  8
中心線
 48
0.12
100
AcDbLine
 10
1733.314595010148
 20
1266.37792276026
 30
0.0
 11
1725.314595010148
 21
1266.37792276026
 31
0.0
  0
CIRCLE
  5
9F80
330
1E
100
AcDbEntity
  8
0
  6
Continuous
 62
     7
100
AcDbCircle
 10
1729.314595010147
 20
1266.37792276026
 30
0.0
 40
2.5
  0
LINE
  5
9F81
330
1E
100
AcDbEntity
  8
中心線
 48
0.12
100
AcDbLine
 10
1729.314595010148
 20
1244.87792276026
 30
0.0
 11
1729.314595010148
 21
1252.87792276026
 31
0.0
  0
CIRCLE
  5
9F84
330
1E
100
AcDbEntity
  8
0
  6
Continuous
 62
     7
100
AcDbCircle
 10
1729.314595010147
 20
1248.877922760259
 30
0.0
 40
2.5
  0
LINE
  5
9F85
330
1E
100
AcDbEntity
  8
中心線
 48
0.12
100
AcDbLine
 10
1729.314595010148
 20
1227.37792276026
 30
0.0
 11
1729.314595010148
 21
1235.37792276026
 31
0.0
  0
LINE
  5
9F86
330
1E
100
AcDbEntity
  8
中心線
 48
0.12
100
AcDbLine
 10
1733.314595010148
 20
1231.377922760259
 30
0.0
 11
1725.314595010148
 21
1231.377922760259
 31
0.0
  0
CIRCLE
  5
9F88
330
1E
100
AcDbEntity
  8
0
  6
Continuous
 62
     7
100
AcDbCircle
 10
1729.314595010147
 20
1231.377922760259
 30
0.0
 40
2.5
  0
LINE
  5
9F89
330
1E
100
AcDbEntity
  8
中心線
 48
0.12
100
AcDbLine
 10
1764.314595010147
 20
1227.37792276026
 30
0.0
 11
1764.314595010147
 21
1235.37792276026
 31
0.0
  0
LINE
  5
9F8A
330
1E
100
AcDbEntity
  8
中心線
 48
0.12
100
AcDbLine
 10
1768.314595010147
 20
1231.377922760259
 30
0.0
 11
1760.314595010148
 21
1231.377922760259
 31
0.0
  0
CIRCLE
  5
9F8C
330
1E
100
AcDbEntity
  8
0
  6
Continuous
 62
     7
100
AcDbCircle
 10
1764.314595010147
 20
1231.377922760259
 30
0.0
 40
2.5
  0
LINE
  5
9F8D
330
1E
100
AcDbEntity
  8
中心線
 48
0.12
100
AcDbLine
 10
1764.314595010147
 20
1244.87792276026
 30
0.0
 11
1764.314595010147
 21
1252.87792276026
 31
0.0
  0
CIRCLE
  5
9F90
330
1E
100
AcDbEntity
  8
0
  6
Continuous
 62
     7
100
AcDbCircle
 10
1764.314595010147
 20
1248.877922760259
 30
0.0
 40
2.5
  0
LINE
  5
9F91
330
1E
100
AcDbEntity
  8
中心線
 48
0.12
100
AcDbLine
 10
1764.314595010147
 20
1262.37792276026
 30
0.0
 11
1764.314595010147
 21
1270.37792276026
 31
0.0
  0
LINE
  5
9F92
330
1E
100
AcDbEntity
  8
中心線
 48
0.12
100
AcDbLine
 10
1768.314595010147
 20
1266.37792276026
 30
0.0
 11
1760.314595010148
 21
1266.37792276026
 31
0.0
  0
LINE
  5
9F93
330
1E
100
AcDbEntity
  8
中心線
 48
0.2
100
AcDbLine
 10
1836.814595010153
 20
1241.631005254534
 30
0.0
 11
1836.814595010153
 21
1256.124840265986
 31
0.0
  0
LINE
  5
9F94
330
1E
100
AcDbEntity
  8
中心線
 48
0.2
100
AcDbLine
 10
1829.567677504426
 20
1248.877922760259
 30
0.0
 11
1844.061512515879
 21
1248.877922760259
 31
0.0
  0
CIRCLE
  5
9F95
330
1E
100
AcDbEntity
  8
0
 48
0.27
100
AcDbCircle
 10
1836.814595010153
 20
1248.877922760259
 30
0.0
 40
5.5
  0
CIRCLE
  5
9F96
330
1E
100
AcDbEntity
  8
0
 48
0.27
100
AcDbCircle
 10
1836.814595010153
 20
1248.877922760259
 30
0.0
 40
3.5
  0
LINE
  5
9F97
330
1E
100
AcDbEntity
  8
中心線
 48
0.2
100
AcDbLine
 10
1806.814595010153
 20
1241.631005254534
 30
0.0
 11
1806.814595010153
 21
1256.124840265986
 31
0.0
  0
LINE
  5
9F98
330
1E
100
AcDbEntity
  8
中心線
 48
0.2
100
AcDbLine
 10
1799.567677504426
 20
1248.877922760259
 30
0.0
 11
1814.061512515879
 21
1248.877922760259
 31
0.0
  0
CIRCLE
  5
9F99
330
1E
100
AcDbEntity
  8
0
 48
0.27
100
AcDbCircle
 10
1806.814595010153
 20
1248.877922760259
 30
0.0
 40
5.5
  0
CIRCLE
  5
9F9A
330
1E
100
AcDbEntity
  8
0
 48
0.27
100
AcDbCircle
 10
1806.814595010153
 20
1248.877922760259
 30
0.0
 40
3.5
  0
LINE
  5
9F9F
330
1E
100
AcDbEntity
  8
中心線
 48
0.2
100
AcDbLine
 10
1656.814595010153
 20
1241.631005254534
 30
0.0
 11
1656.814595010153
 21
1256.124840265986
 31
0.0
  0
LINE
  5
9FA0
330
1E
100
AcDbEntity
  8
中心線
 48
0.2
100
AcDbLine
 10
1649.567677504427
 20
1248.877922760259
 30
0.0
 11
1664.061512515879
 21
1248.877922760259
 31
0.0
  0
CIRCLE
  5
9FA1
330
1E
100
AcDbEntity
  8
0
 48
0.27
100
AcDbCircle
 10
1656.814595010153
 20
1248.877922760259
 30
0.0
 40
5.5
  0
CIRCLE
  5
9FA2
330
1E
100
AcDbEntity
  8
0
 48
0.27
100
AcDbCircle
 10
1656.814595010153
 20
1248.877922760259
 30
0.0
 40
3.5
  0
LINE
  5
9FA3
330
1E
100
AcDbEntity
  8
0
 62
     0
 48
0.27
100
AcDbLine
 10
1856.814595010147
 20
1237.37793038966
 30
0.0
 11
1856.814595010147
 21
1260.37791513086
 31
0.0
  0
LINE
  5
9FA4
330
1E
100
AcDbEntity
  8
0
 62
     0
 48
0.27
100
AcDbLine
 10
1636.814595010148
 20
1237.37793038966
 30
0.0
 11
1636.814595010148
 21
1260.37791513086
 31
0.0
  0
INSERT
  5
9FA5
330
1E
100
AcDbEntity
  8
0
 62
     1
 48
0.27
100
AcDbBlockReference
  2
A$C51E2538E
 10
1831.083655594697
 20
1128.712418305132
 30
0.0
  0
INSERT
  5
9FA6
330
1E
100
AcDbEntity
  8
0
 62
     1
 48
0.27
100
AcDbBlockReference
  2
A$C51E2538E
 10
1801.083655594697
 20
1128.712418305132
 30
0.0
  0
LINE
  5
9FA7
330
1E
100
AcDbEntity
  8
虛線
 48
0.25
100
AcDbLine
 10
1780.314595010149
 20
1130.710806203121
 30
0.0
 11
1780.814595010149
 21
1130.210806203121
 31
0.0
  0
LINE
  5
9FA8
330
1E
100
AcDbEntity
  8
虛線
 48
0.25
100
AcDbLine
 10
1773.314595010157
 20
1130.71080620312
 30
0.0
 11
1772.814595010158
 21
1130.21080620312
 31
0.0
  0
LINE
  5
9FA9
330
1E
100
AcDbEntity
  8
中心線
 48
0.25
100
AcDbLine
 10
1776.814595010149
 20
1135.710836203118
 30
0.0
 11
1776.814595010147
 21
1128.712418305136
 31
0.0
  0
LINE
  5
9FAA
330
1E
100
AcDbEntity
  8
虛線
 48
0.25
100
AcDbLine
 10
1773.314595010155
 20
1135.710836203118
 30
0.0
 11
1773.314595010157
 21
1130.71080620312
 31
0.0
  0
LINE
  5
9FAB
330
1E
100
AcDbEntity
  8
虛線
 48
0.25
100
AcDbLine
 10
1780.314595010151
 20
1135.710836203118
 30
0.0
 11
1780.314595010149
 21
1130.710806203121
 31
0.0
  0
LINE
  5
9FAC
330
1E
100
AcDbEntity
  8
虛線
 48
0.25
100
AcDbLine
 10
1780.314595010149
 20
1130.710806203121
 30
0.0
 11
1773.314595010157
 21
1130.71080620312
 31
0.0
  0
LINE
  5
9FAD
330
1E
100
AcDbEntity
  8
虛線
 48
0.25
100
AcDbLine
 10
1750.314595010149
 20
1130.710806203121
 30
0.0
 11
1750.814595010148
 21
1130.210806203121
 31
0.0
  0
LINE
  5
9FAE
330
1E
100
AcDbEntity
  8
虛線
 48
0.25
100
AcDbLine
 10
1743.314595010157
 20
1130.71080620312
 30
0.0
 11
1742.814595010158
 21
1130.21080620312
 31
0.0
  0
LINE
  5
9FAF
330
1E
100
AcDbEntity
  8
中心線
 48
0.25
100
AcDbLine
 10
1746.814595010149
 20
1135.710836203118
 30
0.0
 11
1746.814595010147
 21
1128.712418305136
 31
0.0
  0
LINE
  5
9FB0
330
1E
100
AcDbEntity
  8
虛線
 48
0.25
100
AcDbLine
 10
1743.314595010155
 20
1135.710836203118
 30
0.0
 11
1743.314595010157
 21
1130.71080620312
 31
0.0
  0
LINE
  5
9FB1
330
1E
100
AcDbEntity
  8
虛線
 48
0.25
100
AcDbLine
 10
1750.314595010151
 20
1135.710836203118
 30
0.0
 11
1750.314595010149
 21
1130.710806203121
 31
0.0
  0
LINE
  5
9FB2
330
1E
100
AcDbEntity
  8
虛線
 48
0.25
100
AcDbLine
 10
1750.314595010149
 20
1130.710806203121
 30
0.0
 11
1743.314595010157
 21
1130.71080620312
 31
0.0
  0
LINE
  5
9FB3
330
1E
100
AcDbEntity
  8
虛線
 48
0.25
100
AcDbLine
 10
1720.314595010149
 20
1130.710806203121
 30
0.0
 11
1720.814595010148
 21
1130.210806203121
 31
0.0
  0
LINE
  5
9FB4
330
1E
100
AcDbEntity
  8
虛線
 48
0.25
100
AcDbLine
 10
1713.314595010157
 20
1130.71080620312
 30
0.0
 11
1712.814595010158
 21
1130.21080620312
 31
0.0
  0
LINE
  5
9FB5
330
1E
100
AcDbEntity
  8
中心線
 48
0.25
100
AcDbLine
 10
1716.814595010148
 20
1135.710836203118
 30
0.0
 11
1716.814595010147
 21
1128.712418305136
 31
0.0
  0
LINE
  5
9FB6
330
1E
100
AcDbEntity
  8
虛線
 48
0.25
100
AcDbLine
 10
1713.314595010155
 20
1135.710836203118
 30
0.0
 11
1713.314595010157
 21
1130.71080620312
 31
0.0
  0
LINE
  5
9FB7
330
1E
100
AcDbEntity
  8
虛線
 48
0.25
100
AcDbLine
 10
1720.314595010151
 20
1135.710836203118
 30
0.0
 11
1720.314595010149
 21
1130.710806203121
 31
0.0
  0
LINE
  5
9FB8
330
1E
100
AcDbEntity
  8
虛線
 48
0.25
100
AcDbLine
 10
1720.314595010149
 20
1130.710806203121
 30
0.0
 11
1713.314595010157
 21
1130.71080620312
 31
0.0
  0
INSERT
  5
9FB9
330
1E
100
AcDbEntity
  8
0
 62
     1
 48
0.27
100
AcDbBlockReference
  2
A$C51E2538E
 10
1681.083655594697
 20
1128.712418305132
 30
0.0
  0
LINE
  5
9FBB
330
1E
100
AcDbEntity
  8
0
 62
     0
 48
0.27
100
AcDbLine
 10
1856.814595010147
 20
1153.810836720717
 30
0.0
 11
1856.814595010147
 21
1130.210806203117
 31
0.0
  0
LINE
  5
9FBC
330
1E
100
AcDbEntity
  8
0
 62
     0
 48
0.27
100
AcDbLine
 10
1636.814595010148
 20
1153.810836720717
 30
0.0
 11
1636.814595010148
 21
1130.210806203117
 31
0.0
  0
LINE
  5
9FBF
330
1E
100
AcDbEntity
  8
0
  6
Continuous
 62
     7
100
AcDbLine
 10
1697.864595010148
 20
1135.710826203117
 30
0.0
 11
1697.864595010147
 21
1165.310806203117
 31
0.0
  0
LINE
  5
9FC0
330
1E
100
AcDbEntity
  8
0
  6
Continuous
 62
     7
100
AcDbLine
 10
1700.064595010147
 20
1135.710826203117
 30
0.0
 11
1700.064595010147
 21
1165.810806748075
 31
0.0
  0
LINE
  5
9FC1
330
1E
100
AcDbEntity
  8
0
  6
Continuous
 62
     7
100
AcDbLine
 10
1703.064595010147
 20
1146.895286510417
 30
0.0
 11
1703.064595010147
 21
1142.295286510417
 31
0.0
  0
LINE
  5
9FC2
330
1E
100
AcDbEntity
  8
0
  6
Continuous
 62
     7
100
AcDbLine
 10
1714.564595010147
 20
1170.210836203117
 30
0.0
 11
1714.564595010147
 21
1135.710826203117
 31
0.0
  0
LINE
  5
9FC3
330
1E
100
AcDbEntity
  8
0
  6
Continuous
 62
     7
100
AcDbLine
 10
1636.814595010148
 20
1130.210806203117
 30
0.0
 11
1856.814595010147
 21
1130.210806203117
 31
0.0
  0
LINE
  5
9FC5
330
1E
100
AcDbEntity
  8
0
  6
Continuous
 62
     7
100
AcDbLine
 10
1697.864595010148
 20
1135.710826203117
 30
0.0
 11
1795.764595010147
 21
1135.710826203117
 31
0.0
  0
LINE
  5
9FCC
330
1E
100
AcDbEntity
  8
0
  6
Continuous
 62
     7
100
AcDbLine
 10
1714.564595010147
 20
1136.710836203117
 30
0.0
 11
1697.864595010148
 21
1136.710836203117
 31
0.0
  0
LINE
  5
9FCD
330
1E
100
AcDbEntity
  8
0
  6
Continuous
 62
     7
100
AcDbLine
 10
1779.064595010147
 20
1136.710836203117
 30
0.0
 11
1795.764595010147
 21
1136.710836203117
 31
0.0
  0
LINE
  5
9FCE
330
1E
100
AcDbEntity
  8
0
  6
Continuous
 62
     7
100
AcDbLine
 10
1714.564595010147
 20
1137.210838627917
 30
0.0
 11
1779.064595010147
 21
1137.210838627917
 31
0.0
  0
LINE
  5
9FD9
330
1E
100
AcDbEntity
  8
0
  6
Continuous
 62
     7
100
AcDbLine
 10
1793.564595010147
 20
1142.295286510417
 30
0.0
 11
1790.564595010147
 21
1142.295286510417
 31
0.0
  0
LINE
  5
9FDA
330
1E
100
AcDbEntity
  8
0
  6
Continuous
 62
     7
100
AcDbLine
 10
1703.064595010147
 20
1142.295286510417
 30
0.0
 11
1700.064595010147
 21
1142.295286510417
 31
0.0
  0
LINE
  5
9FDB
330
1E
100
AcDbEntity
  8
0
  6
Continuous
 62
     7
100
AcDbLine
 10
1700.064595010147
 20
1146.895286510417
 30
0.0
 11
1703.064595010147
 21
1146.895286510417
 31
0.0
  0
LINE
  5
9FDC
330
1E
100
AcDbEntity
  8
0
  6
Continuous
 62
     7
100
AcDbLine
 10
1790.564595010147
 20
1146.895286510417
 30
0.0
 11
1793.564595010147
 21
1146.895286510417
 31
0.0
  0
LINE
  5
9FED
330
1E
100
AcDbEntity
  8
0
  6
Continuous
 62
     7
100
AcDbLine
 10
1671.072860669352
 20
1153.410836720718
 30
0.0
 11
1697.021372965884
 21
1153.410836720717
 31
0.0
  0
LINE
  5
9FEE
330
1E
100
AcDbEntity
  8
0
  6
Continuous
 62
     7
100
AcDbLine
 10
1796.607817054411
 20
1153.410836720717
 30
0.0
 11
1856.814595010147
 21
1153.410836720717
 31
0.0
  0
LINE
  5
9FEF
330
1E
100
AcDbEntity
  8
0
  6
Continuous
 62
     7
100
AcDbLine
 10
1636.814595010148
 20
1153.810836720717
 30
0.0
 11
1696.859556424763
 21
1153.810836720717
 31
0.0
  0
LINE
  5
9FF0
330
1E
100
AcDbEntity
  8
0
  6
Continuous
 62
     7
100
AcDbLine
 10
1796.769633595531
 20
1153.810836720717
 30
0.0
 11
1856.814595010147
 21
1153.810836720717
 31
0.0
  0
LINE
  5
9FF1
330
1E
100
AcDbEntity
  8
0
  6
Continuous
 62
     7
100
AcDbLine
 10
1714.564595010147
 20
1164.210806203118
 30
0.0
 11
1700.064595010148
 21
1164.210806203118
 31
0.0
  0
LINE
  5
9FF2
330
1E
100
AcDbEntity
  8
0
  6
Continuous
 62
     7
100
AcDbLine
 10
1700.064595010147
 20
1164.210806203118
 30
0.0
 11
1697.864595010147
 21
1164.210806203118
 31
0.0
  0
LINE
  5
9FF3
330
1E
100
AcDbEntity
  8
0
  6
Continuous
 62
     7
100
AcDbLine
 10
1779.064595010147
 20
1164.210806203118
 30
0.0
 11
1793.564595010147
 21
1164.210806203118
 31
0.0
  0
LINE
  5
9FF4
330
1E
100
AcDbEntity
  8
0
  6
Continuous
 62
     7
100
AcDbLine
 10
1793.564595010147
 20
1164.210806203118
 30
0.0
 11
1795.764595010147
 21
1164.210806203118
 31
0.0
  0
LINE
  5
9FF5
330
1E
100
AcDbEntity
  8
0
  6
Continuous
 62
     7
100
AcDbLine
 10
1714.564595010147
 20
1165.310806203117
 30
0.0
 11
1700.064595010148
 21
1165.310806203117
 31
0.0
  0
LINE
  5
9FF6
330
1E
100
AcDbEntity
  8
0
  6
Continuous
 62
     7
100
AcDbLine
 10
1700.064595010147
 20
1165.310806203117
 30
0.0
 11
1697.864595010147
 21
1165.310806203117
 31
0.0
  0
LINE
  5
9FF7
330
1E
100
AcDbEntity
  8
0
  6
Continuous
 62
     7
100
AcDbLine
 10
1779.064595010147
 20
1165.310806203117
 30
0.0
 11
1793.564595010147
 21
1165.310806203117
 31
0.0
  0
LINE
  5
9FF8
330
1E
100
AcDbEntity
  8
0
  6
Continuous
 62
     7
100
AcDbLine
 10
1793.564595010147
 20
1165.310806203117
 30
0.0
 11
1795.764595010147
 21
1165.310806203117
 31
0.0
  0
LINE
  5
9FF9
330
1E
100
AcDbEntity
  8
0
  6
Continuous
 62
     7
100
AcDbLine
 10
1714.564595010147
 20
1165.810790944317
 30
0.0
 11
1700.064595010147
 21
1165.810806748075
 31
0.0
  0
LINE
  5
9FFA
330
1E
100
AcDbEntity
  8
0
  6
Continuous
 62
     7
100
AcDbLine
 10
1779.064595010147
 20
1165.810806203118
 30
0.0
 11
1793.564595010147
 21
1165.810806203118
 31
0.0
  0
LINE
  5
9FFB
330
1E
100
AcDbEntity
  8
0
  6
Continuous
 62
     7
100
AcDbLine
 10
1714.564595010147
 20
1168.710836203117
 30
0.0
 11
1779.064595010147
 21
1168.710836203117
 31
0.0
  0
LINE
  5
9FFC
330
1E
100
AcDbEntity
  8
0
  6
Continuous
 62
     7
100
AcDbLine
 10
1714.564595010147
 20
1170.210836203117
 30
0.0
 11
1779.064595010147
 21
1170.210836203117
 31
0.0
  0
LINE
  5
9FFD
330
1E
100
AcDbEntity
  8
0
  6
Continuous
 62
     7
100
AcDbLine
 10
1779.064595010147
 20
1170.210836203117
 30
0.0
 11
1779.064595010147
 21
1135.710836203117
 31
0.0
  0
LINE
  5
9FFE
330
1E
100
AcDbEntity
  8
0
  6
Continuous
 62
     7
100
AcDbLine
 10
1790.564595010147
 20
1142.295286510417
 30
0.0
 11
1790.564595010147
 21
1146.895286510417
 31
0.0
  0
LINE
  5
9FFF
330
1E
100
AcDbEntity
  8
0
  6
Continuous
 62
     7
100
AcDbLine
 10
1793.564595010147
 20
1135.710826203117
 30
0.0
 11
1793.564595010147
 21
1165.810806203118
 31
0.0
  0
LINE
  5
A000
330
1E
100
AcDbEntity
  8
0
  6
Continuous
 62
     7
100
AcDbLine
 10
1795.764595010147
 20
1135.710826203117
 30
0.0
 11
1795.764595010147
 21
1165.310806203117
 31
0.0
  0
LINE
  5
A001
330
1E
100
AcDbEntity
  8
0
  6
Continuous
 62
     7
100
AcDbLine
 10
1697.864595010147
 20
1225.37792276026
 30
0.0
 11
1697.864595010147
 21
1272.37786276026
 31
0.0
  0
LINE
  5
A002
330
1E
100
AcDbEntity
  8
0
  6
Continuous
 62
     7
100
AcDbLine
 10
1700.064595010147
 20
1225.37792276026
 30
0.0
 11
1700.064595010147
 21
1272.37786276026
 31
0.0
  0
LINE
  5
A003
330
1E
100
AcDbEntity
  8
0
  6
Continuous
 62
     7
100
AcDbLine
 10
1714.564595010147
 20
1224.87795276026
 30
0.0
 11
1714.564595010147
 21
1272.87789276026
 31
0.0
  0
LINE
  5
A004
330
1E
100
AcDbEntity
  8
0
  6
Continuous
 62
     7
100
AcDbLine
 10
1714.564595010147
 20
1224.87795276026
 30
0.0
 11
1779.064595010147
 21
1224.87795276026
 31
0.0
  0
LINE
  5
A005
330
1E
100
AcDbEntity
  8
0
  6
Continuous
 62
     7
100
AcDbLine
 10
1714.564595010147
 20
1225.37792276026
 30
0.0
 11
1700.064595010147
 21
1225.37792276026
 31
0.0
  0
LINE
  5
A006
330
1E
100
AcDbEntity
  8
0
  6
Continuous
 62
     7
100
AcDbLine
 10
1700.064595010147
 20
1225.37792276026
 30
0.0
 11
1697.864595010147
 21
1225.37792276026
 31
0.0
  0
LINE
  5
A007
330
1E
100
AcDbEntity
  8
0
  6
Continuous
 62
     7
100
AcDbLine
 10
1779.064595010147
 20
1225.37792276026
 30
0.0
 11
1793.564595010147
 21
1225.37792276026
 31
0.0
  0
LINE
  5
A008
330
1E
100
AcDbEntity
  8
0
  6
Continuous
 62
     7
100
AcDbLine
 10
1793.564595010147
 20
1225.37792276026
 30
0.0
 11
1795.764595010147
 21
1225.37792276026
 31
0.0
  0
LINE
  5
A009
330
1E
100
AcDbEntity
  8
0
  6
Continuous
 62
     7
100
AcDbLine
 10
1714.564595010147
 20
1226.37795276026
 30
0.0
 11
1779.064595010147
 21
1226.37795276026
 31
0.0
  0
LINE
  5
A00A
330
1E
100
AcDbEntity
  8
0
  6
Continuous
 62
     7
100
AcDbLine
 10
1714.564595010147
 20
1226.47792276026
 30
0.0
 11
1700.064595010147
 21
1226.47792276026
 31
0.0
  0
LINE
  5
A00B
330
1E
100
AcDbEntity
  8
0
  6
Continuous
 62
     7
100
AcDbLine
 10
1700.064595010147
 20
1226.47792276026
 30
0.0
 11
1697.864595010147
 21
1226.47792276026
 31
0.0
  0
LINE
  5
A00C
330
1E
100
AcDbEntity
  8
0
  6
Continuous
 62
     7
100
AcDbLine
 10
1779.064595010147
 20
1226.47792276026
 30
0.0
 11
1793.564595010147
 21
1226.47792276026
 31
0.0
  0
LINE
  5
A00D
330
1E
100
AcDbEntity
  8
0
  6
Continuous
 62
     7
100
AcDbLine
 10
1793.564595010147
 20
1226.47792276026
 30
0.0
 11
1795.764595010147
 21
1226.47792276026
 31
0.0
  0
LINE
  5
A00E
330
1E
100
AcDbEntity
  8
0
  6
Continuous
 62
     7
100
AcDbLine
 10
1714.564595010147
 20
1237.12795276026
 30
0.0
 11
1779.064595010147
 21
1237.12795276026
 31
0.0
  0
LINE
  5
A00F
330
1E
100
AcDbEntity
  8
0
  6
Continuous
 62
     7
100
AcDbLine
 10
1636.814595010148
 20
1237.37793038966
 30
0.0
 11
1686.909396152514
 21
1237.37793038966
 31
0.0
  0
LINE
  5
A010
330
1E
100
AcDbEntity
  8
0
  6
Continuous
 62
     7
100
AcDbLine
 10
1795.764595010147
 20
1237.37793038966
 30
0.0
 11
1856.814595010147
 21
1237.37793038966
 31
0.0
  0
LINE
  5
A011
330
1E
100
AcDbEntity
  8
0
  6
Continuous
 62
     7
100
AcDbLine
 10
1714.564595010147
 20
1237.62795276026
 30
0.0
 11
1779.064595010147
 21
1237.62795276026
 31
0.0
  0
LINE
  5
A014
330
1E
100
AcDbEntity
  8
0
  6
Continuous
 62
     7
100
AcDbLine
 10
1714.564595010147
 20
1241.37789276026
 30
0.0
 11
1700.064595010147
 21
1241.377900662139
 31
0.0
  0
LINE
  5
A015
330
1E
100
AcDbEntity
  8
0
  6
Continuous
 62
     7
100
AcDbLine
 10
1779.064595010147
 20
1241.37789657496
 30
0.0
 11
1793.564595010147
 21
1241.377900525899
 31
0.0
  0
LINE
  5
A016
330
1E
100
AcDbEntity
  8
0
  6
Continuous
 62
     7
100
AcDbLine
 10
1714.564595010147
 20
1241.87788656136
 30
0.0
 11
1700.064595010147
 21
1241.877902365221
 31
0.0
  0
LINE
  5
A017
330
1E
100
AcDbEntity
  8
0
  6
Continuous
 62
     7
100
AcDbLine
 10
1779.064595010147
 20
1241.87789276026
 30
0.0
 11
1793.564595010147
 21
1241.877902143831
 31
0.0
  0
LINE
  5
A018
330
1E
100
AcDbEntity
  8
0
  6
Continuous
 62
     7
100
AcDbLine
 10
1714.564595010147
 20
1242.62792276026
 30
0.0
 11
1779.064595010147
 21
1242.62792276026
 31
0.0
  0
LINE
  5
A019
330
1E
100
AcDbEntity
  8
0
  6
Continuous
 62
     7
100
AcDbLine
 10
1714.564595010147
 20
1243.12789276026
 30
0.0
 11
1779.064595010147
 21
1243.12789276026
 31
0.0
  0
LINE
  5
A01A
330
1E
100
AcDbEntity
  8
0
  6
Continuous
 62
     7
100
AcDbLine
 10
1714.564595010147
 20
1254.627922760259
 30
0.0
 11
1779.064595010147
 21
1254.627922760259
 31
0.0
  0
LINE
  5
A01B
330
1E
100
AcDbEntity
  8
0
  6
Continuous
 62
     7
100
AcDbLine
 10
1714.564595010147
 20
1255.12792276026
 30
0.0
 11
1779.064595010147
 21
1255.12792276026
 31
0.0
  0
LINE
  5
A01C
330
1E
100
AcDbEntity
  8
0
  6
Continuous
 62
     7
100
AcDbLine
 10
1714.564595010147
 20
1255.87789276026
 30
0.0
 11
1700.064595010147
 21
1255.877883376792
 31
0.0
  0
LINE
  5
A01D
330
1E
100
AcDbEntity
  8
0
  6
Continuous
 62
     7
100
AcDbLine
 10
1779.064595010147
 20
1255.87789895916
 30
0.0
 11
1793.564595010147
 21
1255.877883155402
 31
0.0
  0
LINE
  5
A01E
330
1E
100
AcDbEntity
  8
0
  6
Continuous
 62
     7
100
AcDbLine
 10
1714.564595010147
 20
1256.37788894556
 30
0.0
 11
1700.064595010147
 21
1256.37788499462
 31
0.0
  0
LINE
  5
A01F
330
1E
100
AcDbEntity
  8
0
  6
Continuous
 62
     7
100
AcDbLine
 10
1779.064595010147
 20
1256.37789276026
 30
0.0
 11
1793.564595010147
 21
1256.377884858381
 31
0.0
  0
LINE
  5
A022
330
1E
100
AcDbEntity
  8
0
  6
Continuous
 62
     7
100
AcDbLine
 10
1714.564595010147
 20
1260.12786276026
 30
0.0
 11
1779.064595010147
 21
1260.12786276026
 31
0.0
  0
LINE
  5
A023
330
1E
100
AcDbEntity
  8
0
  6
Continuous
 62
     7
100
AcDbLine
 10
1636.814595010148
 20
1260.37791513086
 30
0.0
 11
1697.864595010147
 21
1260.37791513086
 31
0.0
  0
LINE
  5
A024
330
1E
100
AcDbEntity
  8
0
  6
Continuous
 62
     7
100
AcDbLine
 10
1795.764595010147
 20
1260.37791513086
 30
0.0
 11
1856.814595010147
 21
1260.37791513086
 31
0.0
  0
LINE
  5
A025
330
1E
100
AcDbEntity
  8
0
  6
Continuous
 62
     7
100
AcDbLine
 10
1714.564595010147
 20
1260.62789276026
 30
0.0
 11
1779.064595010147
 21
1260.62789276026
 31
0.0
  0
LINE
  5
A026
330
1E
100
AcDbEntity
  8
0
  6
Continuous
 62
     7
100
AcDbLine
 10
1714.564595010147
 20
1271.27786276026
 30
0.0
 11
1700.064595010147
 21
1271.27786276026
 31
0.0
  0
LINE
  5
A027
330
1E
100
AcDbEntity
  8
0
  6
Continuous
 62
     7
100
AcDbLine
 10
1700.064595010147
 20
1271.27786276026
 30
0.0
 11
1697.864595010147
 21
1271.27786276026
 31
0.0
  0
LINE
  5
A028
330
1E
100
AcDbEntity
  8
0
  6
Continuous
 62
     7
100
AcDbLine
 10
1779.064595010147
 20
1271.27786276026
 30
0.0
 11
1793.564595010147
 21
1271.27786276026
 31
0.0
  0
LINE
  5
A029
330
1E
100
AcDbEntity
  8
0
  6
Continuous
 62
     7
100
AcDbLine
 10
1793.564595010147
 20
1271.27786276026
 30
0.0
 11
1795.764595010147
 21
1271.27786276026
 31
0.0
  0
LINE
  5
A02A
330
1E
100
AcDbEntity
  8
0
  6
Continuous
 62
     7
100
AcDbLine
 10
1714.564595010147
 20
1271.37789276026
 30
0.0
 11
1779.064595010147
 21
1271.37789276026
 31
0.0
  0
LINE
  5
A02B
330
1E
100
AcDbEntity
  8
0
  6
Continuous
 62
     7
100
AcDbLine
 10
1793.564595010147
 20
1272.37786276026
 30
0.0
 11
1793.064595010147
 21
1272.37786276026
 31
0.0
  0
LINE
  5
A02C
330
1E
100
AcDbEntity
  8
0
  6
Continuous
 62
     7
100
AcDbLine
 10
1714.564595010147
 20
1272.37786276026
 30
0.0
 11
1700.064595010147
 21
1272.37786276026
 31
0.0
  0
LINE
  5
A02D
330
1E
100
AcDbEntity
  8
0
  6
Continuous
 62
     7
100
AcDbLine
 10
1700.064595010147
 20
1272.37786276026
 30
0.0
 11
1697.864595010147
 21
1272.37786276026
 31
0.0
  0
LINE
  5
A02E
330
1E
100
AcDbEntity
  8
0
  6
Continuous
 62
     7
100
AcDbLine
 10
1779.064595010147
 20
1272.37786276026
 30
0.0
 11
1793.064595010147
 21
1272.37786276026
 31
0.0
  0
LINE
  5
A02F
330
1E
100
AcDbEntity
  8
0
  6
Continuous
 62
     7
100
AcDbLine
 10
1793.564595010147
 20
1272.37786276026
 30
0.0
 11
1795.764595010147
 21
1272.37786276026
 31
0.0
  0
LINE
  5
A030
330
1E
100
AcDbEntity
  8
0
  6
Continuous
 62
     7
100
AcDbLine
 10
1714.564595010147
 20
1272.87789276026
 30
0.0
 11
1779.064595010147
 21
1272.87789276026
 31
0.0
  0
LINE
  5
A031
330
1E
100
AcDbEntity
  8
0
  6
Continuous
 62
     7
100
AcDbLine
 10
1779.064595010147
 20
1272.87789276026
 30
0.0
 11
1779.064595010147
 21
1224.87795276026
 31
0.0
  0
LINE
  5
A032
330
1E
100
AcDbEntity
  8
0
  6
Continuous
 62
     7
100
AcDbLine
 10
1793.564595010147
 20
1272.37786276026
 30
0.0
 11
1793.564595010147
 21
1225.37792276026
 31
0.0
  0
LINE
  5
A033
330
1E
100
AcDbEntity
  8
0
  6
Continuous
 62
     7
100
AcDbLine
 10
1795.764595010147
 20
1225.37792276026
 30
0.0
 11
1795.764595010147
 21
1272.37786276026
 31
0.0
  0
CIRCLE
  5
A034
330
1E
100
AcDbEntity
  8
0
  6
Continuous
 62
     7
100
AcDbCircle
 10
1786.314595010147
 20
1160.210806203118
 30
0.0
 40
2.5
  0
CIRCLE
  5
A035
330
1E
100
AcDbEntity
  8
0
  6
Continuous
 62
     7
100
AcDbCircle
 10
1786.314595010147
 20
1160.210806203118
 30
0.0
 40
0.75
  0
CIRCLE
  5
A036
330
1E
100
AcDbEntity
  8
0
  6
Continuous
 62
     7
100
AcDbCircle
 10
1786.314595010147
 20
1160.210806203118
 30
0.0
 40
2.9999563091
  0
CIRCLE
  5
A037
330
1E
100
AcDbEntity
  8
0
  6
Continuous
 62
     7
100
AcDbCircle
 10
1707.314595010148
 20
1160.210806203118
 30
0.0
 40
2.5
  0
CIRCLE
  5
A038
330
1E
100
AcDbEntity
  8
0
  6
Continuous
 62
     7
100
AcDbCircle
 10
1707.314595010148
 20
1160.210806203118
 30
0.0
 40
0.75
  0
CIRCLE
  5
A039
330
1E
100
AcDbEntity
  8
0
  6
Continuous
 62
     7
100
AcDbCircle
 10
1707.314595010148
 20
1160.210806203118
 30
0.0
 40
2.9999563091
  0
CIRCLE
  5
A03A
330
1E
100
AcDbEntity
  8
0
  6
Continuous
 62
     7
100
AcDbCircle
 10
1708.564595010147
 20
1248.87789276026
 30
0.0
 40
5.15
  0
CIRCLE
  5
A03B
330
1E
100
AcDbEntity
  8
0
  6
Continuous
 62
     7
100
AcDbCircle
 10
1708.564595010147
 20
1248.87789276026
 30
0.0
 40
0.5
  0
CIRCLE
  5
A03C
330
1E
100
AcDbEntity
  8
0
  6
Continuous
 62
     7
100
AcDbCircle
 10
1785.064595010148
 20
1248.87789276026
 30
0.0
 40
5.15
  0
CIRCLE
  5
A03D
330
1E
100
AcDbEntity
  8
0
  6
Continuous
 62
     7
100
AcDbCircle
 10
1785.064595010148
 20
1248.87789276026
 30
0.0
 40
0.5
  0
ARC
  5
A03E
330
1E
100
AcDbEntity
  8
標註線
 62
     1
100
AcDbCircle
 10
1764.314595010147
 20
1266.377922760259
 30
0.0
 40
3.0
100
AcDbArc
 50
169.9999999999949
 51
100.000000000005
  0
CIRCLE
  5
A03F
330
1E
100
AcDbEntity
  8
0
  6
Continuous
 62
     7
100
AcDbCircle
 10
1764.314595010147
 20
1266.37792276026
 30
0.0
 40
2.5
  0
LINE
  5
A040
330
1E
100
AcDbEntity
  8
0
  6
Continuous
100
AcDbLine
 10
1530.992912035549
 20
1170.210836203114
 30
0.0
 11
1529.492912035549
 21
1168.710836203114
 31
0.0
  0
LINE
  5
A041
330
1E
100
AcDbEntity
  8
0
  6
Continuous
100
AcDbLine
 10
1529.492912035549
 20
1168.710836203114
 30
0.0
 11
1529.49291203555
 21
1160.710836203114
 31
0.0
  0
LINE
  5
A042
330
1E
100
AcDbEntity
  8
0
  6
Continuous
100
AcDbLine
 10
1529.49291203555
 20
1160.710846203114
 30
0.0
 11
1529.992882035549
 21
1160.210846203114
 31
0.0
  0
CIRCLE
  5
A043
330
1E
100
AcDbEntity
  8
指線
 48
0.27
100
AcDbCircle
 10
1571.992872035543
 20
1154.996039030439
 30
0.0
 40
2.75
  0
LINE
  5
A044
330
1E
100
AcDbEntity
  8
指線
 48
0.27
100
AcDbLine
 10
1571.992872035543
 20
1155.551824960452
 30
0.0
 11
1572.826550930562
 21
1156.385503855471
 31
0.0
  0
LINE
  5
A045
330
1E
100
AcDbEntity
  8
指線
 48
0.27
100
AcDbLine
 10
1572.548657965556
 20
1154.996039030439
 30
0.0
 11
1573.382336860575
 21
1155.829717925459
 31
0.0
  0
LINE
  5
A046
330
1E
100
AcDbEntity
  8
指線
 48
0.27
100
AcDbLine
 10
1570.603407210512
 20
1155.829717925459
 30
0.0
 11
1571.43708610553
 21
1154.996039030439
 31
0.0
  0
LINE
  5
A047
330
1E
100
AcDbEntity
  8
指線
 48
0.27
100
AcDbLine
 10
1571.992872035543
 20
1155.551824960452
 30
0.0
 11
1571.159193140525
 21
1156.385503855471
 31
0.0
  0
LINE
  5
A048
330
1E
100
AcDbEntity
  8
指線
 48
0.27
100
AcDbLine
 10
1570.603407210512
 20
1154.16236013542
 30
0.0
 11
1571.159193140524
 21
1153.606574205408
 31
0.0
  0
LINE
  5
A049
330
1E
100
AcDbEntity
  8
指線
 48
0.27
100
AcDbLine
 10
1572.826550930562
 20
1153.606574205408
 30
0.0
 11
1573.382336860575
 21
1154.16236013542
 31
0.0
  0
LINE
  5
A04A
330
1E
100
AcDbEntity
  8
指線
 48
0.27
100
AcDbLine
 10
1573.382336860575
 20
1154.16236013542
 30
0.0
 11
1572.548657965556
 21
1154.996039030439
 31
0.0
  0
LINE
  5
A04B
330
1E
100
AcDbEntity
  8
指線
 48
0.27
100
AcDbLine
 10
1570.603407210512
 20
1154.16236013542
 30
0.0
 11
1571.43708610553
 21
1154.996039030439
 31
0.0
  0
LINE
  5
A04C
330
1E
100
AcDbEntity
  8
指線
 48
0.27
100
AcDbLine
 10
1571.159193140524
 20
1153.606574205408
 30
0.0
 11
1571.992872035543
 21
1154.440253100426
 31
0.0
  0
LINE
  5
A04D
330
1E
100
AcDbEntity
  8
指線
 48
0.27
100
AcDbLine
 10
1572.826550930562
 20
1153.606574205408
 30
0.0
 11
1571.992872035543
 21
1154.440253100426
 31
0.0
  0
LINE
  5
A04E
330
1E
100
AcDbEntity
  8
指線
 48
0.27
100
AcDbLine
 10
1571.159193140525
 20
1156.385503855471
 30
0.0
 11
1570.603407210512
 21
1155.829717925459
 31
0.0
  0
LINE
  5
A04F
330
1E
100
AcDbEntity
  8
指線
 48
0.27
100
AcDbLine
 10
1573.382336860575
 20
1155.829717925459
 30
0.0
 11
1572.826550930562
 21
1156.385503855471
 31
0.0
  0
CIRCLE
  5
A050
330
1E
100
AcDbEntity
  8
指線
 48
0.27
100
AcDbCircle
 10
1534.992892035548
 20
1154.996039030453
 30
0.0
 40
2.75
  0
LINE
  5
A051
330
1E
100
AcDbEntity
  8
指線
 48
0.27
100
AcDbLine
 10
1534.992892035548
 20
1155.551824960466
 30
0.0
 11
1535.826570930568
 21
1156.385503855485
 31
0.0
  0
LINE
  5
A052
330
1E
100
AcDbEntity
  8
指線
 48
0.27
100
AcDbLine
 10
1535.548677965561
 20
1154.996039030453
 30
0.0
 11
1536.38235686058
 21
1155.829717925472
 31
0.0
  0
LINE
  5
A053
330
1E
100
AcDbEntity
  8
指線
 48
0.27
100
AcDbLine
 10
1533.603427210517
 20
1155.829717925472
 30
0.0
 11
1534.437106105536
 21
1154.996039030453
 31
0.0
  0
LINE
  5
A054
330
1E
100
AcDbEntity
  8
指線
 48
0.27
100
AcDbLine
 10
1534.992892035548
 20
1155.551824960466
 30
0.0
 11
1534.15921314053
 21
1156.385503855485
 31
0.0
  0
LINE
  5
A055
330
1E
100
AcDbEntity
  8
指線
 48
0.27
100
AcDbLine
 10
1533.603427210517
 20
1154.162360135434
 30
0.0
 11
1534.159213140529
 21
1153.606574205422
 31
0.0
  0
LINE
  5
A056
330
1E
100
AcDbEntity
  8
指線
 48
0.27
100
AcDbLine
 10
1535.826570930568
 20
1153.606574205422
 30
0.0
 11
1536.38235686058
 21
1154.162360135434
 31
0.0
  0
LINE
  5
A057
330
1E
100
AcDbEntity
  8
指線
 48
0.27
100
AcDbLine
 10
1536.38235686058
 20
1154.162360135434
 30
0.0
 11
1535.548677965561
 21
1154.996039030453
 31
0.0
  0
LINE
  5
A058
330
1E
100
AcDbEntity
  8
指線
 48
0.27
100
AcDbLine
 10
1533.603427210517
 20
1154.162360135434
 30
0.0
 11
1534.437106105536
 21
1154.996039030453
 31
0.0
  0
LINE
  5
A059
330
1E
100
AcDbEntity
  8
指線
 48
0.27
100
AcDbLine
 10
1534.159213140529
 20
1153.606574205422
 30
0.0
 11
1534.992892035548
 21
1154.44025310044
 31
0.0
  0
LINE
  5
A05A
330
1E
100
AcDbEntity
  8
指線
 48
0.27
100
AcDbLine
 10
1535.826570930568
 20
1153.606574205422
 30
0.0
 11
1534.992892035548
 21
1154.44025310044
 31
0.0
  0
LINE
  5
A05B
330
1E
100
AcDbEntity
  8
指線
 48
0.27
100
AcDbLine
 10
1534.15921314053
 20
1156.385503855485
 30
0.0
 11
1533.603427210517
 21
1155.829717925472
 31
0.0
  0
LINE
  5
A05C
330
1E
100
AcDbEntity
  8
指線
 48
0.27
100
AcDbLine
 10
1536.38235686058
 20
1155.829717925472
 30
0.0
 11
1535.826570930568
 21
1156.385503855485
 31
0.0
  0
LINE
  5
A061
330
1E
100
AcDbEntity
  8
0
  6
Continuous
100
AcDbLine
 10
1540.392889664942
 20
1136.210823326395
 30
0.0
 11
1541.592889664942
 21
1136.210821682554
 31
0.0
  0
LINE
  5
A062
330
1E
100
AcDbEntity
  8
0
 48
0.27
100
AcDbLine
 10
1531.092912035546
 20
1165.310806203118
 30
0.0
 11
1575.892852035547
 21
1165.310806203118
 31
0.0
  0
LINE
  5
A063
330
1E
100
AcDbEntity
  8
中心線
 48
0.25
100
AcDbLine
 10
1564.227437004038
 20
1160.010806203153
 30
0.0
 11
1547.859896703582
 21
1160.010806203153
 31
0.0
  0
LINE
  5
A064
330
1E
100
AcDbEntity
  8
0
 48
0.27
100
AcDbLine
 10
1556.379675931803
 20
1163.010849145983
 30
0.0
 11
1555.802316350941
 21
1164.010863905599
 31
0.0
  0
LINE
  5
A065
330
1E
100
AcDbEntity
  8
0
 48
0.27
100
AcDbLine
 10
1557.369659855446
 20
1162.9532039036
 30
0.0
 11
1559.371495673337
 21
1162.047375861394
 31
0.0
  0
LINE
  5
A066
330
1E
100
AcDbEntity
  8
0
 48
0.27
100
AcDbLine
 10
1557.369659855446
 20
1157.068407166687
 30
0.0
 11
1559.371495673337
 21
1157.974235208893
 31
0.0
  0
LINE
  5
A067
330
1E
100
AcDbEntity
  8
0
 48
0.27
100
AcDbLine
 10
1555.997615711928
 20
1160.010806203153
 30
0.0
 11
1556.019676069341
 21
1160.596085708787
 31
0.0
  0
LINE
  5
A068
330
1E
100
AcDbEntity
  8
0
 48
0.27
100
AcDbLine
 10
1556.019676069341
 20
1159.425526697421
 30
0.0
 11
1555.997615711928
 21
1160.010806203153
 31
0.0
  0
LINE
  5
A069
330
1E
100
AcDbEntity
  8
0
 48
0.27
100
AcDbLine
 10
1556.019676069341
 20
1160.596085708787
 30
0.0
 11
1556.085007433083
 21
1161.158873322709
 31
0.0
  0
LINE
  5
A06A
330
1E
100
AcDbEntity
  8
0
 48
0.27
100
AcDbLine
 10
1556.085007433083
 20
1158.862739083598
 30
0.0
 11
1556.019676069341
 21
1159.425526697421
 31
0.0
  0
LINE
  5
A06B
330
1E
100
AcDbEntity
  8
0
 48
0.27
100
AcDbLine
 10
1556.085007433083
 20
1161.158873322709
 30
0.0
 11
1556.191099422019
 21
1161.677540221805
 31
0.0
  0
LINE
  5
A06C
330
1E
100
AcDbEntity
  8
0
 48
0.27
100
AcDbLine
 10
1556.191099422019
 20
1158.344070848483
 30
0.0
 11
1556.085007433083
 21
1158.862739083598
 31
0.0
  0
LINE
  5
A06D
330
1E
100
AcDbEntity
  8
0
 48
0.27
100
AcDbLine
 10
1556.191099422019
 20
1161.677540221805
 30
0.0
 11
1556.33387717619
 21
1162.132157000055
 31
0.0
  0
LINE
  5
A06E
330
1E
100
AcDbEntity
  8
0
 48
0.27
100
AcDbLine
 10
1556.33387717619
 20
1157.889454070233
 30
0.0
 11
1556.191099422019
 21
1158.344070848483
 31
0.0
  0
LINE
  5
A06F
330
1E
100
AcDbEntity
  8
0
 48
0.27
100
AcDbLine
 10
1555.820009259923
 20
1160.010806203153
 30
0.0
 11
1556.482846045703
 21
1163.010849145983
 31
0.0
  0
LINE
  5
A070
330
1E
100
AcDbEntity
  8
0
 48
0.27
100
AcDbLine
 10
1556.482846045703
 20
1157.010761924304
 30
0.0
 11
1555.820009259923
 21
1160.010806203153
 31
0.0
  0
LINE
  5
A071
330
1E
100
AcDbEntity
  8
0
 48
0.27
100
AcDbLine
 10
1556.33387717619
 20
1162.132157000055
 30
0.0
 11
1556.507850990586
 21
1162.505251191695
 31
0.0
  0
LINE
  5
A072
330
1E
100
AcDbEntity
  8
0
 48
0.27
100
AcDbLine
 10
1556.507850990586
 20
1157.516359878592
 30
0.0
 11
1556.33387717619
 21
1157.889454070233
 31
0.0
  0
LINE
  5
A073
330
1E
100
AcDbEntity
  8
0
 48
0.27
100
AcDbLine
 10
1556.507850990586
 20
1162.505251191695
 30
0.0
 11
1556.706336758469
 21
1162.782484633296
 31
0.0
  0
LINE
  5
A074
330
1E
100
AcDbEntity
  8
0
 48
0.27
100
AcDbLine
 10
1556.706336758469
 20
1157.239126436991
 30
0.0
 11
1556.507850990586
 21
1157.516359878592
 31
0.0
  0
LINE
  5
A075
330
1E
100
AcDbEntity
  8
0
 48
0.27
100
AcDbLine
 10
1554.794407050924
 20
1157.010761924304
 30
0.0
 11
1554.131570265145
 21
1160.010806203153
 31
0.0
  0
LINE
  5
A076
330
1E
100
AcDbEntity
  8
0
 48
0.27
100
AcDbLine
 10
1554.131570265145
 20
1160.010806203153
 30
0.0
 11
1555.820009259923
 21
1160.010806203153
 31
0.0
  0
LINE
  5
A077
330
1E
100
AcDbEntity
  8
0
 48
0.27
100
AcDbLine
 10
1554.131570265145
 20
1160.010806203153
 30
0.0
 11
1554.794407050924
 21
1163.010849145983
 31
0.0
  0
LINE
  5
A078
330
1E
100
AcDbEntity
  8
0
 48
0.27
100
AcDbLine
 10
1556.706336758469
 20
1162.782484633296
 30
0.0
 11
1556.921705807521
 21
1162.9532039036
 31
0.0
  0
LINE
  5
A079
330
1E
100
AcDbEntity
  8
0
 48
0.27
100
AcDbLine
 10
1556.706336758469
 20
1157.239126436991
 30
0.0
 11
1556.921705807521
 21
1157.068407166687
 31
0.0
  0
LINE
  5
A07A
330
1E
100
AcDbEntity
  8
0
 48
0.27
100
AcDbLine
 10
1556.921705807521
 20
1162.9532039036
 30
0.0
 11
1557.145682831484
 21
1163.010849145983
 31
0.0
  0
LINE
  5
A07B
330
1E
100
AcDbEntity
  8
0
 48
0.27
100
AcDbLine
 10
1556.921705807521
 20
1157.068407166687
 30
0.0
 11
1557.145682831484
 21
1157.010761924304
 31
0.0
  0
LINE
  5
A07C
330
1E
100
AcDbEntity
  8
0
 48
0.27
100
AcDbLine
 10
1557.145682831484
 20
1163.010849145983
 30
0.0
 11
1557.369659855446
 21
1162.9532039036
 31
0.0
  0
LINE
  5
A07D
330
1E
100
AcDbEntity
  8
0
 48
0.27
100
AcDbLine
 10
1557.145682831484
 20
1157.010761924304
 30
0.0
 11
1557.369659855446
 21
1157.068407166687
 31
0.0
  0
LINE
  5
A07E
330
1E
100
AcDbEntity
  8
0
 48
0.27
100
AcDbLine
 10
1554.794407050924
 20
1163.010849145983
 30
0.0
 11
1557.808519617264
 21
1163.010849145983
 31
0.0
  0
LINE
  5
A07F
330
1E
100
AcDbEntity
  8
0
 48
0.27
100
AcDbLine
 10
1557.808519617264
 20
1157.010761924304
 30
0.0
 11
1557.871419425123
 21
1157.295453027931
 31
0.0
  0
LINE
  5
A080
330
1E
100
AcDbEntity
  8
0
 48
0.27
100
AcDbLine
 10
1557.871419425123
 20
1162.726158042356
 30
0.0
 11
1557.808519617264
 21
1163.010849145983
 31
0.0
  0
LINE
  5
A081
330
1E
100
AcDbEntity
  8
0
 48
0.27
100
AcDbLine
 10
1554.794407050924
 20
1157.010761924304
 30
0.0
 11
1557.808519617264
 21
1157.010761924304
 31
0.0
  0
LINE
  5
A082
330
1E
100
AcDbEntity
  8
0
 48
0.27
100
AcDbLine
 10
1556.379675931803
 20
1157.010761924304
 30
0.0
 11
1555.802317686961
 21
1156.010747164688
 31
0.0
  0
LINE
  5
A083
330
1E
100
AcDbEntity
  8
0
 48
0.27
100
AcDbLine
 10
1559.776793284002
 20
1161.924635730821
 30
0.0
 11
1559.827548672745
 21
1161.95809901643
 31
0.0
  0
LINE
  5
A084
330
1E
100
AcDbEntity
  8
0
 48
0.27
100
AcDbLine
 10
1559.564267285038
 20
1158.074693202816
 30
0.0
 11
1559.612621846246
 21
1158.072639740451
 31
0.0
  0
LINE
  5
A085
330
1E
100
AcDbEntity
  8
0
 48
0.27
100
AcDbLine
 10
1559.776793284002
 20
1158.096975339466
 30
0.0
 11
1559.827548672745
 21
1158.063512053856
 31
0.0
  0
LINE
  5
A086
330
1E
100
AcDbEntity
  8
0
 48
0.27
100
AcDbLine
 10
1560.279773975698
 20
1160.010806203153
 30
0.0
 11
1560.298550396691
 21
1160.508954511533
 31
0.0
  0
LINE
  5
A087
330
1E
100
AcDbEntity
  8
0
 48
0.27
100
AcDbLine
 10
1561.878640865205
 20
1160.010806203153
 30
0.0
 11
1561.891815355552
 21
1160.360347703403
 31
0.0
  0
LINE
  5
A088
330
1E
100
AcDbEntity
  8
0
 48
0.27
100
AcDbLine
 10
1561.891815355552
 20
1159.661264702904
 30
0.0
 11
1561.878640865205
 21
1160.010806203153
 31
0.0
  0
LINE
  5
A089
330
1E
100
AcDbEntity
  8
0
 48
0.27
100
AcDbLine
 10
1560.298550396691
 20
1159.512656558754
 30
0.0
 11
1560.279773975698
 21
1160.010806203153
 31
0.0
  0
LINE
  5
A08A
330
1E
100
AcDbEntity
  8
0
 48
0.27
100
AcDbLine
 10
1561.891815355552
 20
1160.360347703403
 30
0.0
 11
1561.930833811125
 21
1160.696455525423
 31
0.0
  0
LINE
  5
A08B
330
1E
100
AcDbEntity
  8
0
 48
0.27
100
AcDbLine
 10
1560.298550396691
 20
1160.508954511533
 30
0.0
 11
1560.354155536903
 21
1160.987960329578
 31
0.0
  0
LINE
  5
A08C
330
1E
100
AcDbEntity
  8
0
 48
0.27
100
AcDbLine
 10
1561.930833811125
 20
1159.325155544864
 30
0.0
 11
1561.891815355552
 21
1159.661264702904
 31
0.0
  0
LINE
  5
A08D
330
1E
100
AcDbEntity
  8
0
 48
0.27
100
AcDbLine
 10
1560.354155536903
 20
1159.033650740709
 30
0.0
 11
1560.298550396691
 21
1159.512656558754
 31
0.0
  0
LINE
  5
A08E
330
1E
100
AcDbEntity
  8
0
 48
0.27
100
AcDbLine
 10
1561.930833811125
 20
1160.696455525423
 30
0.0
 11
1561.99419454581
 21
1161.006215702868
 31
0.0
  0
LINE
  5
A08F
330
1E
100
AcDbEntity
  8
0
 48
0.27
100
AcDbLine
 10
1560.354155536903
 20
1160.987960329578
 30
0.0
 11
1560.444454436981
 21
1161.429414641556
 31
0.0
  0
LINE
  5
A090
330
1E
100
AcDbEntity
  8
0
 48
0.27
100
AcDbLine
 10
1561.99419454581
 20
1159.015396703439
 30
0.0
 11
1561.930833811125
 21
1159.325155544864
 31
0.0
  0
LINE
  5
A091
330
1E
100
AcDbEntity
  8
0
 48
0.27
100
AcDbLine
 10
1560.444454436981
 20
1158.592196428631
 30
0.0
 11
1560.354155536903
 21
1159.033650740709
 31
0.0
  0
LINE
  5
A092
330
1E
100
AcDbEntity
  8
0
 48
0.27
100
AcDbLine
 10
1561.99419454581
 20
1161.006215702868
 30
0.0
 11
1562.079463331687
 21
1161.277721627891
 31
0.0
  0
LINE
  5
A093
330
1E
100
AcDbEntity
  8
0
 48
0.27
100
AcDbLine
 10
1560.444454436981
 20
1161.429414641556
 30
0.0
 11
1560.565976117574
 21
1161.816352669512
 31
0.0
  0
LINE
  5
A094
330
1E
100
AcDbEntity
  8
0
 48
0.27
100
AcDbLine
 10
1562.079463331687
 20
1158.743889442396
 30
0.0
 11
1561.99419454581
 21
1159.015396703439
 31
0.0
  0
LINE
  5
A095
330
1E
100
AcDbEntity
  8
0
 48
0.27
100
AcDbLine
 10
1560.565976117574
 20
1158.205259736796
 30
0.0
 11
1560.444454436981
 21
1158.592196428631
 31
0.0
  0
LINE
  5
A096
330
1E
100
AcDbEntity
  8
0
 48
0.27
100
AcDbLine
 10
1562.079463331687
 20
1161.277721627891
 30
0.0
 11
1562.18336424835
 21
1161.50054165887
 31
0.0
  0
LINE
  5
A097
330
1E
100
AcDbEntity
  8
0
 48
0.27
100
AcDbLine
 10
1560.565976117574
 20
1161.816352669512
 30
0.0
 11
1560.714051189946
 21
1162.133903177835
 31
0.0
  0
LINE
  5
A098
330
1E
100
AcDbEntity
  8
0
 48
0.27
100
AcDbLine
 10
1562.18336424835
 20
1158.521069411417
 30
0.0
 11
1562.079463331687
 21
1158.743889442396
 31
0.0
  0
LINE
  5
A099
330
1E
100
AcDbEntity
  8
0
 48
0.27
100
AcDbLine
 10
1562.18336424835
 20
1161.50054165887
 30
0.0
 11
1562.301903932929
 21
1161.666110573218
 31
0.0
  0
LINE
  5
A09A
330
1E
100
AcDbEntity
  8
0
 48
0.27
100
AcDbLine
 10
1560.714051189946
 20
1157.887707892452
 30
0.0
 11
1560.565976117574
 21
1158.205259736796
 31
0.0
  0
LINE
  5
A09B
330
1E
100
AcDbEntity
  8
0
 48
0.27
100
AcDbLine
 10
1559.175735385624
 20
1160.010806203153
 30
0.0
 11
1559.190082901289
 21
1160.391490322749
 31
0.0
  0
LINE
  5
A09C
330
1E
100
AcDbEntity
  8
0
 48
0.27
100
AcDbLine
 10
1559.190082901289
 20
1159.630120747539
 30
0.0
 11
1559.175735385624
 21
1160.010806203153
 31
0.0
  0
LINE
  5
A09D
330
1E
100
AcDbEntity
  8
0
 48
0.27
100
AcDbLine
 10
1559.190082901289
 20
1160.391490322749
 30
0.0
 11
1559.232577680089
 21
1160.757545026566
 31
0.0
  0
LINE
  5
A09E
330
1E
100
AcDbEntity
  8
0
 48
0.27
100
AcDbLine
 10
1559.232577680089
 20
1159.264066043722
 30
0.0
 11
1559.190082901289
 21
1159.630120747539
 31
0.0
  0
LINE
  5
A09F
330
1E
100
AcDbEntity
  8
0
 48
0.27
100
AcDbLine
 10
1559.232577680089
 20
1160.757545026566
 30
0.0
 11
1559.301583098045
 21
1161.094903363134
 31
0.0
  0
LINE
  5
A0A0
330
1E
100
AcDbEntity
  8
0
 48
0.27
100
AcDbLine
 10
1560.714051189946
 20
1162.133903177835
 30
0.0
 11
1560.882988209942
 21
1162.369865634594
 31
0.0
  0
LINE
  5
A0A1
330
1E
100
AcDbEntity
  8
0
 48
0.27
100
AcDbLine
 10
1562.301903932929
 20
1158.355500497068
 30
0.0
 11
1562.18336424835
 21
1158.521069411417
 31
0.0
  0
LINE
  5
A0A2
330
1E
100
AcDbEntity
  8
0
 48
0.27
100
AcDbLine
 10
1562.301903932929
 20
1161.666110573218
 30
0.0
 11
1562.430527894362
 21
1161.768068917236
 31
0.0
  0
LINE
  5
A0A3
330
1E
100
AcDbEntity
  8
0
 48
0.27
100
AcDbLine
 10
1559.301583098045
 20
1158.926707707154
 30
0.0
 11
1559.232577680089
 21
1159.264066043722
 31
0.0
  0
LINE
  5
A0A4
330
1E
100
AcDbEntity
  8
0
 48
0.27
100
AcDbLine
 10
1560.882988209942
 20
1157.651745435693
 30
0.0
 11
1560.714051189946
 21
1157.887707892452
 31
0.0
  0
LINE
  5
A0A5
330
1E
100
AcDbEntity
  8
0
 48
0.27
100
AcDbLine
 10
1559.301583098045
 20
1161.094903363134
 30
0.0
 11
1559.394449827993
 21
1161.390600597067
 31
0.0
  0
LINE
  5
A0A6
330
1E
100
AcDbEntity
  8
0
 48
0.27
100
AcDbLine
 10
1559.394449827993
 20
1158.631010473221
 30
0.0
 11
1559.301583098045
 21
1158.926707707154
 31
0.0
  0
LINE
  5
A0A7
330
1E
100
AcDbEntity
  8
0
 48
0.27
100
AcDbLine
 10
1562.430527894362
 20
1161.768068917236
 30
0.0
 11
1562.564291523494
 21
1161.802495473102
 31
0.0
  0
LINE
  5
A0A8
330
1E
100
AcDbEntity
  8
0
 48
0.27
100
AcDbLine
 10
1560.882988209942
 20
1162.369865634594
 30
0.0
 11
1561.066295458035
 21
1162.515171138051
 31
0.0
  0
LINE
  5
A0A9
330
1E
100
AcDbEntity
  8
0
 48
0.27
100
AcDbLine
 10
1562.301903932929
 20
1158.355500497068
 30
0.0
 11
1562.430527894362
 21
1158.253542153052
 31
0.0
  0
LINE
  5
A0AA
330
1E
100
AcDbEntity
  8
0
 48
0.27
100
AcDbLine
 10
1559.394449827993
 20
1161.390600597067
 30
0.0
 11
1559.507608025143
 21
1161.633272544833
 31
0.0
  0
LINE
  5
A0AB
330
1E
100
AcDbEntity
  8
0
 48
0.27
100
AcDbLine
 10
1560.882988209942
 20
1157.651745435693
 30
0.0
 11
1561.066295458035
 21
1157.506441268256
 31
0.0
  0
LINE
  5
A0AC
330
1E
100
AcDbEntity
  8
0
 48
0.27
100
AcDbLine
 10
1559.507608025143
 20
1158.388338525455
 30
0.0
 11
1559.394449827993
 21
1158.631010473221
 31
0.0
  0
LINE
  5
A0AD
330
1E
100
AcDbEntity
  8
0
 48
0.27
100
AcDbLine
 10
1559.507608025143
 20
1161.633272544833
 30
0.0
 11
1559.636710281654
 21
1161.813593788753
 31
0.0
  0
LINE
  5
A0AE
330
1E
100
AcDbEntity
  8
0
 48
0.27
100
AcDbLine
 10
1560.212238179488
 20
1162.189147592684
 30
0.0
 11
1560.381503860381
 21
1162.323321380002
 31
0.0
  0
LINE
  5
A0AF
330
1E
100
AcDbEntity
  8
0
 48
0.27
100
AcDbLine
 10
1561.066295458035
 20
1162.515171138051
 30
0.0
 11
1561.256929438142
 21
1162.564233789793
 31
0.0
  0
LINE
  5
A0B0
330
1E
100
AcDbEntity
  8
0
 48
0.27
100
AcDbLine
 10
1562.564291523494
 20
1161.802495473102
 30
0.0
 11
1562.698055152726
 21
1161.768068917236
 31
0.0
  0
LINE
  5
A0B1
330
1E
100
AcDbEntity
  8
0
 48
0.27
100
AcDbLine
 10
1562.430527894362
 20
1158.253542153052
 30
0.0
 11
1562.564291523494
 21
1158.219115597186
 31
0.0
  0
LINE
  5
A0B2
330
1E
100
AcDbEntity
  8
0
 48
0.27
100
AcDbLine
 10
1559.636710281654
 20
1158.208017281535
 30
0.0
 11
1559.507608025143
 21
1158.388338525455
 31
0.0
  0
LINE
  5
A0B3
330
1E
100
AcDbEntity
  8
0
 48
0.27
100
AcDbLine
 10
1560.381503860381
 20
1162.323321380002
 30
0.0
 11
1560.707540765843
 21
1162.487822814573
 31
0.0
  0
LINE
  5
A0B4
330
1E
100
AcDbEntity
  8
0
 48
0.27
100
AcDbLine
 10
1560.707540765843
 20
1162.487822814573
 30
0.0
 11
1560.896091891256
 21
1162.536351058417
 31
0.0
  0
LINE
  5
A0B5
330
1E
100
AcDbEntity
  8
0
 48
0.27
100
AcDbLine
 10
1561.066295458035
 20
1157.506441268256
 30
0.0
 11
1561.256929438142
 21
1157.457377280495
 31
0.0
  0
LINE
  5
A0B6
330
1E
100
AcDbEntity
  8
0
 48
0.27
100
AcDbLine
 10
1559.636710281654
 20
1161.813593788753
 30
0.0
 11
1559.776793284002
 21
1161.924635730821
 31
0.0
  0
LINE
  5
A0B7
330
1E
100
AcDbEntity
  8
0
 48
0.27
100
AcDbLine
 10
1559.827548672745
 20
1161.95809901643
 30
0.0
 11
1560.381503860381
 21
1162.323321380002
 31
0.0
  0
LINE
  5
A0B8
330
1E
100
AcDbEntity
  8
0
 48
0.27
100
AcDbLine
 10
1560.707540765843
 20
1157.533788255714
 30
0.0
 11
1560.896091891256
 21
1157.485261347791
 31
0.0
  0
LINE
  5
A0B9
330
1E
100
AcDbEntity
  8
0
 48
0.27
100
AcDbLine
 10
1560.381503860381
 20
1157.698289690285
 30
0.0
 11
1560.707540765843
 21
1157.533788255714
 31
0.0
  0
LINE
  5
A0BA
330
1E
100
AcDbEntity
  8
0
 48
0.27
100
AcDbLine
 10
1559.636710281654
 20
1158.208017281535
 30
0.0
 11
1559.776793284002
 21
1158.096975339466
 31
0.0
  0
LINE
  5
A0BB
330
1E
100
AcDbEntity
  8
0
 48
0.27
100
AcDbLine
 10
1560.896091891256
 20
1162.536351058417
 30
0.0
 11
1561.256929438142
 21
1162.564233789793
 31
0.0
  0
LINE
  5
A0BC
330
1E
100
AcDbEntity
  8
0
 48
0.27
100
AcDbLine
 10
1561.256929438142
 20
1162.564233789793
 30
0.0
 11
1561.44756208223
 21
1162.515171138051
 31
0.0
  0
LINE
  5
A0BD
330
1E
100
AcDbEntity
  8
0
 48
0.27
100
AcDbLine
 10
1562.698055152726
 20
1161.768068917236
 30
0.0
 11
1562.82667777814
 21
1161.666110573218
 31
0.0
  0
LINE
  5
A0BE
330
1E
100
AcDbEntity
  8
0
 48
0.27
100
AcDbLine
 10
1561.44756208223
 20
1162.515171138051
 30
0.0
 11
1562.698055152726
 21
1161.768068917236
 31
0.0
  0
LINE
  5
A0BF
330
1E
100
AcDbEntity
  8
0
 48
0.27
100
AcDbLine
 10
1562.564291523494
 20
1158.219115597186
 30
0.0
 11
1562.698055152726
 21
1158.253542153052
 31
0.0
  0
LINE
  5
A0C0
330
1E
100
AcDbEntity
  8
0
 48
0.27
100
AcDbLine
 10
1559.827548672745
 20
1158.063512053856
 30
0.0
 11
1560.381503860381
 21
1157.698289690285
 31
0.0
  0
LINE
  5
A0C1
330
1E
100
AcDbEntity
  8
0
 48
0.27
100
AcDbLine
 10
1560.896091891256
 20
1157.485261347791
 30
0.0
 11
1561.256929438142
 21
1157.457377280495
 31
0.0
  0
LINE
  5
A0C2
330
1E
100
AcDbEntity
  8
0
 48
0.27
100
AcDbLine
 10
1561.256929438142
 20
1157.457377280495
 30
0.0
 11
1561.44756208223
 21
1157.506441268256
 31
0.0
  0
LINE
  5
A0C3
330
1E
100
AcDbEntity
  8
0
 48
0.27
100
AcDbLine
 10
1562.945217462718
 20
1161.50054165887
 30
0.0
 11
1562.82667777814
 21
1161.666110573218
 31
0.0
  0
LINE
  5
A0C4
330
1E
100
AcDbEntity
  8
0
 48
0.27
100
AcDbLine
 10
1562.698055152726
 20
1158.253542153052
 30
0.0
 11
1562.82667777814
 21
1158.355500497068
 31
0.0
  0
LINE
  5
A0C5
330
1E
100
AcDbEntity
  8
0
 48
0.27
100
AcDbLine
 10
1561.44756208223
 20
1157.506441268256
 30
0.0
 11
1562.698055152726
 21
1158.253542153052
 31
0.0
  0
LINE
  5
A0C6
330
1E
100
AcDbEntity
  8
0
 48
0.27
100
AcDbLine
 10
1559.612621846246
 20
1161.948972665856
 30
0.0
 11
1559.827548672745
 21
1161.95809901643
 31
0.0
  0
LINE
  5
A0C7
330
1E
100
AcDbEntity
  8
0
 48
0.27
100
AcDbLine
 10
1559.612621846246
 20
1158.072639740451
 30
0.0
 11
1559.827548672745
 21
1158.063512053856
 31
0.0
  0
LINE
  5
A0C8
330
1E
100
AcDbEntity
  8
0
 48
0.27
100
AcDbLine
 10
1563.049118379382
 20
1161.277721627891
 30
0.0
 11
1562.945217462718
 21
1161.50054165887
 31
0.0
  0
LINE
  5
A0C9
330
1E
100
AcDbEntity
  8
0
 48
0.27
100
AcDbLine
 10
1562.82667777814
 20
1158.355500497068
 30
0.0
 11
1562.945217462718
 21
1158.521069411417
 31
0.0
  0
LINE
  5
A0CA
330
1E
100
AcDbEntity
  8
0
 48
0.27
100
AcDbLine
 10
1559.371495673337
 20
1162.047375861394
 30
0.0
 11
1559.612621846246
 21
1161.948972665856
 31
0.0
  0
LINE
  5
A0CB
330
1E
100
AcDbEntity
  8
0
 48
0.27
100
AcDbLine
 10
1559.371495673337
 20
1157.974235208893
 30
0.0
 11
1559.612621846246
 21
1158.072639740451
 31
0.0
  0
LINE
  5
A0CC
330
1E
100
AcDbEntity
  8
0
 48
0.27
100
AcDbLine
 10
1563.134388501278
 20
1161.006215702868
 30
0.0
 11
1563.049118379382
 21
1161.277721627891
 31
0.0
  0
LINE
  5
A0CD
330
1E
100
AcDbEntity
  8
0
 48
0.27
100
AcDbLine
 10
1562.945217462718
 20
1158.521069411417
 30
0.0
 11
1563.049118379382
 21
1158.743889442396
 31
0.0
  0
LINE
  5
A0CE
330
1E
100
AcDbEntity
  8
0
 48
0.27
100
AcDbLine
 10
1563.197749235962
 20
1160.696455525423
 30
0.0
 11
1563.134388501278
 21
1161.006215702868
 31
0.0
  0
LINE
  5
A0CF
330
1E
100
AcDbEntity
  8
0
 48
0.27
100
AcDbLine
 10
1562.289752833715
 20
1158.372473291443
 30
0.0
 11
1562.291651317718
 21
1158.373401825093
 31
0.0
  0
LINE
  5
A0D0
330
1E
100
AcDbEntity
  8
0
 48
0.27
100
AcDbLine
 10
1563.049118379382
 20
1158.743889442396
 30
0.0
 11
1563.134388501278
 21
1159.015396703439
 31
0.0
  0
LINE
  5
A0D1
330
1E
100
AcDbEntity
  8
0
 48
0.27
100
AcDbLine
 10
1563.236766355516
 20
1160.360347703403
 30
0.0
 11
1563.197749235962
 21
1160.696455525423
 31
0.0
  0
LINE
  5
A0D2
330
1E
100
AcDbEntity
  8
0
 48
0.27
100
AcDbLine
 10
1563.134388501278
 20
1159.015396703439
 30
0.0
 11
1563.197749235962
 21
1159.325155544864
 31
0.0
  0
LINE
  5
A0D3
330
1E
100
AcDbEntity
  8
0
 48
0.27
100
AcDbLine
 10
1563.249940845864
 20
1160.010806203153
 30
0.0
 11
1563.236766355516
 21
1160.360347703403
 31
0.0
  0
LINE
  5
A0D4
330
1E
100
AcDbEntity
  8
0
 48
0.27
100
AcDbLine
 10
1563.197749235962
 20
1159.325155544864
 30
0.0
 11
1563.236766355516
 21
1159.661264702904
 31
0.0
  0
LINE
  5
A0D5
330
1E
100
AcDbEntity
  8
0
 48
0.27
100
AcDbLine
 10
1563.236766355516
 20
1159.661264702904
 30
0.0
 11
1563.249940845864
 21
1160.010806203153
 31
0.0
  0
LWPOLYLINE
  5
A0D6
330
1E
100
AcDbEntity
  8
0
 48
0.27
100
AcDbPolyline
 90
       17
 70
     0
 43
0.0
 10
1562.444700391372
 20
1160.010806203153
 10
1562.478249182329
 20
1159.793765793513
 10
1562.511140651495
 20
1159.730860641575
 10
1562.547711518952
 20
1159.701318573786
 10
1562.581689172167
 20
1159.70162585827
 10
1562.618182550493
 20
1159.73183059183
 10
1562.649526908883
 20
1159.79160144153
 10
1562.678913998411
 20
1159.921676320334
 10
1562.683881319696
 20
1160.010806203153
 10
1562.650333864759
 20
1160.227845276775
 10
1562.617441059574
 20
1160.290750428712
 10
1562.580870192117
 20
1160.320292496502
 10
1562.546893874921
 20
1160.319985211917
 10
1562.510399160575
 20
1160.289780478358
 10
1562.479056138205
 20
1160.230009628658
 10
1562.449667712658
 20
1160.099934749953
 10
1562.444700391372
 20
1160.010806203153
  0
LINE
  5
A0D7
330
1E
100
AcDbEntity
  8
0
 48
0.27
100
AcDbLine
 10
1548.874013404767
 20
1160.010806203153
 30
0.0
 11
1551.183447720159
 21
1156.010747164688
 31
0.0
  0
LINE
  5
A0D8
330
1E
100
AcDbEntity
  8
0
 48
0.27
100
AcDbLine
 10
1551.183447720159
 20
1164.010863905599
 30
0.0
 11
1548.874013404767
 21
1160.010806203153
 31
0.0
  0
ARC
  5
A0D9
330
1E
100
AcDbEntity
  8
0
 48
0.27
100
AcDbCircle
 10
1553.492882035549
 20
1160.010806203153
 30
0.0
 40
4.000057702445608
100
AcDbArc
 50
48.59037799889628
 51
311.4096220031896
  0
LINE
  5
A0DA
330
1E
100
AcDbEntity
  8
0
 48
0.27
100
AcDbLine
 10
1555.802317686961
 20
1156.010747164688
 30
0.0
 11
1551.183447720159
 21
1156.010747164688
 31
0.0
  0
LINE
  5
A0DB
330
1E
100
AcDbEntity
  8
0
 48
0.27
100
AcDbLine
 10
1551.183447720159
 20
1164.010863905599
 30
0.0
 11
1555.802316350941
 21
1164.010863905599
 31
0.0
  0
LINE
  5
A0E2
330
1E
100
AcDbEntity
  8
虛線
 48
0.25
100
AcDbLine
 10
1558.992882035545
 20
1153.410836720695
 30
0.0
 11
1559.223822143221
 21
1153.810836720695
 31
0.0
  0
LINE
  5
A0E3
330
1E
100
AcDbEntity
  8
虛線
 48
0.25
100
AcDbLine
 10
1556.992882035545
 20
1144.510836720695
 30
0.0
 11
1557.292882035546
 21
1144.810836720695
 31
0.0
  0
LINE
  5
A0E4
330
1E
100
AcDbEntity
  8
虛線
 48
0.25
100
AcDbLine
 10
1547.992882035545
 20
1153.410836720695
 30
0.0
 11
1547.76194192787
 21
1153.810836720695
 31
0.0
  0
LINE
  5
A0E5
330
1E
100
AcDbEntity
  8
虛線
 48
0.25
100
AcDbLine
 10
1549.692882035545
 20
1144.810836720695
 30
0.0
 11
1549.992882035545
 21
1144.510836720695
 31
0.0
  0
LINE
  5
A0E6
330
1E
100
AcDbEntity
  8
虛線
 48
0.25
100
AcDbLine
 10
1549.992882035545
 20
1144.510836720695
 30
0.0
 11
1556.992882035545
 21
1144.510836720695
 31
0.0
  0
LINE
  5
A0E7
330
1E
100
AcDbEntity
  8
虛線
 48
0.25
100
AcDbLine
 10
1547.992882035545
 20
1153.410836720695
 30
0.0
 11
1558.992882035545
 21
1153.410836720695
 31
0.0
  0
LINE
  5
A0E8
330
1E
100
AcDbEntity
  8
虛線
 48
0.25
100
AcDbLine
 10
1558.992882035545
 20
1153.410836720695
 30
0.0
 11
1558.992882035544
 21
1144.810775685538
 31
0.0
  0
LINE
  5
A0E9
330
1E
100
AcDbEntity
  8
0
  6
Continuous
100
AcDbLine
 10
1546.992835752544
 20
1130.710806203023
 30
0.0
 11
1548.492833398155
 21
1130.710806203044
 31
0.0
  0
LINE
  5
A0EA
330
1E
100
AcDbEntity
  8
0
  6
Continuous
100
AcDbLine
 10
1548.492833398155
 20
1130.710806203044
 30
0.0
 11
1548.992833246456
 21
1130.210806203117
 31
0.0
  0
LINE
  5
A0EB
330
1E
100
AcDbEntity
  8
0
  6
Continuous
100
AcDbLine
 10
1546.492836125433
 20
1130.210806203117
 30
0.0
 11
1546.992835752544
 21
1130.710806203023
 31
0.0
  0
LINE
  5
A0EC
330
1E
100
AcDbEntity
  8
虛線
 48
0.25
100
AcDbLine
 10
1556.992882035544
 20
1130.710806203117
 30
0.0
 11
1557.492882035543
 21
1130.210806203117
 31
0.0
  0
LINE
  5
A0ED
330
1E
100
AcDbEntity
  8
虛線
 48
0.25
100
AcDbLine
 10
1549.992882035552
 20
1130.710806203117
 30
0.0
 11
1549.492882035553
 21
1130.210806203117
 31
0.0
  0
LINE
  5
A0EE
330
1E
100
AcDbEntity
  8
0
  6
Continuous
100
AcDbLine
 10
1530.992922035547
 20
1135.710826203116
 30
0.0
 11
1541.992889664941
 21
1135.710826203131
 31
0.0
  0
LINE
  5
A0FA
330
1E
100
AcDbEntity
  8
虛線
 48
0.2
100
AcDbLine
 10
1550.992892035552
 20
1159.210846203141
 30
0.0
 11
1553.492882035547
 21
1157.710846203116
 31
0.0
  0
LINE
  5
A0FB
330
1E
100
AcDbEntity
  8
虛線
 48
0.2
100
AcDbLine
 10
1555.992872035552
 20
1159.210846203126
 30
0.0
 11
1553.492882035542
 21
1157.710846203118
 31
0.0
  0
LINE
  5
A0FC
330
1E
100
AcDbEntity
  8
虛線
 48
0.2
100
AcDbLine
 10
1555.992872035546
 20
1169.210836203117
 30
0.0
 11
1556.992872035547
 21
1170.210836203117
 31
0.0
  0
LINE
  5
A0FD
330
1E
100
AcDbEntity
  8
虛線
 48
0.2
100
AcDbLine
 10
1550.992892035545
 20
1169.210836203117
 30
0.0
 11
1549.992892035546
 21
1170.210836203116
 31
0.0
  0
LINE
  5
A0FE
330
1E
100
AcDbEntity
  8
虛線
 48
0.2
100
AcDbLine
 10
1555.992872035546
 20
1169.210836203117
 30
0.0
 11
1550.992892035546
 21
1169.210836203117
 31
0.0
  0
LINE
  5
A0FF
330
1E
100
AcDbEntity
  8
虛線
 48
0.2
100
AcDbLine
 10
1555.992872035551
 20
1159.210846203126
 30
0.0
 11
1550.992892035552
 21
1159.210846203123
 31
0.0
  0
LINE
  5
A100
330
1E
100
AcDbEntity
  8
虛線
 48
0.2
100
AcDbLine
 10
1550.992892035546
 20
1169.210836203117
 30
0.0
 11
1550.992892035552
 21
1159.210846203123
 31
0.0
  0
LINE
  5
A101
330
1E
100
AcDbEntity
  8
虛線
 48
0.2
100
AcDbLine
 10
1555.992872035546
 20
1169.210836203117
 30
0.0
 11
1555.992872035551
 21
1159.210846203126
 31
0.0
  0
LINE
  5
A102
330
1E
100
AcDbEntity
  8
中心線
 48
0.25
100
AcDbLine
 10
1553.492882035548
 20
1172.210836203117
 30
0.0
 11
1553.492882035542
 21
1128.712418305133
 31
0.0
  0
LINE
  5
A103
330
1E
100
AcDbEntity
  8
虛線
 48
0.2
100
AcDbLine
 10
1556.492862035548
 20
1162.210846203117
 30
0.0
 11
1550.492862035548
 21
1162.210846203117
 31
0.0
  0
LINE
  5
A104
330
1E
100
AcDbEntity
  8
虛線
 48
0.2
100
AcDbLine
 10
1556.492862035546
 20
1169.710826203117
 30
0.0
 11
1556.492862035548
 21
1162.210846203117
 31
0.0
  0
LINE
  5
A105
330
1E
100
AcDbEntity
  8
虛線
 48
0.2
100
AcDbLine
 10
1550.492862035547
 20
1169.710866203116
 30
0.0
 11
1550.492862035548
 21
1162.210846203117
 31
0.0
  0
LINE
  5
A106
330
1E
100
AcDbEntity
  8
虛線
 48
0.2
100
AcDbLine
 10
1533.492902035552
 20
1159.210846203131
 30
0.0
 11
1535.992892035551
 21
1157.710846203116
 31
0.0
  0
LINE
  5
A107
330
1E
100
AcDbEntity
  8
虛線
 48
0.2
100
AcDbLine
 10
1538.492882035552
 20
1159.210846203116
 30
0.0
 11
1535.992892035551
 21
1157.710846203116
 31
0.0
  0
LINE
  5
A108
330
1E
100
AcDbEntity
  8
虛線
 48
0.2
100
AcDbLine
 10
1538.492882035546
 20
1169.210836203107
 30
0.0
 11
1539.492882035547
 21
1170.210836203107
 31
0.0
  0
LINE
  5
A109
330
1E
100
AcDbEntity
  8
虛線
 48
0.2
100
AcDbLine
 10
1533.492902035546
 20
1169.210836203106
 30
0.0
 11
1532.492902035546
 21
1170.210836203106
 31
0.0
  0
LINE
  5
A10A
330
1E
100
AcDbEntity
  8
虛線
 48
0.2
100
AcDbLine
 10
1538.492882035547
 20
1169.210836203107
 30
0.0
 11
1533.492902035546
 21
1169.210836203106
 31
0.0
  0
LINE
  5
A10B
330
1E
100
AcDbEntity
  8
虛線
 48
0.2
100
AcDbLine
 10
1538.492882035552
 20
1159.210846203116
 30
0.0
 11
1533.492902035552
 21
1159.210846203113
 31
0.0
  0
LINE
  5
A10C
330
1E
100
AcDbEntity
  8
虛線
 48
0.2
100
AcDbLine
 10
1533.492902035546
 20
1169.210836203106
 30
0.0
 11
1533.492902035552
 21
1159.210846203113
 31
0.0
  0
LINE
  5
A10D
330
1E
100
AcDbEntity
  8
虛線
 48
0.2
100
AcDbLine
 10
1538.492882035546
 20
1169.210836203107
 30
0.0
 11
1538.492882035552
 21
1159.210846203116
 31
0.0
  0
LINE
  5
A10E
330
1E
100
AcDbEntity
  8
虛線
 48
0.2
100
AcDbLine
 10
1538.992872035547
 20
1162.210846203106
 30
0.0
 11
1532.992872035548
 21
1162.210846203106
 31
0.0
  0
LINE
  5
A10F
330
1E
100
AcDbEntity
  8
虛線
 48
0.2
100
AcDbLine
 10
1538.992872035546
 20
1169.710826203107
 30
0.0
 11
1538.992872035547
 21
1162.210846203106
 31
0.0
  0
LINE
  5
A110
330
1E
100
AcDbEntity
  8
虛線
 48
0.2
100
AcDbLine
 10
1532.992872035547
 20
1169.710866203105
 30
0.0
 11
1532.992872035548
 21
1162.210846203106
 31
0.0
  0
LINE
  5
A112
330
1E
100
AcDbEntity
  8
0
100
AcDbLine
 10
1540.392889664943
 20
1137.91695239277
 30
0.0
 11
1544.542882035554
 21
1142.066944757361
 31
0.0
  0
LINE
  5
A113
330
1E
100
AcDbEntity
  8
0
100
AcDbLine
 10
1541.592889664943
 20
1137.419896117411
 30
0.0
 11
1545.742882035554
 21
1141.569888482003
 31
0.0
  0
LINE
  5
A114
330
1E
100
AcDbEntity
  8
0
100
AcDbLine
 10
1541.992889664942
 20
1137.254210692292
 30
0.0
 11
1546.142882035554
 21
1141.404203056884
 31
0.0
  0
LINE
  5
A118
330
1E
100
AcDbEntity
  8
0
100
AcDbLine
 10
1544.542882035553
 20
1147.123628263597
 30
0.0
 11
1544.542882035554
 21
1142.066944757361
 31
0.0
  0
LINE
  5
A119
330
1E
100
AcDbEntity
  8
0
100
AcDbLine
 10
1545.742882035553
 20
1147.620684538953
 30
0.0
 11
1545.742882035554
 21
1141.569888482003
 31
0.0
  0
LINE
  5
A11A
330
1E
100
AcDbEntity
  8
0
100
AcDbLine
 10
1546.142882035553
 20
1147.786369964073
 30
0.0
 11
1546.142882035554
 21
1141.404203056884
 31
0.0
  0
LINE
  5
A11B
330
1E
100
AcDbEntity
  8
0
100
AcDbLine
 10
1540.392889664941
 20
1151.273620628194
 30
0.0
 11
1540.392889664945
 21
1154.073578420497
 31
0.0
  0
LINE
  5
A11C
330
1E
100
AcDbEntity
  8
0
100
AcDbLine
 10
1541.592889664942
 20
1151.770676903551
 30
0.0
 11
1541.592889664944
 21
1153.576522145648
 31
0.0
  0
LINE
  5
A11D
330
1E
100
AcDbEntity
  8
0
100
AcDbLine
 10
1541.992889664942
 20
1151.93636232867
 30
0.0
 11
1541.992889664944
 21
1153.410836720698
 31
0.0
  0
LINE
  5
A11E
330
1E
100
AcDbEntity
  8
0
100
AcDbLine
 10
1540.392889664941
 20
1151.273620628194
 30
0.0
 11
1544.542882035553
 21
1147.123628263597
 31
0.0
  0
LINE
  5
A11F
330
1E
100
AcDbEntity
  8
0
100
AcDbLine
 10
1541.592889664942
 20
1151.770676903551
 30
0.0
 11
1545.742882035553
 21
1147.620684538953
 31
0.0
  0
LINE
  5
A120
330
1E
100
AcDbEntity
  8
0
100
AcDbLine
 10
1541.992889664942
 20
1151.93636232867
 30
0.0
 11
1546.142882035553
 21
1147.786369964073
 31
0.0
  0
LINE
  5
A122
330
1E
100
AcDbEntity
  8
0
100
AcDbLine
 10
1540.392889664943
 20
1137.91695239277
 30
0.0
 11
1540.392889664942
 21
1136.210823326395
 31
0.0
  0
LINE
  5
A123
330
1E
100
AcDbEntity
  8
0
100
AcDbLine
 10
1541.592889664943
 20
1137.419896117411
 30
0.0
 11
1541.592889664942
 21
1136.210821682554
 31
0.0
  0
LINE
  5
A124
330
1E
100
AcDbEntity
  8
0
100
AcDbLine
 10
1541.992889664942
 20
1137.254210692292
 30
0.0
 11
1541.992889664939
 21
1131.710806203118
 31
0.0
  0
LINE
  5
A12A
330
1E
100
AcDbEntity
  8
0
100
AcDbLine
 10
1566.592874406155
 20
1137.916952392769
 30
0.0
 11
1562.442882035543
 21
1142.066944757361
 31
0.0
  0
LINE
  5
A12B
330
1E
100
AcDbEntity
  8
0
100
AcDbLine
 10
1565.392874406154
 20
1137.419896117412
 30
0.0
 11
1561.242882035544
 21
1141.569888482003
 31
0.0
  0
LINE
  5
A12C
330
1E
100
AcDbEntity
  8
0
100
AcDbLine
 10
1564.992874406155
 20
1137.254210692292
 30
0.0
 11
1560.842882035544
 21
1141.404203056884
 31
0.0
  0
LINE
  5
A134
330
1E
100
AcDbEntity
  8
虛線
 48
0.25
100
AcDbLine
 10
1547.992882035551
 20
1144.810775685538
 30
0.0
 11
1558.992882035544
 21
1144.810775685538
 31
0.0
  0
LINE
  5
A135
330
1E
100
AcDbEntity
  8
虛線
 48
0.25
100
AcDbLine
 10
1549.992882035545
 20
1144.510836720695
 30
0.0
 11
1549.992882035552
 21
1130.710806203117
 31
0.0
  0
LINE
  5
A136
330
1E
100
AcDbEntity
  8
虛線
 48
0.25
100
AcDbLine
 10
1547.99288203555
 20
1153.410836720695
 30
0.0
 11
1547.992882035551
 21
1144.810844350089
 31
0.0
  0
LINE
  5
A137
330
1E
100
AcDbEntity
  8
0
  6
Continuous
100
AcDbLine
 10
1529.992912035546
 20
1164.210806203118
 30
0.0
 11
1529.992912035547
 21
1136.710829536436
 31
0.0
  0
LINE
  5
A138
330
1E
100
AcDbEntity
  8
0
  6
Continuous
100
AcDbLine
 10
1529.992912035547
 20
1136.710829536436
 30
0.0
 11
1530.992922035544
 21
1135.710826203118
 31
0.0
  0
LINE
  5
A139
330
1E
100
AcDbEntity
  8
0
  6
Continuous
100
AcDbLine
 10
1529.992912035546
 20
1164.210806203118
 30
0.0
 11
1531.092912035546
 21
1165.310806203118
 31
0.0
  0
LINE
  5
A13A
330
1E
100
AcDbEntity
  8
中心線
 48
0.27
100
AcDbLine
 10
1535.992892035546
 20
1172.210836203115
 30
0.0
 11
1535.992892035552
 21
1156.90971620311
 31
0.0
  0
LINE
  5
A13B
330
1E
100
AcDbEntity
  8
0
  6
Continuous
100
AcDbLine
 10
1547.742882035547
 20
1170.210836203117
 30
0.0
 11
1553.492882035547
 21
1170.210836203117
 31
0.0
  0
LINE
  5
A13C
330
1E
100
AcDbEntity
  8
0
  6
Continuous
100
AcDbLine
 10
1529.492912035548
 20
1168.710836203119
 30
0.0
 11
1530.992912035547
 21
1170.210836203118
 31
0.0
  0
LINE
  5
A13D
330
1E
100
AcDbEntity
  8
0
  6
Continuous
100
AcDbLine
 10
1530.992912035547
 20
1170.210836203118
 30
0.0
 11
1541.742912035547
 21
1170.210836203118
 31
0.0
  0
LINE
  5
A13E
330
1E
100
AcDbEntity
  8
0
  6
Continuous
100
AcDbLine
 10
1541.742912035547
 20
1170.210846203117
 30
0.0
 11
1542.242912035547
 21
1169.710836203118
 31
0.0
  0
LINE
  5
A13F
330
1E
100
AcDbEntity
  8
0
  6
Continuous
100
AcDbLine
 10
1542.242942035547
 20
1169.710846203117
 30
0.0
 11
1547.242882035547
 21
1169.710846203117
 31
0.0
  0
LINE
  5
A140
330
1E
100
AcDbEntity
  8
0
  6
Continuous
100
AcDbLine
 10
1547.242882035547
 20
1169.710846203117
 30
0.0
 11
1547.742852035547
 21
1170.210836203117
 31
0.0
  0
LINE
  5
A141
330
1E
100
AcDbEntity
  8
0
100
AcDbLine
 10
1540.392889664945
 20
1154.073578420497
 30
0.0
 11
1542.080147965149
 21
1155.760836720699
 31
0.0
  0
LINE
  5
A142
330
1E
100
AcDbEntity
  8
0
100
AcDbLine
 10
1541.592889664944
 20
1153.576522145648
 30
0.0
 11
1542.577204239996
 21
1154.560836720698
 31
0.0
  0
LINE
  5
A143
330
1E
100
AcDbEntity
  8
0
100
AcDbLine
 10
1541.992889664944
 20
1153.410836720698
 30
0.0
 11
1542.392889664944
 21
1153.810836720698
 31
0.0
  0
LINE
  5
A144
330
1E
100
AcDbEntity
  8
0
  6
Continuous
100
AcDbLine
 10
1542.080147965149
 20
1155.760836720699
 30
0.0
 11
1564.905616105957
 21
1155.760836720691
 31
0.0
  0
LINE
  5
A145
330
1E
100
AcDbEntity
  8
0
  6
Continuous
100
AcDbLine
 10
1542.577204239996
 20
1154.560836720698
 30
0.0
 11
1564.408559831109
 21
1154.560836720691
 31
0.0
  0
LINE
  5
A146
330
1E
100
AcDbEntity
  8
0
  6
Continuous
100
AcDbLine
 10
1542.392889664944
 20
1153.810836720698
 30
0.0
 11
1553.492882035545
 21
1153.810836720695
 31
0.0
  0
LINE
  5
A147
330
1E
100
AcDbEntity
  8
0
  6
Continuous
100
AcDbLine
 10
1541.992889664939
 20
1131.710806203118
 30
0.0
 11
1543.492889664939
 21
1130.210806203117
 31
0.0
  0
LINE
  5
A148
330
1E
100
AcDbEntity
  8
0
  6
Continuous
100
AcDbLine
 10
1543.492889664939
 20
1130.210806203117
 30
0.0
 11
1546.492836125433
 21
1130.210806203117
 31
0.0
  0
LINE
  5
A149
330
1E
100
AcDbEntity
  8
0
  6
Continuous
100
AcDbLine
 10
1548.992833246456
 20
1130.210806203117
 30
0.0
 11
1553.492882035544
 21
1130.210806203117
 31
0.0
  0
LINE
  5
A14D
330
1E
100
AcDbEntity
  8
0
100
AcDbLine
 10
1562.442882035544
 20
1147.123628263597
 30
0.0
 11
1562.442882035543
 21
1142.066944757361
 31
0.0
  0
LINE
  5
A14E
330
1E
100
AcDbEntity
  8
0
100
AcDbLine
 10
1561.242882035544
 20
1147.620684538954
 30
0.0
 11
1561.242882035544
 21
1141.569888482003
 31
0.0
  0
LINE
  5
A14F
330
1E
100
AcDbEntity
  8
0
100
AcDbLine
 10
1560.842882035544
 20
1147.786369964072
 30
0.0
 11
1560.842882035544
 21
1141.404203056884
 31
0.0
  0
LINE
  5
A150
330
1E
100
AcDbEntity
  8
虛線
 48
0.25
100
AcDbLine
 10
1556.992882035545
 20
1144.510836720695
 30
0.0
 11
1556.992882035544
 21
1130.710806203117
 31
0.0
  0
LINE
  5
A152
330
1E
100
AcDbEntity
  8
0
100
AcDbLine
 10
1566.592874406157
 20
1151.273620628196
 30
0.0
 11
1566.592874406153
 21
1154.073578420498
 31
0.0
  0
LINE
  5
A153
330
1E
100
AcDbEntity
  8
0
100
AcDbLine
 10
1565.392874406156
 20
1151.770676903552
 30
0.0
 11
1565.392874406154
 21
1153.576522145649
 31
0.0
  0
LINE
  5
A154
330
1E
100
AcDbEntity
  8
0
100
AcDbLine
 10
1564.992874406156
 20
1151.936362328671
 30
0.0
 11
1564.992874406154
 21
1153.410836720699
 31
0.0
  0
LINE
  5
A155
330
1E
100
AcDbEntity
  8
虛線
 48
0.2
100
AcDbLine
 10
1568.492882035553
 20
1159.210846203143
 30
0.0
 11
1570.992872035543
 21
1157.710846203116
 31
0.0
  0
LINE
  5
A156
330
1E
100
AcDbEntity
  8
虛線
 48
0.2
100
AcDbLine
 10
1573.492862035553
 20
1159.210846203128
 30
0.0
 11
1570.992872035548
 21
1157.710846203116
 31
0.0
  0
LINE
  5
A157
330
1E
100
AcDbEntity
  8
0
100
AcDbLine
 10
1566.592874406157
 20
1151.273620628196
 30
0.0
 11
1562.442882035544
 21
1147.123628263597
 31
0.0
  0
LINE
  5
A158
330
1E
100
AcDbEntity
  8
0
100
AcDbLine
 10
1565.392874406156
 20
1151.770676903552
 30
0.0
 11
1561.242882035544
 21
1147.620684538954
 31
0.0
  0
LINE
  5
A159
330
1E
100
AcDbEntity
  8
0
100
AcDbLine
 10
1564.992874406156
 20
1151.936362328671
 30
0.0
 11
1560.842882035544
 21
1147.786369964072
 31
0.0
  0
LINE
  5
A15A
330
1E
100
AcDbEntity
  8
0
  6
Continuous
100
AcDbLine
 10
1563.492874406157
 20
1130.210806203118
 30
0.0
 11
1564.992874406157
 21
1131.710806203118
 31
0.0
  0
LINE
  5
A15B
330
1E
100
AcDbEntity
  8
0
100
AcDbLine
 10
1566.592874406155
 20
1137.916952392769
 30
0.0
 11
1566.592874406155
 21
1136.210823326398
 31
0.0
  0
LINE
  5
A15C
330
1E
100
AcDbEntity
  8
0
100
AcDbLine
 10
1565.392874406154
 20
1137.419896117412
 30
0.0
 11
1565.392874406156
 21
1136.210821682557
 31
0.0
  0
LINE
  5
A15D
330
1E
100
AcDbEntity
  8
0
100
AcDbLine
 10
1564.992874406155
 20
1137.254210692292
 30
0.0
 11
1564.992874406157
 21
1131.710806203118
 31
0.0
  0
LINE
  5
A15E
330
1E
100
AcDbEntity
  8
虛線
 48
0.2
100
AcDbLine
 10
1573.492862035547
 20
1169.210836203119
 30
0.0
 11
1574.492862035547
 21
1170.210836203119
 31
0.0
  0
LINE
  5
A15F
330
1E
100
AcDbEntity
  8
虛線
 48
0.2
100
AcDbLine
 10
1568.492882035546
 20
1169.210836203119
 30
0.0
 11
1567.492882035547
 21
1170.210836203119
 31
0.0
  0
LINE
  5
A160
330
1E
100
AcDbEntity
  8
虛線
 48
0.2
100
AcDbLine
 10
1573.492862035547
 20
1169.210836203119
 30
0.0
 11
1568.492882035547
 21
1169.210836203119
 31
0.0
  0
LINE
  5
A161
330
1E
100
AcDbEntity
  8
虛線
 48
0.2
100
AcDbLine
 10
1573.492862035552
 20
1159.210846203128
 30
0.0
 11
1568.492882035553
 21
1159.210846203125
 31
0.0
  0
LINE
  5
A162
330
1E
100
AcDbEntity
  8
虛線
 48
0.2
100
AcDbLine
 10
1568.492882035547
 20
1169.210836203119
 30
0.0
 11
1568.492882035553
 21
1159.210846203125
 31
0.0
  0
LINE
  5
A163
330
1E
100
AcDbEntity
  8
虛線
 48
0.2
100
AcDbLine
 10
1573.492862035547
 20
1169.210836203119
 30
0.0
 11
1573.492862035552
 21
1159.210846203128
 31
0.0
  0
LINE
  5
A164
330
1E
100
AcDbEntity
  8
中心線
 48
0.27
100
AcDbLine
 10
1570.992872035548
 20
1172.210836203118
 30
0.0
 11
1570.992872035543
 21
1156.909716203111
 31
0.0
  0
LINE
  5
A165
330
1E
100
AcDbEntity
  8
虛線
 48
0.2
100
AcDbLine
 10
1573.992852035548
 20
1162.210846203119
 30
0.0
 11
1567.992852035549
 21
1162.210846203118
 31
0.0
  0
LINE
  5
A166
330
1E
100
AcDbEntity
  8
虛線
 48
0.2
100
AcDbLine
 10
1573.992852035547
 20
1169.710826203119
 30
0.0
 11
1573.992852035548
 21
1162.210846203119
 31
0.0
  0
LINE
  5
A167
330
1E
100
AcDbEntity
  8
虛線
 48
0.2
100
AcDbLine
 10
1567.992852035547
 20
1169.710866203118
 30
0.0
 11
1567.992852035549
 21
1162.210846203118
 31
0.0
  0
LINE
  5
A168
330
1E
100
AcDbEntity
  8
0
  6
Continuous
100
AcDbLine
 10
1559.242882035547
 20
1170.210836203117
 30
0.0
 11
1553.492882035547
 21
1170.210836203117
 31
0.0
  0
LINE
  5
A169
330
1E
100
AcDbEntity
  8
0
  6
Continuous
100
AcDbLine
 10
1575.992852035547
 20
1170.21083620312
 30
0.0
 11
1577.492852035547
 21
1168.710836203119
 31
0.0
  0
LINE
  5
A16A
330
1E
100
AcDbEntity
  8
0
  6
Continuous
100
AcDbLine
 10
1577.492852035547
 20
1168.710836203119
 30
0.0
 11
1577.492852035552
 21
1137.210836203121
 31
0.0
  0
LINE
  5
A16B
330
1E
100
AcDbEntity
  8
0
  6
Continuous
100
AcDbLine
 10
1575.992852035547
 20
1170.21083620312
 30
0.0
 11
1565.242852035547
 21
1170.210836203118
 31
0.0
  0
LINE
  5
A16C
330
1E
100
AcDbEntity
  8
0
  6
Continuous
100
AcDbLine
 10
1577.492852035552
 20
1137.210836203121
 30
0.0
 11
1575.992852035551
 21
1135.710836203119
 31
0.0
  0
LINE
  5
A16D
330
1E
100
AcDbEntity
  8
0
  6
Continuous
100
AcDbLine
 10
1565.242852035547
 20
1170.210846203118
 30
0.0
 11
1564.742852035547
 21
1169.710836203118
 31
0.0
  0
LINE
  5
A16E
330
1E
100
AcDbEntity
  8
0
  6
Continuous
100
AcDbLine
 10
1566.592874406155
 20
1136.210823326398
 30
0.0
 11
1565.392874406156
 21
1136.210821682557
 31
0.0
  0
LINE
  5
A16F
330
1E
100
AcDbEntity
  8
0
  6
Continuous
100
AcDbLine
 10
1575.992852035551
 20
1135.710836203119
 30
0.0
 11
1564.992874406155
 21
1135.710821134609
 31
0.0
  0
LINE
  5
A170
330
1E
100
AcDbEntity
  8
0
  6
Continuous
100
AcDbLine
 10
1564.742822035547
 20
1169.710846203118
 30
0.0
 11
1559.742882035547
 21
1169.710846203117
 31
0.0
  0
LINE
  5
A171
330
1E
100
AcDbEntity
  8
0
100
AcDbLine
 10
1575.892852035547
 20
1165.310806203118
 30
0.0
 11
1576.992852035548
 21
1164.210806203118
 31
0.0
  0
LINE
  5
A172
330
1E
100
AcDbEntity
  8
0
  6
Continuous
100
AcDbLine
 10
1576.992852035548
 20
1164.210806203118
 30
0.0
 11
1576.992852035551
 21
1136.710836203119
 31
0.0
  0
LINE
  5
A173
330
1E
100
AcDbEntity
  8
0
  6
Continuous
100
AcDbLine
 10
1559.742882035547
 20
1169.710846203117
 30
0.0
 11
1559.242912035547
 21
1170.210836203117
 31
0.0
  0
LINE
  5
A174
330
1E
100
AcDbEntity
  8
0
100
AcDbLine
 10
1566.592874406153
 20
1154.073578420498
 30
0.0
 11
1564.905616105957
 21
1155.760836720691
 31
0.0
  0
LINE
  5
A175
330
1E
100
AcDbEntity
  8
0
100
AcDbLine
 10
1565.392874406154
 20
1153.576522145649
 30
0.0
 11
1564.408559831109
 21
1154.560836720691
 31
0.0
  0
LINE
  5
A176
330
1E
100
AcDbEntity
  8
0
100
AcDbLine
 10
1564.992874406154
 20
1153.410836720699
 30
0.0
 11
1564.592874406154
 21
1153.810836720699
 31
0.0
  0
LINE
  5
A177
330
1E
100
AcDbEntity
  8
0
  6
Continuous
100
AcDbLine
 10
1564.592874406154
 20
1153.810836720699
 30
0.0
 11
1553.492882035549
 21
1153.810836720695
 31
0.0
  0
LINE
  5
A178
330
1E
100
AcDbEntity
  8
0
  6
Continuous
100
AcDbLine
 10
1559.992928318565
 20
1130.710806203118
 30
0.0
 11
1558.492930672946
 21
1130.710806203117
 31
0.0
  0
LINE
  5
A179
330
1E
100
AcDbEntity
  8
0
  6
Continuous
100
AcDbLine
 10
1563.492874406157
 20
1130.210806203118
 30
0.0
 11
1560.492927945784
 21
1130.210806203117
 31
0.0
  0
LINE
  5
A17A
330
1E
100
AcDbEntity
  8
虛線
 48
0.25
100
AcDbLine
 10
1556.992882035544
 20
1130.710806203117
 30
0.0
 11
1549.992882035552
 21
1130.710806203117
 31
0.0
  0
LINE
  5
A17B
330
1E
100
AcDbEntity
  8
0
  6
Continuous
100
AcDbLine
 10
1557.992930824587
 20
1130.210806203117
 30
0.0
 11
1553.492882035552
 21
1130.210806203117
 31
0.0
  0
LINE
  5
A17C
330
1E
100
AcDbEntity
  8
0
  6
Continuous
100
AcDbLine
 10
1558.492930672946
 20
1130.710806203117
 30
0.0
 11
1557.992930824587
 21
1130.210806203117
 31
0.0
  0
LINE
  5
A17D
330
1E
100
AcDbEntity
  8
0
  6
Continuous
100
AcDbLine
 10
1560.492927945784
 20
1130.210806203117
 30
0.0
 11
1559.992928318565
 21
1130.710806203118
 31
0.0
  0
LINE
  5
A182
330
1E
100
AcDbEntity
  8
0
100
AcDbLine
 10
1546.492891095447
 20
1165.810806203118
 30
0.0
 11
1545.992889664947
 21
1165.310806203118
 31
0.0
  0
LINE
  5
A183
330
1E
100
AcDbEntity
  8
0
100
AcDbLine
 10
1560.492882035547
 20
1165.810806203118
 30
0.0
 11
1546.492882035547
 21
1165.810806203118
 31
0.0
  0
LINE
  5
A184
330
1E
100
AcDbEntity
  8
0
100
AcDbLine
 10
1560.992874406147
 20
1165.310806203118
 30
0.0
 11
1560.492872975547
 21
1165.810806203118
 31
0.0
  0
LINE
  5
C751
330
1E
100
AcDbEntity
  8
0
100
AcDbLine
 10
1662.314595010151
 20
1153.410836720694
 30
0.0
 11
1662.545535117827
 21
1153.810836720694
 31
0.0
  0
LINE
  5
C752
330
1E
100
AcDbEntity
  8
0
100
AcDbLine
 10
1660.314595010151
 20
1144.510836720694
 30
0.0
 11
1660.614595010151
 21
1144.810836720695
 31
0.0
  0
LINE
  5
C753
330
1E
100
AcDbEntity
  8
0
100
AcDbLine
 10
1651.314595010151
 20
1153.410836720694
 30
0.0
 11
1651.083654902475
 21
1153.810836720694
 31
0.0
  0
LINE
  5
C754
330
1E
100
AcDbEntity
  8
0
100
AcDbLine
 10
1653.01459501015
 20
1144.810836720694
 30
0.0
 11
1653.314595010151
 21
1144.510836720694
 31
0.0
  0
LINE
  5
C755
330
1E
100
AcDbEntity
  8
0
100
AcDbLine
 10
1653.314595010151
 20
1144.510836720694
 30
0.0
 11
1660.314595010151
 21
1144.510836720694
 31
0.0
  0
LINE
  5
C756
330
1E
100
AcDbEntity
  8
0
100
AcDbLine
 10
1651.314595010151
 20
1153.410836720694
 30
0.0
 11
1662.314595010151
 21
1153.410836720694
 31
0.0
  0
LINE
  5
C757
330
1E
100
AcDbEntity
  8
0
100
AcDbLine
 10
1662.314595010151
 20
1153.410836720694
 30
0.0
 11
1662.314595010149
 21
1144.810775685538
 31
0.0
  0
LINE
  5
C758
330
1E
100
AcDbEntity
  8
0
100
AcDbLine
 10
1660.314595010149
 20
1130.710806203117
 30
0.0
 11
1660.814595010149
 21
1130.210806203117
 31
0.0
  0
LINE
  5
C759
330
1E
100
AcDbEntity
  8
0
100
AcDbLine
 10
1653.314595010157
 20
1130.710806203116
 30
0.0
 11
1652.814595010158
 21
1130.210806203116
 31
0.0
  0
LINE
  5
C75A
330
1E
100
AcDbEntity
  8
中心線
 48
0.25
100
AcDbLine
 10
1656.814595010153
 20
1155.810836720694
 30
0.0
 11
1656.814595010147
 21
1128.712418305132
 31
0.0
  0
LINE
  5
C75B
330
1E
100
AcDbEntity
  8
0
100
AcDbLine
 10
1651.314595010156
 20
1144.810775685538
 30
0.0
 11
1662.314595010149
 21
1144.810775685538
 31
0.0
  0
LINE
  5
C75C
330
1E
100
AcDbEntity
  8
0
100
AcDbLine
 10
1653.314595010151
 20
1144.510836720694
 30
0.0
 11
1653.314595010157
 21
1130.710806203116
 31
0.0
  0
LINE
  5
C75D
330
1E
100
AcDbEntity
  8
0
100
AcDbLine
 10
1651.314595010155
 20
1153.410836720694
 30
0.0
 11
1651.314595010156
 21
1144.810844350089
 31
0.0
  0
LINE
  5
C75E
330
1E
100
AcDbEntity
  8
0
100
AcDbLine
 10
1660.314595010151
 20
1144.510836720694
 30
0.0
 11
1660.314595010149
 21
1130.710806203117
 31
0.0
  0
LINE
  5
C75F
330
1E
100
AcDbEntity
  8
0
100
AcDbLine
 10
1660.314595010149
 20
1130.710806203117
 30
0.0
 11
1653.314595010157
 21
1130.710806203116
 31
0.0
  0
LINE
  5
C760
330
1E
100
AcDbEntity
  8
0
100
AcDbLine
 10
1672.561106769305
 20
1134.092504610036
 30
0.0
 11
1671.1574686338
 21
1130.210806203117
 31
0.0
  0
LINE
  5
C761
330
1E
100
AcDbEntity
  8
0
100
AcDbLine
 10
1669.953200098928
 20
1139.649030070414
 30
0.0
 11
1672.561106769305
 21
1134.092504610036
 31
0.0
  0
LINE
  5
C762
330
1E
100
AcDbEntity
  8
0
100
AcDbLine
 10
1672.147174744256
 20
1144.603402132654
 30
0.0
 11
1669.953200098928
 21
1139.649030070414
 31
0.0
  0
LINE
  5
C763
330
1E
100
AcDbEntity
  8
0
100
AcDbLine
 10
1669.882413893623
 20
1149.268136851172
 30
0.0
 11
1672.147174744256
 21
1144.603402132654
 31
0.0
  0
LINE
  5
C764
330
1E
100
AcDbEntity
  8
0
100
AcDbLine
 10
1671.18780472161
 20
1153.810836720718
 30
0.0
 11
1669.882413893623
 21
1149.268136851172
 31
0.0
  0
ARC
  5
C7D5
330
1E
100
AcDbEntity
  8
標註線
 62
     1
100
AcDbCircle
 10
1764.314595010147
 20
1248.877922760259
 30
0.0
 40
3.0
100
AcDbArc
 50
169.9999999999938
 51
100.0000000000061
  0
ARC
  5
C7DC
330
1E
100
AcDbEntity
  8
標註線
 62
     1
100
AcDbCircle
 10
1764.314595010147
 20
1231.377922760259
 30
0.0
 40
3.0
100
AcDbArc
 50
169.9999999999938
 51
100.0000000000061
  0
ARC
  5
C7E3
330
1E
100
AcDbEntity
  8
標註線
 62
     1
100
AcDbCircle
 10
1729.314595010148
 20
1231.377922760259
 30
0.0
 40
3.0
100
AcDbArc
 50
169.9999999999938
 51
100.0000000000061
  0
ARC
  5
C7EA
330
1E
100
AcDbEntity
  8
標註線
 62
     1
100
AcDbCircle
 10
1729.314595010148
 20
1248.877922760259
 30
0.0
 40
3.0
100
AcDbArc
 50
169.9999999999938
 51
100.0000000000061
  0
ARC
  5
C7F1
330
1E
100
AcDbEntity
  8
標註線
 62
     1
100
AcDbCircle
 10
1729.314595010148
 20
1266.37792276026
 30
0.0
 40
3.0
100
AcDbArc
 50
169.9999999999938
 51
100.0000000000061
  0
ARC
  5
C946
330
1E
100
AcDbEntity
  8
0
  6
Continuous
100
AcDbCircle
 10
1690.503542187662
 20
1248.87789276026
 30
0.0
 40
4.0
100
AcDbArc
 50
90.0
 51
210.8352048940814
  0
ARC
  5
C947
330
1E
100
AcDbEntity
  8
0
  6
Continuous
100
AcDbCircle
 10
1702.069534989781
 20
1248.87789276026
 30
0.0
 40
7.96743397963368
100
AcDbArc
 50
163.2213499979083
 51
196.7786500020917
  0
LINE
  5
C948
330
1E
100
AcDbEntity
  8
0
  6
Continuous
100
AcDbLine
 10
1694.102101010147
 20
1245.427892660667
 30
0.0
 11
1694.102101010147
 21
1252.327892859853
 31
0.0
  0
LINE
  5
C949
330
1E
100
AcDbEntity
  8
0
  6
Continuous
100
AcDbLine
 10
1694.441353552257
 20
1246.577892959446
 30
0.0
 11
1697.864595010147
 21
1246.577892959446
 31
0.0
  0
LINE
  5
C94A
330
1E
100
AcDbEntity
  8
0
  6
Continuous
100
AcDbLine
 10
1694.441353552257
 20
1244.27789276026
 30
0.0
 11
1697.864595010147
 21
1244.27789276026
 31
0.0
  0
ARC
  5
C94B
330
1E
100
AcDbEntity
  8
0
  6
Continuous
100
AcDbCircle
 10
1696.221110987193
 20
1245.427892660667
 30
0.0
 40
2.119009977045996
100
AcDbArc
 50
147.1327799989424
 51
212.8672200010575
  0
ARC
  5
C94C
330
1E
100
AcDbEntity
  8
0
  6
Continuous
100
AcDbCircle
 10
1691.355090462754
 20
1243.045338026842
 30
0.0
 40
1.854133729915247
100
AcDbArc
 50
34.63277999893215
 51
100.3672200010575
  0
LINE
  5
C94D
330
1E
100
AcDbEntity
  8
0
  6
Continuous
100
AcDbLine
 10
1691.775996898416
 20
1244.87789276026
 30
0.0
 11
1694.174723098162
 21
1244.87789276026
 31
0.0
  0
LINE
  5
C94E
330
1E
100
AcDbEntity
  8
0
  6
Continuous
100
AcDbLine
 10
1690.449307396599
 20
1243.48804291393
 30
0.0
 11
1691.021384665114
 21
1244.869159614306
 31
0.0
  0
ARC
  5
C94F
330
1E
100
AcDbEntity
  8
0
  6
Continuous
100
AcDbCircle
 10
1691.974909641201
 20
1244.541713893668
 30
0.0
 40
1.854133729915247
100
AcDbArc
 50
214.6327799989322
 51
280.3672200010575
  0
LINE
  5
C950
330
1E
100
AcDbEntity
  8
0
  6
Continuous
100
AcDbLine
 10
1692.308572864752
 20
1242.717849660328
 30
0.0
 11
1692.880692758118
 21
1244.099069266195
 31
0.0
  0
LINE
  5
C951
330
1E
100
AcDbEntity
  8
0
  6
Continuous
100
AcDbLine
 10
1694.441353552257
 20
1253.47789276026
 30
0.0
 11
1697.864595010147
 21
1253.47789276026
 31
0.0
  0
LINE
  5
C952
330
1E
100
AcDbEntity
  8
0
  6
Continuous
100
AcDbLine
 10
1694.441353552257
 20
1251.177892561074
 30
0.0
 11
1697.864595010147
 21
1251.177892561074
 31
0.0
  0
LINE
  5
C953
330
1E
100
AcDbEntity
  8
0
  6
Continuous
100
AcDbLine
 10
1690.503542187662
 20
1252.87789276026
 30
0.0
 11
1694.174723098162
 21
1252.87789276026
 31
0.0
  0
ARC
  5
C954
330
1E
100
AcDbEntity
  8
0
  6
Continuous
100
AcDbCircle
 10
1696.221110987193
 20
1252.327892859853
 30
0.0
 40
2.119009977045996
100
AcDbArc
 50
147.1327799989424
 51
212.8672200010575
  0
ARC
  5
C955
330
1E
100
AcDbEntity
  8
0
  6
Continuous
100
AcDbCircle
 10
1691.144281321754
 20
1250.424773867728
 30
0.0
 40
6.971504732179473
100
AcDbArc
 50
230.7213499979154
 51
264.2786500020954
  0
ARC
  5
C956
330
1E
100
AcDbEntity
  8
0
  6
Continuous
100
AcDbCircle
 10
1686.607795943643
 20
1239.472729342384
 30
0.0
 40
6.971504732179473
100
AcDbArc
 50
50.72134999791543
 51
84.27865000208244
  0
LINE
  5
C957
330
1E
100
AcDbEntity
  8
0
  6
Continuous
100
AcDbLine
 10
1686.486713884024
 20
1247.068785520051
 30
0.0
 11
1692.064636722582
 21
1244.75833423045
 31
0.0
  0
LINE
  5
C958
330
1E
100
AcDbEntity
  8
0
  6
Continuous
100
AcDbLine
 10
1685.687440542815
 20
1245.139168979662
 30
0.0
 11
1691.265363381373
 21
1242.828717690061
 31
0.0
  0
ARC
  5
C959
330
1E
100
AcDbEntity
  8
0
  6
Continuous
100
AcDbCircle
 10
1692.021471115643
 20
1240.62973333017
 30
0.0
 40
2.059673609817604
100
AcDbArc
 50
89.15209883494581
 51
159.1520988349398
  0
LINE
  5
C95A
330
1E
100
AcDbEntity
  8
0
  6
Continuous
100
AcDbLine
 10
1685.662025735238
 20
1243.199627716797
 30
0.0
 11
1689.91187158479
 21
1241.439283927918
 31
0.0
  0
ARC
  5
C95B
330
1E
100
AcDbEntity
  8
0
  6
Continuous
100
AcDbCircle
 10
1683.597874884004
 20
1244.11890113327
 30
0.0
 40
2.059673609817605
100
AcDbArc
 50
335.8479011650615
 51
45.8479011650646
  0
ARC
  5
C95C
330
1E
100
AcDbEntity
  8
0
  6
Continuous
100
AcDbCircle
 10
1686.396986802643
 20
1246.85216518327
 30
0.0
 40
1.854133729915247
100
AcDbArc
 50
214.6327799989322
 51
280.3672200010575
  0
ARC
  5
C95D
330
1E
100
AcDbEntity
  8
0
  6
Continuous
100
AcDbCircle
 10
1685.777167624196
 20
1245.355789316443
 30
0.0
 40
1.854133729915247
100
AcDbArc
 50
34.63277999893215
 51
100.3672200010575
  0
LINE
  5
C95E
330
1E
100
AcDbEntity
  8
0
  6
Continuous
100
AcDbLine
 10
1684.871384880082
 20
1245.798494070137
 30
0.0
 11
1685.443462148598
 21
1247.179610770513
 31
0.0
  0
LINE
  5
C95F
330
1E
100
AcDbEntity
  8
0
  6
Continuous
100
AcDbLine
 10
1686.730692600282
 20
1245.028343595806
 30
0.0
 11
1687.302769868798
 21
1246.409460296181
 31
0.0
  0
ARC
  5
C960
330
1E
100
AcDbEntity
  8
0
  6
Continuous
100
AcDbCircle
 10
1687.352865265052
 20
1240.554504942222
 30
0.0
 40
2.860349020536762
100
AcDbArc
 50
331.4135141737343
 51
16.41351417374012
  0
ARC
  5
C961
330
1E
100
AcDbEntity
  8
0
  6
Continuous
100
AcDbCircle
 10
1686.845883236388
 20
1240.764503774374
 30
0.0
 40
2.860349020536762
100
AcDbArc
 50
118.5864858262542
 51
163.5864858262599
  0
LINE
  5
C962
330
1E
100
AcDbEntity
  8
0
  6
Continuous
100
AcDbLine
 10
1687.720580988415
 20
1237.041926629038
 30
0.0
 11
1689.864525893948
 21
1239.185871534571
 31
0.0
  0
LINE
  5
C963
330
1E
100
AcDbEntity
  8
0
  6
Continuous
100
AcDbLine
 10
1684.102101010147
 20
1238.540750111212
 30
0.0
 11
1684.102101010147
 21
1241.572746073597
 31
0.0
  0
LINE
  5
C964
330
1E
100
AcDbEntity
  8
0
  6
Continuous
100
AcDbLine
 10
1684.102101010147
 20
1238.540750111212
 30
0.0
 11
1687.720580988415
 21
1237.041926629038
 31
0.0
  0
LINE
  5
C965
330
1E
100
AcDbEntity
  8
0
  6
Continuous
100
AcDbLine
 10
1684.102101010147
 20
1241.572746073597
 30
0.0
 11
1689.864525893948
 21
1239.185871534571
 31
0.0
  0
ARC
  5
C966
330
1E
100
AcDbEntity
  8
0
 48
0.27
100
AcDbCircle
 10
1686.814595010153
 20
1248.87792276026
 30
0.0
 40
3.5
100
AcDbArc
 50
67.55610857292433
 51
237.3490782601302
  0
ARC
  5
C967
330
1E
100
AcDbEntity
  8
0
 48
0.27
100
AcDbCircle
 10
1686.814595010153
 20
1248.87792276026
 30
0.0
 40
5.5
100
AcDbArc
 50
46.65778643401472
 51
256.908598044017
  0
LINE
  5
C968
330
1E
100
AcDbEntity
  8
中心線
 48
0.2
100
AcDbLine
 10
1679.567677504427
 20
1248.87792276026
 30
0.0
 11
1686.503542187775
 21
1248.87792276026
 31
0.0
  0
LINE
  5
C969
330
1E
100
AcDbEntity
  8
中心線
 48
0.2
100
AcDbLine
 10
1686.814595010153
 20
1250.424394852579
 30
0.0
 11
1686.814595010153
 21
1256.124840265986
 31
0.0
  0
LINE
  5
C986
330
1E
100
AcDbEntity
  8
0
  6
Continuous
 62
     7
100
AcDbLine
 10
1688.056584749037
 20
1237.37793038966
 30
0.0
 11
1697.864595010147
 21
1237.37793038966
 31
0.0
  0
LINE
  5
CA0A
330
1E
100
AcDbEntity
  8
中心線
 48
0.27
100
AcDbLine
 10
1682.864596769164
 20
1160.010806203122
 30
-0.0000000000000009
 11
1698.169064883701
 21
1160.010806203122
 31
-0.0000000000000009
  0
ARC
  5
CA0B
330
1E
100
AcDbEntity
  8
0
 48
0.27
100
AcDbCircle
 10
1697.056212010147
 20
1158.010825534222
 30
-0.0000000000000009
 40
2.954110999999976
100
AcDbArc
 50
137.3885930045096
 51
222.6114069976016
  0
ARC
  5
CA0C
330
1E
100
AcDbEntity
  8
0
 48
0.27
100
AcDbCircle
 10
1697.056213010147
 20
1162.010825534222
 30
-0.0000000000000009
 40
2.954111999999976
100
AcDbArc
 50
137.3885980021923
 51
222.6114019999005
  0
LWPOLYLINE
  5
CA0D
330
1E
100
AcDbEntity
  8
0
 48
0.27
100
AcDbPolyline
 90
       31
 70
     0
 43
0.0
 10
1686.773384010147
 20
1160.010825534222
 10
1686.740566010147
 20
1160.221080534222
 10
1686.696419010147
 20
1160.326567534222
 10
1686.633386010147
 20
1160.424346534222
 10
1686.553910010147
 20
1160.508459534222
 10
1686.462419010147
 20
1160.574332534222
 10
1686.364499010147
 20
1160.619613534222
 10
1686.231863010147
 20
1160.648554534222
 10
1686.108854010147
 20
1160.645895534222
 10
1686.001930010147
 20
1160.620389534222
 10
1685.885725010147
 20
1160.564621534222
 10
1685.775155010147
 20
1160.475132534222
 10
1685.686925010147
 20
1160.360582534222
 10
1685.630291010147
 20
1160.240743534222
 10
1685.602440010147
 20
1160.137087534222
 10
1685.590819010147
 20
1160.010825534222
 10
1685.623637010147
 20
1159.800570534222
 10
1685.667785010147
 20
1159.695082534222
 10
1685.730817010147
 20
1159.597304534222
 10
1685.810293010147
 20
1159.513191534222
 10
1685.901784010147
 20
1159.447318534222
 10
1685.999704010147
 20
1159.402037534222
 10
1686.132340010147
 20
1159.373095534222
 10
1686.255349010147
 20
1159.375755534222
 10
1686.362273010147
 20
1159.401260534222
 10
1686.478478010147
 20
1159.457028534222
 10
1686.589048010147
 20
1159.546518534222
 10
1686.677278010147
 20
1159.661067534222
 10
1686.733912010147
 20
1159.780906534222
 10
1686.761764010147
 20
1159.884563534222
 10
1686.773384010147
 20
1160.010825534222
  0
ARC
  5
CA0E
330
1E
100
AcDbEntity
  8
0
 48
0.27
100
AcDbCircle
 10
1690.353761010147
 20
1160.010825534222
 30
-0.0000000000000009
 40
3.999999999999968
100
AcDbArc
 50
90.0
 51
131.4096219995988
  0
ARC
  5
CA0F
330
1E
100
AcDbEntity
  8
0
 48
0.27
100
AcDbCircle
 10
1690.353761010147
 20
1160.010825534222
 30
-0.0000000000000009
 40
3.999999999999968
100
AcDbArc
 50
228.5903779972994
 51
270.0
  0
LINE
  5
CA10
330
1E
100
AcDbEntity
  8
0
 48
0.27
100
AcDbLine
 10
1697.864595010148
 20
1164.010825534222
 30
-0.0000000000000009
 11
1690.353761010147
 21
1164.010825534222
 31
-0.0000000000000009
  0
LINE
  5
CA11
330
1E
100
AcDbEntity
  8
0
 48
0.27
100
AcDbLine
 10
1694.882097010147
 20
1160.010825534222
 30
-0.0000000000000009
 11
1697.864595010147
 21
1160.010825534222
 31
-0.0000000000000009
  0
LINE
  5
CA12
330
1E
100
AcDbEntity
  8
0
 48
0.27
100
AcDbLine
 10
1690.353761010147
 20
1156.010825534222
 30
-0.0000000000000009
 11
1696.806476356736
 21
1156.010825534222
 31
-0.0000000000000009
  0
LINE
  5
CA13
330
1E
100
AcDbEntity
  8
0
 48
0.27
100
AcDbLine
 10
1694.102101010147
 20
1164.010825534222
 30
-0.0000000000000009
 11
1694.102101010147
 21
1156.010825534222
 31
-0.0000000000000009
  0
LINE
  5
CA14
330
1E
100
AcDbEntity
  8
0
 48
0.27
100
AcDbLine
 10
1686.826324010147
 20
1163.010825534222
 30
-0.0000000000000009
 11
1690.726100010147
 21
1163.010825534222
 31
-0.0000000000000009
  0
LINE
  5
CA15
330
1E
100
AcDbEntity
  8
0
 48
0.27
100
AcDbLine
 10
1686.579931010147
 20
1157.472752534222
 30
-0.0000000000000009
 11
1686.826324010147
 21
1157.010825534222
 31
-0.0000000000000009
  0
LINE
  5
CA16
330
1E
100
AcDbEntity
  8
0
 48
0.27
100
AcDbLine
 10
1686.826324010147
 20
1163.010825534222
 30
-0.0000000000000009
 11
1686.579931010147
 21
1162.548898534222
 31
-0.0000000000000009
  0
LINE
  5
CA17
330
1E
100
AcDbEntity
  8
0
 48
0.27
100
AcDbLine
 10
1691.626942010147
 20
1160.010825534222
 30
-0.0000000000000009
 11
1692.326306010147
 21
1160.010825534222
 31
-0.0000000000000009
  0
LINE
  5
CA18
330
1E
100
AcDbEntity
  8
0
 48
0.27
100
AcDbLine
 10
1690.726100010147
 20
1163.010825534222
 30
-0.0000000000000009
 11
1692.326306010147
 21
1160.010825534222
 31
-0.0000000000000009
  0
LINE
  5
CA19
330
1E
100
AcDbEntity
  8
0
 48
0.27
100
AcDbLine
 10
1690.726100010147
 20
1157.010825534222
 30
-0.0000000000000009
 11
1686.826324010147
 21
1157.010825534222
 31
-0.0000000000000009
  0
LINE
  5
CA1A
330
1E
100
AcDbEntity
  8
0
 48
0.27
100
AcDbLine
 10
1692.326306010147
 20
1160.010825534222
 30
-0.0000000000000009
 11
1690.726100010147
 21
1157.010825534222
 31
-0.0000000000000009
  0
LINE
  5
CA1B
330
1E
100
AcDbEntity
  8
0
 48
0.27
100
AcDbLine
 10
1686.947403010147
 20
1162.540359534222
 30
-0.0000000000000009
 11
1687.365870010147
 21
1162.782463534222
 31
-0.0000000000000009
  0
LINE
  5
CA1C
330
1E
100
AcDbEntity
  8
0
 48
0.27
100
AcDbLine
 10
1686.947403010147
 20
1157.481290534222
 30
-0.0000000000000009
 11
1687.365870010147
 21
1157.239186534222
 31
-0.0000000000000009
  0
LINE
  5
CA1D
330
1E
100
AcDbEntity
  8
0
 48
0.27
100
AcDbLine
 10
1687.365870010147
 20
1162.782463534222
 30
-0.0000000000000009
 11
1687.885810010147
 21
1162.953181534222
 31
-0.0000000000000009
  0
LINE
  5
CA1E
330
1E
100
AcDbEntity
  8
0
 48
0.27
100
AcDbLine
 10
1687.365870010147
 20
1157.239186534222
 30
-0.0000000000000009
 11
1687.885810010147
 21
1157.068469534222
 31
-0.0000000000000009
  0
LINE
  5
CA1F
330
1E
100
AcDbEntity
  8
0
 48
0.27
100
AcDbLine
 10
1687.885810010147
 20
1162.953181534222
 30
-0.0000000000000009
 11
1688.426530010147
 21
1163.010825534222
 31
-0.0000000000000009
  0
LINE
  5
CA20
330
1E
100
AcDbEntity
  8
0
 48
0.27
100
AcDbLine
 10
1687.885810010147
 20
1157.068469534222
 30
-0.0000000000000009
 11
1688.426530010147
 21
1157.010825534222
 31
-0.0000000000000009
  0
LINE
  5
CA21
330
1E
100
AcDbEntity
  8
0
 48
0.27
100
AcDbLine
 10
1688.426530010147
 20
1163.010825534222
 30
-0.0000000000000009
 11
1688.967250010147
 21
1162.953181534222
 31
-0.0000000000000009
  0
LINE
  5
CA22
330
1E
100
AcDbEntity
  8
0
 48
0.27
100
AcDbLine
 10
1688.426530010147
 20
1157.010825534222
 30
-0.0000000000000009
 11
1688.967250010147
 21
1157.068469534222
 31
-0.0000000000000009
  0
LINE
  5
CA23
330
1E
100
AcDbEntity
  8
0
 48
0.27
100
AcDbLine
 10
1688.967250010147
 20
1162.953181534222
 30
-0.0000000000000009
 11
1689.487190010147
 21
1162.782463534222
 31
-0.0000000000000009
  0
LINE
  5
CA24
330
1E
100
AcDbEntity
  8
0
 48
0.27
100
AcDbLine
 10
1688.967250010147
 20
1157.068469534222
 30
-0.0000000000000009
 11
1689.487190010147
 21
1157.239186534222
 31
-0.0000000000000009
  0
LINE
  5
CA25
330
1E
100
AcDbEntity
  8
0
 48
0.27
100
AcDbLine
 10
1689.487190010147
 20
1162.782463534222
 30
-0.0000000000000009
 11
1689.966370010147
 21
1162.505234534222
 31
-0.0000000000000009
  0
LINE
  5
CA26
330
1E
100
AcDbEntity
  8
0
 48
0.27
100
AcDbLine
 10
1689.487190010147
 20
1157.239186534222
 30
-0.0000000000000009
 11
1689.966370010147
 21
1157.516416534222
 31
-0.0000000000000009
  0
LINE
  5
CA27
330
1E
100
AcDbEntity
  8
0
 48
0.27
100
AcDbLine
 10
1689.966370010147
 20
1162.505234534222
 30
-0.0000000000000009
 11
1690.386374010147
 21
1162.132145534222
 31
-0.0000000000000009
  0
LINE
  5
CA28
330
1E
100
AcDbEntity
  8
0
 48
0.27
100
AcDbLine
 10
1689.966370010147
 20
1157.516416534222
 30
-0.0000000000000009
 11
1690.386374010147
 21
1157.889504534222
 31
-0.0000000000000009
  0
LINE
  5
CA29
330
1E
100
AcDbEntity
  8
0
 48
0.27
100
AcDbLine
 10
1690.026736010147
 20
1163.010825534222
 30
-0.0000000000000009
 11
1691.626942010147
 21
1160.010825534222
 31
-0.0000000000000009
  0
LINE
  5
CA2A
330
1E
100
AcDbEntity
  8
0
 48
0.27
100
AcDbLine
 10
1691.626942010147
 20
1160.010825534222
 30
-0.0000000000000009
 11
1690.026736010147
 21
1157.010825534222
 31
-0.0000000000000009
  0
LINE
  5
CA2B
330
1E
100
AcDbEntity
  8
0
 48
0.27
100
AcDbLine
 10
1690.386374010147
 20
1162.132145534222
 30
-0.0000000000000009
 11
1690.731063010147
 21
1161.677535534222
 31
-0.0000000000000009
  0
LINE
  5
CA2C
330
1E
100
AcDbEntity
  8
0
 48
0.27
100
AcDbLine
 10
1690.731063010147
 20
1158.344114534222
 30
-0.0000000000000009
 11
1690.386374010147
 21
1157.889504534222
 31
-0.0000000000000009
  0
LINE
  5
CA2D
330
1E
100
AcDbEntity
  8
0
 48
0.27
100
AcDbLine
 10
1690.731063010147
 20
1161.677535534222
 30
-0.0000000000000009
 11
1690.987190010147
 21
1161.158875534222
 31
-0.0000000000000009
  0
LINE
  5
CA2E
330
1E
100
AcDbEntity
  8
0
 48
0.27
100
AcDbLine
 10
1690.987190010147
 20
1158.862774534222
 30
-0.0000000000000009
 11
1690.731063010147
 21
1158.344114534222
 31
-0.0000000000000009
  0
LINE
  5
CA2F
330
1E
100
AcDbEntity
  8
0
 48
0.27
100
AcDbLine
 10
1690.987190010147
 20
1161.158875534222
 30
-0.0000000000000009
 11
1691.144912010147
 21
1160.596096534222
 31
-0.0000000000000009
  0
LINE
  5
CA30
330
1E
100
AcDbEntity
  8
0
 48
0.27
100
AcDbLine
 10
1691.144912010147
 20
1159.425554534222
 30
-0.0000000000000009
 11
1690.987190010147
 21
1158.862774534222
 31
-0.0000000000000009
  0
LINE
  5
CA31
330
1E
100
AcDbEntity
  8
0
 48
0.27
100
AcDbLine
 10
1691.144912010147
 20
1160.596096534222
 30
-0.0000000000000009
 11
1691.198168010147
 21
1160.010825534222
 31
-0.0000000000000009
  0
LINE
  5
CA32
330
1E
100
AcDbEntity
  8
0
 48
0.27
100
AcDbLine
 10
1691.198168010147
 20
1160.010825534222
 30
-0.0000000000000009
 11
1691.144912010147
 21
1159.425554534222
 31
-0.0000000000000009
  0
LINE
  5
CA33
330
1E
100
AcDbEntity
  8
0
 48
0.27
100
AcDbLine
 10
1685.522633010148
 20
1161.651052534222
 30
-0.0000000000000009
 11
1685.525604010147
 21
1161.649437534222
 31
-0.0000000000000009
  0
LINE
  5
CA34
330
1E
100
AcDbEntity
  8
0
 48
0.27
100
AcDbLine
 10
1685.522633010148
 20
1158.370597534222
 30
-0.0000000000000009
 11
1685.525604010147
 21
1158.372213534222
 31
-0.0000000000000009
  0
LINE
  5
CA35
330
1E
100
AcDbEntity
  8
0
 48
0.27
100
AcDbLine
 10
1684.409923010147
 20
1160.508967534222
 30
-0.0000000000000009
 11
1684.364595010147
 21
1160.010825534222
 31
-0.0000000000000009
  0
LINE
  5
CA36
330
1E
100
AcDbEntity
  8
0
 48
0.27
100
AcDbLine
 10
1684.544165010147
 20
1160.987965534222
 30
-0.0000000000000009
 11
1684.409923010147
 21
1160.508967534222
 31
-0.0000000000000009
  0
LINE
  5
CA37
330
1E
100
AcDbEntity
  8
0
 48
0.27
100
AcDbLine
 10
1684.364595010147
 20
1160.010825534222
 30
-0.0000000000000009
 11
1684.409923010147
 21
1159.512683534222
 31
-0.0000000000000009
  0
LINE
  5
CA38
330
1E
100
AcDbEntity
  8
0
 48
0.27
100
AcDbLine
 10
1684.762162010147
 20
1161.429413534222
 30
-0.0000000000000009
 11
1684.544165010147
 21
1160.987965534222
 31
-0.0000000000000009
  0
LINE
  5
CA39
330
1E
100
AcDbEntity
  8
0
 48
0.27
100
AcDbLine
 10
1684.409923010147
 20
1159.512683534222
 30
-0.0000000000000009
 11
1684.544165010147
 21
1159.033684534222
 31
-0.0000000000000009
  0
LINE
  5
CA3A
330
1E
100
AcDbEntity
  8
0
 48
0.27
100
AcDbLine
 10
1685.055538010147
 20
1161.816345534222
 30
-0.0000000000000009
 11
1684.762162010147
 21
1161.429413534222
 31
-0.0000000000000009
  0
LINE
  5
CA3B
330
1E
100
AcDbEntity
  8
0
 48
0.27
100
AcDbLine
 10
1684.544165010147
 20
1159.033684534222
 30
-0.0000000000000009
 11
1684.762162010147
 21
1158.592237534222
 31
-0.0000000000000009
  0
LINE
  5
CA3C
330
1E
100
AcDbEntity
  8
0
 48
0.27
100
AcDbLine
 10
1685.055538010147
 20
1161.816345534222
 30
-0.0000000000000009
 11
1685.413016010147
 21
1162.133892534222
 31
-0.0000000000000009
  0
LINE
  5
CA3D
330
1E
100
AcDbEntity
  8
0
 48
0.27
100
AcDbLine
 10
1684.762162010147
 20
1158.592237534222
 30
-0.0000000000000009
 11
1685.055538010147
 21
1158.205305534222
 31
-0.0000000000000009
  0
LINE
  5
CA3E
330
1E
100
AcDbEntity
  8
0
 48
0.27
100
AcDbLine
 10
1684.558626010147
 20
1160.360361534222
 30
-0.0000000000000009
 11
1684.526820010147
 21
1160.010825534222
 31
-0.0000000000000009
  0
LINE
  5
CA3F
330
1E
100
AcDbEntity
  8
0
 48
0.27
100
AcDbLine
 10
1684.652821010147
 20
1160.696465534222
 30
-0.0000000000000009
 11
1684.558626010147
 21
1160.360361534222
 31
-0.0000000000000009
  0
LINE
  5
CA40
330
1E
100
AcDbEntity
  8
0
 48
0.27
100
AcDbLine
 10
1684.526820010147
 20
1160.010825534222
 30
-0.0000000000000009
 11
1684.558626010147
 21
1159.661289534222
 31
-0.0000000000000009
  0
LINE
  5
CA41
330
1E
100
AcDbEntity
  8
0
 48
0.27
100
AcDbLine
 10
1684.805785010147
 20
1161.006220534222
 30
-0.0000000000000009
 11
1684.652821010147
 21
1160.696465534222
 31
-0.0000000000000009
  0
LINE
  5
CA42
330
1E
100
AcDbEntity
  8
0
 48
0.27
100
AcDbLine
 10
1684.558626010147
 20
1159.661289534222
 30
-0.0000000000000009
 11
1684.652821010147
 21
1159.325185534222
 31
-0.0000000000000009
  0
LINE
  5
CA43
330
1E
100
AcDbEntity
  8
0
 48
0.27
100
AcDbLine
 10
1685.413016010147
 20
1162.133892534222
 30
-0.0000000000000009
 11
1685.820861010147
 21
1162.369851534222
 31
-0.0000000000000009
  0
LINE
  5
CA44
330
1E
100
AcDbEntity
  8
0
 48
0.27
100
AcDbLine
 10
1685.055538010147
 20
1158.205305534222
 30
-0.0000000000000009
 11
1685.413016010147
 21
1157.887758534222
 31
-0.0000000000000009
  0
LINE
  5
CA45
330
1E
100
AcDbEntity
  8
0
 48
0.27
100
AcDbLine
 10
1685.011641010147
 20
1161.277722534222
 30
-0.0000000000000009
 11
1684.805785010147
 21
1161.006220534222
 31
-0.0000000000000009
  0
LINE
  5
CA46
330
1E
100
AcDbEntity
  8
0
 48
0.27
100
AcDbLine
 10
1684.652821010147
 20
1159.325185534222
 30
-0.0000000000000009
 11
1684.805785010147
 21
1159.015430534222
 31
-0.0000000000000009
  0
LINE
  5
CA47
330
1E
100
AcDbEntity
  8
0
 48
0.27
100
AcDbLine
 10
1685.820861010147
 20
1162.369851534222
 30
-0.0000000000000009
 11
1686.263398010147
 21
1162.515153534222
 31
-0.0000000000000009
  0
LINE
  5
CA48
330
1E
100
AcDbEntity
  8
0
 48
0.27
100
AcDbLine
 10
1685.413016010147
 20
1157.887758534222
 30
-0.0000000000000009
 11
1685.820861010147
 21
1157.651799534222
 31
-0.0000000000000009
  0
LINE
  5
CA49
330
1E
100
AcDbEntity
  8
0
 48
0.27
100
AcDbLine
 10
1685.011641010147
 20
1161.277722534222
 30
-0.0000000000000009
 11
1685.262476010147
 21
1161.500539534222
 31
-0.0000000000000009
  0
LINE
  5
CA4A
330
1E
100
AcDbEntity
  8
0
 48
0.27
100
AcDbLine
 10
1684.805785010147
 20
1159.015430534222
 30
-0.0000000000000009
 11
1685.011641010147
 21
1158.743927534222
 31
-0.0000000000000009
  0
LINE
  5
CA4B
330
1E
100
AcDbEntity
  8
0
 48
0.27
100
AcDbLine
 10
1686.263398010147
 20
1162.515153534222
 30
-0.0000000000000009
 11
1686.723621010147
 21
1162.564216534222
 31
-0.0000000000000009
  0
LINE
  5
CA4C
330
1E
100
AcDbEntity
  8
0
 48
0.27
100
AcDbLine
 10
1685.820861010147
 20
1157.651799534222
 30
-0.0000000000000009
 11
1686.263398010147
 21
1157.506496534222
 31
-0.0000000000000009
  0
LINE
  5
CA4D
330
1E
100
AcDbEntity
  8
0
 48
0.27
100
AcDbLine
 10
1685.262476010147
 20
1161.500539534222
 30
-0.0000000000000009
 11
1685.548653010148
 21
1161.666106534222
 31
-0.0000000000000009
  0
LINE
  5
CA4E
330
1E
100
AcDbEntity
  8
0
 48
0.27
100
AcDbLine
 10
1685.011641010147
 20
1158.743927534222
 30
-0.0000000000000009
 11
1685.262476010147
 21
1158.521111534222
 31
-0.0000000000000009
  0
LINE
  5
CA4F
330
1E
100
AcDbEntity
  8
0
 48
0.27
100
AcDbLine
 10
1687.328280010147
 20
1162.487806534222
 30
-0.0000000000000009
 11
1687.765984010147
 21
1162.344090534222
 31
-0.0000000000000009
  0
LINE
  5
CA50
330
1E
100
AcDbEntity
  8
0
 48
0.27
100
AcDbLine
 10
1685.548653010148
 20
1161.666106534222
 30
-0.0000000000000009
 11
1685.859172010147
 21
1161.768062534222
 31
-0.0000000000000009
  0
LINE
  5
CA51
330
1E
100
AcDbEntity
  8
0
 48
0.27
100
AcDbLine
 10
1685.262476010147
 20
1158.521111534222
 30
-0.0000000000000009
 11
1685.548653010148
 21
1158.355543534222
 31
-0.0000000000000009
  0
LINE
  5
CA52
330
1E
100
AcDbEntity
  8
0
 48
0.27
100
AcDbLine
 10
1687.183844010147
 20
1162.515153534222
 30
-0.0000000000000009
 11
1687.328280010147
 21
1162.487806534222
 31
-0.0000000000000009
  0
LINE
  5
CA53
330
1E
100
AcDbEntity
  8
0
 48
0.27
100
AcDbLine
 10
1686.723621010147
 20
1162.564216534222
 30
-0.0000000000000009
 11
1687.183844010147
 21
1162.515153534222
 31
-0.0000000000000009
  0
LINE
  5
CA54
330
1E
100
AcDbEntity
  8
0
 48
0.27
100
AcDbLine
 10
1686.263398010147
 20
1157.506496534222
 30
-0.0000000000000009
 11
1686.723621010147
 21
1157.457434534222
 31
-0.0000000000000009
  0
LINE
  5
CA55
330
1E
100
AcDbEntity
  8
0
 48
0.27
100
AcDbLine
 10
1687.765984010147
 20
1162.344090534222
 30
-0.0000000000000009
 11
1688.169375010147
 21
1162.110708534222
 31
-0.0000000000000009
  0
LINE
  5
CA56
330
1E
100
AcDbEntity
  8
0
 48
0.27
100
AcDbLine
 10
1687.328280010147
 20
1157.533844534222
 30
-0.0000000000000009
 11
1687.765984010147
 21
1157.677560534222
 31
-0.0000000000000009
  0
LINE
  5
CA57
330
1E
100
AcDbEntity
  8
0
 48
0.27
100
AcDbLine
 10
1688.169375010147
 20
1162.110708534222
 30
-0.0000000000000009
 11
1688.522950010147
 21
1161.796629534222
 31
-0.0000000000000009
  0
LINE
  5
CA58
330
1E
100
AcDbEntity
  8
0
 48
0.27
100
AcDbLine
 10
1687.765984010147
 20
1157.677560534222
 30
-0.0000000000000009
 11
1688.169375010147
 21
1157.910942534222
 31
-0.0000000000000009
  0
LINE
  5
CA59
330
1E
100
AcDbEntity
  8
0
 48
0.27
100
AcDbLine
 10
1685.859172010147
 20
1161.768062534222
 30
-0.0000000000000009
 11
1686.182102010147
 21
1161.802488534222
 31
-0.0000000000000009
  0
LINE
  5
CA5A
330
1E
100
AcDbEntity
  8
0
 48
0.27
100
AcDbLine
 10
1685.548653010148
 20
1158.355543534222
 30
-0.0000000000000009
 11
1685.859172010147
 21
1158.253587534222
 31
-0.0000000000000009
  0
LINE
  5
CA5B
330
1E
100
AcDbEntity
  8
0
 48
0.27
100
AcDbLine
 10
1687.183844010147
 20
1162.515153534222
 30
-0.0000000000000009
 11
1687.626381010147
 21
1162.369851534222
 31
-0.0000000000000009
  0
LINE
  5
CA5C
330
1E
100
AcDbEntity
  8
0
 48
0.27
100
AcDbLine
 10
1687.183844010147
 20
1157.506496534222
 30
-0.0000000000000009
 11
1687.328280010147
 21
1157.533844534222
 31
-0.0000000000000009
  0
LINE
  5
CA5D
330
1E
100
AcDbEntity
  8
0
 48
0.27
100
AcDbLine
 10
1686.723621010147
 20
1157.457434534222
 30
-0.0000000000000009
 11
1687.183844010147
 21
1157.506496534222
 31
-0.0000000000000009
  0
LINE
  5
CA5E
330
1E
100
AcDbEntity
  8
0
 48
0.27
100
AcDbLine
 10
1688.522950010147
 20
1161.796629534222
 30
-0.0000000000000009
 11
1688.813121010147
 21
1161.413922534222
 31
-0.0000000000000009
  0
LINE
  5
CA5F
330
1E
100
AcDbEntity
  8
0
 48
0.27
100
AcDbLine
 10
1688.169375010147
 20
1157.910942534222
 30
-0.0000000000000009
 11
1688.522950010147
 21
1158.225021534222
 31
-0.0000000000000009
  0
LINE
  5
CA60
330
1E
100
AcDbEntity
  8
0
 48
0.27
100
AcDbLine
 10
1686.182102010147
 20
1161.802488534222
 30
-0.0000000000000009
 11
1686.505031010147
 21
1161.768062534222
 31
-0.0000000000000009
  0
LINE
  5
CA61
330
1E
100
AcDbEntity
  8
0
 48
0.27
100
AcDbLine
 10
1685.859172010147
 20
1158.253587534222
 30
-0.0000000000000009
 11
1686.182102010147
 21
1158.219161534222
 31
-0.0000000000000009
  0
LINE
  5
CA62
330
1E
100
AcDbEntity
  8
0
 48
0.27
100
AcDbLine
 10
1687.626381010147
 20
1162.369851534222
 30
-0.0000000000000009
 11
1688.034225010147
 21
1162.133892534222
 31
-0.0000000000000009
  0
LINE
  5
CA63
330
1E
100
AcDbEntity
  8
0
 48
0.27
100
AcDbLine
 10
1687.183844010147
 20
1157.506496534222
 30
-0.0000000000000009
 11
1687.626381010147
 21
1157.651799534222
 31
-0.0000000000000009
  0
LINE
  5
CA64
330
1E
100
AcDbEntity
  8
0
 48
0.27
100
AcDbLine
 10
1688.813121010147
 20
1161.413922534222
 30
-0.0000000000000009
 11
1689.028738010147
 21
1160.977295534222
 31
-0.0000000000000009
  0
LINE
  5
CA65
330
1E
100
AcDbEntity
  8
0
 48
0.27
100
AcDbLine
 10
1688.813121010147
 20
1158.607728534222
 30
-0.0000000000000009
 11
1688.522950010147
 21
1158.225021534222
 31
-0.0000000000000009
  0
LINE
  5
CA66
330
1E
100
AcDbEntity
  8
0
 48
0.27
100
AcDbLine
 10
1689.028738010147
 20
1160.977295534222
 30
-0.0000000000000009
 11
1689.161514010147
 21
1160.503527534222
 31
-0.0000000000000009
  0
LINE
  5
CA67
330
1E
100
AcDbEntity
  8
0
 48
0.27
100
AcDbLine
 10
1689.028738010147
 20
1159.044355534222
 30
-0.0000000000000009
 11
1688.813121010147
 21
1158.607728534222
 31
-0.0000000000000009
  0
LINE
  5
CA68
330
1E
100
AcDbEntity
  8
0
 48
0.27
100
AcDbLine
 10
1688.034225010147
 20
1162.133892534222
 30
-0.0000000000000009
 11
1688.391704010147
 21
1161.816345534222
 31
-0.0000000000000009
  0
LINE
  5
CA69
330
1E
100
AcDbEntity
  8
0
 48
0.27
100
AcDbLine
 10
1687.626381010147
 20
1157.651799534222
 30
-0.0000000000000009
 11
1688.034225010147
 21
1157.887758534222
 31
-0.0000000000000009
  0
LINE
  5
CA6A
330
1E
100
AcDbEntity
  8
0
 48
0.27
100
AcDbLine
 10
1689.161514010147
 20
1160.503527534222
 30
-0.0000000000000009
 11
1689.206347010147
 21
1160.010825534222
 31
-0.0000000000000009
  0
LINE
  5
CA6B
330
1E
100
AcDbEntity
  8
0
 48
0.27
100
AcDbLine
 10
1689.161514010147
 20
1159.518123534222
 30
-0.0000000000000009
 11
1689.028738010147
 21
1159.044355534222
 31
-0.0000000000000009
  0
LINE
  5
CA6C
330
1E
100
AcDbEntity
  8
0
 48
0.27
100
AcDbLine
 10
1686.505031010147
 20
1161.768062534222
 30
-0.0000000000000009
 11
1686.815550010148
 21
1161.666106534222
 31
-0.0000000000000009
  0
LINE
  5
CA6D
330
1E
100
AcDbEntity
  8
0
 48
0.27
100
AcDbLine
 10
1686.182102010147
 20
1158.219161534222
 30
-0.0000000000000009
 11
1686.505031010147
 21
1158.253587534222
 31
-0.0000000000000009
  0
LINE
  5
CA6E
330
1E
100
AcDbEntity
  8
0
 48
0.27
100
AcDbLine
 10
1689.206347010147
 20
1160.010825534222
 30
-0.0000000000000009
 11
1689.161514010147
 21
1159.518123534222
 31
-0.0000000000000009
  0
LINE
  5
CA6F
330
1E
100
AcDbEntity
  8
0
 48
0.27
100
AcDbLine
 10
1688.391704010147
 20
1161.816345534222
 30
-0.0000000000000009
 11
1688.685079010147
 21
1161.429413534222
 31
-0.0000000000000009
  0
LINE
  5
CA70
330
1E
100
AcDbEntity
  8
0
 48
0.27
100
AcDbLine
 10
1688.034225010147
 20
1157.887758534222
 30
-0.0000000000000009
 11
1688.391704010147
 21
1158.205305534222
 31
-0.0000000000000009
  0
LINE
  5
CA71
330
1E
100
AcDbEntity
  8
0
 48
0.27
100
AcDbLine
 10
1686.815550010148
 20
1161.666106534222
 30
-0.0000000000000009
 11
1687.101727010147
 21
1161.500539534222
 31
-0.0000000000000009
  0
LINE
  5
CA72
330
1E
100
AcDbEntity
  8
0
 48
0.27
100
AcDbLine
 10
1686.505031010147
 20
1158.253587534222
 30
-0.0000000000000009
 11
1686.815550010148
 21
1158.355543534222
 31
-0.0000000000000009
  0
LINE
  5
CA73
330
1E
100
AcDbEntity
  8
0
 48
0.27
100
AcDbLine
 10
1688.685079010147
 20
1161.429413534222
 30
-0.0000000000000009
 11
1688.903076010147
 21
1160.987965534222
 31
-0.0000000000000009
  0
LINE
  5
CA74
330
1E
100
AcDbEntity
  8
0
 48
0.27
100
AcDbLine
 10
1688.685079010147
 20
1158.592237534222
 30
-0.0000000000000009
 11
1688.391704010147
 21
1158.205305534222
 31
-0.0000000000000009
  0
LINE
  5
CA75
330
1E
100
AcDbEntity
  8
0
 48
0.27
100
AcDbLine
 10
1688.903076010147
 20
1160.987965534222
 30
-0.0000000000000009
 11
1689.037319010147
 21
1160.508967534222
 31
-0.0000000000000009
  0
LINE
  5
CA76
330
1E
100
AcDbEntity
  8
0
 48
0.27
100
AcDbLine
 10
1688.903076010147
 20
1159.033684534222
 30
-0.0000000000000009
 11
1688.685079010147
 21
1158.592237534222
 31
-0.0000000000000009
  0
LINE
  5
CA77
330
1E
100
AcDbEntity
  8
0
 48
0.27
100
AcDbLine
 10
1687.101727010147
 20
1161.500539534222
 30
-0.0000000000000009
 11
1687.352562010147
 21
1161.277722534222
 31
-0.0000000000000009
  0
LINE
  5
CA78
330
1E
100
AcDbEntity
  8
0
 48
0.27
100
AcDbLine
 10
1686.815550010148
 20
1158.355543534222
 30
-0.0000000000000009
 11
1687.101727010147
 21
1158.521111534222
 31
-0.0000000000000009
  0
LINE
  5
CA79
330
1E
100
AcDbEntity
  8
0
 48
0.27
100
AcDbLine
 10
1689.037319010147
 20
1160.508967534222
 30
-0.0000000000000009
 11
1689.082647010147
 21
1160.010825534222
 31
-0.0000000000000009
  0
LINE
  5
CA7A
330
1E
100
AcDbEntity
  8
0
 48
0.27
100
AcDbLine
 10
1689.037319010147
 20
1159.512683534222
 30
-0.0000000000000009
 11
1688.903076010147
 21
1159.033684534222
 31
-0.0000000000000009
  0
LINE
  5
CA7B
330
1E
100
AcDbEntity
  8
0
 48
0.27
100
AcDbLine
 10
1689.082647010147
 20
1160.010825534222
 30
-0.0000000000000009
 11
1689.037319010147
 21
1159.512683534222
 31
-0.0000000000000009
  0
LINE
  5
CA7C
330
1E
100
AcDbEntity
  8
0
 48
0.27
100
AcDbLine
 10
1687.352562010147
 20
1161.277722534222
 30
-0.0000000000000009
 11
1687.558418010147
 21
1161.006220534222
 31
-0.0000000000000009
  0
LINE
  5
CA7D
330
1E
100
AcDbEntity
  8
0
 48
0.27
100
AcDbLine
 10
1687.101727010147
 20
1158.521111534222
 30
-0.0000000000000009
 11
1687.352562010147
 21
1158.743927534222
 31
-0.0000000000000009
  0
LINE
  5
CA7E
330
1E
100
AcDbEntity
  8
0
 48
0.27
100
AcDbLine
 10
1687.558418010147
 20
1161.006220534222
 30
-0.0000000000000009
 11
1687.711382010147
 21
1160.696465534222
 31
-0.0000000000000009
  0
LINE
  5
CA7F
330
1E
100
AcDbEntity
  8
0
 48
0.27
100
AcDbLine
 10
1687.558418010147
 20
1159.015430534222
 30
-0.0000000000000009
 11
1687.352562010147
 21
1158.743927534222
 31
-0.0000000000000009
  0
LINE
  5
CA80
330
1E
100
AcDbEntity
  8
0
 48
0.27
100
AcDbLine
 10
1687.711382010147
 20
1160.696465534222
 30
-0.0000000000000009
 11
1687.805577010147
 21
1160.360361534222
 31
-0.0000000000000009
  0
LINE
  5
CA81
330
1E
100
AcDbEntity
  8
0
 48
0.27
100
AcDbLine
 10
1687.711382010147
 20
1159.325185534222
 30
-0.0000000000000009
 11
1687.558418010147
 21
1159.015430534222
 31
-0.0000000000000009
  0
LINE
  5
CA82
330
1E
100
AcDbEntity
  8
0
 48
0.27
100
AcDbLine
 10
1687.805577010147
 20
1160.360361534222
 30
-0.0000000000000009
 11
1687.837383010147
 21
1160.010825534222
 31
-0.0000000000000009
  0
LINE
  5
CA83
330
1E
100
AcDbEntity
  8
0
 48
0.27
100
AcDbLine
 10
1687.805577010147
 20
1159.661289534222
 30
-0.0000000000000009
 11
1687.711382010147
 21
1159.325185534222
 31
-0.0000000000000009
  0
LINE
  5
CA84
330
1E
100
AcDbEntity
  8
0
 48
0.27
100
AcDbLine
 10
1687.837383010147
 20
1160.010825534222
 30
-0.0000000000000009
 11
1687.805577010147
 21
1159.661289534222
 31
-0.0000000000000009
  0
POINT
  5
CA85
330
1E
100
AcDbEntity
  8
0
100
AcDbPoint
 10
1684.364595010147
 20
1160.010825534222
 30
-0.0000000000000009
1001
pntflag
1000
endpoint
  0
LINE
  5
CA8F
330
1E
100
AcDbEntity
  8
中心線
 48
0.27
100
AcDbLine
 10
1703.714595010147
 20
1160.210806203118
 30
0.0
 11
1710.914595010147
 21
1160.210806203118
 31
0.0
  0
LINE
  5
CA90
330
1E
100
AcDbEntity
  8
中心線
 48
0.27
100
AcDbLine
 10
1707.314595010148
 20
1156.610806203118
 30
0.0
 11
1707.314595010148
 21
1163.810806203118
 31
0.0
  0
LINE
  5
CA98
330
1E
100
AcDbEntity
  8
中心線
 48
0.27
100
AcDbLine
 10
1782.714595010148
 20
1160.210806203118
 30
0.0
 11
1789.914595010147
 21
1160.210806203118
 31
0.0
  0
LINE
  5
CA99
330
1E
100
AcDbEntity
  8
中心線
 48
0.27
100
AcDbLine
 10
1786.314595010147
 20
1156.610806203118
 30
0.0
 11
1786.314595010147
 21
1163.810806203118
 31
0.0
  0
MTEXT
  5
CD9C
330
1E
100
AcDbEntity
  8
0
100
AcDbMText
 10
1527.856245398135
 20
1117.87671741611
 30
0.0
 40
7.800000159341863
 41
100.6095
 71
     1
 72
     5
  1
\A1;{\fTimes New Roman|b0|i0|c0|p18;RGH25CA\PC : 2820 kgf\PC\fProxy 1|b0|i0|c0|p0;\H0.7x;\S^ 0;\fTimes New Roman|b0|i0|c0|p18;\H1.429x;: 5820 kgf}
 73
     1
 44
1.0
1001
ACAD
1000
MTEXTBEGIN
1070
    73
1070
     1
1070
    44
1040
1.0
1070
    74
1070
     0
1000
MTEXTEND
  0
LINE
  5
CDB2
330
1E
100
AcDbEntity
  8
中心線
 48
0.5
100
AcDbLine
 10
1711.564595010148
 20
1248.877922760259
 30
0.0
 11
1782.064595010148
 21
1248.877922760259
 31
0.0
  0
LINE
  5
CDB3
330
1E
100
AcDbEntity
  8
中心線
 48
0.5
100
AcDbLine
 10
1746.814595010147
 20
1275.87789276026
 30
0.0
 11
1746.814595010147
 21
1221.87795276026
 31
0.0
  0
LINE
  5
EADA
330
1E
100
AcDbEntity
  8
0
100
AcDbLine
 10
1856.814595010147
 20
1151.936362328671
 30
0.0
 11
1795.764595010147
 21
1151.936362328671
 31
0.0
  0
LINE
  5
EADB
330
1E
100
AcDbEntity
  8
0
100
AcDbLine
 10
1856.814595010147
 20
1147.786369964072
 30
0.0
 11
1795.764595010147
 21
1147.786369964072
 31
0.0
  0
LINE
  5
EADC
330
1E
100
AcDbEntity
  8
0
100
AcDbLine
 10
1856.814595010147
 20
1141.404203056884
 30
0.0
 11
1795.764595010147
 21
1141.404203056884
 31
0.0
  0
LINE
  5
EADD
330
1E
100
AcDbEntity
  8
0
100
AcDbLine
 10
1856.814595010147
 20
1137.254210692292
 30
0.0
 11
1795.764595010147
 21
1137.254210692292
 31
0.0
  0
LINE
  5
EADE
330
1E
100
AcDbEntity
  8
0
100
AcDbLine
 10
1856.814595010147
 20
1131.710806203118
 30
0.0
 11
1671.6998748134
 21
1131.710806203118
 31
0.0
  0
LINE
  5
EADF
330
1E
100
AcDbEntity
  8
0
100
AcDbLine
 10
1697.864595010148
 20
1151.936362328671
 30
0.0
 11
1670.649155515423
 21
1151.936362328671
 31
0.0
  0
LINE
  5
EAE1
330
1E
100
AcDbEntity
  8
0
100
AcDbLine
 10
1697.864595010148
 20
1147.786369964072
 30
0.0
 11
1670.601821928199
 21
1147.786369964072
 31
0.0
  0
LINE
  5
EAE2
330
1E
100
AcDbEntity
  8
0
100
AcDbLine
 10
1697.864595010148
 20
1141.404203056884
 30
0.0
 11
1670.730454003581
 21
1141.404203056884
 31
0.0
  0
LINE
  5
EAE3
330
1E
100
AcDbEntity
  8
0
100
AcDbLine
 10
1697.864595010148
 20
1137.254210692292
 30
0.0
 11
1671.077187647458
 21
1137.254210692292
 31
0.0
  0
ENDSEC
  0
SECTION
  2
OBJECTS
  0
DICTIONARY
  5
C
330
0
100
AcDbDictionary
281
     1
  3
ACAD_COLOR
350
3D97
  3
ACAD_GROUP
350
D
  3
ACAD_LAYOUT
350
19
  3
ACAD_MATERIAL
350
3D96
  3
ACAD_MLINESTYLE
350
16
  3
ACAD_PLOTSETTINGS
350
18
  3
ACAD_PLOTSTYLENAME
350
E
  3
ACAD_TABLESTYLE
350
E7A3
  3
ACDBHEADERROUNDTRIPXREC
350
EB0A
  3
AcDbVariableDictionary
350
3E63
  0
DICTIONARY
  5
43C2
330
2
100
AcDbDictionary
280
     1
281
     1
  3
ACAD_LAYERSTATES
360
43C3
  0
DICTIONARY
  5
3D1E
330
1E
100
AcDbDictionary
280
     1
281
     1
  3
ACAD_LAYOUTSELFREF
360
3D92
  3
ACAD_SORTENTS
360
EAE0
  0
DICTIONARY
  5
3D20
330
1A
100
AcDbDictionary
280
     1
281
     1
  3
ACAD_LAYOUTSELFREF
360
3D91
  0
DICTIONARY
  5
69B8
330
69B7
100
AcDbDictionary
280
     1
281
     1
  3
ACAD_SORTENTS
360
69B9
  0
DICTIONARY
  5
69CC
330
69CB
100
AcDbDictionary
280
     1
281
     1
  3
ACAD_SORTENTS
360
69CD
  0
DICTIONARY
  5
3D97
102
{ACAD_REACTORS
330
C
102
}
330
C
100
AcDbDictionary
281
     1
  0
DICTIONARY
  5
D
102
{ACAD_REACTORS
330
C
102
}
330
C
100
AcDbDictionary
281
     1
  3
*A1
350
4143
  3
*A10
350
43BD
  3
*A11
350
4236
  3
*A12
350
437E
  3
*A13
350
4377
  3
*A14
350
4145
  3
*A15
350
437A
  3
*A16
350
43BF
  3
*A17
350
4379
  3
*A18
350
43C1
  3
*A19
350
423D
  3
*A2
350
43B8
  3
*A20
350
437D
  3
*A21
350
414D
  3
*A22
350
4146
  3
*A23
350
4149
  3
*A24
350
437F
  3
*A25
350
414B
  3
*A26
350
4375
  3
*A27
350
43B7
  3
*A28
350
423A
  3
*A29
350
414E
  3
*A3
350
576A
  3
*A30
350
43B9
  3
*A31
350
57D9
  3
*A32
350
437B
  3
*A33
350
43BC
  3
*A34
350
4241
  3
*A35
350
4144
  3
*A36
350
43BE
  3
*A37
350
4238
  3
*A38
350
43B5
  3
*A39
350
43C0
  3
*A4
350
4378
  3
*A40
350
414C
  3
*A41
350
4148
  3
*A42
350
423F
  3
*A43
350
43BA
  3
*A44
350
414A
  3
*A45
350
4239
  3
*A46
350
5691
  3
*A47
350
4376
  3
*A48
350
4147
  3
*A49
350
579E
  3
*A5
350
4240
  3
*A50
350
4235
  3
*A51
350
437C
  3
*A52
350
414F
  3
*A53
350
4237
  3
*A54
350
423C
  3
*A55
350
43B6
  3
*A56
350
423B
  3
*A6
350
423E
  3
*A7
350
4374
  3
*A8
350
43BB
  3
*A9
350
4373
  0
DICTIONARY
  5
19
102
{ACAD_REACTORS
330
C
102
}
330
C
100
AcDbDictionary
281
     1
  3
Model
350
21
  3
配置1
350
1D
  0
DICTIONARY
  5
3D96
102
{ACAD_REACTORS
330
C
102
}
330
C
100
AcDbDictionary
281
     1
  0
DICTIONARY
  5
16
102
{ACAD_REACTORS
330
C
102
}
330
C
100
AcDbDictionary
281
     1
  3
Standard
350
17
  0
DICTIONARY
  5
18
102
{ACAD_REACTORS
330
C
102
}
330
C
100
AcDbDictionary
281
     1
  3
LANSRO
350
4150
  0
ACDBDICTIONARYWDFLT
  5
E
102
{ACAD_REACTORS
330
C
102
}
330
C
100
AcDbDictionary
281
     1
  3
Normal
350
F
100
AcDbDictionaryWithDefault
340
F
  0
DICTIONARY
  5
E7A3
102
{ACAD_REACTORS
330
C
102
}
330
C
100
AcDbDictionary
281
     1
  3
Standard
350
E7A4
  0
DICTIONARY
  5
EB0A
102
{ACAD_REACTORS
330
C
102
}
330
C
100
AcDbDictionary
281
     1
  3
COLORDICT
350
EB0C
  3
MATERIALDICT
350
EB0B
  0
DICTIONARY
  5
3E63
102
{ACAD_REACTORS
330
C
102
}
330
C
100
AcDbDictionary
281
     1
  3
CTABLESTYLE
350
E8F8
  3
DIMASSOC
350
3E64
  3
PROJECTNAME
350
3E65
  0
DICTIONARY
  5
43C3
102
{ACAD_REACTORS
330
43C2
102
}
330
43C2
100
AcDbDictionary
281
     1
  0
XRECORD
  5
3D92
102
{ACAD_REACTORS
330
3D1E
102
}
330
3D1E
100
AcDbXrecord
280
     1
340
1E
  0
SORTENTSTABLE
  5
EAE0
102
{ACAD_REACTORS
330
3D1E
102
}
330
3D1E
100
AcDbSortentsTable
330
1E
331
A052
  5
A052
331
9FCC
  5
9FCC
331
9F95
  5
9F95
331
A01B
  5
A01B
331
A091
  5
A091
331
A0C8
  5
A0C8
331
CA3A
  5
CA3A
331
A05A
  5
A05A
331
A023
  5
A023
331
9FDC
  5
9FDC
331
A099
  5
A099
331
A0D0
  5
A0D0
331
A14E
  5
A14E
331
CA79
  5
CA79
331
CA81
  5
CA81
331
CA0B
  5
CA0B
331
A156
  5
A156
331
A0A1
  5
A0A1
331
A062
  5
A062
331
9FA5
  5
9FA5
331
9F66
  5
9F66
331
A02B
  5
A02B
331
A0D8
  5
A0D8
331
A11F
  5
A11F
331
C755
  5
C755
331
CA42
  5
CA42
331
CA4A
  5
CA4A
331
9FF4
  5
9FF4
331
9F6E
  5
9F6E
331
A06A
  5
A06A
331
A15E
  5
A15E
331
C75D
  5
C75D
331
CA13
  5
CA13
331
C94C
  5
C94C
331
A166
  5
A166
331
CA52
  5
CA52
331
A0E8
  5
A0E8
331
A072
  5
A072
331
9FFC
  5
9FFC
331
9F76
  5
9F76
331
9FAD
  5
9FAD
331
A033
  5
A033
331
A0A9
  5
A0A9
331
CA5A
  5
CA5A
331
CA1B
  5
CA1B
331
A16E
  5
A16E
331
A07A
  5
A07A
331
A03B
  5
A03B
331
9FB5
  5
9FB5
331
9F7E
  5
9F7E
331
A004
  5
A004
331
A0B1
  5
A0B1
331
C954
  5
C954
331
CA99
  5
CA99
331
CA62
  5
CA62
331
CA23
  5
CA23
331
C7D5
  5
C7D5
331
A176
  5
A176
331
A100
  5
A100
331
A043
  5
A043
331
A00C
  5
A00C
331
9F86
  5
9F86
331
A082
  5
A082
331
A0B9
  5
A0B9
331
A137
  5
A137
331
C95C
  5
C95C
331
CA2B
  5
CA2B
331
C964
  5
C964
331
A13F
  5
A13F
331
A08A
  5
A08A
331
9FC5
  5
9FC5
331
A014
  5
A014
331
A04B
  5
A04B
331
A0C1
  5
A0C1
331
A108
  5
A108
331
CA6A
  5
CA6A
331
CA72
  5
CA72
331
A147
  5
A147
331
CA33
  5
CA33
331
A092
  5
A092
331
A01C
  5
A01C
331
9F96
  5
9F96
331
9FCD
  5
9FCD
331
A053
  5
A053
331
A0C9
  5
A0C9
331
A110
  5
A110
331
CA7A
  5
CA7A
331
A14F
  5
A14F
331
A118
  5
A118
331
A05B
  5
A05B
331
A024
  5
A024
331
A09A
  5
A09A
331
A0D1
  5
A0D1
331
CA3B
  5
CA3B
331
CA43
  5
CA43
331
C756
  5
C756
331
A157
  5
A157
331
A063
  5
A063
331
A02C
  5
A02C
331
9F67
  5
9F67
331
9FA6
  5
9FA6
331
9FED
  5
9FED
331
A0A2
  5
A0A2
331
A0D9
  5
A0D9
331
A120
  5
A120
331
CA0C
  5
CA0C
331
CA82
  5
CA82
331
CA4B
  5
CA4B
331
C75E
  5
C75E
331
A06B
  5
A06B
331
9FF5
  5
9FF5
331
9F6F
  5
9F6F
331
A15F
  5
A15F
331
CA14
  5
CA14
331
EAE1
  5
EADD
331
A167
  5
A167
331
C94D
  5
C94D
331
CA53
  5
CA53
331
A0E9
  5
A0E9
331
A034
  5
A034
331
9FAE
  5
9FAE
331
9F77
  5
9F77
331
9FFD
  5
9FFD
331
A073
  5
A073
331
A0AA
  5
A0AA
331
CA1C
  5
CA1C
331
A16F
  5
A16F
331
A07B
  5
A07B
331
9FB6
  5
9FB6
331
A005
  5
A005
331
A03C
  5
A03C
331
A0B2
  5
A0B2
331
C955
  5
C955
331
CA5B
  5
CA5B
331
CA63
  5
CA63
331
C95D
  5
C95D
331
A138
  5
A138
331
A101
  5
A101
331
A083
  5
A083
331
A00D
  5
A00D
331
A044
  5
A044
331
A0BA
  5
A0BA
331
A177
  5
A177
331
CA24
  5
CA24
331
CA6B
  5
CA6B
331
CA2C
  5
CA2C
331
A140
  5
A140
331
A109
  5
A109
331
A08B
  5
A08B
331
A04C
  5
A04C
331
A015
  5
A015
331
A0C2
  5
A0C2
331
C965
  5
C965
331
CDB2
  5
CDB2
331
CA73
  5
CA73
331
CA34
  5
CA34
331
A054
  5
A054
331
9FCE
  5
9FCE
331
9F97
  5
9F97
331
A01D
  5
A01D
331
A093
  5
A093
331
A0CA
  5
A0CA
331
A148
  5
A148
331
CA3C
  5
CA3C
331
A150
  5
A150
331
A09B
  5
A09B
331
A025
  5
A025
331
9F9F
  5
9F9F
331
A05C
  5
A05C
331
A0D2
  5
A0D2
331
A119
  5
A119
331
CA7B
  5
CA7B
331
CA83
  5
CA83
331
CA0D
  5
CA0D
331
A0A3
  5
A0A3
331
A064
  5
A064
331
9FA7
  5
9FA7
331
9F68
  5
9F68
331
9FEE
  5
9FEE
331
A02D
  5
A02D
331
A0DA
  5
A0DA
331
A158
  5
A158
331
C757
  5
C757
331
CA44
  5
CA44
331
EADA
  5
EADA
331
CA4C
  5
CA4C
331
C946
  5
C946
331
A160
  5
A160
331
9FF6
  5
9FF6
331
A06C
  5
A06C
331
A0E2
  5
A0E2
331
C75F
  5
C75F
331
CA15
  5
CA15
331
EAE2
  5
EADF
331
C94E
  5
C94E
331
CA54
  5
CA54
331
9F70
  5
9F70
331
A0EA
  5
A0EA
331
A074
  5
A074
331
A035
  5
A035
331
9F78
  5
9F78
331
9FAF
  5
9FAF
331
9FFE
  5
9FFE
331
A0AB
  5
A0AB
331
A168
  5
A168
331
CA5C
  5
CA5C
331
CA1D
  5
CA1D
331
A0FA
  5
A0FA
331
A07C
  5
A07C
331
A03D
  5
A03D
331
9FB7
  5
9FB7
331
9F80
  5
9F80
331
A006
  5
A006
331
A0B3
  5
A0B3
331
A170
  5
A170
331
C956
  5
C956
331
CA25
  5
CA25
331
A178
  5
A178
331
A102
  5
A102
331
A045
  5
A045
331
9FBF
  5
9FBF
331
9F88
  5
9F88
331
A00E
  5
A00E
331
A084
  5
A084
331
A0BB
  5
A0BB
331
A139
  5
A139
331
C95E
  5
C95E
331
CA64
  5
CA64
331
CA2D
  5
CA2D
331
C966
  5
C966
331
A141
  5
A141
331
A08C
  5
A08C
331
A016
  5
A016
331
A04D
  5
A04D
331
A0C3
  5
A0C3
331
A10A
  5
A10A
331
CA6C
  5
CA6C
331
CDB3
  5
CDB3
331
CA74
  5
CA74
331
CA35
  5
CA35
331
9F90
  5
9F90
331
A149
  5
A149
331
A112
  5
A112
331
A094
  5
A094
331
A01E
  5
A01E
331
9F98
  5
9F98
331
A055
  5
A055
331
A0CB
  5
A0CB
331
CA7C
  5
CA7C
331
CA3D
  5
CA3D
331
A11A
  5
A11A
331
A026
  5
A026
331
9FA0
  5
9FA0
331
A09C
  5
A09C
331
A0D3
  5
A0D3
331
C986
  5
C986
331
CA45
  5
CA45
331
C758
  5
C758
331
A159
  5
A159
331
A065
  5
A065
331
A02E
  5
A02E
331
9F69
  5
9F69
331
9FEF
  5
9FEF
331
A0A4
  5
A0A4
331
A0DB
  5
A0DB
331
A122
  5
A122
331
CA0E
  5
CA0E
331
CA84
  5
CA84
331
EADB
  5
EADC
331
CA4D
  5
CA4D
331
CA16
  5
CA16
331
9FF7
  5
9FF7
331
A06D
  5
A06D
331
A0E3
  5
A0E3
331
A161
  5
A161
331
C947
  5
C947
331
EAE3
  5
EAE2
331
C94F
  5
C94F
331
CA55
  5
CA55
331
9FA8
  5
9FA8
331
9F71
  5
9F71
331
A169
  5
A169
331
A0EB
  5
A0EB
331
A036
  5
A036
331
9FB0
  5
9FB0
331
9F79
  5
9F79
331
9FFF
  5
9FFF
331
A075
  5
A075
331
A0AC
  5
A0AC
331
A12A
  5
A12A
331
C760
  5
C760
331
CA1E
  5
CA1E
331
A171
  5
A171
331
A07D
  5
A07D
331
9FB8
  5
9FB8
331
9F81
  5
9F81
331
A007
  5
A007
331
A03E
  5
A03E
331
A0B4
  5
A0B4
331
A0FB
  5
A0FB
331
C957
  5
C957
331
CA5D
  5
CA5D
331
CA65
  5
CA65
331
C95F
  5
C95F
331
A13A
  5
A13A
331
A103
  5
A103
331
A085
  5
A085
331
A046
  5
A046
331
9F89
  5
9F89
331
9FC0
  5
9FC0
331
A00F
  5
A00F
331
A0BC
  5
A0BC
331
A179
  5
A179
331
CA26
  5
CA26
331
CD9C
  5
CD9C
331
CA6D
  5
CA6D
331
CA2E
  5
CA2E
331
C967
  5
C967
331
A10B
  5
A10B
331
A08D
  5
A08D
331
A04E
  5
A04E
331
A017
  5
A017
331
A0C4
  5
A0C4
331
A142
  5
A142
331
CA36
  5
CA36
331
CA75
  5
CA75
331
9F91
  5
9F91
331
A113
  5
A113
331
A0CC
  5
A0CC
331
A056
  5
A056
331
A01F
  5
A01F
331
9F99
  5
9F99
331
A095
  5
A095
331
CA3E
  5
CA3E
331
A152
  5
A152
331
A0D4
  5
A0D4
331
A11B
  5
A11B
331
C751
  5
C751
331
CA7D
  5
CA7D
331
A027
  5
A027
331
9FA1
  5
9FA1
331
A09D
  5
A09D
331
CA85
  5
CA85
331
CA46
  5
CA46
331
A15A
  5
A15A
331
A123
  5
A123
331
C759
  5
C759
331
CA0F
  5
CA0F
331
A0A5
  5
A0A5
331
A066
  5
A066
331
9FF0
  5
9FF0
331
9F6A
  5
9F6A
331
A02F
  5
A02F
331
EADC
  5
EADE
331
CA4E
  5
CA4E
331
A162
  5
A162
331
A0E4
  5
A0E4
331
C948
  5
C948
331
CA17
  5
CA17
331
A06E
  5
A06E
331
CA56
  5
CA56
331
9FF8
  5
9FF8
331
9F72
  5
9F72
331
9FA9
  5
9FA9
331
C950
  5
C950
331
C761
  5
C761
331
A12B
  5
A12B
331
A0EC
  5
A0EC
331
A0AD
  5
A0AD
331
A16A
  5
A16A
331
A076
  5
A076
331
A037
  5
A037
331
9F7A
  5
9F7A
331
9FB1
  5
9FB1
331
A000
  5
A000
331
CA5E
  5
CA5E
331
CA1F
  5
CA1F
331
A0FC
  5
A0FC
331
A0B5
  5
A0B5
331
A172
  5
A172
331
C958
  5
C958
331
A03F
  5
A03F
331
9FB9
  5
9FB9
331
A008
  5
A008
331
A07E
  5
A07E
331
CA27
  5
CA27
331
A17A
  5
A17A
331
A104
  5
A104
331
A0BD
  5
A0BD
331
A13B
  5
A13B
331
C960
  5
C960
331
CA66
  5
CA66
331
A047
  5
A047
331
9FC1
  5
9FC1
331
9F8A
  5
9F8A
331
A010
  5
A010
331
A086
  5
A086
331
CA2F
  5
CA2F
331
A182
  5
A182
331
A143
  5
A143
331
A0C5
  5
A0C5
331
A10C
  5
A10C
331
C968
  5
C968
331
CA6E
  5
CA6E
331
A08E
  5
A08E
331
A04F
  5
A04F
331
CA76
  5
CA76
331
CA37
  5
CA37
331
A018
  5
A018
331
9F92
  5
9F92
331
A114
  5
A114
331
A0CD
  5
A0CD
331
A096
  5
A096
331
9F9A
  5
9F9A
331
9FD9
  5
9FD9
331
A057
  5
A057
331
CA7E
  5
CA7E
331
C7F1
  5
C7F1
331
C752
  5
C752
331
A11C
  5
A11C
331
A0D5
  5
A0D5
331
A153
  5
A153
331
CA3F
  5
CA3F
331
A028
  5
A028
331
9FA2
  5
9FA2
331
A09E
  5
A09E
331
CA47
  5
CA47
331
C75A
  5
C75A
331
A15B
  5
A15B
331
A124
  5
A124
331
CA10
  5
CA10
331
A067
  5
A067
331
9F6B
  5
9F6B
331
9FF1
  5
9FF1
331
A0A6
  5
A0A6
331
CA4F
  5
CA4F
331
A0E5
  5
A0E5
331
A163
  5
A163
331
C949
  5
C949
331
A06F
  5
A06F
331
EADD
  5
EAE1
331
CA57
  5
CA57
331
A030
  5
A030
331
9FAA
  5
9FAA
331
9F73
  5
9F73
331
9FF9
  5
9FF9
331
CA18
  5
CA18
331
C951
  5
C951
331
A16B
  5
A16B
331
A12C
  5
A12C
331
A0AE
  5
A0AE
331
A0ED
  5
A0ED
331
C762
  5
C762
331
A038
  5
A038
331
9FB2
  5
9FB2
331
9F7B
  5
9F7B
331
A001
  5
A001
331
A077
  5
A077
331
CA5F
  5
CA5F
331
A173
  5
A173
331
A134
  5
A134
331
A0B6
  5
A0B6
331
A0FD
  5
A0FD
331
C959
  5
C959
331
CA20
  5
CA20
331
A07F
  5
A07F
331
A009
  5
A009
331
A040
  5
A040
331
CA67
  5
CA67
331
C961
  5
C961
331
A13C
  5
A13C
331
A105
  5
A105
331
A0BE
  5
A0BE
331
A17B
  5
A17B
331
CA28
  5
CA28
331
A087
  5
A087
331
A048
  5
A048
331
9FC2
  5
9FC2
331
A011
  5
A011
331
CA6F
  5
CA6F
331
CA30
  5
CA30
331
A183
  5
A183
331
A10D
  5
A10D
331
A0C6
  5
A0C6
331
A144
  5
A144
331
C969
  5
C969
331
A08F
  5
A08F
331
CA77
  5
CA77
331
A050
  5
A050
331
A019
  5
A019
331
9F93
  5
9F93
331
CA38
  5
CA38
331
9FDA
  5
9FDA
331
A058
  5
A058
331
A097
  5
A097
331
A0CE
  5
A0CE
331
C7EA
  5
C7EA
331
CA40
  5
CA40
331
A154
  5
A154
331
A09F
  5
A09F
331
9FA3
  5
9FA3
331
A029
  5
A029
331
A0D6
  5
A0D6
331
A11D
  5
A11D
331
C753
  5
C753
331
CA7F
  5
CA7F
331
CA48
  5
CA48
331
A0A7
  5
A0A7
331
9FF2
  5
9FF2
331
9F6C
  5
9F6C
331
A068
  5
A068
331
A15C
  5
A15C
331
C75B
  5
C75B
331
CA11
  5
CA11
331
EADE
  5
EAE3
331
CA8F
  5
CA8F
331
C94A
  5
C94A
331
A0E6
  5
A0E6
331
A164
  5
A164
331
CA50
  5
CA50
331
A070
  5
A070
331
9FFA
  5
9FFA
331
9F74
  5
9F74
331
9FAB
  5
9FAB
331
A031
  5
A031
331
CA58
  5
CA58
331
C952
  5
C952
331
C763
  5
C763
331
A0EE
  5
A0EE
331
A078
  5
A078
331
A039
  5
A039
331
9F7C
  5
9F7C
331
9FB3
  5
9FB3
331
A002
  5
A002
331
A0AF
  5
A0AF
331
A16C
  5
A16C
331
CA19
  5
CA19
331
CA60
  5
CA60
331
CA21
  5
CA21
331
A174
  5
A174
331
A0FE
  5
A0FE
331
A041
  5
A041
331
9FBB
  5
9FBB
331
9F84
  5
9F84
331
A00A
  5
A00A
331
A080
  5
A080
331
A0B7
  5
A0B7
331
A135
  5
A135
331
C95A
  5
C95A
331
CA29
  5
CA29
331
A17C
  5
A17C
331
A13D
  5
A13D
331
A049
  5
A049
331
9FC3
  5
9FC3
331
9F8C
  5
9F8C
331
A088
  5
A088
331
A0BF
  5
A0BF
331
A106
  5
A106
331
C962
  5
C962
331
CA68
  5
CA68
331
CA70
  5
CA70
331
A184
  5
A184
331
A145
  5
A145
331
A0C7
  5
A0C7
331
A10E
  5
A10E
331
C7E3
  5
C7E3
331
CA31
  5
CA31
331
A090
  5
A090
331
A01A
  5
A01A
331
9F94
  5
9F94
331
A051
  5
A051
331
CA78
  5
CA78
331
A14D
  5
A14D
331
A059
  5
A059
331
9FDB
  5
9FDB
331
A022
  5
A022
331
A098
  5
A098
331
A0CF
  5
A0CF
331
CA39
  5
CA39
331
CA41
  5
CA41
331
C754
  5
C754
331
A11E
  5
A11E
331
A061
  5
A061
331
A02A
  5
A02A
331
9F65
  5
9F65
331
9FA4
  5
9FA4
331
A0A0
  5
A0A0
331
A0D7
  5
A0D7
331
A155
  5
A155
331
CA0A
  5
CA0A
331
CA80
  5
CA80
331
CA49
  5
CA49
331
C75C
  5
C75C
331
A069
  5
A069
331
9FF3
  5
9FF3
331
9F6D
  5
9F6D
331
A15D
  5
A15D
331
CA12
  5
CA12
331
EADF
  5
EADB
331
CA51
  5
CA51
331
A0E7
  5
A0E7
331
A165
  5
A165
331
C94B
  5
C94B
331
A032
  5
A032
331
9FAC
  5
9FAC
331
9F75
  5
9F75
331
9FFB
  5
9FFB
331
A071
  5
A071
331
A0A8
  5
A0A8
331
CA90
  5
CA90
331
CA1A
  5
CA1A
331
C953
  5
C953
331
A16D
  5
A16D
331
A079
  5
A079
331
9FB4
  5
9FB4
331
9F7D
  5
9F7D
331
A003
  5
A003
331
A03A
  5
A03A
331
A0B0
  5
A0B0
331
C764
  5
C764
331
CA59
  5
CA59
331
CA98
  5
CA98
331
CA61
  5
CA61
331
C95B
  5
C95B
331
A136
  5
A136
331
A081
  5
A081
331
A00B
  5
A00B
331
9F85
  5
9F85
331
9FBC
  5
9FBC
331
A042
  5
A042
331
A0B8
  5
A0B8
331
A0FF
  5
A0FF
331
A175
  5
A175
331
CA22
  5
CA22
331
CA69
  5
CA69
331
C963
  5
C963
331
C7DC
  5
C7DC
331
A13E
  5
A13E
331
A107
  5
A107
331
A089
  5
A089
331
9F8D
  5
9F8D
331
A04A
  5
A04A
331
A0C0
  5
A0C0
331
A17D
  5
A17D
331
CA2A
  5
CA2A
331
CA71
  5
CA71
331
CA32
  5
CA32
331
A10F
  5
A10F
331
A146
  5
A146
  0
XRECORD
  5
3D91
102
{ACAD_REACTORS
330
3D20
102
}
330
3D20
100
AcDbXrecord
280
     1
340
1A
  0
SORTENTSTABLE
  5
69B9
102
{ACAD_REACTORS
330
69B8
102
}
330
69B8
100
AcDbSortentsTable
330
69B7
  0
SORTENTSTABLE
  5
69CD
102
{ACAD_REACTORS
330
69CC
102
}
330
69CC
100
AcDbSortentsTable
330
69CB
  0
GROUP
  5
4143
102
{ACAD_REACTORS
330
D
102
}
330
D
100
AcDbGroup
300

 70
     1
 71
     1
  0
GROUP
  5
43BD
102
{ACAD_REACTORS
330
D
102
}
330
D
100
AcDbGroup
300

 70
     1
 71
     1
  0
GROUP
  5
4236
102
{ACAD_REACTORS
330
D
102
}
330
D
100
AcDbGroup
300

 70
     1
 71
     1
  0
GROUP
  5
437E
102
{ACAD_REACTORS
330
D
102
}
330
D
100
AcDbGroup
300

 70
     1
 71
     1
  0
GROUP
  5
4377
102
{ACAD_REACTORS
330
D
102
}
330
D
100
AcDbGroup
300

 70
     1
 71
     1
  0
GROUP
  5
4145
102
{ACAD_REACTORS
330
D
102
}
330
D
100
AcDbGroup
300

 70
     1
 71
     1
  0
GROUP
  5
437A
102
{ACAD_REACTORS
330
D
102
}
330
D
100
AcDbGroup
300

 70
     1
 71
     1
  0
GROUP
  5
43BF
102
{ACAD_REACTORS
330
D
102
}
330
D
100
AcDbGroup
300

 70
     1
 71
     1
  0
GROUP
  5
4379
102
{ACAD_REACTORS
330
D
102
}
330
D
100
AcDbGroup
300

 70
     1
 71
     1
  0
GROUP
  5
43C1
102
{ACAD_REACTORS
330
D
102
}
330
D
100
AcDbGroup
300

 70
     1
 71
     1
  0
GROUP
  5
423D
102
{ACAD_REACTORS
330
D
102
}
330
D
100
AcDbGroup
300

 70
     1
 71
     1
  0
GROUP
  5
43B8
102
{ACAD_REACTORS
330
D
102
}
330
D
100
AcDbGroup
300

 70
     1
 71
     1
  0
GROUP
  5
437D
102
{ACAD_REACTORS
330
D
102
}
330
D
100
AcDbGroup
300

 70
     1
 71
     1
  0
GROUP
  5
414D
102
{ACAD_REACTORS
330
D
102
}
330
D
100
AcDbGroup
300

 70
     1
 71
     1
  0
GROUP
  5
4146
102
{ACAD_REACTORS
330
D
102
}
330
D
100
AcDbGroup
300

 70
     1
 71
     1
  0
GROUP
  5
4149
102
{ACAD_REACTORS
330
D
102
}
330
D
100
AcDbGroup
300

 70
     1
 71
     1
  0
GROUP
  5
437F
102
{ACAD_REACTORS
330
D
102
}
330
D
100
AcDbGroup
300

 70
     1
 71
     1
  0
GROUP
  5
414B
102
{ACAD_REACTORS
330
D
102
}
330
D
100
AcDbGroup
300

 70
     1
 71
     1
  0
GROUP
  5
4375
102
{ACAD_REACTORS
330
D
102
}
330
D
100
AcDbGroup
300

 70
     1
 71
     1
  0
GROUP
  5
43B7
102
{ACAD_REACTORS
330
D
102
}
330
D
100
AcDbGroup
300

 70
     1
 71
     1
  0
GROUP
  5
423A
102
{ACAD_REACTORS
330
D
102
}
330
D
100
AcDbGroup
300

 70
     1
 71
     1
  0
GROUP
  5
414E
102
{ACAD_REACTORS
330
D
102
}
330
D
100
AcDbGroup
300

 70
     1
 71
     1
  0
GROUP
  5
576A
102
{ACAD_REACTORS
330
D
102
}
330
D
100
AcDbGroup
300

 70
     1
 71
     1
  0
GROUP
  5
43B9
102
{ACAD_REACTORS
330
D
102
}
330
D
100
AcDbGroup
300

 70
     1
 71
     1
  0
GROUP
  5
57D9
102
{ACAD_REACTORS
330
D
102
}
330
D
100
AcDbGroup
300

 70
     1
 71
     1
  0
GROUP
  5
437B
102
{ACAD_REACTORS
330
D
102
}
330
D
100
AcDbGroup
300

 70
     1
 71
     1
  0
GROUP
  5
43BC
102
{ACAD_REACTORS
330
D
102
}
330
D
100
AcDbGroup
300

 70
     1
 71
     1
  0
GROUP
  5
4241
102
{ACAD_REACTORS
330
D
102
}
330
D
100
AcDbGroup
300

 70
     1
 71
     1
  0
GROUP
  5
4144
102
{ACAD_REACTORS
330
D
102
}
330
D
100
AcDbGroup
300

 70
     1
 71
     1
  0
GROUP
  5
43BE
102
{ACAD_REACTORS
330
D
102
}
330
D
100
AcDbGroup
300

 70
     1
 71
     1
  0
GROUP
  5
4238
102
{ACAD_REACTORS
330
D
102
}
330
D
100
AcDbGroup
300

 70
     1
 71
     1
  0
GROUP
  5
43B5
102
{ACAD_REACTORS
330
D
102
}
330
D
100
AcDbGroup
300

 70
     1
 71
     1
  0
GROUP
  5
43C0
102
{ACAD_REACTORS
330
D
102
}
330
D
100
AcDbGroup
300

 70
     1
 71
     1
  0
GROUP
  5
4378
102
{ACAD_REACTORS
330
D
102
}
330
D
100
AcDbGroup
300

 70
     1
 71
     1
  0
GROUP
  5
414C
102
{ACAD_REACTORS
330
D
102
}
330
D
100
AcDbGroup
300

 70
     1
 71
     1
  0
GROUP
  5
4148
102
{ACAD_REACTORS
330
D
102
}
330
D
100
AcDbGroup
300

 70
     1
 71
     1
  0
GROUP
  5
423F
102
{ACAD_REACTORS
330
D
102
}
330
D
100
AcDbGroup
300

 70
     1
 71
     1
  0
GROUP
  5
43BA
102
{ACAD_REACTORS
330
D
102
}
330
D
100
AcDbGroup
300

 70
     1
 71
     1
  0
GROUP
  5
414A
102
{ACAD_REACTORS
330
D
102
}
330
D
100
AcDbGroup
300

 70
     1
 71
     1
  0
GROUP
  5
4239
102
{ACAD_REACTORS
330
D
102
}
330
D
100
AcDbGroup
300

 70
     1
 71
     1
  0
GROUP
  5
5691
102
{ACAD_REACTORS
330
D
102
}
330
D
100
AcDbGroup
300

 70
     1
 71
     1
  0
GROUP
  5
4376
102
{ACAD_REACTORS
330
D
102
}
330
D
100
AcDbGroup
300

 70
     1
 71
     1
  0
GROUP
  5
4147
102
{ACAD_REACTORS
330
D
102
}
330
D
100
AcDbGroup
300

 70
     1
 71
     1
  0
GROUP
  5
579E
102
{ACAD_REACTORS
330
D
102
}
330
D
100
AcDbGroup
300

 70
     1
 71
     1
  0
GROUP
  5
4240
102
{ACAD_REACTORS
330
D
102
}
330
D
100
AcDbGroup
300

 70
     1
 71
     1
  0
GROUP
  5
4235
102
{ACAD_REACTORS
330
D
102
}
330
D
100
AcDbGroup
300

 70
     1
 71
     1
  0
GROUP
  5
437C
102
{ACAD_REACTORS
330
D
102
}
330
D
100
AcDbGroup
300

 70
     1
 71
     1
  0
GROUP
  5
414F
102
{ACAD_REACTORS
330
D
102
}
330
D
100
AcDbGroup
300

 70
     1
 71
     1
  0
GROUP
  5
4237
102
{ACAD_REACTORS
330
D
102
}
330
D
100
AcDbGroup
300

 70
     1
 71
     1
  0
GROUP
  5
423C
102
{ACAD_REACTORS
330
D
102
}
330
D
100
AcDbGroup
300

 70
     1
 71
     1
  0
GROUP
  5
43B6
102
{ACAD_REACTORS
330
D
102
}
330
D
100
AcDbGroup
300

 70
     1
 71
     1
  0
GROUP
  5
423B
102
{ACAD_REACTORS
330
D
102
}
330
D
100
AcDbGroup
300

 70
     1
 71
     1
  0
GROUP
  5
423E
102
{ACAD_REACTORS
330
D
102
}
330
D
100
AcDbGroup
300

 70
     1
 71
     1
  0
GROUP
  5
4374
102
{ACAD_REACTORS
330
D
102
}
330
D
100
AcDbGroup
300

 70
     1
 71
     1
  0
GROUP
  5
43BB
102
{ACAD_REACTORS
330
D
102
}
330
D
100
AcDbGroup
300

 70
     1
 71
     1
  0
GROUP
  5
4373
102
{ACAD_REACTORS
330
D
102
}
330
D
100
AcDbGroup
300

 70
     1
 71
     1
  0
LAYOUT
  5
21
102
{ACAD_XDICTIONARY
360
EB0F
102
}
102
{ACAD_REACTORS
330
19
102
}
330
19
100
AcDbPlotSettings
  1

  2
none_device
  4
Letter_(8.50_x_11.00_Inches)
  6

 40
6.349999904632568
 41
6.349999904632568
 42
6.350006103515625
 43
6.350006103515625
 44
215.8999938964844
 45
279.3999938964844
 46
0.0
 47
0.0
 48
0.0
 49
0.0
140
0.0
141
0.0
142
1.0
143
1.0
 70
 11952
 72
     0
 73
     1
 74
     0
  7
AAA.ctb
 75
     0
147
1.0
148
-39998.63082029641
149
-27153.31025587091
100
AcDbLayout
  1
Model
 70
     1
 71
     0
 10
0.0
 20
0.0
 11
12.0
 21
9.0
 12
0.0
 22
0.0
 32
0.0
 14
0.0
 24
0.0
 34
0.0
 15
0.0
 25
0.0
 35
0.0
146
0.0
 13
0.0
 23
0.0
 33
0.0
 16
1.0
 26
0.0
 36
0.0
 17
0.0
 27
1.0
 37
0.0
 76
     0
330
1E
  0
LAYOUT
  5
1D
102
{ACAD_XDICTIONARY
360
EB0D
102
}
102
{ACAD_REACTORS
330
19
102
}
330
19
100
AcDbPlotSettings
  1

  2
HP 2200
  4

  6

 40
0.0
 41
0.0
 42
0.0
 43
0.0
 44
0.0
 45
0.0
 46
0.0
 47
0.0
 48
0.0
 49
0.0
140
0.0
141
0.0
142
1.0
143
1.0
 70
   688
 72
     0
 73
     0
 74
     5
  7
AAA.ctb
 75
    16
147
1.0
148
0.0
149
0.0
100
AcDbLayout
  1
配置1
 70
     0
 71
     1
 10
0.0
 20
0.0
 11
12.0
 21
9.0
 12
0.0
 22
0.0
 32
0.0
 14
1.000000000000000E+20
 24
1.000000000000000E+20
 34
1.000000000000000E+20
 15
-1.000000000000000E+20
 25
-1.000000000000000E+20
 35
-1.000000000000000E+20
146
0.0
 13
0.0
 23
0.0
 33
0.0
 16
1.0
 26
0.0
 36
0.0
 17
0.0
 27
1.0
 37
0.0
 76
     0
330
1A
  0
MLINESTYLE
  5
17
102
{ACAD_REACTORS
330
16
102
}
330
16
100
AcDbMlineStyle
  2
STANDARD
 70
     0
  3

 62
   256
 51
90.0
 52
90.0
 71
     2
 49
0.5
 62
   256
  6
BYLAYER
 49
-0.5
 62
   256
  6
BYLAYER
  0
PLOTSETTINGS
  5
4150
102
{ACAD_XDICTIONARY
360
EB11
102
}
102
{ACAD_REACTORS
330
18
102
}
330
18
100
AcDbPlotSettings
  1
LANSRO
  2
\\1260\HP2200
  4
A4
  6

 40
6.043083190917968
 41
6.762742042541503
 42
7.736419677734375
 43
5.027069091796875
 44
209.9733276367187
 45
296.9683227539062
 46
5.15
 47
0.0
 48
0.0
 49
0.0
140
0.0
141
0.0
142
1.0
143
0.8829829263240881
 70
  1716
 72
     1
 73
     1
 74
     0
  7
AAA.ctb
 75
     0
147
1.132524729739748
148
-132.297014905803
149
-71.78507365635891
  0
ACDBPLACEHOLDER
  5
F
102
{ACAD_REACTORS
330
E
102
}
330
E
  0
ACAD_PROXY_OBJECT
  5
E7A4
102
{ACAD_REACTORS
330
E7A3
102
}
330
E7A3
100
AcDbProxyObject
 90
      499
 91
      514
 95
   983063
 70
     0
 93
     1841
310
4214DD185B99185C9928B81E85EB51B8AE3F2E07A17AD46E2B8FC02B5E8DC0F42B1CFD028000000C1008070000C3001FDFF8000000C1003FBFF000000182007F7FE00000030400FEFFC00000060801FDFF8000000C1003FBFF00000018200000000000000681FA0B0000001820100E000186003FBFF000000182007F7FE000
310
00030400FEFFC00000060801FDFF8000000C1003FBFF000000182007F7FE000000304000AD7A3703D0AC73F4160000003040201C00030C007F7FE00000030400FEFFC00000060801FDFF8000000C1003FBFF000000182007F7FE00000030400FEFFC000000608077
340
11
340
11
340
11
 94
        0
1001
ACAD
1000
AcRTDxfName
1000
TABLESTYLE
  0
XRECORD
  5
EB0C
102
{ACAD_REACTORS
330
EB0A
102
}
330
EB0A
100
AcDbXrecord
280
     1
340
3D97
  0
XRECORD
  5
EB0B
102
{ACAD_REACTORS
330
EB0A
102
}
330
EB0A
100
AcDbXrecord
280
     1
340
3D96
  0
DICTIONARYVAR
  5
E8F8
102
{ACAD_REACTORS
330
3E63
102
}
330
3E63
100
DictionaryVariables
280
     0
  1
STANDARD
  0
DICTIONARYVAR
  5
3E64
102
{ACAD_REACTORS
330
3E63
102
}
330
3E63
100
DictionaryVariables
280
     0
  1
1
  0
DICTIONARYVAR
  5
3E65
102
{ACAD_REACTORS
330
3E63
102
}
330
3E63
100
DictionaryVariables
280
     0
  1

  0
DICTIONARY
  5
EB0F
330
21
100
AcDbDictionary
280
     1
281
     1
  3
ACAD_XREC_ROUNDTRIP
360
EB10
  0
DICTIONARY
  5
EB0D
330
1D
100
AcDbDictionary
280
     1
281
     1
  3
ACAD_XREC_ROUNDTRIP
360
EB0E
  0
DICTIONARY
  5
EB11
330
4150
100
AcDbDictionary
280
     1
281
     1
  3
ACAD_XREC_ROUNDTRIP
360
EB12
  0
XRECORD
  5
EB10
102
{ACAD_REACTORS
330
EB0F
102
}
330
EB0F
100
AcDbXrecord
280
     1
102
SHADEPLOT
 70
     0
102
SHADEPLOTRESLEVEL
 70
     2
102
SHADEPLOTCUSTOMDPI
 70
   300
  0
XRECORD
  5
EB0E
102
{ACAD_REACTORS
330
EB0D
102
}
330
EB0D
100
AcDbXrecord
280
     1
102
SHADEPLOT
 70
     0
102
SHADEPLOTRESLEVEL
 70
     2
102
SHADEPLOTCUSTOMDPI
 70
   300
  0
XRECORD
  5
EB12
102
{ACAD_REACTORS
330
EB11
102
}
330
EB11
100
AcDbXrecord
280
     1
102
SHADEPLOT
 70
     0
102
SHADEPLOTRESLEVEL
 70
     2
102
SHADEPLOTCUSTOMDPI
 70
   300
  0
ENDSEC
  0
EOF
