  0
SECTION
  2
HEADER
  9
$ACADVER
  1
AC1014
  9
$ACADMAINTVER
 70
     9
  9
$DWGCODEPAGE
  3
ANSI_1252
  9
$INSBASE
 10
0.0
 20
0.0
 30
0.0
  9
$EXTMIN
 10
-72.65222738596268
 20
113.4667038447934
 30
0.0
  9
$EXTMAX
 10
36.85905378950937
 20
157.4702054077185
 30
0.0000000000000355
  9
$LIMMIN
 10
0.0
 20
0.0
  9
$LIMMAX
 10
0.0
 20
0.0
  9
$ORTHOMODE
 70
     1
  9
$REGENMODE
 70
     1
  9
$FILLMODE
 70
     1
  9
$QTEXTMODE
 70
     0
  9
$MIRRTEXT
 70
     1
  9
$DRAGMODE
 70
     2
  9
$LTSCALE
 40
1.0
  9
$OSMODE
 70
    37
  9
$ATTMODE
 70
     1
  9
$TEXTSIZE
 40
0.0
  9
$TRACEWID
 40
0.05
  9
$TEXTSTYLE
  7
STANDARD
  9
$CLAYER
  8
0
  9
$CELTYPE
  6
DASHED
  9
$CECOLOR
 62
     7
  9
$CELTSCALE
 40
1.0
  9
$DELOBJ
 70
     1
  9
$DISPSILH
 70
     0
  9
$DIMSCALE
 40
1.0
  9
$DIMASZ
 40
0.18
  9
$DIMEXO
 40
0.0625
  9
$DIMDLI
 40
0.38
  9
$DIMRND
 40
0.0
  9
$DIMDLE
 40
0.0
  9
$DIMEXE
 40
0.25
  9
$DIMTP
 40
0.05
  9
$DIMTM
 40
-0.05
  9
$DIMTXT
 40
2.5
  9
$DIMCEN
 40
0.09
  9
$DIMTSZ
 40
0.0
  9
$DIMTOL
 70
     0
  9
$DIMLIM
 70
     0
  9
$DIMTIH
 70
     1
  9
$DIMTOH
 70
     1
  9
$DIMSE1
 70
     0
  9
$DIMSE2
 70
     0
  9
$DIMTAD
 70
     0
  9
$DIMZIN
 70
     0
  9
$DIMBLK
  1

  9
$DIMASO
 70
     1
  9
$DIMSHO
 70
     1
  9
$DIMPOST
  1

  9
$DIMAPOST
  1

  9
$DIMALT
 70
     0
  9
$DIMALTD
 70
     2
  9
$DIMALTF
 40
25.4
  9
$DIMLFAC
 40
1.0
  9
$DIMTOFL
 70
     0
  9
$DIMTVP
 40
0.0
  9
$DIMTIX
 70
     0
  9
$DIMSOXD
 70
     0
  9
$DIMSAH
 70
     0
  9
$DIMBLK1
  1

  9
$DIMBLK2
  1

  9
$DIMSTYLE
  2
STANDARD
  9
$DIMCLRD
 70
     0
  9
$DIMCLRE
 70
     0
  9
$DIMCLRT
 70
    15
  9
$DIMTFAC
 40
0.7000000000000001
  9
$DIMGAP
 40
0.09
  9
$DIMJUST
 70
     0
  9
$DIMSD1
 70
     0
  9
$DIMSD2
 70
     0
  9
$DIMTOLJ
 70
     1
  9
$DIMTZIN
 70
     0
  9
$DIMALTZ
 70
     0
  9
$DIMALTTZ
 70
     0
  9
$DIMFIT
 70
     3
  9
$DIMUPT
 70
     0
  9
$DIMUNIT
 70
     2
  9
$DIMDEC
 70
     4
  9
$DIMTDEC
 70
     4
  9
$DIMALTU
 70
     2
  9
$DIMALTTD
 70
     2
  9
$DIMTXSTY
  7
STANDARD
  9
$DIMAUNIT
 70
     0
  9
$LUNITS
 70
     2
  9
$LUPREC
 70
    10
  9
$SKETCHINC
 40
0.1
  9
$FILLETRAD
 40
0.0
  9
$AUNITS
 70
     0
  9
$AUPREC
 70
     0
  9
$MENU
  1
acad
  9
$ELEVATION
 40
0.0
  9
$PELEVATION
 40
0.0
  9
$THICKNESS
 40
0.0
  9
$LIMCHECK
 70
     0
  9
$BLIPMODE
 70
     0
  9
$CHAMFERA
 40
0.0
  9
$CHAMFERB
 40
0.0
  9
$CHAMFERC
 40
0.0
  9
$CHAMFERD
 40
0.0
  9
$SKPOLY
 70
     0
  9
$TDCREATE
 40
2444972.083333333
  9
$TDUPDATE
 40
2452443.352327662
  9
$TDINDWG
 40
0.0120367593
  9
$TDUSRTIMER
 40
0.0120367593
  9
$USRTIMER
 70
     1
  9
$ANGBASE
 50
0.0
  9
$ANGDIR
 70
     0
  9
$PDMODE
 70
     2
  9
$PDSIZE
 40
0.0
  9
$PLINEWID
 40
0.0
  9
$COORDS
 70
     1
  9
$SPLFRAME
 70
     0
  9
$SPLINETYPE
 70
     6
  9
$SPLINESEGS
 70
     8
  9
$ATTDIA
 70
     0
  9
$ATTREQ
 70
     1
  9
$HANDLING
 70
-16383
  9
$HANDSEED
  5
1BF
  9
$SURFTAB1
 70
     6
  9
$SURFTAB2
 70
     6
  9
$SURFTYPE
 70
     6
  9
$SURFU
 70
     6
  9
$SURFV
 70
     6
  9
$UCSNAME
  2

  9
$UCSORG
 10
0.0
 20
0.0
 30
0.0
  9
$UCSXDIR
 10
1.0
 20
0.0
 30
0.0
  9
$UCSYDIR
 10
0.0
 20
1.0
 30
0.0
  9
$PUCSNAME
  2

  9
$PUCSORG
 10
0.0
 20
0.0
 30
0.0
  9
$PUCSXDIR
 10
1.0
 20
0.0
 30
0.0
  9
$PUCSYDIR
 10
0.0
 20
1.0
 30
0.0
  9
$USERI1
 70
     0
  9
$USERI2
 70
     0
  9
$USERI3
 70
     0
  9
$USERI4
 70
     0
  9
$USERI5
 70
     0
  9
$USERR1
 40
0.0
  9
$USERR2
 40
0.0
  9
$USERR3
 40
0.0
  9
$USERR4
 40
0.0
  9
$USERR5
 40
0.0
  9
$WORLDVIEW
 70
     1
  9
$SHADEDGE
 70
     3
  9
$SHADEDIF
 70
    70
  9
$TILEMODE
 70
     1
  9
$MAXACTVP
 70
    16
  9
$PINSBASE
 10
0.0
 20
0.0
 30
0.0
  9
$PLIMCHECK
 70
     0
  9
$PEXTMIN
 10
1.000000000000000E+20
 20
1.000000000000000E+20
 30
1.000000000000000E+20
  9
$PEXTMAX
 10
-1.000000000000000E+20
 20
-1.000000000000000E+20
 30
-1.000000000000000E+20
  9
$PLIMMIN
 10
0.0
 20
0.0
  9
$PLIMMAX
 10
12.0
 20
9.0
  9
$UNITMODE
 70
     0
  9
$VISRETAIN
 70
     0
  9
$PLINEGEN
 70
     1
  9
$PSLTSCALE
 70
     0
  9
$TREEDEPTH
 70
  3020
  9
$PICKSTYLE
 70
     1
  9
$CMLSTYLE
  2
STANDARD
  9
$CMLJUST
 70
     0
  9
$CMLSCALE
 40
1.0
  9
$PROXYGRAPHICS
 70
     1
  9
$MEASUREMENT
 70
     0
  0
ENDSEC
  0
SECTION
  2
CLASSES
  0
CLASS
  1
LWPOLYLINE
  2
AcDbPolyline
  3
AutoCAD 2000
 90
        0
280
     0
281
     1
  0
CLASS
  1
IMAGE
  2
AcDbRasterImage
  3
ISM
 90
      127
280
     0
281
     1
  0
CLASS
  1
OLE2FRAME
  2
AcDbOle2Frame
  3
AutoCAD 2000
 90
        0
280
     0
281
     1
  0
CLASS
  1
HATCH
  2
AcDbHatch
  3
AutoCAD 2000
 90
        0
280
     0
281
     1
  0
CLASS
  1
DICTIONARYVAR
  2
AcDbDictionaryVar
  3
AutoCAD 2000
 90
        0
280
     0
281
     0
  0
CLASS
  1
RASTERVARIABLES
  2
AcDbRasterVariables
  3
ISM
 90
        0
280
     0
281
     0
  0
CLASS
  1
IMAGEDEF
  2
AcDbRasterImageDef
  3
ISM
 90
        0
280
     0
281
     0
  0
CLASS
  1
IMAGEDEF_REACTOR
  2
AcDbRasterImageDefReactor
  3
ISM
 90
        1
280
     0
281
     0
  0
CLASS
  1
IDBUFFER
  2
AcDbIdBuffer
  3
AutoCAD 2000
 90
        0
280
     0
281
     0
  0
CLASS
  1
SPATIAL_FILTER
  2
AcDbSpatialFilter
  3
AutoCAD 2000
 90
        0
280
     0
281
     0
  0
CLASS
  1
XRECORD
  2
AcDbXrecord
  3
AutoCAD 2000
 90
        0
280
     0
281
     0
  0
CLASS
  1
SORTENTSTABLE
  2
AcDbSortentsTable
  3
AutoCAD 2000
 90
        0
280
     0
281
     0
  0
CLASS
  1
LAYER_INDEX
  2
AcDbLayerIndex
  3
AutoCAD 2000
 90
        0
280
     0
281
     0
  0
CLASS
  1
SPATIAL_INDEX
  2
AcDbSpatialIndex
  3
AutoCAD 2000
 90
        0
280
     0
281
     0
  0
CLASS
  1
OBJECT_PTR
  2
CAseDLPNTableRecord
  3
"ASE-LPNTableRecord"
 90
        0
280
     0
281
     0
  0
CLASS
  1
ACDBDICTIONARYWDFLT
  2
AcDbDictionaryWithDefault
  3
AutoCAD 2000
 90
        0
280
     0
281
     0
  0
CLASS
  1
ACDBPLACEHOLDER
  2
AcDbPlaceHolder
  3
AutoCAD 2000
 90
        0
280
     0
281
     0
  0
CLASS
  1
LAYOUT
  2
AcDbLayout
  3
AutoCAD 2000
 90
        0
280
     0
281
     0
  0
CLASS
  1
LONG_TRANSACTION
  2
AcDbLongTransaction
  3
AutoCAD 2000
 90
        0
280
     0
281
     0
  0
CLASS
  1
LWPOLYLINE
  2
AcDbPolyline
  3
AutoCAD 2000
 90
        0
280
     0
281
     1
  0
CLASS
  1
HATCH
  2
AcDbHatch
  3
AutoCAD 2000
 90
        0
280
     0
281
     1
  0
CLASS
  1
XRECORD
  2
AcDbXrecord
  3
AutoCAD 2000
 90
        0
280
     0
281
     0
  0
ENDSEC
  0
SECTION
  2
TABLES
  0
TABLE
  2
VPORT
  5
7
330
0
100
AcDbSymbolTable
 70
     2
  0
VPORT
  5
19A
330
7
100
AcDbSymbolTableRecord
100
AcDbViewportTableRecord
  2
*ACTIVE
 70
     0
 10
0.0
 20
0.0
 11
1.0
 21
1.0
 12
-17.89913227987563
 22
135.4719677610449
 13
0.0
 23
0.0
 14
1.0
 24
1.0
 15
0.0
 25
0.0
 16
0.0
 26
0.0
 36
1.0
 17
0.0
 27
0.0
 37
0.0
 40
64.24562838950766
 41
1.714285714285714
 42
50.0
 43
0.0
 44
0.0
 50
0.0
 51
0.0
 71
     0
 72
   100
 73
     1
 74
     1
 75
     0
 76
     0
 77
     0
 78
     0
  0
ENDTAB
  0
TABLE
  2
LTYPE
  5
4
330
0
100
AcDbSymbolTable
 70
     4
  0
LTYPE
  5
11
330
4
100
AcDbSymbolTableRecord
100
AcDbLinetypeTableRecord
  2
BYBLOCK
 70
     0
  3

 72
    65
 73
     0
 40
0.0
  0
LTYPE
  5
12
330
4
100
AcDbSymbolTableRecord
100
AcDbLinetypeTableRecord
  2
BYLAYER
 70
     0
  3

 72
    65
 73
     0
 40
0.0
  0
LTYPE
  5
13
330
4
100
AcDbSymbolTableRecord
100
AcDbLinetypeTableRecord
  2
CONTINUOUS
 70
     0
  3
Solid line
 72
    65
 73
     0
 40
0.0
  0
LTYPE
  5
1D
330
4
100
AcDbSymbolTableRecord
100
AcDbLinetypeTableRecord
  2
DASHED
 70
     0
  3
_ _ _ _ _ _ _ _ _ _ _ _ _ _ _ _
 72
    65
 73
     2
 40
0.2
 49
0.1
 74
     0
 49
-0.1
 74
     0
  0
LTYPE
  5
1E
330
4
100
AcDbSymbolTableRecord
100
AcDbLinetypeTableRecord
  2
CENTER
 70
     0
  3
___ _ ___ _ ___ _ ___ _ ___ _ ___ _ ___ _ ___ _
 72
    65
 73
     4
 40
0.95
 49
0.625
 74
     0
 49
-0.125
 74
     0
 49
0.075
 74
     0
 49
-0.125
 74
     0
  0
LTYPE
  5
1F
330
4
100
AcDbSymbolTableRecord
100
AcDbLinetypeTableRecord
  2
PHANTOM
 70
     0
  3
______  __  __  ______  __  __  ______  __  __  
 72
    65
 73
     6
 40
1.024999999999999
 49
0.625
 74
     0
 49
-0.125
 74
     0
 49
0.075
 74
     0
 49
-0.125
 74
     0
 49
0.075
 74
     0
 49
-0.125
 74
     0
  0
ENDTAB
  0
TABLE
  2
LAYER
  5
2
330
0
100
AcDbSymbolTable
 70
    10
  0
LAYER
  5
14
330
2
100
AcDbSymbolTableRecord
100
AcDbLayerTableRecord
  2
0
 70
     0
 62
     7
  6
CONTINUOUS
  0
LAYER
  5
21
330
2
100
AcDbSymbolTableRecord
100
AcDbLayerTableRecord
  2
CK_LEVEL_1
 70
     0
 62
     7
  6
CONTINUOUS
  0
LAYER
  5
22
330
2
100
AcDbSymbolTableRecord
100
AcDbLayerTableRecord
  2
ES
 70
     0
 62
     7
  6
CONTINUOUS
  0
LAYER
  5
23
330
2
100
AcDbSymbolTableRecord
100
AcDbLayerTableRecord
  2
CK_LEVEL_3
 70
     0
 62
     7
  6
CONTINUOUS
  0
LAYER
  5
24
330
2
100
AcDbSymbolTableRecord
100
AcDbLayerTableRecord
  2
CK_LEVEL_4
 70
     0
 62
     7
  6
CONTINUOUS
  0
LAYER
  5
25
330
2
100
AcDbSymbolTableRecord
100
AcDbLayerTableRecord
  2
CK_LEVEL_5
 70
     0
 62
     7
  6
CONTINUOUS
  0
LAYER
  5
26
330
2
100
AcDbSymbolTableRecord
100
AcDbLayerTableRecord
  2
CK_LEVEL_6
 70
     0
 62
     7
  6
CONTINUOUS
  0
LAYER
  5
27
330
2
100
AcDbSymbolTableRecord
100
AcDbLayerTableRecord
  2
CK_LEVEL_7
 70
     0
 62
     7
  6
CONTINUOUS
  0
LAYER
  5
28
330
2
100
AcDbSymbolTableRecord
100
AcDbLayerTableRecord
  2
CK_LEVEL_8
 70
     0
 62
     7
  6
CONTINUOUS
  0
LAYER
  5
29
330
2
100
AcDbSymbolTableRecord
100
AcDbLayerTableRecord
  2
MGW7
 70
     0
 62
     7
  6
CONTINUOUS
  0
ENDTAB
  0
TABLE
  2
STYLE
  5
3
330
0
100
AcDbSymbolTable
 70
     1
  0
STYLE
  5
17
330
3
100
AcDbSymbolTableRecord
100
AcDbTextStyleTableRecord
  2
STANDARD
 70
     0
 40
0.0
 41
1.0
 50
0.0
 71
     0
 42
0.0
  3
txt
  4

  0
ENDTAB
  0
TABLE
  2
VIEW
  5
5
330
0
100
AcDbSymbolTable
 70
     0
  0
ENDTAB
  0
TABLE
  2
UCS
  5
6
330
0
100
AcDbSymbolTable
 70
     1
  0
UCS
  5
20
330
6
100
AcDbSymbolTableRecord
100
AcDbUCSTableRecord
  2
CK_VIEW_1
 70
     0
 10
0.0
 20
0.0
 30
1.0
 11
1.0
 21
0.0
 31
0.0
 12
0.0
 22
1.0
 32
0.0
  0
ENDTAB
  0
TABLE
  2
APPID
  5
8
330
0
100
AcDbSymbolTable
 70
     1
  0
APPID
  5
16
330
8
100
AcDbSymbolTableRecord
100
AcDbRegAppTableRecord
  2
ACAD
 70
     0
  0
ENDTAB
  0
TABLE
  2
DIMSTYLE
  5
9
330
0
100
AcDbSymbolTable
 70
     1
  0
DIMSTYLE
105
18
330
9
100
AcDbSymbolTableRecord
100
AcDbDimStyleTableRecord
  2
STANDARD
 70
     0
  3

  4

  5

  6

  7

 40
1.0
 41
0.18
 42
0.0625
 43
0.38
 44
0.18
 45
0.0
 46
0.0
 47
0.0
 48
0.0
140
0.18
141
0.09
142
0.0
143
25.4
144
1.0
145
0.0
146
1.0
147
0.09
 71
     0
 72
     0
 73
     1
 74
     1
 75
     0
 76
     0
 77
     0
 78
     0
170
     0
171
     2
172
     0
173
     0
174
     0
175
     0
176
     0
177
     0
178
     0
270
     2
271
     4
272
     4
273
     2
274
     2
340
17
275
     0
280
     0
281
     0
282
     0
283
     1
284
     0
285
     0
286
     0
287
     0
288
     0
  0
ENDTAB
  0
TABLE
  2
BLOCK_RECORD
  5
1
330
0
100
AcDbSymbolTable
 70
     0
  0
BLOCK_RECORD
  5
A
102
{ACAD_XDICTIONARY
360
1BB
102
}
330
1
100
AcDbSymbolTableRecord
100
AcDbBlockTableRecord
  2
*MODEL_SPACE
  0
BLOCK_RECORD
  5
B
102
{ACAD_XDICTIONARY
360
1BD
102
}
330
1
100
AcDbSymbolTableRecord
100
AcDbBlockTableRecord
  2
*PAPER_SPACE
  0
ENDTAB
  0
ENDSEC
  0
SECTION
  2
BLOCKS
  0
BLOCK
  5
D
330
A
100
AcDbEntity
  8
0
100
AcDbBlockBegin
  2
*MODEL_SPACE
 70
     0
 10
0.0
 20
0.0
 30
0.0
  3
*MODEL_SPACE
  1

  0
ENDBLK
  5
E
330
A
100
AcDbEntity
  8
0
100
AcDbBlockEnd
  0
BLOCK
  5
F
330
B
100
AcDbEntity
 67
     1
  8
0
100
AcDbBlockBegin
  2
*PAPER_SPACE
 70
     0
 10
0.0
 20
0.0
 30
0.0
  3
*PAPER_SPACE
  1

  0
ENDBLK
  5
10
330
B
100
AcDbEntity
 67
     1
  8
0
100
AcDbBlockEnd
  0
ENDSEC
  0
SECTION
  2
ENTITIES
  0
LINE
  5
2B
330
A
100
AcDbEntity
  8
ES
  6
CENTER
 62
   252
100
AcDbLine
 10
-65.64094621049072
 20
118.3928913865435
 30
0.0
 11
-65.64094621049072
 21
119.9434098777566
 31
0.0
  0
LINE
  5
7B
330
A
100
AcDbEntity
  8
MGW7
  6
CONTINUOUS
 62
     4
100
AcDbLine
 10
-58.94094621049062
 20
119.1702054077185
 30
0.0
 11
-72.34094621049063
 21
119.1702054077185
 31
0.0
  0
LINE
  5
7C
330
A
100
AcDbEntity
  8
MGW7
  6
CENTER
 62
   252
100
AcDbLine
 10
-65.64094621049062
 20
113.4667038447934
 30
0.0
 11
-65.64094621049062
 21
119.6737069706436
 31
0.0
  0
LINE
  5
7D
330
A
100
AcDbEntity
  8
MGW7
  6
CONTINUOUS
 62
     4
100
AcDbLine
 10
-59.04094621049063
 20
113.9702054077185
 30
0.0
 11
-60.74094621049063
 21
113.9702054077185
 31
0.0
  0
LINE
  5
7E
330
A
100
AcDbEntity
  8
MGW7
  6
CONTINUOUS
 62
     4
100
AcDbLine
 10
-61.54094621049062
 20
113.9702054077185
 30
0.0
 11
-72.24094621049061
 21
113.9702054077185
 31
0.0
  0
LINE
  5
7F
330
A
100
AcDbEntity
  8
MGW7
  6
CONTINUOUS
 62
     4
100
AcDbLine
 10
-72.64094621049077
 20
114.3702054077187
 30
0.0
 11
-72.24094621049061
 21
113.9702054077185
 31
0.0
  0
LINE
  5
80
330
A
100
AcDbEntity
  8
MGW7
  6
CONTINUOUS
 62
     4
100
AcDbLine
 10
-59.04094621049063
 20
113.9702054077185
 30
0.0
 11
-58.64094621049076
 21
114.3702054077184
 31
0.0
  0
ARC
  5
81
330
A
100
AcDbEntity
  8
MGW7
  6
CONTINUOUS
 62
     4
100
AcDbCircle
 10
-61.14094621049062
 20
113.6702054077185
 30
0.0000000000000142
 40
0.5
100
AcDbArc
 50
36.86989764584386
 51
143.1301023541561
  0
LINE
  5
82
330
A
100
AcDbEntity
  8
MGW7
  6
DASHED
 62
   252
100
AcDbLine
 10
-68.64094621049061
 20
118.9702054077185
 30
0.0
 11
-68.64094621049061
 21
115.9702054077185
 31
0.0
  0
LINE
  5
83
330
A
100
AcDbEntity
  8
MGW7
  6
DASHED
 62
   252
100
AcDbLine
 10
-68.64094621049061
 20
115.9702054077185
 30
0.0
 11
-62.64094621049061
 21
115.9702054077185
 31
0.0
  0
LINE
  5
84
330
A
100
AcDbEntity
  8
MGW7
  6
DASHED
 62
   252
100
AcDbLine
 10
-67.39094621049061
 20
115.9702054077185
 30
0.0
 11
-67.39094621049061
 21
114.2702054077185
 31
0.0
  0
LINE
  5
85
330
A
100
AcDbEntity
  8
MGW7
  6
DASHED
 62
   252
100
AcDbLine
 10
-63.89094621049061
 20
115.9702054077185
 30
0.0
 11
-63.89094621049061
 21
114.2702054077185
 31
0.0
  0
LINE
  5
86
330
A
100
AcDbEntity
  8
MGW7
  6
DASHED
 62
   252
100
AcDbLine
 10
-62.64094621049061
 20
118.9702054077185
 30
0.0
 11
-62.64094621049061
 21
115.9702054077185
 31
0.0
  0
LINE
  5
87
330
A
100
AcDbEntity
  8
MGW7
  6
DASHED
 62
   252
100
AcDbLine
 10
-63.89094621049061
 20
114.2702054077185
 30
0.0
 11
-63.59094621049061
 21
113.9702054077185
 31
0.0
  0
LINE
  5
88
330
A
100
AcDbEntity
  8
MGW7
  6
DASHED
 62
   252
100
AcDbLine
 10
-67.39094621049061
 20
114.2702054077185
 30
0.0
 11
-67.69094621049061
 21
113.9702054077185
 31
0.0
  0
LINE
  5
89
330
A
100
AcDbEntity
  8
MGW7
  6
DASHED
 62
   252
100
AcDbLine
 10
-63.89094621049061
 20
114.2702054077185
 30
0.0
 11
-67.39094621049061
 21
114.2702054077185
 31
0.0
  0
LINE
  5
8A
330
A
100
AcDbEntity
  8
MGW7
  6
DASHED
 62
   252
100
AcDbLine
 10
-62.64094621049061
 20
118.9702054077185
 30
0.0
 11
-68.64094621049061
 21
118.9702054077185
 31
0.0
  0
LINE
  5
8B
330
A
100
AcDbEntity
  8
MGW7
  6
DASHED
 62
   252
100
AcDbLine
 10
-68.75641626432853
 20
119.1702054077185
 30
0.0
 11
-68.64094621049061
 21
118.9702054077185
 31
0.0
  0
LINE
  5
8C
330
A
100
AcDbEntity
  8
MGW7
  6
DASHED
 62
   252
100
AcDbLine
 10
-62.52547615665268
 20
119.1702054077185
 30
0.0
 11
-62.64094621049061
 21
118.9702054077185
 31
0.0
  0
LINE
  5
8D
330
A
100
AcDbEntity
  8
MGW7
  6
CONTINUOUS
 62
     4
100
AcDbLine
 10
-58.94094621049062
 20
119.1702054077185
 30
0.0
 11
-58.64094621049076
 21
118.8702054077187
 31
0.0
  0
LINE
  5
8E
330
A
100
AcDbEntity
  8
MGW7
  6
CONTINUOUS
 62
     4
100
AcDbLine
 10
-72.34094621049061
 20
119.1702054077185
 30
0.0
 11
-72.64094621049079
 21
118.8702054077183
 31
0.0
  0
LINE
  5
8F
330
A
100
AcDbEntity
  8
MGW7
  6
CONTINUOUS
 62
     4
100
AcDbLine
 10
-43.14094621049062
 20
119.1702054077185
 30
0.0
 11
-43.14094621049062
 21
113.9702054077185
 31
0.0
  0
LINE
  5
90
330
A
100
AcDbEntity
  8
MGW7
  6
CENTER
 62
   252
100
AcDbLine
 10
-33.14094621049062
 20
113.4667038447934
 30
0.0
 11
-33.14094621049062
 21
119.6737069706436
 31
0.0
  0
LINE
  5
91
330
A
100
AcDbEntity
  8
MGW7
  6
DASHED
 62
   252
100
AcDbLine
 10
-36.14094621049061
 20
118.9702054077185
 30
0.0
 11
-36.14094621049061
 21
115.9702054077185
 31
0.0
  0
LINE
  5
92
330
A
100
AcDbEntity
  8
MGW7
  6
DASHED
 62
   252
100
AcDbLine
 10
-36.14094621049061
 20
115.9702054077185
 30
0.0
 11
-30.14094621049061
 21
115.9702054077185
 31
0.0
  0
LINE
  5
93
330
A
100
AcDbEntity
  8
MGW7
  6
DASHED
 62
   252
100
AcDbLine
 10
-34.89094621049061
 20
115.9702054077185
 30
0.0
 11
-34.89094621049061
 21
114.2702054077185
 31
0.0
  0
LINE
  5
94
330
A
100
AcDbEntity
  8
MGW7
  6
DASHED
 62
   252
100
AcDbLine
 10
-31.39094621049061
 20
115.9702054077185
 30
0.0
 11
-31.39094621049061
 21
114.2702054077185
 31
0.0
  0
LINE
  5
95
330
A
100
AcDbEntity
  8
MGW7
  6
DASHED
 62
   252
100
AcDbLine
 10
-30.14094621049061
 20
118.9702054077185
 30
0.0
 11
-30.14094621049061
 21
115.9702054077185
 31
0.0
  0
LINE
  5
96
330
A
100
AcDbEntity
  8
MGW7
  6
DASHED
 62
   252
100
AcDbLine
 10
-31.39094621049061
 20
114.2702054077185
 30
0.0
 11
-31.09094621049061
 21
113.9702054077185
 31
0.0
  0
LINE
  5
97
330
A
100
AcDbEntity
  8
MGW7
  6
DASHED
 62
   252
100
AcDbLine
 10
-34.89094621049061
 20
114.2702054077185
 30
0.0
 11
-35.19094621049061
 21
113.9702054077185
 31
0.0
  0
LINE
  5
98
330
A
100
AcDbEntity
  8
MGW7
  6
DASHED
 62
   252
100
AcDbLine
 10
-31.39094621049061
 20
114.2702054077185
 30
0.0
 11
-34.89094621049061
 21
114.2702054077185
 31
0.0
  0
LINE
  5
99
330
A
100
AcDbEntity
  8
MGW7
  6
DASHED
 62
   252
100
AcDbLine
 10
-30.14094621049061
 20
118.9702054077185
 30
0.0
 11
-36.14094621049061
 21
118.9702054077185
 31
0.0
  0
LINE
  5
9A
330
A
100
AcDbEntity
  8
MGW7
  6
DASHED
 62
   252
100
AcDbLine
 10
-36.25641626432853
 20
119.1702054077185
 30
0.0
 11
-36.14094621049061
 21
118.9702054077185
 31
0.0
  0
LINE
  5
9B
330
A
100
AcDbEntity
  8
MGW7
  6
DASHED
 62
   252
100
AcDbLine
 10
-30.02547615665268
 20
119.1702054077185
 30
0.0
 11
-30.14094621049061
 21
118.9702054077185
 31
0.0
  0
LINE
  5
9C
330
A
100
AcDbEntity
  8
MGW7
  6
CONTINUOUS
 62
     4
100
AcDbLine
 10
36.85905378950937
 20
119.1702054077185
 30
0.0
 11
12.35905378950938
 21
119.1702054077185
 31
0.0
  0
LINE
  5
9D
330
A
100
AcDbEntity
  8
MGW7
  6
CONTINUOUS
 62
     4
100
AcDbLine
 10
36.85905378950937
 20
118.5702054077185
 30
0.0
 11
12.35905378950938
 21
118.5702054077185
 31
0.0
  0
LINE
  5
9E
330
A
100
AcDbEntity
  8
MGW7
  6
CONTINUOUS
 62
     4
100
AcDbLine
 10
36.85905378950937
 20
118.1886712515612
 30
0.0
 11
12.35905378950938
 21
118.1886712515612
 31
0.0
  0
LINE
  5
9F
330
A
100
AcDbEntity
  8
MGW7
  6
CONTINUOUS
 62
     4
100
AcDbLine
 10
36.85905378950937
 20
116.9517395638759
 30
0.0
 11
12.35905378950938
 21
116.9517395638759
 31
0.0
  0
LINE
  5
A0
330
A
100
AcDbEntity
  8
MGW7
  6
CONTINUOUS
 62
     4
100
AcDbLine
 10
36.85905378950937
 20
114.6702054077185
 30
0.0
 11
-43.14094621049064
 21
114.6702054077185
 31
0.0
  0
LINE
  5
A1
330
A
100
AcDbEntity
  8
MGW7
  6
CONTINUOUS
 62
     4
100
AcDbLine
 10
36.85905378950937
 20
113.9702054077185
 30
0.0
 11
-43.14094621049062
 21
113.9702054077185
 31
0.0
  0
LINE
  5
A2
330
A
100
AcDbEntity
  8
MGW7
  6
CONTINUOUS
 62
     4
100
AcDbLine
 10
36.85905378950937
 20
119.1702054077185
 30
0.0
 11
36.85905378950937
 21
113.9702054077185
 31
0.0
  0
LINE
  5
A3
330
A
100
AcDbEntity
  8
MGW7
  6
CONTINUOUS
 62
     4
100
AcDbLine
 10
-58.64094621049076
 20
118.8702054077187
 30
0.0
 11
-58.64094621049076
 21
118.3415926723522
 31
0.0
  0
LINE
  5
A4
330
A
100
AcDbEntity
  8
MGW7
  6
CONTINUOUS
 62
     4
100
AcDbLine
 10
-58.64094621049076
 20
116.7988181430849
 30
0.0
 11
-58.64094621049076
 21
114.3702054077184
 31
0.0
  0
LINE
  5
A5
330
A
100
AcDbEntity
  8
MGW7
  6
CONTINUOUS
 62
     4
100
AcDbLine
 10
-59.39094621049078
 20
117.9202054077185
 30
0.0
 11
-59.05672946389663
 21
117.9202054077185
 31
0.0
  0
ARC
  5
A6
330
A
100
AcDbEntity
  8
MGW7
  6
CONTINUOUS
 62
     4
100
AcDbCircle
 10
-59.39094621049079
 20
117.5702054077185
 30
0.0000000000000355
 40
0.3500000000000001
100
AcDbArc
 50
90.0
 51
270.0
  0
LINE
  5
A7
330
A
100
AcDbEntity
  8
MGW7
  6
CONTINUOUS
 62
     4
100
AcDbLine
 10
-59.39094621049078
 20
117.2202054077185
 30
0.0
 11
-59.05672946389663
 21
117.2202054077185
 31
0.0
  0
LINE
  5
A8
330
A
100
AcDbEntity
  8
MGW7
  6
CONTINUOUS
 62
     4
100
AcDbLine
 10
-72.64094621049077
 20
116.7988181430849
 30
0.0
 11
-72.64094621049077
 21
114.3702054077187
 31
0.0
  0
LINE
  5
A9
330
A
100
AcDbEntity
  8
MGW7
  6
CONTINUOUS
 62
     4
100
AcDbLine
 10
-72.64094621049079
 20
118.8702054077183
 30
0.0
 11
-72.64094621049074
 21
118.3415926723522
 31
0.0
  0
LINE
  5
AA
330
A
100
AcDbEntity
  8
MGW7
  6
CONTINUOUS
 62
     4
100
AcDbLine
 10
-71.89094621049079
 20
117.9202054077185
 30
0.0
 11
-72.22516295708482
 21
117.9202054077185
 31
0.0
  0
LINE
  5
AB
330
A
100
AcDbEntity
  8
MGW7
  6
CONTINUOUS
 62
     4
100
AcDbLine
 10
-71.89094621049076
 20
117.2202054077185
 30
0.0
 11
-72.2251629570848
 21
117.2202054077186
 31
0.0
  0
ARC
  5
AC
330
A
100
AcDbEntity
  8
MGW7
  6
CONTINUOUS
 62
     4
100
AcDbCircle
 10
-71.89094621049081
 20
117.5702054077185
 30
0.0000000000000213
 40
0.3500000000000001
100
AcDbArc
 50
270.0
 51
450.0
  0
LINE
  5
AD
330
A
100
AcDbEntity
  8
MGW7
  6
CONTINUOUS
 62
     4
100
AcDbLine
 10
36.85905378950937
 20
143.4702054077185
 30
0.0
 11
12.35905378950937
 21
143.4702054077185
 31
0.0
  0
LINE
  5
AE
330
A
100
AcDbEntity
  8
MGW7
  6
CONTINUOUS
 62
     4
100
AcDbLine
 10
-43.1409462104906
 20
143.4702054077185
 30
0.0
 11
-43.1409462104906
 21
157.4702054077185
 31
0.0
  0
LINE
  5
AF
330
A
100
AcDbEntity
  8
MGW7
  6
CONTINUOUS
 62
     4
100
AcDbLine
 10
36.85905378950937
 20
143.4702054077185
 30
0.0
 11
36.85905378950937
 21
157.4702054077185
 31
0.0
  0
LINE
  5
B0
330
A
100
AcDbEntity
  8
MGW7
  6
CONTINUOUS
 62
     4
100
AcDbLine
 10
36.85905378950937
 20
157.4702054077185
 30
0.0
 11
12.35905378950937
 21
157.4702054077185
 31
0.0
  0
LINE
  5
C6
330
A
100
AcDbEntity
  8
MGW7
  6
CENTER
 62
   252
100
AcDbLine
 10
-33.14094621049062
 20
154.2202054077185
 30
0.0
 11
-33.14094621049062
 21
146.7202054077185
 31
0.0
  0
LINE
  5
C7
330
A
100
AcDbEntity
  8
MGW7
  6
CENTER
 62
   252
100
AcDbLine
 10
-36.89094621049062
 20
150.4702054077186
 30
0.0
 11
-29.39094621049062
 21
150.4702054077186
 31
0.0
  0
CIRCLE
  5
C8
330
A
100
AcDbEntity
  8
MGW7
  6
CONTINUOUS
 62
     4
100
AcDbCircle
 10
-33.14094621049062
 20
150.4702054077186
 30
0.0000000000000142
 40
3.0
  0
CIRCLE
  5
C9
330
A
100
AcDbEntity
  8
MGW7
  6
CONTINUOUS
 62
     4
100
AcDbCircle
 10
-33.14094621049062
 20
150.4702054077186
 30
0.0000000000000142
 40
1.75
  0
LINE
  5
D0
330
A
100
AcDbEntity
  8
MGW7
  6
CONTINUOUS
 62
     4
100
AcDbLine
 10
12.35905378950937
 20
157.4702054077185
 30
0.0
 11
-43.1409462104906
 21
157.4702054077185
 31
0.0
  0
LINE
  5
D1
330
A
100
AcDbEntity
  8
MGW7
  6
CONTINUOUS
 62
     4
100
AcDbLine
 10
12.35905378950937
 20
143.4702054077185
 30
0.0
 11
-43.14094621049059
 21
143.4702054077185
 31
0.0
  0
LINE
  5
DA
330
A
100
AcDbEntity
  8
MGW7
  6
CENTER
 62
   252
100
AcDbLine
 10
26.85905378950937
 20
154.2202054077185
 30
0.0
 11
26.85905378950937
 21
146.7202054077185
 31
0.0
  0
LINE
  5
DB
330
A
100
AcDbEntity
  8
MGW7
  6
CENTER
 62
   252
100
AcDbLine
 10
23.10905378950937
 20
150.4702054077186
 30
0.0
 11
30.60905378950938
 21
150.4702054077186
 31
0.0
  0
CIRCLE
  5
DC
330
A
100
AcDbEntity
  8
MGW7
  6
CONTINUOUS
 62
     4
100
AcDbCircle
 10
26.85905378950937
 20
150.4702054077186
 30
0.0000000000000142
 40
3.0
  0
CIRCLE
  5
DD
330
A
100
AcDbEntity
  8
MGW7
  6
CONTINUOUS
 62
     4
100
AcDbCircle
 10
26.85905378950937
 20
150.4702054077186
 30
0.0000000000000142
 40
1.75
  0
LINE
  5
E6
330
A
100
AcDbEntity
  8
MGW7
  6
CONTINUOUS
 62
     4
100
AcDbLine
 10
12.35905378950938
 20
119.1702054077185
 30
0.0
 11
-43.14094621049062
 21
119.1702054077185
 31
0.0
  0
LINE
  5
E7
330
A
100
AcDbEntity
  8
MGW7
  6
CONTINUOUS
 62
     4
100
AcDbLine
 10
12.35905378950938
 20
118.5702054077185
 30
0.0
 11
-43.14094621049064
 21
118.5702054077185
 31
0.0
  0
LINE
  5
E8
330
A
100
AcDbEntity
  8
MGW7
  6
CONTINUOUS
 62
     4
100
AcDbLine
 10
12.35905378950938
 20
118.1886712515612
 30
0.0
 11
-43.14094621049064
 21
118.1886712515612
 31
0.0
  0
LINE
  5
E9
330
A
100
AcDbEntity
  8
MGW7
  6
CONTINUOUS
 62
     4
100
AcDbLine
 10
12.35905378950938
 20
116.9517395638759
 30
0.0
 11
-43.14094621049062
 21
116.9517395638759
 31
0.0
  0
ARC
  5
128
330
A
100
AcDbEntity
  8
MGW7
  6
CONTINUOUS
 62
     4
100
AcDbCircle
 10
-73.00458582049083
 20
117.5702054077185
 30
0.0
 40
0.8
100
AcDbArc
 50
301.0078241343951
 51
330.0000000000009
  0
ARC
  5
129
330
A
100
AcDbEntity
  8
MGW7
  6
CONTINUOUS
 62
     4
100
AcDbCircle
 10
-73.00458582049083
 20
117.5702054077185
 30
0.0
 40
0.8
100
AcDbArc
 50
29.99999999999832
 51
58.99217586560443
  0
ARC
  5
12A
330
A
100
AcDbEntity
  8
MGW7
  6
CONTINUOUS
 62
     4
100
AcDbCircle
 10
-72.54094621049074
 20
118.3415926723522
 30
0.0
 40
0.1
100
AcDbArc
 50
180.0000000000162
 51
238.9921758655983
  0
ARC
  5
12B
330
A
100
AcDbEntity
  8
MGW7
  6
CONTINUOUS
 62
     4
100
AcDbCircle
 10
-72.22516295708482
 20
118.0202054077185
 30
0.0
 40
0.1
100
AcDbArc
 50
209.9999999999895
 51
270.0
  0
ARC
  5
12C
330
A
100
AcDbEntity
  8
MGW7
  6
CONTINUOUS
 62
     4
100
AcDbCircle
 10
-72.22516295708482
 20
117.1202054077186
 30
0.0
 40
0.1
100
AcDbArc
 50
89.99999999999186
 51
149.9999999999991
  0
ARC
  5
12D
330
A
100
AcDbEntity
  8
MGW7
  6
CONTINUOUS
 62
     4
100
AcDbCircle
 10
-72.54094621049077
 20
116.7988181430849
 30
0.0
 40
0.1
100
AcDbArc
 50
121.0078241343861
 51
180.0000000000081
  0
ARC
  5
12E
330
A
100
AcDbEntity
  8
MGW7
  6
CONTINUOUS
 62
     4
100
AcDbCircle
 10
-58.27730660049062
 20
117.5702054077185
 30
0.0
 40
0.8
100
AcDbArc
 50
209.9999999999983
 51
238.9921758656051
  0
ARC
  5
12F
330
A
100
AcDbEntity
  8
MGW7
  6
CONTINUOUS
 62
     4
100
AcDbCircle
 10
-58.27730660049062
 20
117.5702054077185
 30
0.0
 40
0.8
100
AcDbArc
 50
121.0078241343955
 51
150.0000000000019
  0
ARC
  5
130
330
A
100
AcDbEntity
  8
MGW7
  6
CONTINUOUS
 62
     4
100
AcDbCircle
 10
-58.74094621049071
 20
118.3415926723522
 30
0.0
 40
0.1
100
AcDbArc
 50
301.0078241344014
 51
359.9999999999837
  0
ARC
  5
131
330
A
100
AcDbEntity
  8
MGW7
  6
CONTINUOUS
 62
     4
100
AcDbCircle
 10
-59.05672946389663
 20
118.0202054077185
 30
0.0
 40
0.1
100
AcDbArc
 50
270.0
 51
330.0000000000102
  0
ARC
  5
132
330
A
100
AcDbEntity
  8
MGW7
  6
CONTINUOUS
 62
     4
100
AcDbCircle
 10
-59.05672946389663
 20
117.1202054077186
 30
0.0
 40
0.1
100
AcDbArc
 50
30.00000000000084
 51
90.00000000000815
  0
ARC
  5
133
330
A
100
AcDbEntity
  8
MGW7
  6
CONTINUOUS
 62
     4
100
AcDbCircle
 10
-58.74094621049067
 20
116.7988181430849
 30
0.0
 40
0.1
100
AcDbArc
 50
359.9999999999918
 51
418.9921758656135
  0
LINE
  5
154
330
A
100
AcDbEntity
  8
MGW7
  6
CENTER
 62
   252
100
AcDbLine
 10
-6.890946210490625
 20
150.4702054077186
 30
0.0
 11
0.6090537895093782
 21
150.4702054077186
 31
0.0
  0
CIRCLE
  5
155
330
A
100
AcDbEntity
  8
MGW7
  6
CONTINUOUS
 62
     4
100
AcDbCircle
 10
-3.140946210490625
 20
150.4702054077186
 30
0.0000000000000142
 40
1.75
  0
CIRCLE
  5
156
330
A
100
AcDbEntity
  8
MGW7
  6
CONTINUOUS
 62
     4
100
AcDbCircle
 10
-3.140946210490625
 20
150.4702054077186
 30
0.0000000000000142
 40
3.0
  0
LINE
  5
157
330
A
100
AcDbEntity
  8
MGW7
  6
CENTER
 62
   252
100
AcDbLine
 10
-3.140946210490625
 20
154.2202054077185
 30
0.0
 11
-3.140946210490625
 21
146.7202054077185
 31
0.0
  0
LINE
  5
169
330
A
100
AcDbEntity
  8
MGW7
  6
DASHED
 62
   252
100
AcDbLine
 10
-0.1409462104906112
 20
118.9702054077185
 30
0.0
 11
-6.140946210490611
 21
118.9702054077185
 31
0.0
  0
LINE
  5
16A
330
A
100
AcDbEntity
  8
MGW7
  6
DASHED
 62
   252
100
AcDbLine
 10
-1.390946210490611
 20
114.2702054077185
 30
0.0
 11
-4.890946210490611
 21
114.2702054077185
 31
0.0
  0
LINE
  5
16B
330
A
100
AcDbEntity
  8
MGW7
  6
DASHED
 62
   252
100
AcDbLine
 10
-6.140946210490611
 20
115.9702054077185
 30
0.0
 11
-0.1409462104906112
 21
115.9702054077185
 31
0.0
  0
LINE
  5
16C
330
A
100
AcDbEntity
  8
MGW7
  6
DASHED
 62
   252
100
AcDbLine
 10
-6.140946210490611
 20
118.9702054077185
 30
0.0
 11
-6.140946210490611
 21
115.9702054077185
 31
0.0
  0
LINE
  5
16D
330
A
100
AcDbEntity
  8
MGW7
  6
DASHED
 62
   252
100
AcDbLine
 10
-4.890946210490611
 20
114.2702054077185
 30
0.0
 11
-5.190946210490608
 21
113.9702054077185
 31
0.0
  0
LINE
  5
16E
330
A
100
AcDbEntity
  8
MGW7
  6
DASHED
 62
   252
100
AcDbLine
 10
-4.890946210490611
 20
115.9702054077185
 30
0.0
 11
-4.890946210490611
 21
114.2702054077185
 31
0.0
  0
LINE
  5
16F
330
A
100
AcDbEntity
  8
MGW7
  6
DASHED
 62
   252
100
AcDbLine
 10
-6.256416264328535
 20
119.1702054077185
 30
0.0
 11
-6.140946210490611
 21
118.9702054077185
 31
0.0
  0
LINE
  5
170
330
A
100
AcDbEntity
  8
MGW7
  6
CENTER
 62
   252
100
AcDbLine
 10
-3.140946210490625
 20
113.4667038447934
 30
0.0
 11
-3.140946210490625
 21
119.6737069706436
 31
0.0
  0
LINE
  5
171
330
A
100
AcDbEntity
  8
MGW7
  6
DASHED
 62
   252
100
AcDbLine
 10
-0.1409462104906112
 20
118.9702054077185
 30
0.0
 11
-0.1409462104906112
 21
115.9702054077185
 31
0.0
  0
LINE
  5
172
330
A
100
AcDbEntity
  8
MGW7
  6
DASHED
 62
   252
100
AcDbLine
 10
-1.390946210490611
 20
114.2702054077185
 30
0.0
 11
-1.090946210490614
 21
113.9702054077185
 31
0.0
  0
LINE
  5
173
330
A
100
AcDbEntity
  8
MGW7
  6
DASHED
 62
   252
100
AcDbLine
 10
-1.390946210490611
 20
115.9702054077185
 30
0.0
 11
-1.390946210490611
 21
114.2702054077185
 31
0.0
  0
LINE
  5
174
330
A
100
AcDbEntity
  8
MGW7
  6
DASHED
 62
   252
100
AcDbLine
 10
-0.0254761566526867
 20
119.1702054077185
 30
0.0
 11
-0.1409462104906112
 21
118.9702054077185
 31
0.0
  0
LINE
  5
187
330
A
100
AcDbEntity
  8
MGW7
  6
DASHED
 62
   252
100
AcDbLine
 10
29.85905378950938
 20
118.9702054077185
 30
0.0
 11
23.85905378950938
 21
118.9702054077185
 31
0.0
  0
LINE
  5
188
330
A
100
AcDbEntity
  8
MGW7
  6
DASHED
 62
   252
100
AcDbLine
 10
28.60905378950938
 20
114.2702054077185
 30
0.0
 11
25.10905378950939
 21
114.2702054077185
 31
0.0
  0
LINE
  5
189
330
A
100
AcDbEntity
  8
MGW7
  6
DASHED
 62
   252
100
AcDbLine
 10
23.85905378950938
 20
115.9702054077185
 30
0.0
 11
29.85905378950938
 21
115.9702054077185
 31
0.0
  0
LINE
  5
18A
330
A
100
AcDbEntity
  8
MGW7
  6
DASHED
 62
   252
100
AcDbLine
 10
23.85905378950938
 20
118.9702054077185
 30
0.0
 11
23.85905378950938
 21
115.9702054077185
 31
0.0
  0
LINE
  5
18B
330
A
100
AcDbEntity
  8
MGW7
  6
DASHED
 62
   252
100
AcDbLine
 10
25.10905378950939
 20
114.2702054077185
 30
0.0
 11
24.80905378950939
 21
113.9702054077185
 31
0.0
  0
LINE
  5
18C
330
A
100
AcDbEntity
  8
MGW7
  6
DASHED
 62
   252
100
AcDbLine
 10
25.10905378950939
 20
115.9702054077185
 30
0.0
 11
25.10905378950939
 21
114.2702054077185
 31
0.0
  0
LINE
  5
18D
330
A
100
AcDbEntity
  8
MGW7
  6
DASHED
 62
   252
100
AcDbLine
 10
23.74358373567146
 20
119.1702054077185
 30
0.0
 11
23.85905378950938
 21
118.9702054077185
 31
0.0
  0
LINE
  5
18E
330
A
100
AcDbEntity
  8
MGW7
  6
CENTER
 62
   252
100
AcDbLine
 10
26.85905378950937
 20
113.4667038447934
 30
0.0
 11
26.85905378950937
 21
119.6737069706436
 31
0.0
  0
LINE
  5
18F
330
A
100
AcDbEntity
  8
MGW7
  6
DASHED
 62
   252
100
AcDbLine
 10
29.85905378950938
 20
118.9702054077185
 30
0.0
 11
29.85905378950938
 21
115.9702054077185
 31
0.0
  0
LINE
  5
190
330
A
100
AcDbEntity
  8
MGW7
  6
DASHED
 62
   252
100
AcDbLine
 10
28.60905378950938
 20
114.2702054077185
 30
0.0
 11
28.90905378950938
 21
113.9702054077185
 31
0.0
  0
LINE
  5
191
330
A
100
AcDbEntity
  8
MGW7
  6
DASHED
 62
   252
100
AcDbLine
 10
28.60905378950938
 20
115.9702054077185
 30
0.0
 11
28.60905378950938
 21
114.2702054077185
 31
0.0
  0
LINE
  5
192
330
A
100
AcDbEntity
  8
MGW7
  6
DASHED
 62
   252
100
AcDbLine
 10
29.97452384334731
 20
119.1702054077185
 30
0.0
 11
29.85905378950938
 21
118.9702054077185
 31
0.0
  0
ENDSEC
  0
SECTION
  2
OBJECTS
  0
DICTIONARY
  5
19
330
0
100
AcDbDictionary
  3
ACAD_GROUP
350
1A
  3
ACAD_LAYOUT
350
13F
  3
ACAD_MLINESTYLE
350
1B
  3
ACAD_PLOTSETTINGS
350
140
  3
ACAD_PLOTSTYLENAME
350
13D
  3
ACDBHEADERROUNDTRIPXREC
350
19B
  0
DICTIONARY
  5
1BB
330
A
100
AcDbDictionary
280
     1
  3
ACAD_LAYOUTSELFREF
360
1BC
  0
DICTIONARY
  5
1BD
330
B
100
AcDbDictionary
280
     1
  3
ACAD_LAYOUTSELFREF
360
1BE
  0
DICTIONARY
  5
1A
102
{ACAD_REACTORS
330
19
102
}
330
19
100
AcDbDictionary
  0
DICTIONARY
  5
13F
102
{ACAD_REACTORS
330
19
102
}
330
19
100
AcDbDictionary
  0
DICTIONARY
  5
1B
102
{ACAD_REACTORS
330
19
102
}
330
19
100
AcDbDictionary
  3
STANDARD
350
1C
  0
DICTIONARY
  5
140
102
{ACAD_REACTORS
330
19
102
}
330
19
100
AcDbDictionary
  0
ACDBDICTIONARYWDFLT
  5
13D
102
{ACAD_REACTORS
330
19
102
}
330
19
100
AcDbDictionary
281
     1
  3
Normal
350
13E
100
AcDbDictionaryWithDefault
340
13E
  0
DICTIONARY
  5
19B
102
{ACAD_REACTORS
330
19
102
}
330
19
100
AcDbDictionary
  3
CEPSNTYPE
350
1A5
  3
FINGERPRINTGUID
350
1A6
  3
HYPERLINKBASE
350
19E
  3
INSUNITS
350
1A4
  3
LAYOUTDICT
350
1A0
  3
LWETCUNION
350
1A3
  3
PLOTSETDICT
350
1A1
  3
PLOTSTYLNAMDICT
350
1A2
  3
PSVPSCALE
350
1A8
  3
PUCSBASE
350
1AB
  3
PUCSORGBACK
350
1B1
  3
PUCSORGBOTTOM
350
1AD
  3
PUCSORGFRONT
350
1B0
  3
PUCSORGLEFT
350
1AE
  3
PUCSORGRIGHT
350
1AF
  3
PUCSORGTOP
350
1AC
  3
PUCSORTHOREF
350
1A9
  3
PUCSORTHOVIEW
350
1AA
  3
STYLESHEET
350
19F
  3
TSTACKALIGN
350
19C
  3
TSTACKSIZE
350
19D
  3
UCSBASE
350
1B4
  3
UCSORGBACK
350
1BA
  3
UCSORGBOTTOM
350
1B6
  3
UCSORGFRONT
350
1B9
  3
UCSORGLEFT
350
1B7
  3
UCSORGRIGHT
350
1B8
  3
UCSORGTOP
350
1B5
  3
UCSORTHOREF
350
1B2
  3
UCSORTHOVIEW
350
1B3
  3
VERSIONGUID
350
1A7
  0
XRECORD
  5
1BC
102
{ACAD_REACTORS
330
1BB
102
}
330
1BB
100
AcDbXrecord
340
A
  0
XRECORD
  5
1BE
102
{ACAD_REACTORS
330
1BD
102
}
330
1BD
100
AcDbXrecord
340
B
  0
MLINESTYLE
  5
1C
102
{ACAD_REACTORS
330
1B
102
}
330
1B
100
AcDbMlineStyle
  2
STANDARD
 70
     0
  3

 62
     0
 51
90.00000000000019
 52
90.00000000000019
 71
     2
 49
0.5
 62
   256
  6
BYLAYER
 49
-0.5
 62
   256
  6
BYLAYER
  0
ACDBPLACEHOLDER
  5
13E
102
{ACAD_REACTORS
330
13D
102
}
330
13D
100
AcDbPlaceHolder
280
     0
  0
XRECORD
  5
1A5
102
{ACAD_REACTORS
330
19B
102
}
330
19B
100
AcDbXrecord
 90
        0
  0
XRECORD
  5
1A6
102
{ACAD_REACTORS
330
19B
102
}
330
19B
100
AcDbXrecord
  1
{2F04B080-26A7-11D6-8687-00A024540C4A}
  0
XRECORD
  5
19E
102
{ACAD_REACTORS
330
19B
102
}
330
19B
100
AcDbXrecord
  1

  0
XRECORD
  5
1A4
102
{ACAD_REACTORS
330
19B
102
}
330
19B
100
AcDbXrecord
 90
        0
  0
XRECORD
  5
1A0
102
{ACAD_REACTORS
330
19B
102
}
330
19B
100
AcDbXrecord
340
13F
  0
XRECORD
  5
1A3
102
{ACAD_REACTORS
330
19B
102
}
330
19B
100
AcDbXrecord
 90
    14877
  0
XRECORD
  5
1A1
102
{ACAD_REACTORS
330
19B
102
}
330
19B
100
AcDbXrecord
340
140
  0
XRECORD
  5
1A2
102
{ACAD_REACTORS
330
19B
102
}
330
19B
100
AcDbXrecord
340
13D
  0
XRECORD
  5
1A8
102
{ACAD_REACTORS
330
19B
102
}
330
19B
100
AcDbXrecord
 40
0.0
  0
XRECORD
  5
1AB
102
{ACAD_REACTORS
330
19B
102
}
330
19B
100
AcDbXrecord
340
0
  0
XRECORD
  5
1B1
102
{ACAD_REACTORS
330
19B
102
}
330
19B
100
AcDbXrecord
 10
0.0
 20
0.0
 30
0.0
  0
XRECORD
  5
1AD
102
{ACAD_REACTORS
330
19B
102
}
330
19B
100
AcDbXrecord
 10
0.0
 20
0.0
 30
0.0
  0
XRECORD
  5
1B0
102
{ACAD_REACTORS
330
19B
102
}
330
19B
100
AcDbXrecord
 10
0.0
 20
0.0
 30
0.0
  0
XRECORD
  5
1AE
102
{ACAD_REACTORS
330
19B
102
}
330
19B
100
AcDbXrecord
 10
0.0
 20
0.0
 30
0.0
  0
XRECORD
  5
1AF
102
{ACAD_REACTORS
330
19B
102
}
330
19B
100
AcDbXrecord
 10
0.0
 20
0.0
 30
0.0
  0
XRECORD
  5
1AC
102
{ACAD_REACTORS
330
19B
102
}
330
19B
100
AcDbXrecord
 10
0.0
 20
0.0
 30
0.0
  0
XRECORD
  5
1A9
102
{ACAD_REACTORS
330
19B
102
}
330
19B
100
AcDbXrecord
340
0
  0
XRECORD
  5
1AA
102
{ACAD_REACTORS
330
19B
102
}
330
19B
100
AcDbXrecord
 70
     0
  0
XRECORD
  5
19F
102
{ACAD_REACTORS
330
19B
102
}
330
19B
100
AcDbXrecord
  1

  0
XRECORD
  5
19C
102
{ACAD_REACTORS
330
19B
102
}
330
19B
100
AcDbXrecord
 90
        1
  0
XRECORD
  5
19D
102
{ACAD_REACTORS
330
19B
102
}
330
19B
100
AcDbXrecord
 90
       70
  0
XRECORD
  5
1B4
102
{ACAD_REACTORS
330
19B
102
}
330
19B
100
AcDbXrecord
340
0
  0
XRECORD
  5
1BA
102
{ACAD_REACTORS
330
19B
102
}
330
19B
100
AcDbXrecord
 10
0.0
 20
0.0
 30
0.0
  0
XRECORD
  5
1B6
102
{ACAD_REACTORS
330
19B
102
}
330
19B
100
AcDbXrecord
 10
0.0
 20
0.0
 30
0.0
  0
XRECORD
  5
1B9
102
{ACAD_REACTORS
330
19B
102
}
330
19B
100
AcDbXrecord
 10
0.0
 20
0.0
 30
0.0
  0
XRECORD
  5
1B7
102
{ACAD_REACTORS
330
19B
102
}
330
19B
100
AcDbXrecord
 10
0.0
 20
0.0
 30
0.0
  0
XRECORD
  5
1B8
102
{ACAD_REACTORS
330
19B
102
}
330
19B
100
AcDbXrecord
 10
0.0
 20
0.0
 30
0.0
  0
XRECORD
  5
1B5
102
{ACAD_REACTORS
330
19B
102
}
330
19B
100
AcDbXrecord
 10
0.0
 20
0.0
 30
0.0
  0
XRECORD
  5
1B2
102
{ACAD_REACTORS
330
19B
102
}
330
19B
100
AcDbXrecord
340
0
  0
XRECORD
  5
1B3
102
{ACAD_REACTORS
330
19B
102
}
330
19B
100
AcDbXrecord
 70
     0
  0
XRECORD
  5
1A7
102
{ACAD_REACTORS
330
19B
102
}
330
19B
100
AcDbXrecord
  1
{C384AA90-7F65-11D6-86EB-00A024540C4A}
  0
ENDSEC
  0
EOF
