  0
SECTION
  2
HEADER
  9
$ACADVER
  1
AC1014
  9
$ACADMAINTVER
 70
     9
  9
$DWGCODEPAGE
  3
ANSI_1252
  9
$INSBASE
 10
0.0
 20
0.0
 30
0.0
  9
$EXTMIN
 10
-0.0207608223472868
 20
-1.25
 30
0.0
  9
$EXTMAX
 10
104.3789573110288
 20
44.499997
 30
0.0
  9
$LIMMIN
 10
0.0
 20
0.0
  9
$LIMMAX
 10
0.0
 20
0.0
  9
$ORTHOMODE
 70
     1
  9
$REGENMODE
 70
     1
  9
$FILLMODE
 70
     1
  9
$QTEXTMODE
 70
     0
  9
$MIRRTEXT
 70
     1
  9
$DRAGMODE
 70
     2
  9
$LTSCALE
 40
1.0
  9
$OSMODE
 70
    37
  9
$ATTMODE
 70
     1
  9
$TEXTSIZE
 40
0.0
  9
$TRACEWID
 40
0.05
  9
$TEXTSTYLE
  7
STANDARD
  9
$CLAYER
  8
0
  9
$CELTYPE
  6
DASHED
  9
$CECOLOR
 62
     7
  9
$CELTSCALE
 40
1.0
  9
$DELOBJ
 70
     1
  9
$DISPSILH
 70
     0
  9
$DIMSCALE
 40
1.0
  9
$DIMASZ
 40
0.18
  9
$DIMEXO
 40
0.0625
  9
$DIMDLI
 40
0.38
  9
$DIMRND
 40
0.0
  9
$DIMDLE
 40
0.0
  9
$DIMEXE
 40
0.25
  9
$DIMTP
 40
0.1
  9
$DIMTM
 40
-0.1
  9
$DIMTXT
 40
2.5
  9
$DIMCEN
 40
0.09
  9
$DIMTSZ
 40
0.0
  9
$DIMTOL
 70
     0
  9
$DIMLIM
 70
     0
  9
$DIMTIH
 70
     1
  9
$DIMTOH
 70
     1
  9
$DIMSE1
 70
     0
  9
$DIMSE2
 70
     0
  9
$DIMTAD
 70
     0
  9
$DIMZIN
 70
     0
  9
$DIMBLK
  1

  9
$DIMASO
 70
     1
  9
$DIMSHO
 70
     1
  9
$DIMPOST
  1

  9
$DIMAPOST
  1

  9
$DIMALT
 70
     0
  9
$DIMALTD
 70
     2
  9
$DIMALTF
 40
25.4
  9
$DIMLFAC
 40
1.0
  9
$DIMTOFL
 70
     0
  9
$DIMTVP
 40
0.0
  9
$DIMTIX
 70
     0
  9
$DIMSOXD
 70
     0
  9
$DIMSAH
 70
     0
  9
$DIMBLK1
  1

  9
$DIMBLK2
  1

  9
$DIMSTYLE
  2
STANDARD
  9
$DIMCLRD
 70
     0
  9
$DIMCLRE
 70
     0
  9
$DIMCLRT
 70
     4
  9
$DIMTFAC
 40
0.7
  9
$DIMGAP
 40
0.09
  9
$DIMJUST
 70
     0
  9
$DIMSD1
 70
     0
  9
$DIMSD2
 70
     0
  9
$DIMTOLJ
 70
     1
  9
$DIMTZIN
 70
     0
  9
$DIMALTZ
 70
     0
  9
$DIMALTTZ
 70
     0
  9
$DIMFIT
 70
     3
  9
$DIMUPT
 70
     0
  9
$DIMUNIT
 70
     2
  9
$DIMDEC
 70
     4
  9
$DIMTDEC
 70
     4
  9
$DIMALTU
 70
     2
  9
$DIMALTTD
 70
     2
  9
$DIMTXSTY
  7
STANDARD
  9
$DIMAUNIT
 70
     0
  9
$LUNITS
 70
     2
  9
$LUPREC
 70
    10
  9
$SKETCHINC
 40
0.1
  9
$FILLETRAD
 40
0.0
  9
$AUNITS
 70
     0
  9
$AUPREC
 70
     0
  9
$MENU
  1
acad
  9
$ELEVATION
 40
0.0
  9
$PELEVATION
 40
0.0
  9
$THICKNESS
 40
0.0
  9
$LIMCHECK
 70
     0
  9
$BLIPMODE
 70
     0
  9
$CHAMFERA
 40
0.0
  9
$CHAMFERB
 40
0.0
  9
$CHAMFERC
 40
0.0
  9
$CHAMFERD
 40
0.0
  9
$SKPOLY
 70
     0
  9
$TDCREATE
 40
2444972.083333333
  9
$TDUPDATE
 40
2452443.351987361
  9
$TDINDWG
 40
0.0115487731
  9
$TDUSRTIMER
 40
0.0115487731
  9
$USRTIMER
 70
     1
  9
$ANGBASE
 50
0.0
  9
$ANGDIR
 70
     0
  9
$PDMODE
 70
     2
  9
$PDSIZE
 40
0.0
  9
$PLINEWID
 40
0.0
  9
$COORDS
 70
     1
  9
$SPLFRAME
 70
     0
  9
$SPLINETYPE
 70
     6
  9
$SPLINESEGS
 70
     8
  9
$ATTDIA
 70
     0
  9
$ATTREQ
 70
     1
  9
$HANDLING
 70
-16383
  9
$HANDSEED
  5
1A1
  9
$SURFTAB1
 70
     6
  9
$SURFTAB2
 70
     6
  9
$SURFTYPE
 70
     6
  9
$SURFU
 70
     6
  9
$SURFV
 70
     6
  9
$UCSNAME
  2

  9
$UCSORG
 10
0.0
 20
0.0
 30
0.0
  9
$UCSXDIR
 10
1.0
 20
0.0
 30
0.0
  9
$UCSYDIR
 10
0.0
 20
1.0
 30
0.0
  9
$PUCSNAME
  2

  9
$PUCSORG
 10
0.0
 20
0.0
 30
0.0
  9
$PUCSXDIR
 10
1.0
 20
0.0
 30
0.0
  9
$PUCSYDIR
 10
0.0
 20
1.0
 30
0.0
  9
$USERI1
 70
     0
  9
$USERI2
 70
     0
  9
$USERI3
 70
     0
  9
$USERI4
 70
     0
  9
$USERI5
 70
     0
  9
$USERR1
 40
0.0
  9
$USERR2
 40
0.0
  9
$USERR3
 40
0.0
  9
$USERR4
 40
0.0
  9
$USERR5
 40
0.0
  9
$WORLDVIEW
 70
     1
  9
$SHADEDGE
 70
     3
  9
$SHADEDIF
 70
    70
  9
$TILEMODE
 70
     1
  9
$MAXACTVP
 70
    16
  9
$PINSBASE
 10
0.0
 20
0.0
 30
0.0
  9
$PLIMCHECK
 70
     0
  9
$PEXTMIN
 10
1.000000000000000E+20
 20
1.000000000000000E+20
 30
1.000000000000000E+20
  9
$PEXTMAX
 10
-1.000000000000000E+20
 20
-1.000000000000000E+20
 30
-1.000000000000000E+20
  9
$PLIMMIN
 10
0.0
 20
0.0
  9
$PLIMMAX
 10
12.0
 20
9.0
  9
$UNITMODE
 70
     0
  9
$VISRETAIN
 70
     0
  9
$PLINEGEN
 70
     1
  9
$PSLTSCALE
 70
     0
  9
$TREEDEPTH
 70
  3020
  9
$PICKSTYLE
 70
     1
  9
$CMLSTYLE
  2
STANDARD
  9
$CMLJUST
 70
     0
  9
$CMLSCALE
 40
1.0
  9
$PROXYGRAPHICS
 70
     1
  9
$MEASUREMENT
 70
     0
  0
ENDSEC
  0
SECTION
  2
CLASSES
  0
CLASS
  1
LWPOLYLINE
  2
AcDbPolyline
  3
AutoCAD 2000
 90
        0
280
     0
281
     1
  0
CLASS
  1
IMAGE
  2
AcDbRasterImage
  3
ISM
 90
      127
280
     0
281
     1
  0
CLASS
  1
OLE2FRAME
  2
AcDbOle2Frame
  3
AutoCAD 2000
 90
        0
280
     0
281
     1
  0
CLASS
  1
HATCH
  2
AcDbHatch
  3
AutoCAD 2000
 90
        0
280
     0
281
     1
  0
CLASS
  1
DICTIONARYVAR
  2
AcDbDictionaryVar
  3
AutoCAD 2000
 90
        0
280
     0
281
     0
  0
CLASS
  1
RASTERVARIABLES
  2
AcDbRasterVariables
  3
ISM
 90
        0
280
     0
281
     0
  0
CLASS
  1
IMAGEDEF
  2
AcDbRasterImageDef
  3
ISM
 90
        0
280
     0
281
     0
  0
CLASS
  1
IMAGEDEF_REACTOR
  2
AcDbRasterImageDefReactor
  3
ISM
 90
        1
280
     0
281
     0
  0
CLASS
  1
IDBUFFER
  2
AcDbIdBuffer
  3
AutoCAD 2000
 90
        0
280
     0
281
     0
  0
CLASS
  1
SPATIAL_FILTER
  2
AcDbSpatialFilter
  3
AutoCAD 2000
 90
        0
280
     0
281
     0
  0
CLASS
  1
XRECORD
  2
AcDbXrecord
  3
AutoCAD 2000
 90
        0
280
     0
281
     0
  0
CLASS
  1
SORTENTSTABLE
  2
AcDbSortentsTable
  3
AutoCAD 2000
 90
        0
280
     0
281
     0
  0
CLASS
  1
LAYER_INDEX
  2
AcDbLayerIndex
  3
AutoCAD 2000
 90
        0
280
     0
281
     0
  0
CLASS
  1
SPATIAL_INDEX
  2
AcDbSpatialIndex
  3
AutoCAD 2000
 90
        0
280
     0
281
     0
  0
CLASS
  1
OBJECT_PTR
  2
CAseDLPNTableRecord
  3
"ASE-LPNTableRecord"
 90
        0
280
     0
281
     0
  0
CLASS
  1
ACDBDICTIONARYWDFLT
  2
AcDbDictionaryWithDefault
  3
AutoCAD 2000
 90
        0
280
     0
281
     0
  0
CLASS
  1
ACDBPLACEHOLDER
  2
AcDbPlaceHolder
  3
AutoCAD 2000
 90
        0
280
     0
281
     0
  0
CLASS
  1
LAYOUT
  2
AcDbLayout
  3
AutoCAD 2000
 90
        0
280
     0
281
     0
  0
CLASS
  1
LONG_TRANSACTION
  2
AcDbLongTransaction
  3
AutoCAD 2000
 90
        0
280
     0
281
     0
  0
CLASS
  1
LWPOLYLINE
  2
AcDbPolyline
  3
AutoCAD 2000
 90
        0
280
     0
281
     1
  0
CLASS
  1
HATCH
  2
AcDbHatch
  3
AutoCAD 2000
 90
        0
280
     0
281
     1
  0
CLASS
  1
XRECORD
  2
AcDbXrecord
  3
AutoCAD 2000
 90
        0
280
     0
281
     0
  0
ENDSEC
  0
SECTION
  2
TABLES
  0
TABLE
  2
VPORT
  5
7
330
0
100
AcDbSymbolTable
 70
     2
  0
VPORT
  5
17C
330
7
100
AcDbSymbolTableRecord
100
AcDbViewportTableRecord
  2
*ACTIVE
 70
     0
 10
0.0
 20
0.0
 11
1.0
 21
1.0
 12
52.18075233988447
 22
21.62510206079986
 13
0.0
 23
0.0
 14
1.0
 24
1.0
 15
0.0
 25
0.0
 16
0.0
 26
0.0
 36
1.0
 17
0.0
 27
0.0
 37
0.0
 40
61.25237621647023
 41
1.714285714285714
 42
50.0
 43
0.0
 44
0.0
 50
0.0
 51
0.0
 71
     0
 72
   100
 73
     1
 74
     1
 75
     0
 76
     0
 77
     0
 78
     0
  0
ENDTAB
  0
TABLE
  2
LTYPE
  5
4
330
0
100
AcDbSymbolTable
 70
     4
  0
LTYPE
  5
11
330
4
100
AcDbSymbolTableRecord
100
AcDbLinetypeTableRecord
  2
BYBLOCK
 70
     0
  3

 72
    65
 73
     0
 40
0.0
  0
LTYPE
  5
12
330
4
100
AcDbSymbolTableRecord
100
AcDbLinetypeTableRecord
  2
BYLAYER
 70
     0
  3

 72
    65
 73
     0
 40
0.0
  0
LTYPE
  5
13
330
4
100
AcDbSymbolTableRecord
100
AcDbLinetypeTableRecord
  2
CONTINUOUS
 70
     0
  3
Solid line
 72
    65
 73
     0
 40
0.0
  0
LTYPE
  5
1D
330
4
100
AcDbSymbolTableRecord
100
AcDbLinetypeTableRecord
  2
DASHED
 70
     0
  3
_ _ _ _ _ _ _ _ _ _ _ _ _ _ _ _
 72
    65
 73
     2
 40
0.2
 49
0.1
 74
     0
 49
-0.1
 74
     0
  0
LTYPE
  5
1E
330
4
100
AcDbSymbolTableRecord
100
AcDbLinetypeTableRecord
  2
CENTER
 70
     0
  3
___ _ ___ _ ___ _ ___ _ ___ _ ___ _ ___ _ ___ _
 72
    65
 73
     4
 40
0.95
 49
0.625
 74
     0
 49
-0.125
 74
     0
 49
0.075
 74
     0
 49
-0.125
 74
     0
  0
LTYPE
  5
1F
330
4
100
AcDbSymbolTableRecord
100
AcDbLinetypeTableRecord
  2
PHANTOM
 70
     0
  3
______  __  __  ______  __  __  ______  __  __  
 72
    65
 73
     6
 40
1.024999999999999
 49
0.625
 74
     0
 49
-0.125
 74
     0
 49
0.075
 74
     0
 49
-0.125
 74
     0
 49
0.075
 74
     0
 49
-0.125
 74
     0
  0
ENDTAB
  0
TABLE
  2
LAYER
  5
2
330
0
100
AcDbSymbolTable
 70
     2
  0
LAYER
  5
14
330
2
100
AcDbSymbolTableRecord
100
AcDbLayerTableRecord
  2
0
 70
     0
 62
     7
  6
CONTINUOUS
  0
LAYER
  5
21
330
2
100
AcDbSymbolTableRecord
100
AcDbLayerTableRecord
  2
CK_LEVEL_1
 70
     0
 62
     7
  6
CONTINUOUS
  0
ENDTAB
  0
TABLE
  2
STYLE
  5
3
330
0
100
AcDbSymbolTable
 70
     1
  0
STYLE
  5
17
330
3
100
AcDbSymbolTableRecord
100
AcDbTextStyleTableRecord
  2
STANDARD
 70
     0
 40
0.0
 41
1.0
 50
0.0
 71
     0
 42
0.0
  3
txt
  4

  0
ENDTAB
  0
TABLE
  2
VIEW
  5
5
330
0
100
AcDbSymbolTable
 70
     0
  0
ENDTAB
  0
TABLE
  2
UCS
  5
6
330
0
100
AcDbSymbolTable
 70
     1
  0
UCS
  5
20
330
6
100
AcDbSymbolTableRecord
100
AcDbUCSTableRecord
  2
CK_VIEW_1
 70
     0
 10
0.0
 20
0.0
 30
1.0
 11
1.0
 21
0.0
 31
0.0
 12
0.0
 22
1.0
 32
0.0
  0
ENDTAB
  0
TABLE
  2
APPID
  5
8
330
0
100
AcDbSymbolTable
 70
     1
  0
APPID
  5
16
330
8
100
AcDbSymbolTableRecord
100
AcDbRegAppTableRecord
  2
ACAD
 70
     0
  0
ENDTAB
  0
TABLE
  2
DIMSTYLE
  5
9
330
0
100
AcDbSymbolTable
 70
     1
  0
DIMSTYLE
105
18
330
9
100
AcDbSymbolTableRecord
100
AcDbDimStyleTableRecord
  2
STANDARD
 70
     0
  3

  4

  5

  6

  7

 40
1.0
 41
0.18
 42
0.0625
 43
0.38
 44
0.18
 45
0.0
 46
0.0
 47
0.0
 48
0.0
140
0.18
141
0.09
142
0.0
143
25.4
144
1.0
145
0.0
146
1.0
147
0.09
 71
     0
 72
     0
 73
     1
 74
     1
 75
     0
 76
     0
 77
     0
 78
     0
170
     0
171
     2
172
     0
173
     0
174
     0
175
     0
176
     0
177
     0
178
     0
270
     2
271
     4
272
     4
273
     2
274
     2
340
17
275
     0
280
     0
281
     0
282
     0
283
     1
284
     0
285
     0
286
     0
287
     0
288
     0
  0
ENDTAB
  0
TABLE
  2
BLOCK_RECORD
  5
1
330
0
100
AcDbSymbolTable
 70
     0
  0
BLOCK_RECORD
  5
A
102
{ACAD_XDICTIONARY
360
19D
102
}
330
1
100
AcDbSymbolTableRecord
100
AcDbBlockTableRecord
  2
*MODEL_SPACE
  0
BLOCK_RECORD
  5
B
102
{ACAD_XDICTIONARY
360
19F
102
}
330
1
100
AcDbSymbolTableRecord
100
AcDbBlockTableRecord
  2
*PAPER_SPACE
  0
ENDTAB
  0
ENDSEC
  0
SECTION
  2
BLOCKS
  0
BLOCK
  5
D
330
A
100
AcDbEntity
  8
0
100
AcDbBlockBegin
  2
*MODEL_SPACE
 70
     0
 10
0.0
 20
0.0
 30
0.0
  3
*MODEL_SPACE
  1

  0
ENDBLK
  5
E
330
A
100
AcDbEntity
  8
0
100
AcDbBlockEnd
  0
BLOCK
  5
F
330
B
100
AcDbEntity
 67
     1
  8
0
100
AcDbBlockBegin
  2
*PAPER_SPACE
 70
     0
 10
0.0
 20
0.0
 30
0.0
  3
*PAPER_SPACE
  1

  0
ENDBLK
  5
10
330
B
100
AcDbEntity
 67
     1
  8
0
100
AcDbBlockEnd
  0
ENDSEC
  0
SECTION
  2
ENTITIES
  0
LINE
  5
28
330
A
100
AcDbEntity
  8
CK_LEVEL_1
  6
CONTINUOUS
 62
     4
100
AcDbLine
 10
84.45
 20
3.520201102886707
 30
0.0
 11
27.0
 21
3.520201102886707
 31
0.0
  0
LINE
  5
29
330
A
100
AcDbEntity
  8
CK_LEVEL_1
  6
CONTINUOUS
 62
     4
100
AcDbLine
 10
84.45
 20
4.048360126046367
 30
0.0
 11
27.0
 21
4.048360126046367
 31
0.0
  0
LINE
  5
2A
330
A
100
AcDbEntity
  8
CK_LEVEL_1
  6
CONTINUOUS
 62
     4
100
AcDbLine
 10
84.45
 20
4.951640120017021
 30
0.0
 11
27.0
 21
4.951640120017021
 31
0.0
  0
LINE
  5
2B
330
A
100
AcDbEntity
  8
CK_LEVEL_1
  6
CONTINUOUS
 62
     4
100
AcDbLine
 10
84.45
 20
5.47979289711325
 30
0.0
 11
27.0
 21
5.47979289711325
 31
0.0
  0
LINE
  5
2C
330
A
100
AcDbEntity
  8
CK_LEVEL_1
  6
CONTINUOUS
 62
     4
100
AcDbLine
 10
84.45
 20
6.100000000000001
 30
0.0
 11
27.1
 21
6.100000000000001
 31
0.0
  0
LINE
  5
2D
330
A
100
AcDbEntity
  8
CK_LEVEL_1
  6
CONTINUOUS
 62
     4
100
AcDbLine
 10
101.9
 20
0.3999999999999986
 30
0.0
 11
27.1
 21
0.3999999999999986
 31
0.0
  0
LINE
  5
2E
330
A
100
AcDbEntity
  8
CK_LEVEL_1
  6
CONTINUOUS
 62
     4
100
AcDbLine
 10
101.8999999999999
 20
6.100000000000001
 30
0.0
 11
84.45
 21
6.100000000000001
 31
0.0
  0
LINE
  5
2F
330
A
100
AcDbEntity
  8
CK_LEVEL_1
  6
CONTINUOUS
 62
     4
100
AcDbLine
 10
102.0
 20
3.520201102886707
 30
0.0
 11
84.45
 21
3.520201102886707
 31
0.0
  0
LINE
  5
30
330
A
100
AcDbEntity
  8
CK_LEVEL_1
  6
CONTINUOUS
 62
     4
100
AcDbLine
 10
102.0
 20
4.048360126046367
 30
0.0
 11
84.45
 21
4.048360126046367
 31
0.0
  0
LINE
  5
31
330
A
100
AcDbEntity
  8
CK_LEVEL_1
  6
CONTINUOUS
 62
     4
100
AcDbLine
 10
102.0
 20
4.951640120017021
 30
0.0
 11
84.45
 21
4.951640120017021
 31
0.0
  0
LINE
  5
32
330
A
100
AcDbEntity
  8
CK_LEVEL_1
  6
CONTINUOUS
 62
     4
100
AcDbLine
 10
102.0
 20
5.47979289711325
 30
0.0
 11
84.45
 21
5.47979289711325
 31
0.0
  0
LINE
  5
33
330
A
100
AcDbEntity
  8
CK_LEVEL_1
  6
CONTINUOUS
 62
     4
100
AcDbLine
 10
27.5
 20
6.5
 30
0.0
 11
27.0
 21
6.0
 31
0.0
  0
LINE
  5
34
330
A
100
AcDbEntity
  8
CK_LEVEL_1
  6
CONTINUOUS
 62
     4
100
AcDbLine
 10
27.5
 20
0.0
 30
0.0
 11
27.0
 21
0.5
 31
0.0
  0
LINE
  5
35
330
A
100
AcDbEntity
  8
CK_LEVEL_1
  6
CONTINUOUS
 62
     4
100
AcDbLine
 10
102.0
 20
0.5
 30
0.0
 11
101.5
 21
0.0
 31
0.0
  0
LINE
  5
36
330
A
100
AcDbEntity
  8
CK_LEVEL_1
  6
CONTINUOUS
 62
     4
100
AcDbLine
 10
101.5
 20
6.5
 30
0.0
 11
102.0
 21
6.0
 31
0.0
  0
LINE
  5
37
330
A
100
AcDbEntity
  8
CK_LEVEL_1
  6
CONTINUOUS
 62
     4
100
AcDbLine
 10
102.0
 20
35.999997
 30
0.0
 11
101.5
 21
35.499997
 31
0.0
  0
LINE
  5
38
330
A
100
AcDbEntity
  8
CK_LEVEL_1
  6
CONTINUOUS
 62
     4
100
AcDbLine
 10
101.5
 20
44.499997
 30
0.0
 11
102.0
 21
43.999997
 31
0.0
  0
LINE
  5
39
330
A
100
AcDbEntity
  8
CK_LEVEL_1
  6
CONTINUOUS
 62
     4
100
AcDbLine
 10
27.0
 20
35.999997
 30
0.0
 11
27.5
 21
35.499997
 31
0.0
  0
LINE
  5
3A
330
A
100
AcDbEntity
  8
CK_LEVEL_1
  6
CONTINUOUS
 62
     4
100
AcDbLine
 10
27.5
 20
44.499997
 30
0.0
 11
27.0
 21
43.999997
 31
0.0
  0
LINE
  5
3D
330
A
100
AcDbEntity
  8
CK_LEVEL_1
  6
CONTINUOUS
 62
     4
100
AcDbLine
 10
8.323510416731467
 20
4.063537837774382
 30
0.0
 11
7.982568851450467
 21
4.093366359661256
 31
0.0
  0
ARC
  5
3E
330
A
100
AcDbEntity
  8
CK_LEVEL_1
  6
CONTINUOUS
 62
     4
100
AcDbCircle
 10
8.0
 20
4.707394700720413
 30
0.0
 40
0.2
100
AcDbArc
 50
94.99999999999948
 51
180.0
  0
ARC
  5
3F
330
A
100
AcDbEntity
  8
CK_LEVEL_1
  6
CONTINUOUS
 62
     4
100
AcDbCircle
 10
8.0
 20
4.292605299279607
 30
0.0
 40
0.2
100
AcDbArc
 50
180.0
 51
264.9999999999995
  0
LINE
  5
40
330
A
100
AcDbEntity
  8
CK_LEVEL_1
  6
CONTINUOUS
 62
     4
100
AcDbLine
 10
7.8
 20
4.292605299279607
 30
0.0
 11
7.8
 21
4.707394700720413
 31
0.0
  0
LINE
  5
41
330
A
100
AcDbEntity
  8
CK_LEVEL_1
  6
CONTINUOUS
 62
     4
100
AcDbLine
 10
8.323514163231475
 20
4.936462490001911
 30
0.0
 11
7.982568851450469
 21
4.906633640338764
 31
0.0
  0
LINE
  5
64
330
A
100
AcDbEntity
  8
CK_LEVEL_1
  6
CONTINUOUS
 62
     4
100
AcDbLine
 10
102.0
 20
6.0
 30
0.0
 11
102.0
 21
0.5
 31
0.0
  0
LINE
  5
65
330
A
100
AcDbEntity
  8
CK_LEVEL_1
  6
CONTINUOUS
 62
     4
100
AcDbLine
 10
102.0
 20
43.999997
 30
0.0
 11
102.0
 21
35.999997
 31
0.0
  0
LINE
  5
66
330
A
100
AcDbEntity
  8
CK_LEVEL_1
  6
CONTINUOUS
 62
     4
100
AcDbLine
 10
27.0
 20
6.0
 30
0.0
 11
27.0
 21
0.5
 31
0.0
  0
LINE
  5
67
330
A
100
AcDbEntity
  8
CK_LEVEL_1
  6
CONTINUOUS
 62
     4
100
AcDbLine
 10
27.0
 20
43.999997
 30
0.0
 11
27.0
 21
35.999997
 31
0.0
  0
LINE
  5
73
330
A
100
AcDbEntity
  8
CK_LEVEL_1
  6
CENTER
 62
   252
100
AcDbLine
 10
104.3789573110288
 20
39.999997
 30
0.0
 11
24.36935841343375
 21
39.999997
 31
0.0
  0
LINE
  5
74
330
A
100
AcDbEntity
  8
CK_LEVEL_1
  6
CONTINUOUS
 62
     4
100
AcDbLine
 10
101.5
 20
35.499997
 30
0.0
 11
84.45
 21
35.499997
 31
0.0
  0
LINE
  5
75
330
A
100
AcDbEntity
  8
CK_LEVEL_1
  6
CONTINUOUS
 62
     4
100
AcDbLine
 10
101.5
 20
44.499997
 30
0.0
 11
84.45
 21
44.499997
 31
0.0
  0
LINE
  5
7D
330
A
100
AcDbEntity
  8
CK_LEVEL_1
  6
CONTINUOUS
 62
     4
100
AcDbLine
 10
101.5
 20
6.5
 30
0.0
 11
84.45
 21
6.5
 31
0.0
  0
LINE
  5
7E
330
A
100
AcDbEntity
  8
CK_LEVEL_1
  6
CONTINUOUS
 62
     4
100
AcDbLine
 10
101.5
 20
0.0
 30
0.0
 11
27.5
 21
0.0
 31
0.0
  0
LINE
  5
80
330
A
100
AcDbEntity
  8
CK_LEVEL_1
  6
CONTINUOUS
 62
     4
100
AcDbLine
 10
8.600000000000001
 20
0.0
 30
0.0
 11
3.1
 21
0.0
 31
0.0
  0
ARC
  5
81
330
A
100
AcDbEntity
  8
CK_LEVEL_1
  6
CONTINUOUS
 62
     4
100
AcDbCircle
 10
2.700000000000001
 20
-0.3000000000000007
 30
0.0
 40
0.5
100
AcDbArc
 50
36.86989764584412
 51
143.1301023541559
  0
ARC
  5
82
330
A
100
AcDbEntity
  8
CK_LEVEL_1
  6
CONTINUOUS
 62
     4
100
AcDbCircle
 10
1.000000000000001
 20
4.292605299279607
 30
0.0
 40
0.2
100
AcDbArc
 50
275.0000000000005
 51
360.0
  0
ARC
  5
83
330
A
100
AcDbEntity
  8
CK_LEVEL_1
  6
CONTINUOUS
 62
     4
100
AcDbCircle
 10
1.000000000000001
 20
4.707394700720413
 30
0.0
 40
0.2
100
AcDbArc
 50
0.0
 51
85.00000000000051
  0
LINE
  5
86
330
A
100
AcDbEntity
  8
CK_LEVEL_1
  6
CONTINUOUS
 62
     4
100
AcDbLine
 10
0.676485836768527
 20
4.936462490001911
 30
0.0
 11
1.017431148549531
 21
4.906633640338764
 31
0.0
  0
LINE
  5
8F
330
A
100
AcDbEntity
  8
CK_LEVEL_1
  6
DASHED
 62
   252
100
AcDbLine
 10
6.550000000000006
 20
0.0
 30
0.0
 11
6.25
 21
0.3000000000000007
 31
0.0
  0
LINE
  5
90
330
A
100
AcDbEntity
  8
CK_LEVEL_1
  6
DASHED
 62
   252
100
AcDbLine
 10
2.647204860432889
 20
0.1972048604328888
 30
0.0
 11
2.75
 21
0.3000000000000007
 31
0.0
  0
LINE
  5
91
330
A
100
AcDbEntity
  8
CK_LEVEL_1
  6
DASHED
 62
   252
100
AcDbLine
 10
6.25
 20
0.3000000000000007
 30
0.0
 11
2.75
 21
0.3000000000000007
 31
0.0
  0
LINE
  5
92
330
A
100
AcDbEntity
  8
CK_LEVEL_1
  6
DASHED
 62
   252
100
AcDbLine
 10
6.25
 20
0.3000000000000007
 30
0.0
 11
6.25
 21
3.0
 31
0.0
  0
LINE
  5
93
330
A
100
AcDbEntity
  8
CK_LEVEL_1
  6
DASHED
 62
   252
100
AcDbLine
 10
2.75
 20
0.3000000000000007
 30
0.0
 11
2.75
 21
3.0
 31
0.0
  0
LINE
  5
94
330
A
100
AcDbEntity
  8
CK_LEVEL_1
  6
DASHED
 62
   252
100
AcDbLine
 10
7.5
 20
3.0
 30
0.0
 11
7.5
 21
6.199999999999999
 31
0.0
  0
LINE
  5
95
330
A
100
AcDbEntity
  8
CK_LEVEL_1
  6
DASHED
 62
   252
100
AcDbLine
 10
1.500000000000001
 20
3.0
 30
0.0
 11
1.500000000000001
 21
6.199999999999999
 31
0.0
  0
LINE
  5
96
330
A
100
AcDbEntity
  8
CK_LEVEL_1
  6
DASHED
 62
   252
100
AcDbLine
 10
7.5
 20
3.0
 30
0.0
 11
1.500000000000001
 21
3.0
 31
0.0
  0
LINE
  5
9A
330
A
100
AcDbEntity
  8
CK_LEVEL_1
  6
CONTINUOUS
 62
     4
100
AcDbLine
 10
2.300000000000001
 20
0.0
 30
0.0
 11
0.4000000000000006
 21
0.0
 31
0.0
  0
LINE
  5
9E
330
A
100
AcDbEntity
  8
CK_LEVEL_1
  6
CONTINUOUS
 62
     4
100
AcDbLine
 10
9.000000000000001
 20
5.55829752442581
 30
0.0
 11
9.000000000000001
 21
6.100000000000001
 31
0.0
  0
LINE
  5
9F
330
A
100
AcDbEntity
  8
CK_LEVEL_1
  6
CONTINUOUS
 62
     4
100
AcDbLine
 10
9.000000000000001
 20
0.3999999999999986
 30
0.0
 11
9.000000000000001
 21
3.441696475574147
 31
0.0
  0
LINE
  5
A1
330
A
100
AcDbEntity
  8
CK_LEVEL_1
  6
CENTER
 62
   252
100
AcDbLine
 10
4.5
 20
-1.25
 30
0.0
 11
4.499999999999996
 21
7.62987031281596
 31
0.0
  0
LINE
  5
A2
330
A
100
AcDbEntity
  8
CK_LEVEL_1
  6
CONTINUOUS
 62
     4
100
AcDbLine
 10
0.0
 20
5.55829752442581
 30
0.0
 11
0.0
 21
6.100000000000001
 31
0.0
  0
LINE
  5
A3
330
A
100
AcDbEntity
  8
CK_LEVEL_1
  6
CONTINUOUS
 62
     4
100
AcDbLine
 10
8.600000000000001
 20
6.5
 30
0.0
 11
0.4000000000000015
 21
6.5
 31
0.0
  0
LINE
  5
A4
330
A
100
AcDbEntity
  8
CK_LEVEL_1
  6
CONTINUOUS
 62
     4
100
AcDbLine
 10
0.0
 20
0.3999999999999986
 30
0.0
 11
0.0
 21
3.441696475574147
 31
0.0
  0
LINE
  5
A5
330
A
100
AcDbEntity
  8
CK_LEVEL_1
  6
CONTINUOUS
 62
     4
100
AcDbLine
 10
0.4000000000000015
 20
6.5
 30
0.0
 11
0.0
 21
6.100000000000001
 31
0.0
  0
LINE
  5
A6
330
A
100
AcDbEntity
  8
CK_LEVEL_1
  6
CONTINUOUS
 62
     4
100
AcDbLine
 10
9.000000000000001
 20
6.100000000000001
 30
0.0
 11
8.600000000000001
 21
6.5
 31
0.0
  0
LINE
  5
A7
330
A
100
AcDbEntity
  8
CK_LEVEL_1
  6
CONTINUOUS
 62
     4
100
AcDbLine
 10
9.000000000000001
 20
0.3999999999999986
 30
0.0
 11
8.600000000000001
 21
0.0
 31
0.0
  0
LINE
  5
A8
330
A
100
AcDbEntity
  8
CK_LEVEL_1
  6
CONTINUOUS
 62
     4
100
AcDbLine
 10
0.4000000000000006
 20
0.0
 30
0.0
 11
0.0
 21
0.3999999999999986
 31
0.0
  0
LINE
  5
A9
330
A
100
AcDbEntity
  8
CK_LEVEL_1
  6
CONTINUOUS
 62
     4
100
AcDbLine
 10
1.200000000000001
 20
4.292605299279607
 30
0.0
 11
1.200000000000001
 21
4.707394700720413
 31
0.0
  0
LINE
  5
AA
330
A
100
AcDbEntity
  8
CK_LEVEL_1
  6
CONTINUOUS
 62
     4
100
AcDbLine
 10
0.676489583268535
 20
4.063537837774383
 30
0.0
 11
1.017431148549534
 21
4.093366359661256
 31
0.0
  0
LINE
  5
B2
330
A
100
AcDbEntity
  8
CK_LEVEL_1
  6
DASHED
 62
   252
100
AcDbLine
 10
7.5
 20
6.199999999999999
 30
0.0
 11
1.500000000000001
 21
6.199999999999999
 31
0.0
  0
LINE
  5
B3
330
A
100
AcDbEntity
  8
CK_LEVEL_1
  6
DASHED
 62
   252
100
AcDbLine
 10
1.2
 20
6.5
 30
0.0
 11
1.500000000000001
 21
6.199999999999999
 31
0.0
  0
LINE
  5
B4
330
A
100
AcDbEntity
  8
CK_LEVEL_1
  6
DASHED
 62
   252
100
AcDbLine
 10
7.800000000000001
 20
6.5
 30
0.0
 11
7.5
 21
6.199999999999999
 31
0.0
  0
LINE
  5
BF
330
A
100
AcDbEntity
  8
CK_LEVEL_1
  6
CONTINUOUS
 62
     4
100
AcDbLine
 10
84.45
 20
44.499997
 30
0.0
 11
27.5
 21
44.499997
 31
0.0
  0
LINE
  5
C0
330
A
100
AcDbEntity
  8
CK_LEVEL_1
  6
CONTINUOUS
 62
     4
100
AcDbLine
 10
84.45
 20
35.499997
 30
0.0
 11
27.5
 21
35.499997
 31
0.0
  0
LINE
  5
C6
330
A
100
AcDbEntity
  8
CK_LEVEL_1
  6
CONTINUOUS
 62
     4
100
AcDbLine
 10
84.45
 20
6.5
 30
0.0
 11
27.5
 21
6.5
 31
0.0
  0
LINE
  5
C7
330
A
100
AcDbEntity
  8
CK_LEVEL_1
  6
DASHED
 62
   252
100
AcDbLine
 10
37.5
 20
6.199999999999999
 30
0.0
 11
31.5
 21
6.199999999999999
 31
0.0
  0
LINE
  5
C8
330
A
100
AcDbEntity
  8
CK_LEVEL_1
  6
DASHED
 62
   252
100
AcDbLine
 10
31.5
 20
3.0
 30
0.0
 11
31.5
 21
6.199999999999999
 31
0.0
  0
LINE
  5
C9
330
A
100
AcDbEntity
  8
CK_LEVEL_1
  6
DASHED
 62
   252
100
AcDbLine
 10
37.5
 20
3.0
 30
0.0
 11
37.5
 21
6.199999999999999
 31
0.0
  0
LINE
  5
CA
330
A
100
AcDbEntity
  8
CK_LEVEL_1
  6
DASHED
 62
   252
100
AcDbLine
 10
37.5
 20
3.0
 30
0.0
 11
31.5
 21
3.0
 31
0.0
  0
LINE
  5
CB
330
A
100
AcDbEntity
  8
CK_LEVEL_1
  6
CENTER
 62
   252
100
AcDbLine
 10
34.5
 20
-1.172157788209322
 30
0.0
 11
34.5
 21
7.62987031281596
 31
0.0
  0
LINE
  5
CC
330
A
100
AcDbEntity
  8
CK_LEVEL_1
  6
DASHED
 62
   252
100
AcDbLine
 10
36.25
 20
0.3000000000000007
 30
0.0
 11
36.25
 21
3.0
 31
0.0
  0
LINE
  5
CD
330
A
100
AcDbEntity
  8
CK_LEVEL_1
  6
DASHED
 62
   252
100
AcDbLine
 10
32.75
 20
0.3000000000000007
 30
0.0
 11
32.75
 21
3.0
 31
0.0
  0
LINE
  5
CE
330
A
100
AcDbEntity
  8
CK_LEVEL_1
  6
DASHED
 62
   252
100
AcDbLine
 10
36.25
 20
0.3000000000000007
 30
0.0
 11
32.75
 21
0.3000000000000007
 31
0.0
  0
LINE
  5
CF
330
A
100
AcDbEntity
  8
CK_LEVEL_1
  6
DASHED
 62
   252
100
AcDbLine
 10
32.45
 20
0.0
 30
0.0
 11
32.75
 21
0.3000000000000007
 31
0.0
  0
LINE
  5
D0
330
A
100
AcDbEntity
  8
CK_LEVEL_1
  6
DASHED
 62
   252
100
AcDbLine
 10
37.8
 20
6.5
 30
0.0
 11
37.5
 21
6.199999999999999
 31
0.0
  0
LINE
  5
D1
330
A
100
AcDbEntity
  8
CK_LEVEL_1
  6
DASHED
 62
   252
100
AcDbLine
 10
31.2
 20
6.5
 30
0.0
 11
31.5
 21
6.199999999999999
 31
0.0
  0
LINE
  5
D2
330
A
100
AcDbEntity
  8
CK_LEVEL_1
  6
DASHED
 62
   252
100
AcDbLine
 10
36.55
 20
0.0
 30
0.0
 11
36.25
 21
0.3000000000000007
 31
0.0
  0
LINE
  5
D4
330
A
100
AcDbEntity
  8
CK_LEVEL_1
  6
CENTER
 62
   252
100
AcDbLine
 10
34.5
 20
36.25475932906935
 30
0.0
 11
34.5
 21
43.78967506654917
 31
0.0
  0
CIRCLE
  5
D5
330
A
100
AcDbEntity
  8
CK_LEVEL_1
  6
CONTINUOUS
 62
     4
100
AcDbCircle
 10
34.5
 20
39.999997
 30
0.0
 40
1.75
  0
CIRCLE
  5
D6
330
A
100
AcDbEntity
  8
CK_LEVEL_1
  6
CONTINUOUS
 62
     4
100
AcDbCircle
 10
34.5
 20
39.999997
 30
0.0
 40
3.0
  0
ARC
  5
D9
330
A
100
AcDbEntity
  8
CK_LEVEL_1
  6
CONTINUOUS
 62
     4
100
AcDbCircle
 10
-0.3000000000000114
 20
4.499996999999979
 30
0.0
 40
1.0
100
AcDbArc
 50
293.035684105942
 51
329.3715903487645
  0
ARC
  5
DA
330
A
100
AcDbEntity
  8
CK_LEVEL_1
  6
CONTINUOUS
 62
     4
100
AcDbCircle
 10
-0.3000000000000114
 20
4.499996999999979
 30
0.0
 40
1.0
100
AcDbArc
 50
30.62877603072246
 51
66.96431589405799
  0
ARC
  5
DB
330
A
100
AcDbEntity
  8
CK_LEVEL_1
  6
CONTINUOUS
 62
     4
100
AcDbCircle
 10
0.1500000000000011
 20
5.55829752442581
 30
0.0
 40
0.15
100
AcDbArc
 50
180.0000000000006
 51
246.9643158940578
  0
ARC
  5
DC
330
A
100
AcDbEntity
  8
CK_LEVEL_1
  6
CONTINUOUS
 62
     4
100
AcDbCircle
 10
0.6895591981806748
 20
5.085891694715673
 30
0.0
 40
0.15
100
AcDbArc
 50
210.628776030722
 51
265.0000000000003
  0
ARC
  5
DD
330
A
100
AcDbEntity
  8
CK_LEVEL_1
  6
CONTINUOUS
 62
     4
100
AcDbCircle
 10
0.6895629446806848
 20
3.914108633060621
 30
0.0
 40
0.15
100
AcDbArc
 50
95.00000000000049
 51
149.3715903487647
  0
ARC
  5
DE
330
A
100
AcDbEntity
  8
CK_LEVEL_1
  6
CONTINUOUS
 62
     4
100
AcDbCircle
 10
0.1500000000000014
 20
3.441696475574147
 30
0.0
 40
0.15
100
AcDbArc
 50
113.035684105942
 51
180.0000000000002
  0
ARC
  5
DF
330
A
100
AcDbEntity
  8
CK_LEVEL_1
  6
CONTINUOUS
 62
     4
100
AcDbCircle
 10
9.300000000000013
 20
4.499996999999979
 30
0.0
 40
1.0
100
AcDbArc
 50
113.0356841059419
 51
149.3712239692775
  0
ARC
  5
E0
330
A
100
AcDbEntity
  8
CK_LEVEL_1
  6
CONTINUOUS
 62
     4
100
AcDbCircle
 10
8.850000000000001
 20
5.55829752442581
 30
0.0
 40
0.15
100
AcDbArc
 50
293.035684105942
 51
359.9999999999993
  0
ARC
  5
E1
330
A
100
AcDbEntity
  8
CK_LEVEL_1
  6
CONTINUOUS
 62
     4
100
AcDbCircle
 10
8.310440801819327
 20
5.085891694715673
 30
0.0
 40
0.15
100
AcDbArc
 50
274.9999999999997
 51
329.3712239692779
  0
ARC
  5
E2
330
A
100
AcDbEntity
  8
CK_LEVEL_1
  6
CONTINUOUS
 62
     4
100
AcDbCircle
 10
8.310437055319317
 20
3.914108633060621
 30
0.0
 40
0.15
100
AcDbArc
 50
30.62840965123521
 51
84.9999999999995
  0
ARC
  5
E3
330
A
100
AcDbEntity
  8
CK_LEVEL_1
  6
CONTINUOUS
 62
     4
100
AcDbCircle
 10
9.300000000000013
 20
4.499996999999979
 30
0.0
 40
1.0
100
AcDbArc
 50
210.6284096512353
 51
246.9643158940579
  0
ARC
  5
E4
330
A
100
AcDbEntity
  8
CK_LEVEL_1
  6
CONTINUOUS
 62
     4
100
AcDbCircle
 10
8.849999999999999
 20
3.441696475574147
 30
0.0
 40
0.15
100
AcDbArc
 50
359.9999999999997
 51
426.964315894058
  0
LINE
  5
112
330
A
100
AcDbEntity
  8
CK_LEVEL_1
  6
DASHED
 62
   252
100
AcDbLine
 10
57.5
 20
3.0
 30
0.0
 11
51.5
 21
3.0
 31
0.0
  0
LINE
  5
113
330
A
100
AcDbEntity
  8
CK_LEVEL_1
  6
DASHED
 62
   252
100
AcDbLine
 10
57.5
 20
6.199999999999999
 30
0.0
 11
51.5
 21
6.199999999999999
 31
0.0
  0
LINE
  5
114
330
A
100
AcDbEntity
  8
CK_LEVEL_1
  6
DASHED
 62
   252
100
AcDbLine
 10
51.5
 20
3.0
 30
0.0
 11
51.5
 21
6.199999999999999
 31
0.0
  0
LINE
  5
115
330
A
100
AcDbEntity
  8
CK_LEVEL_1
  6
DASHED
 62
   252
100
AcDbLine
 10
51.2
 20
6.5
 30
0.0
 11
51.5
 21
6.199999999999999
 31
0.0
  0
LINE
  5
116
330
A
100
AcDbEntity
  8
CK_LEVEL_1
  6
DASHED
 62
   252
100
AcDbLine
 10
52.75
 20
0.3000000000000007
 30
0.0
 11
52.75
 21
3.0
 31
0.0
  0
LINE
  5
117
330
A
100
AcDbEntity
  8
CK_LEVEL_1
  6
DASHED
 62
   252
100
AcDbLine
 10
56.25
 20
0.3000000000000007
 30
0.0
 11
56.25
 21
3.0
 31
0.0
  0
LINE
  5
118
330
A
100
AcDbEntity
  8
CK_LEVEL_1
  6
CENTER
 62
   252
100
AcDbLine
 10
54.5
 20
-1.172157788209322
 30
0.0
 11
54.5
 21
7.62987031281596
 31
0.0
  0
LINE
  5
119
330
A
100
AcDbEntity
  8
CK_LEVEL_1
  6
DASHED
 62
   252
100
AcDbLine
 10
56.25
 20
0.3000000000000007
 30
0.0
 11
52.75
 21
0.3000000000000007
 31
0.0
  0
LINE
  5
11A
330
A
100
AcDbEntity
  8
CK_LEVEL_1
  6
DASHED
 62
   252
100
AcDbLine
 10
52.45
 20
0.0
 30
0.0
 11
52.75
 21
0.3000000000000007
 31
0.0
  0
LINE
  5
11B
330
A
100
AcDbEntity
  8
CK_LEVEL_1
  6
DASHED
 62
   252
100
AcDbLine
 10
56.55000000000001
 20
0.0
 30
0.0
 11
56.25
 21
0.3000000000000007
 31
0.0
  0
LINE
  5
11C
330
A
100
AcDbEntity
  8
CK_LEVEL_1
  6
DASHED
 62
   252
100
AcDbLine
 10
57.5
 20
3.0
 30
0.0
 11
57.5
 21
6.199999999999999
 31
0.0
  0
LINE
  5
11D
330
A
100
AcDbEntity
  8
CK_LEVEL_1
  6
DASHED
 62
   252
100
AcDbLine
 10
57.80000000000001
 20
6.5
 30
0.0
 11
57.5
 21
6.199999999999999
 31
0.0
  0
LINE
  5
12F
330
A
100
AcDbEntity
  8
CK_LEVEL_1
  6
DASHED
 62
   252
100
AcDbLine
 10
77.5
 20
3.0
 30
0.0
 11
71.5
 21
3.0
 31
0.0
  0
LINE
  5
130
330
A
100
AcDbEntity
  8
CK_LEVEL_1
  6
DASHED
 62
   252
100
AcDbLine
 10
77.5
 20
6.199999999999999
 30
0.0
 11
71.5
 21
6.199999999999999
 31
0.0
  0
LINE
  5
131
330
A
100
AcDbEntity
  8
CK_LEVEL_1
  6
DASHED
 62
   252
100
AcDbLine
 10
71.5
 20
3.0
 30
0.0
 11
71.5
 21
6.199999999999999
 31
0.0
  0
LINE
  5
132
330
A
100
AcDbEntity
  8
CK_LEVEL_1
  6
DASHED
 62
   252
100
AcDbLine
 10
71.2
 20
6.5
 30
0.0
 11
71.5
 21
6.199999999999999
 31
0.0
  0
LINE
  5
133
330
A
100
AcDbEntity
  8
CK_LEVEL_1
  6
DASHED
 62
   252
100
AcDbLine
 10
72.75
 20
0.3000000000000007
 30
0.0
 11
72.75
 21
3.0
 31
0.0
  0
LINE
  5
134
330
A
100
AcDbEntity
  8
CK_LEVEL_1
  6
DASHED
 62
   252
100
AcDbLine
 10
76.25
 20
0.3000000000000007
 30
0.0
 11
76.25
 21
3.0
 31
0.0
  0
LINE
  5
135
330
A
100
AcDbEntity
  8
CK_LEVEL_1
  6
CENTER
 62
   252
100
AcDbLine
 10
74.5
 20
-1.172157788209322
 30
0.0
 11
74.5
 21
7.62987031281596
 31
0.0
  0
LINE
  5
136
330
A
100
AcDbEntity
  8
CK_LEVEL_1
  6
DASHED
 62
   252
100
AcDbLine
 10
76.25
 20
0.3000000000000007
 30
0.0
 11
72.75
 21
0.3000000000000007
 31
0.0
  0
LINE
  5
137
330
A
100
AcDbEntity
  8
CK_LEVEL_1
  6
DASHED
 62
   252
100
AcDbLine
 10
72.45
 20
0.0
 30
0.0
 11
72.75
 21
0.3000000000000007
 31
0.0
  0
LINE
  5
138
330
A
100
AcDbEntity
  8
CK_LEVEL_1
  6
DASHED
 62
   252
100
AcDbLine
 10
76.55000000000001
 20
0.0
 30
0.0
 11
76.25
 21
0.3000000000000007
 31
0.0
  0
LINE
  5
139
330
A
100
AcDbEntity
  8
CK_LEVEL_1
  6
DASHED
 62
   252
100
AcDbLine
 10
77.5
 20
3.0
 30
0.0
 11
77.5
 21
6.199999999999999
 31
0.0
  0
LINE
  5
13A
330
A
100
AcDbEntity
  8
CK_LEVEL_1
  6
DASHED
 62
   252
100
AcDbLine
 10
77.80000000000001
 20
6.5
 30
0.0
 11
77.5
 21
6.199999999999999
 31
0.0
  0
LINE
  5
14C
330
A
100
AcDbEntity
  8
CK_LEVEL_1
  6
DASHED
 62
   252
100
AcDbLine
 10
97.5
 20
3.0
 30
0.0
 11
91.5
 21
3.0
 31
0.0
  0
LINE
  5
14D
330
A
100
AcDbEntity
  8
CK_LEVEL_1
  6
DASHED
 62
   252
100
AcDbLine
 10
97.5
 20
6.199999999999999
 30
0.0
 11
91.5
 21
6.199999999999999
 31
0.0
  0
LINE
  5
14E
330
A
100
AcDbEntity
  8
CK_LEVEL_1
  6
DASHED
 62
   252
100
AcDbLine
 10
91.5
 20
3.0
 30
0.0
 11
91.5
 21
6.199999999999999
 31
0.0
  0
LINE
  5
14F
330
A
100
AcDbEntity
  8
CK_LEVEL_1
  6
DASHED
 62
   252
100
AcDbLine
 10
91.2
 20
6.5
 30
0.0
 11
91.5
 21
6.199999999999999
 31
0.0
  0
LINE
  5
150
330
A
100
AcDbEntity
  8
CK_LEVEL_1
  6
DASHED
 62
   252
100
AcDbLine
 10
92.75
 20
0.3000000000000007
 30
0.0
 11
92.75
 21
3.0
 31
0.0
  0
LINE
  5
151
330
A
100
AcDbEntity
  8
CK_LEVEL_1
  6
DASHED
 62
   252
100
AcDbLine
 10
96.25
 20
0.3000000000000007
 30
0.0
 11
96.25
 21
3.0
 31
0.0
  0
LINE
  5
152
330
A
100
AcDbEntity
  8
CK_LEVEL_1
  6
CENTER
 62
   252
100
AcDbLine
 10
94.50000000000001
 20
-1.172157788209322
 30
0.0
 11
94.50000000000001
 21
7.62987031281596
 31
0.0
  0
LINE
  5
153
330
A
100
AcDbEntity
  8
CK_LEVEL_1
  6
DASHED
 62
   252
100
AcDbLine
 10
96.25
 20
0.3000000000000007
 30
0.0
 11
92.75
 21
0.3000000000000007
 31
0.0
  0
LINE
  5
154
330
A
100
AcDbEntity
  8
CK_LEVEL_1
  6
DASHED
 62
   252
100
AcDbLine
 10
92.45
 20
0.0
 30
0.0
 11
92.75
 21
0.3000000000000007
 31
0.0
  0
LINE
  5
155
330
A
100
AcDbEntity
  8
CK_LEVEL_1
  6
DASHED
 62
   252
100
AcDbLine
 10
96.55000000000001
 20
0.0
 30
0.0
 11
96.25
 21
0.3000000000000007
 31
0.0
  0
LINE
  5
156
330
A
100
AcDbEntity
  8
CK_LEVEL_1
  6
DASHED
 62
   252
100
AcDbLine
 10
97.5
 20
3.0
 30
0.0
 11
97.5
 21
6.199999999999999
 31
0.0
  0
LINE
  5
157
330
A
100
AcDbEntity
  8
CK_LEVEL_1
  6
DASHED
 62
   252
100
AcDbLine
 10
97.80000000000001
 20
6.5
 30
0.0
 11
97.5
 21
6.199999999999999
 31
0.0
  0
CIRCLE
  5
161
330
A
100
AcDbEntity
  8
CK_LEVEL_1
  6
CONTINUOUS
 62
     4
100
AcDbCircle
 10
54.5
 20
39.999997
 30
0.0
 40
3.0
  0
CIRCLE
  5
162
330
A
100
AcDbEntity
  8
CK_LEVEL_1
  6
CONTINUOUS
 62
     4
100
AcDbCircle
 10
54.5
 20
39.999997
 30
0.0
 40
1.75
  0
LINE
  5
163
330
A
100
AcDbEntity
  8
CK_LEVEL_1
  6
CENTER
 62
   252
100
AcDbLine
 10
54.5
 20
36.25475932906935
 30
0.0
 11
54.5
 21
43.78967506654916
 31
0.0
  0
CIRCLE
  5
16B
330
A
100
AcDbEntity
  8
CK_LEVEL_1
  6
CONTINUOUS
 62
     4
100
AcDbCircle
 10
74.5
 20
39.999997
 30
0.0
 40
3.0
  0
CIRCLE
  5
16C
330
A
100
AcDbEntity
  8
CK_LEVEL_1
  6
CONTINUOUS
 62
     4
100
AcDbCircle
 10
74.5
 20
39.999997
 30
0.0
 40
1.75
  0
LINE
  5
16D
330
A
100
AcDbEntity
  8
CK_LEVEL_1
  6
CENTER
 62
   252
100
AcDbLine
 10
74.5
 20
36.25475932906935
 30
0.0
 11
74.5
 21
43.78967506654917
 31
0.0
  0
CIRCLE
  5
175
330
A
100
AcDbEntity
  8
CK_LEVEL_1
  6
CONTINUOUS
 62
     4
100
AcDbCircle
 10
94.50000000000001
 20
39.999997
 30
0.0
 40
3.0
  0
CIRCLE
  5
176
330
A
100
AcDbEntity
  8
CK_LEVEL_1
  6
CONTINUOUS
 62
     4
100
AcDbCircle
 10
94.50000000000001
 20
39.999997
 30
0.0
 40
1.75
  0
LINE
  5
177
330
A
100
AcDbEntity
  8
CK_LEVEL_1
  6
CENTER
 62
   252
100
AcDbLine
 10
94.50000000000001
 20
36.25475932906935
 30
0.0
 11
94.50000000000001
 21
43.78967506654916
 31
0.0
  0
ENDSEC
  0
SECTION
  2
OBJECTS
  0
DICTIONARY
  5
19
330
0
100
AcDbDictionary
  3
ACAD_GROUP
350
1A
  3
ACAD_LAYOUT
350
F2
  3
ACAD_MLINESTYLE
350
1B
  3
ACAD_PLOTSETTINGS
350
F3
  3
ACAD_PLOTSTYLENAME
350
F0
  3
ACDBHEADERROUNDTRIPXREC
350
17D
  0
DICTIONARY
  5
19D
330
A
100
AcDbDictionary
280
     1
  3
ACAD_LAYOUTSELFREF
360
19E
  0
DICTIONARY
  5
19F
330
B
100
AcDbDictionary
280
     1
  3
ACAD_LAYOUTSELFREF
360
1A0
  0
DICTIONARY
  5
1A
102
{ACAD_REACTORS
330
19
102
}
330
19
100
AcDbDictionary
  0
DICTIONARY
  5
F2
102
{ACAD_REACTORS
330
19
102
}
330
19
100
AcDbDictionary
  0
DICTIONARY
  5
1B
102
{ACAD_REACTORS
330
19
102
}
330
19
100
AcDbDictionary
  3
STANDARD
350
1C
  0
DICTIONARY
  5
F3
102
{ACAD_REACTORS
330
19
102
}
330
19
100
AcDbDictionary
  0
ACDBDICTIONARYWDFLT
  5
F0
102
{ACAD_REACTORS
330
19
102
}
330
19
100
AcDbDictionary
281
     1
  3
Normal
350
F1
100
AcDbDictionaryWithDefault
340
F1
  0
DICTIONARY
  5
17D
102
{ACAD_REACTORS
330
19
102
}
330
19
100
AcDbDictionary
  3
CEPSNTYPE
350
187
  3
FINGERPRINTGUID
350
188
  3
HYPERLINKBASE
350
180
  3
INSUNITS
350
186
  3
LAYOUTDICT
350
182
  3
LWETCUNION
350
185
  3
PLOTSETDICT
350
183
  3
PLOTSTYLNAMDICT
350
184
  3
PSVPSCALE
350
18A
  3
PUCSBASE
350
18D
  3
PUCSORGBACK
350
193
  3
PUCSORGBOTTOM
350
18F
  3
PUCSORGFRONT
350
192
  3
PUCSORGLEFT
350
190
  3
PUCSORGRIGHT
350
191
  3
PUCSORGTOP
350
18E
  3
PUCSORTHOREF
350
18B
  3
PUCSORTHOVIEW
350
18C
  3
STYLESHEET
350
181
  3
TSTACKALIGN
350
17E
  3
TSTACKSIZE
350
17F
  3
UCSBASE
350
196
  3
UCSORGBACK
350
19C
  3
UCSORGBOTTOM
350
198
  3
UCSORGFRONT
350
19B
  3
UCSORGLEFT
350
199
  3
UCSORGRIGHT
350
19A
  3
UCSORGTOP
350
197
  3
UCSORTHOREF
350
194
  3
UCSORTHOVIEW
350
195
  3
VERSIONGUID
350
189
  0
XRECORD
  5
19E
102
{ACAD_REACTORS
330
19D
102
}
330
19D
100
AcDbXrecord
340
A
  0
XRECORD
  5
1A0
102
{ACAD_REACTORS
330
19F
102
}
330
19F
100
AcDbXrecord
340
B
  0
MLINESTYLE
  5
1C
102
{ACAD_REACTORS
330
1B
102
}
330
1B
100
AcDbMlineStyle
  2
STANDARD
 70
     0
  3

 62
     0
 51
90.00000000000019
 52
90.00000000000019
 71
     2
 49
0.5
 62
   256
  6
BYLAYER
 49
-0.5
 62
   256
  6
BYLAYER
  0
ACDBPLACEHOLDER
  5
F1
102
{ACAD_REACTORS
330
F0
102
}
330
F0
100
AcDbPlaceHolder
280
     0
  0
XRECORD
  5
187
102
{ACAD_REACTORS
330
17D
102
}
330
17D
100
AcDbXrecord
 90
        0
  0
XRECORD
  5
188
102
{ACAD_REACTORS
330
17D
102
}
330
17D
100
AcDbXrecord
  1
{63FD5C6A-26AB-11D6-8687-00A024540C4A}
  0
XRECORD
  5
180
102
{ACAD_REACTORS
330
17D
102
}
330
17D
100
AcDbXrecord
  1

  0
XRECORD
  5
186
102
{ACAD_REACTORS
330
17D
102
}
330
17D
100
AcDbXrecord
 90
        0
  0
XRECORD
  5
182
102
{ACAD_REACTORS
330
17D
102
}
330
17D
100
AcDbXrecord
340
F2
  0
XRECORD
  5
185
102
{ACAD_REACTORS
330
17D
102
}
330
17D
100
AcDbXrecord
 90
    14877
  0
XRECORD
  5
183
102
{ACAD_REACTORS
330
17D
102
}
330
17D
100
AcDbXrecord
340
F3
  0
XRECORD
  5
184
102
{ACAD_REACTORS
330
17D
102
}
330
17D
100
AcDbXrecord
340
F0
  0
XRECORD
  5
18A
102
{ACAD_REACTORS
330
17D
102
}
330
17D
100
AcDbXrecord
 40
0.0
  0
XRECORD
  5
18D
102
{ACAD_REACTORS
330
17D
102
}
330
17D
100
AcDbXrecord
340
0
  0
XRECORD
  5
193
102
{ACAD_REACTORS
330
17D
102
}
330
17D
100
AcDbXrecord
 10
0.0
 20
0.0
 30
0.0
  0
XRECORD
  5
18F
102
{ACAD_REACTORS
330
17D
102
}
330
17D
100
AcDbXrecord
 10
0.0
 20
0.0
 30
0.0
  0
XRECORD
  5
192
102
{ACAD_REACTORS
330
17D
102
}
330
17D
100
AcDbXrecord
 10
0.0
 20
0.0
 30
0.0
  0
XRECORD
  5
190
102
{ACAD_REACTORS
330
17D
102
}
330
17D
100
AcDbXrecord
 10
0.0
 20
0.0
 30
0.0
  0
XRECORD
  5
191
102
{ACAD_REACTORS
330
17D
102
}
330
17D
100
AcDbXrecord
 10
0.0
 20
0.0
 30
0.0
  0
XRECORD
  5
18E
102
{ACAD_REACTORS
330
17D
102
}
330
17D
100
AcDbXrecord
 10
0.0
 20
0.0
 30
0.0
  0
XRECORD
  5
18B
102
{ACAD_REACTORS
330
17D
102
}
330
17D
100
AcDbXrecord
340
0
  0
XRECORD
  5
18C
102
{ACAD_REACTORS
330
17D
102
}
330
17D
100
AcDbXrecord
 70
     0
  0
XRECORD
  5
181
102
{ACAD_REACTORS
330
17D
102
}
330
17D
100
AcDbXrecord
  1

  0
XRECORD
  5
17E
102
{ACAD_REACTORS
330
17D
102
}
330
17D
100
AcDbXrecord
 90
        1
  0
XRECORD
  5
17F
102
{ACAD_REACTORS
330
17D
102
}
330
17D
100
AcDbXrecord
 90
       70
  0
XRECORD
  5
196
102
{ACAD_REACTORS
330
17D
102
}
330
17D
100
AcDbXrecord
340
0
  0
XRECORD
  5
19C
102
{ACAD_REACTORS
330
17D
102
}
330
17D
100
AcDbXrecord
 10
0.0
 20
0.0
 30
0.0
  0
XRECORD
  5
198
102
{ACAD_REACTORS
330
17D
102
}
330
17D
100
AcDbXrecord
 10
0.0
 20
0.0
 30
0.0
  0
XRECORD
  5
19B
102
{ACAD_REACTORS
330
17D
102
}
330
17D
100
AcDbXrecord
 10
0.0
 20
0.0
 30
0.0
  0
XRECORD
  5
199
102
{ACAD_REACTORS
330
17D
102
}
330
17D
100
AcDbXrecord
 10
0.0
 20
0.0
 30
0.0
  0
XRECORD
  5
19A
102
{ACAD_REACTORS
330
17D
102
}
330
17D
100
AcDbXrecord
 10
0.0
 20
0.0
 30
0.0
  0
XRECORD
  5
197
102
{ACAD_REACTORS
330
17D
102
}
330
17D
100
AcDbXrecord
 10
0.0
 20
0.0
 30
0.0
  0
XRECORD
  5
194
102
{ACAD_REACTORS
330
17D
102
}
330
17D
100
AcDbXrecord
340
0
  0
XRECORD
  5
195
102
{ACAD_REACTORS
330
17D
102
}
330
17D
100
AcDbXrecord
 70
     0
  0
XRECORD
  5
189
102
{ACAD_REACTORS
330
17D
102
}
330
17D
100
AcDbXrecord
  1
{03A9FC28-7F5F-11D6-86EB-00A024540C4A}
  0
ENDSEC
  0
EOF
