  0
SECTION
  2
HEADER
  9
$ACADVER
  1
AC1009
  9
$INSBASE
 10
0.0
 20
0.0
 30
0.0
  9
$EXTMIN
 10
-554.77540361669912
 20
-73.780279327416864
 30
0.0
  9
$EXTMAX
 10
334.8923732831928
 20
229.36147917806321
 30
0.0
  9
$LIMMIN
 10
-10.0
 20
-15.0
  9
$LIMMAX
 10
120.0
 20
90.0
  9
$ORTHOMODE
 70
     0
  9
$REGENMODE
 70
     0
  9
$FILLMODE
 70
     1
  9
$QTEXTMODE
 70
     0
  9
$MIRRTEXT
 70
     0
  9
$DRAGMODE
 70
     2
  9
$LTSCALE
 40
3.0
  9
$OSMODE
 70
  3071
  9
$ATTMODE
 70
     1
  9
$TEXTSIZE
 40
3.0
  9
$TRACEWID
 40
1.0
  9
$TEXTSTYLE
  7
STANDARD
  9
$CLAYER
  8
0
  9
$CELTYPE
  6
ByLayer
  9
$CECOLOR
 62
   256
  9
$DIMSCALE
 40
1.0
  9
$DIMASZ
 40
3.0
  9
$DIMEXO
 40
1.0
  9
$DIMDLI
 40
6.0
  9
$DIMRND
 40
0.0
  9
$DIMDLE
 40
0.0
  9
$DIMEXE
 40
1.0
  9
$DIMTP
 40
0.0
  9
$DIMTM
 40
0.0
  9
$DIMTXT
 40
3.0
  9
$DIMCEN
 40
1.5
  9
$DIMTSZ
 40
0.0
  9
$DIMTOL
 70
     0
  9
$DIMLIM
 70
     0
  9
$DIMTIH
 70
     1
  9
$DIMTOH
 70
     1
  9
$DIMSE1
 70
     0
  9
$DIMSE2
 70
     0
  9
$DIMTAD
 70
     0
  9
$DIMZIN
 70
     0
  9
$DIMBLK
  1

  9
$DIMASO
 70
     1
  9
$DIMSHO
 70
     0
  9
$DIMPOST
  1

  9
$DIMAPOST
  1

  9
$DIMALT
 70
     0
  9
$DIMALTD
 70
     2
  9
$DIMALTF
 40
25.399999999999999
  9
$DIMLFAC
 40
1.0
  9
$DIMTOFL
 70
     1
  9
$DIMTVP
 40
0.0
  9
$DIMTIX
 70
     0
  9
$DIMSOXD
 70
     0
  9
$DIMSAH
 70
     0
  9
$DIMBLK1
  1

  9
$DIMBLK2
  1

  9
$DIMSTYLE
  2
STANDARD
  9
$DIMCLRD
 70
     0
  9
$DIMCLRE
 70
     0
  9
$DIMCLRT
 70
     0
  9
$DIMTFAC
 40
1.0
  9
$DIMGAP
 40
0.09
  9
$LUNITS
 70
     2
  9
$LUPREC
 70
     4
  9
$SKETCHINC
 40
0.5
  9
$FILLETRAD
 40
0.0
  9
$AUNITS
 70
     0
  9
$AUPREC
 70
     0
  9
$MENU
  1
ACAD
  9
$ELEVATION
 40
0.0
  9
$PELEVATION
 40
0.0
  9
$THICKNESS
 40
0.0
  9
$LIMCHECK
 70
     0
  9
$BLIPMODE
 70
     0
  9
$CHAMFERA
 40
0.0
  9
$CHAMFERB
 40
0.0
  9
$SKPOLY
 70
     0
  9
$TDCREATE
 40
2444975.333333334
  9
$TDUPDATE
 40
2453706.6657347688
  9
$TDINDWG
 40
0.0424555208
  9
$TDUSRTIMER
 40
0.0
  9
$USRTIMER
 70
     0
  9
$ANGBASE
 50
0.0
  9
$ANGDIR
 70
     0
  9
$PDMODE
 70
   171
  9
$PDSIZE
 40
0.001
  9
$PLINEWID
 40
0.0
  9
$COORDS
 70
     2
  9
$SPLFRAME
 70
     0
  9
$SPLINETYPE
 70
     6
  9
$SPLINESEGS
 70
     8
  9
$ATTDIA
 70
     0
  9
$ATTREQ
 70
     1
  9
$HANDLING
 70
     1
  9
$HANDSEED
  5
67B3
  9
$SURFTAB1
 70
     6
  9
$SURFTAB2
 70
     6
  9
$SURFTYPE
 70
     6
  9
$SURFU
 70
     6
  9
$SURFV
 70
     6
  9
$UCSNAME
  2

  9
$UCSORG
 10
0.0
 20
0.0
 30
0.0
  9
$UCSXDIR
 10
1.0
 20
0.0
 30
0.0
  9
$UCSYDIR
 10
0.0
 20
1.0
 30
0.0
  9
$PUCSNAME
  2

  9
$PUCSORG
 10
0.0
 20
0.0
 30
0.0
  9
$PUCSXDIR
 10
1.0
 20
0.0
 30
0.0
  9
$PUCSYDIR
 10
0.0
 20
1.0
 30
0.0
  9
$USERI1
 70
     0
  9
$USERI2
 70
     0
  9
$USERI3
 70
     0
  9
$USERI4
 70
     0
  9
$USERI5
 70
     0
  9
$USERR1
 40
0.0
  9
$USERR2
 40
0.0
  9
$USERR3
 40
0.0
  9
$USERR4
 40
0.0
  9
$USERR5
 40
0.0
  9
$WORLDVIEW
 70
     1
  9
$SHADEDGE
 70
     3
  9
$SHADEDIF
 70
    70
  9
$TILEMODE
 70
     1
  9
$MAXACTVP
 70
    48
  9
$PLIMCHECK
 70
     0
  9
$PEXTMIN
 10
1.0000000000000000E+020
 20
1.0000000000000000E+020
 30
1.0000000000000000E+020
  9
$PEXTMAX
 10
-1.0000000000000000E+020
 20
-1.0000000000000000E+020
 30
-1.0000000000000000E+020
  9
$PLIMMIN
 10
0.0
 20
0.0
  9
$PLIMMAX
 10
12.0
 20
9.0
  9
$UNITMODE
 70
     0
  9
$VISRETAIN
 70
     1
  9
$PLINEGEN
 70
     0
  9
$PSLTSCALE
 70
     0
  0
ENDSEC
  0
SECTION
  2
TABLES
  0
TABLE
  2
VPORT
 70
     3
  0
VPORT
  2
*ACTIVE
 70
     0
 10
0.0
 20
0.0
 11
1.0
 21
1.0
 12
-312.46587698197192
 22
77.183157964534075
 13
457.99999999999972
 23
1082.0
 14
10.0
 24
10.0
 15
10.0
 25
10.0
 16
0.0
 26
0.0
 36
1.0
 17
0.0
 27
0.0
 37
0.0
 40
400.13884307538717
 41
1.7038081805359659
 42
1.0
 43
0.0
 44
0.0
 50
0.0
 51
0.0
 71
     0
 72
   100
 73
     1
 74
     1
 75
     0
 76
     0
 77
     0
 78
     0
  0
ENDTAB
  0
TABLE
  2
LTYPE
 70
     5
  0
LTYPE
  2
ByBlock
 70
     0
  3

 72
    65
 73
     0
 40
0.0
  0
LTYPE
  2
ByLayer
 70
     0
  3

 72
    65
 73
     0
 40
0.0
  0
LTYPE
  2
CONTINUOUS
 70
     0
  3
łsÄň˝u ________________________
 72
    65
 73
     2
 40
200000.0
 49
200000.0
 49
0.0
  0
LTYPE
  2
CENTER2
 70
     0
  3
Center (.5x) ___ _ ___ _ ___ _ ___ _ ___ _ ___
 72
    65
 73
     4
 40
28.574999999999999
 49
19.050000000000001
 49
-3.1749999999999989
 49
3.1749999999999989
 49
-3.1749999999999989
  0
LTYPE
  2
DASHED2
 70
     0
  3
Dashed (.5x) _ _ _ _ _ _ _ _ _ _ _ _ _ _ _ _ _
 72
    65
 73
     2
 40
9.5249999999999986
 49
6.3499999999999988
 49
-3.1749999999999989
  0
ENDTAB
  0
TABLE
  2
LAYER
 70
     7
  0
LAYER
  2
0
 70
     0
 62
     7
  6
CONTINUOUS
  0
LAYER
  2
«ü˝u
 70
     0
 62
     3
  6
CONTINUOUS
  0
LAYER
  2
¤¤¤ß˝u
 70
     0
 62
     4
  6
CENTER2
  0
LAYER
  2
µę˝u
 70
     0
 62
     6
  6
DASHED2
  0
LAYER
  2
«Řşc˝u
 70
     0
 62
     1
  6
CONTINUOUS
  0
LAYER
  2
AM5
 70
     0
 62
     3
  6
CONTINUOUS
  0
LAYER
  2
AM7
 70
     0
 62
     4
  6
CENTER2
  0
ENDTAB
  0
TABLE
  2
STYLE
 70
     2
  0
STYLE
  2
STANDARD
 70
     0
 40
0.0
 41
1.0
 50
0.0
 71
     0
 42
3.0
  3
txt
  4

  0
STYLE
  2
«¬¦ˇ2
 70
     0
 40
0.0
 41
1.0
 50
0.0
 71
     0
 42
2.5
  3
txt
  4

  0
ENDTAB
  0
TABLE
  2
VIEW
 70
     0
  0
ENDTAB
  0
TABLE
  2
UCS
 70
     0
  0
ENDTAB
  0
TABLE
  2
APPID
 70
     4
  0
APPID
  2
ACAD
 70
     0
  0
APPID
  2
TCAD
 70
     0
  0
APPID
  2
CONTENTBLOCKICON
 70
     0
  0
APPID
  2
PNTFLAG
 70
     0
  0
ENDTAB
  0
TABLE
  2
DIMSTYLE
 70
     2
  0
DIMSTYLE
  2
STANDARD
 70
     0
  3

  4

  5

  6

  7

 40
1.0
 41
0.18
 42
0.0625
 43
0.38
 44
0.18
 45
0.0
 46
0.0
 47
0.0
 48
0.0
140
0.18
141
0.09
142
0.0
143
25.399999999999999
144
1.0
145
0.0
146
1.0
147
0.09
 71
     0
 72
     0
 73
     1
 74
     1
 75
     0
 76
     0
 77
     0
 78
     0
170
     0
171
     2
172
     0
173
     0
174
     0
175
     0
176
     0
177
     0
178
     0
  0
DIMSTYLE
  2
ISO-25
 70
     0
  3

  4

  5

  6

  7

 40
1.0
 41
2.399999999999999
 42
0.7
 43
3.2000000000000002
 44
0.7
 45
0.0
 46
0.0
 47
0.0
 48
0.0
140
2.5
141
2.5
142
0.0
143
0.03937007874016
144
1.0
145
0.0
146
1.0
147
0.7
 71
     0
 72
     0
 73
     0
 74
     0
 75
     0
 76
     0
 77
     1
 78
     1
170
     0
171
     3
172
     1
173
     0
174
     0
175
     0
176
   256
177
   256
178
   256
  0
ENDTAB
  0
ENDSEC
  0
SECTION
  2
BLOCKS
  0
BLOCK
  8
0
  2
$MODEL_SPACE
 70
     0
 10
0.0
 20
0.0
 30
0.0
  3
$MODEL_SPACE
  1

  0
ENDBLK
  5
255
  8
0
  0
BLOCK
 67
     1
  8
0
  2
$PAPER_SPACE
 70
     0
 10
0.0
 20
0.0
 30
0.0
  3
$PAPER_SPACE
  1

  0
ENDBLK
  5
253
 67
     1
  8
0
  0
BLOCK
  8
0
  2
HGW45CC_F
 70
     0
 10
0.0
 20
0.0
 30
0.0
  3
HGW45CC_F
  1

  0
LINE
  5
5DC3
  8
0
 10
-64.500000000000057
 20
45.999999999999957
 30
0.0
 11
-48.50000000000005
 21
45.999999999999957
 31
0.0
  0
LINE
  5
5DC4
  8
0
 10
-64.500000000000057
 20
48.999999999999972
 30
0.0
 11
-48.50000000000005
 21
48.999999999999972
 31
0.0
  0
LINE
  5
5DC5
  8
¤¤¤ß˝u
 10
-64.613785271176596
 20
29.999999999999972
 30
0.0
 11
-52.386214728823632
 21
29.999999999999972
 31
0.0
  0
LINE
  5
5DC6
  8
0
 10
-48.50000000000005
 20
0.0
 30
0.0
 11
-64.500000000000057
 21
0.0
 31
0.0
  0
LINE
  5
5DC7
  8
0
 10
-64.500000000000057
 20
2.9999999999997429
 30
0.0
 11
64.500000000000057
 21
2.9999999999997158
 31
0.0
  0
LINE
  5
5DC8
  8
0
 10
-64.500000000000057
 20
0.0
 30
0.0
 11
-64.500000000000057
 21
48.999999999999972
 31
0.0
  0
LINE
  5
5DC9
  8
0
 10
-64.500000000000057
 20
0.0
 30
0.0
 11
-64.500000000000057
 21
48.999999999999972
 31
0.0
  0
CIRCLE
  5
5DCA
  8
0
 10
-58.50000000000005
 20
29.999999999999972
 30
0.0
 40
4.5499999999999989
  0
CIRCLE
  5
5DCB
  8
0
 10
-58.50000000000005
 20
29.999999999999972
 30
0.0
 40
4.25
  0
CIRCLE
  5
5DCC
  8
0
 10
-58.50000000000005
 20
29.999999999999972
 30
0.0
 40
3.9375
  0
LINE
  5
5DCD
  8
¤¤¤ß˝u
 10
-58.50000000000005
 20
24.389737364747329
 30
0.0
 11
-58.50000000000005
 21
35.610262635252838
 31
0.0
  0
CIRCLE
  5
5DCE
  8
0
 10
-58.50000000000005
 20
29.999999999999972
 30
0.0
 40
0.75
  0
LINE
  5
5DCF
  8
0
 10
-32.304001534114782
 20
28.496767052336189
 30
0.0
 11
32.298735136686162
 21
28.496767052336189
 31
0.0
  0
LINE
  5
5DD0
  8
0
 10
-48.499999999999943
 20
50.496963857721681
 30
0.0
 11
48.499999999999943
 21
50.496963857721617
 31
0.0
  0
LINE
  5
5DD1
  8
0
 10
-48.50000000000005
 20
0.0
 30
0.0
 11
48.50000000000005
 21
0.0
 31
0.0
  0
LINE
  5
5DD2
  8
0
 10
-48.499999999999829
 20
48.496635381115617
 30
0.0
 11
48.50000000000005
 21
48.49663538111556
 31
0.0
  0
LINE
  5
5DD3
  8
µę˝u
 10
-34.000115057190392
 20
49.795978356410409
 30
0.0
 11
-34.002316031207727
 21
36.395978537167281
 31
0.0
  0
LINE
  5
5DD4
  8
µę˝u
 10
-34.87511504538719
 20
49.796122076728658
 30
0.0
 11
-34.877316019404532
 21
36.39612225748553
 31
0.0
  0
LINE
  5
5DD5
  8
µę˝u
 10
-46.000114895318511
 20
49.797949377918457
 30
0.0
 11
-46.00231586933586
 21
36.397949558675322
 31
0.0
  0
LINE
  5
5DD6
  8
µę˝u
 10
-45.125114907121592
 20
49.797805657600151
 30
0.0
 11
-45.127315881138941
 21
36.397805838357023
 31
0.0
  0
LINE
  5
5DD7
  8
¤¤¤ß˝u
 10
-39.999671496415147
 20
52.496963830743049
 30
0.0
 11
-40.002900274823283
 21
32.839471399902813
 31
0.0
  0
LINE
  5
5DD8
  8
0
 10
-48.499999999999943
 20
50.496963857721681
 30
0.0
 11
-48.50000000000005
 21
0.0
 31
0.0
  0
POLYLINE
  5
5DD9
  8
0
 66
     1
 10
0.0
 20
0.0
 30
0.0
  0
VERTEX
  5
658A
  8
0
 10
-47.743903590732252
 20
28.804810749108778
 30
0.0
  0
VERTEX
  5
658B
  8
0
 10
-47.735839025975622
 20
28.70694009894541
 30
0.0
  0
VERTEX
  5
658C
  8
0
 10
-47.712539036532633
 20
28.559261635580221
 30
0.0
  0
VERTEX
  5
658D
  8
0
 10
-47.701863736938598
 20
28.4999374344155
 30
0.0
  0
VERTEX
  5
658E
  8
0
 10
-47.658423183118487
 20
28.269967124148678
 30
0.0
  0
VERTEX
  5
658F
  8
0
 10
-47.618733331173587
 20
28.0580854257216
 30
0.0
  0
VERTEX
  5
6590
  8
0
 10
-47.550235168608701
 20
27.65520363208336
 30
0.0
  0
VERTEX
  5
6591
  8
0
 10
-47.486460357922901
 20
27.182502020379019
 30
0.0
  0
VERTEX
  5
6592
  8
0
 10
-47.468864987693159
 20
27.014453788504479
 30
0.0
  0
VERTEX
  5
6593
  8
0
 10
-47.444681632116662
 20
26.723011002773859
 30
0.0
  0
VERTEX
  5
6594
  8
0
 10
-47.422560196919378
 20
26.44021032898204
 30
0.0
  0
VERTEX
  5
6595
  8
0
 10
-47.374106000121678
 20
25.855076551553431
 30
0.0
  0
VERTEX
  5
6596
  8
0
 10
-47.268615175376958
 20
24.71047512833681
 30
0.0
  0
VERTEX
  5
6597
  8
0
 10
-47.060616318570681
 20
22.80914014432901
 30
0.0
  0
VERTEX
  5
6598
  8
0
 10
-46.801159699972402
 20
20.860206756307289
 30
0.0
  0
VERTEX
  5
6599
  8
0
 10
-46.703629278908522
 20
20.212009848541669
 30
0.0
  0
VERTEX
  5
659A
  8
0
 10
-46.384236538495138
 20
18.322202094854529
 30
0.0
  0
VERTEX
  5
659B
  8
0
 10
-46.099128923693172
 20
16.87217643220626
 30
0.0
  0
VERTEX
  5
659C
  8
0
 10
-45.851083424137471
 20
15.74951339120272
 30
0.0
  0
VERTEX
  5
659D
  8
0
 10
-45.534355772317831
 20
14.466607310373179
 30
0.0
  0
VERTEX
  5
659E
  8
0
 10
-45.261160282648632
 20
13.475353142534541
 30
0.0
  0
VERTEX
  5
659F
  8
0
 10
-44.88836451858873
 20
12.26726852259455
 30
0.0
  0
VERTEX
  5
65A0
  8
0
 10
-44.565160695833178
 20
11.337871171334511
 30
0.0
  0
VERTEX
  5
65A1
  8
0
 10
-44.13232999268763
 20
10.24103031447188
 30
0.0
  0
VERTEX
  5
65A2
  8
0
 10
-44.019743732862992
 20
9.981010435150182
 30
0.0
  0
VERTEX
  5
65A3
  8
0
 10
-43.9617283598173
 20
9.8524952425843537
 30
0.0
  0
VERTEX
  5
65A4
  8
0
 10
-43.876953610080079
 20
9.6965175083788324
 30
0.0
  0
VERTEX
  5
65A5
  8
0
 10
-43.672141008510877
 20
9.4202758234484634
 30
0.0
  0
VERTEX
  5
65A6
  8
0
 10
-43.483984067916083
 20
9.2340776271629181
 30
0.0
  0
VERTEX
  5
65A7
  8
0
 10
-43.208544344006718
 20
9.0268202569075982
 30
0.0
  0
VERTEX
  5
65A8
  8
0
 10
-42.839469106610572
 20
8.8244892183515447
 30
0.0
  0
VERTEX
  5
65A9
  8
0
 10
-42.533156601266398
 20
8.6994221210380545
 30
0.0
  0
VERTEX
  5
65AA
  8
0
 10
-42.087014231228459
 20
8.5640429583937419
 30
0.0
  0
VERTEX
  5
65AB
  8
0
 10
-41.449261363020291
 20
8.4383658212314856
 30
0.0
  0
VERTEX
  5
65AC
  8
0
 10
-40.787432592265581
 20
8.3659495859367041
 30
0.0
  0
VERTEX
  5
65AD
  8
0
 10
-40.265798530318698
 20
8.3411860405825262
 30
0.0
  0
VERTEX
  5
65AE
  8
0
 10
-39.554620073353647
 20
8.3468951138880527
 30
0.0
  0
VERTEX
  5
65AF
  8
0
 10
-39.00499966532022
 20
8.3839341452661245
 30
0.0
  0
VERTEX
  5
65B0
  8
0
 10
-38.322955912278132
 20
8.4765779642535506
 30
0.0
  0
VERTEX
  5
65B1
  8
0
 10
-37.809146039504697
 20
8.5929527996582635
 30
0.0
  0
VERTEX
  5
65B2
  8
0
 10
-37.349311634292746
 20
8.7454439345319486
 30
0.0
  0
VERTEX
  5
65B3
  8
0
 10
-37.014548149559289
 20
8.8991283937652668
 30
0.0
  0
VERTEX
  5
65B4
  8
0
 10
-36.770006142448153
 20
9.0443629368691916
 30
0.0
  0
VERTEX
  5
65B5
  8
0
 10
-36.48564107864496
 20
9.2656059563175575
 30
0.0
  0
VERTEX
  5
65B6
  8
0
 10
-36.290800589787239
 20
9.4689963650419884
 30
0.0
  0
VERTEX
  5
65B7
  8
0
 10
-36.10455867869581
 20
9.7361223790349811
 30
0.0
  0
VERTEX
  5
65B8
  8
0
 10
-36.036623241220177
 20
9.8662951165709671
 30
0.0
  0
VERTEX
  5
65B9
  8
0
 10
-35.978975013892239
 20
9.9950912203739506
 30
0.0
  0
VERTEX
  5
65BA
  8
0
 10
-35.549324956574033
 20
11.044984358211851
 30
0.0
  0
VERTEX
  5
65BB
  8
0
 10
-35.120806018564231
 20
12.25434147993232
 30
0.0
  0
VERTEX
  5
65BC
  8
0
 10
-34.822811871318152
 20
13.20605435387526
 30
0.0
  0
VERTEX
  5
65BD
  8
0
 10
-34.44777024270735
 20
14.55247975999109
 30
0.0
  0
VERTEX
  5
65BE
  8
0
 10
-34.050289587245352
 20
16.203016676839841
 30
0.0
  0
VERTEX
  5
65BF
  8
0
 10
-33.77900220291491
 20
17.494857311904148
 30
0.0
  0
VERTEX
  5
65C0
  8
0
 10
-33.443060408529107
 20
19.332714909876671
 30
0.0
  0
VERTEX
  5
65C1
  8
0
 10
-33.150722591236622
 20
21.230020327461229
 30
0.0
  0
VERTEX
  5
65C2
  8
0
 10
-33.064085619122409
 20
21.863937589735741
 30
0.0
  0
VERTEX
  5
65C3
  8
0
 10
-32.847490692591627
 20
23.646436033593631
 30
0.0
  0
VERTEX
  5
65C4
  8
0
 10
-32.663573157154993
 20
25.482474438693181
 30
0.0
  0
VERTEX
  5
65C5
  8
0
 10
-32.610494973546622
 20
26.095213392503162
 30
0.0
  0
VERTEX
  5
65C6
  8
0
 10
-32.566921258664202
 20
26.63653147201169
 30
0.0
  0
VERTEX
  5
65C7
  8
0
 10
-32.546569754792301
 20
26.89805586591385
 30
0.0
  0
VERTEX
  5
65C8
  8
0
 10
-32.522165253185847
 20
27.149608223596911
 30
0.0
  0
VERTEX
  5
65C9
  8
0
 10
-32.468769356456448
 20
27.56282425312904
 30
0.0
  0
VERTEX
  5
65CA
  8
0
 10
-32.406759036707122
 20
27.943753583796681
 30
0.0
  0
VERTEX
  5
65CB
  8
0
 10
-32.386020316881229
 20
28.0590328356827
 30
0.0
  0
VERTEX
  5
65CC
  8
0
 10
-32.33553525135784
 20
28.328202140647669
 30
0.0
  0
VERTEX
  5
65CD
  8
0
 10
-32.297670674292881
 20
28.530608949838179
 30
0.0
  0
VERTEX
  5
65CE
  8
0
 10
-32.27111278018964
 20
28.691602608349712
 30
0.0
  0
VERTEX
  5
65CF
  8
0
 10
-32.265771793555423
 20
28.733924461420859
 30
0.0
  0
VERTEX
  5
65D0
  8
0
 10
-32.261588399927582
 20
28.82205268960897
 30
0.0
  0
VERTEX
  5
65D1
  8
0
 10
-32.270280651514042
 20
28.856441422229839
 30
0.0
  0
VERTEX
  5
65D2
  8
0
 10
-32.279316886798433
 20
28.862078995227161
 30
0.0
  0
SEQEND
  5
65D3
  8
0
  0
LINE
  5
5DDA
  8
0
 10
-47.743903590732252
 20
35.498097397428722
 30
0.0
 11
-32.261023590732009
 21
35.498097397428722
 31
0.0
  0
LINE
  5
5DDB
  8
µę˝u
 10
-46.00231586933586
 20
36.397949558675322
 30
0.0
 11
-34.002316031207727
 21
36.395978537167281
 31
0.0
  0
LINE
  5
5DDC
  8
0
 10
-47.743903590732252
 20
35.498097397428722
 30
0.0
 11
-47.743903590732252
 21
28.86257739742863
 31
0.0
  0
LINE
  5
5DDD
  8
0
 10
-48.50000000000005
 20
28.496767052336139
 30
0.0
 11
-47.701264863313611
 21
28.496767052336189
 31
0.0
  0
LINE
  5
5DDE
  8
µę˝u
 10
-46.00231586933586
 20
36.397949558675322
 30
0.0
 11
-46.902463683808662
 21
35.498097397428722
 31
0.0
  0
LINE
  5
5DDF
  8
0
 10
-32.261023590732009
 20
35.498097397428722
 30
0.0
 11
-32.261023590732009
 21
28.86257739742863
 31
0.0
  0
LINE
  5
5DE0
  8
µę˝u
 10
-34.002316031207727
 20
36.395978537167281
 30
0.0
 11
-33.102463869961127
 21
35.495830722694421
 31
0.0
  0
LINE
  5
5DE1
  8
µę˝u
 10
-46.000114895318511
 20
49.797949377918457
 30
0.0
 11
-34.000115057190392
 21
49.795978356410409
 31
0.0
  0
LINE
  5
5DE2
  8
µę˝u
 10
-46.000114895318511
 20
49.797949377918457
 30
0.0
 11
-46.69999990962134
 21
50.498064344730352
 31
0.0
  0
LINE
  5
5DE3
  8
µę˝u
 10
-34.000115057190392
 20
49.795978356410409
 30
0.0
 11
-33.300000090377978
 21
50.49586337071301
 31
0.0
  0
LINE
  5
5DE4
  8
0
 10
48.50000000000005
 20
50.496963857721617
 30
0.0
 11
48.50000000000005
 21
0.0
 31
0.0
  0
LINE
  5
5DE5
  8
0
 10
64.500000000000057
 20
0.0
 30
0.0
 11
64.500000000000057
 21
48.999999999999972
 31
0.0
  0
LINE
  5
5DE6
  8
µę˝u
 10
45.999884942809381
 20
49.795978356410359
 30
0.0
 11
45.997683968792053
 21
36.395978537167217
 31
0.0
  0
LINE
  5
5DE7
  8
µę˝u
 10
45.124884954612583
 20
49.796122076728608
 30
0.0
 11
45.122683980595241
 21
36.396122257485473
 31
0.0
  0
LINE
  5
5DE8
  8
µę˝u
 10
33.999885104681262
 20
49.7979493779184
 30
0.0
 11
33.99768413066392
 21
36.397949558675272
 31
0.0
  0
LINE
  5
5DE9
  8
µę˝u
 10
34.874885092878181
 20
49.797805657600087
 30
0.0
 11
34.872684118860832
 21
36.397805838356959
 31
0.0
  0
LINE
  5
5DEA
  8
¤¤¤ß˝u
 10
40.000328503584619
 20
52.496963830742999
 30
0.0
 11
39.997099725176497
 21
32.839471399902749
 31
0.0
  0
LINE
  5
5DEB
  8
0
 10
48.50000000000005
 20
0.0
 30
0.0
 11
64.500000000000057
 21
0.0
 31
0.0
  0
POLYLINE
  5
5DEC
  8
0
 66
     1
 10
0.0
 20
0.0
 30
0.0
  0
VERTEX
  5
65D4
  8
0
 10
32.256096409267521
 20
28.804810749108778
 30
0.0
  0
VERTEX
  5
65D5
  8
0
 10
32.264160974024151
 20
28.70694009894541
 30
0.0
  0
VERTEX
  5
65D6
  8
0
 10
32.28746096346714
 20
28.559261635580221
 30
0.0
  0
VERTEX
  5
65D7
  8
0
 10
32.298136263061167
 20
28.4999374344155
 30
0.0
  0
VERTEX
  5
65D8
  8
0
 10
32.341576816881293
 20
28.269967124148678
 30
0.0
  0
VERTEX
  5
65D9
  8
0
 10
32.381266668826193
 20
28.0580854257216
 30
0.0
  0
VERTEX
  5
65DA
  8
0
 10
32.449764831391072
 20
27.65520363208336
 30
0.0
  0
VERTEX
  5
65DB
  8
0
 10
32.513539642076857
 20
27.182502020379019
 30
0.0
  0
VERTEX
  5
65DC
  8
0
 10
32.531135012306613
 20
27.014453788504479
 30
0.0
  0
VERTEX
  5
65DD
  8
0
 10
32.55531836788311
 20
26.723011002773859
 30
0.0
  0
VERTEX
  5
65DE
  8
0
 10
32.577439803080381
 20
26.44021032898204
 30
0.0
  0
VERTEX
  5
65DF
  8
0
 10
32.625893999878087
 20
25.855076551553431
 30
0.0
  0
VERTEX
  5
65E0
  8
0
 10
32.731384824622808
 20
24.71047512833681
 30
0.0
  0
VERTEX
  5
65E1
  8
0
 10
32.939383681429092
 20
22.80914014432901
 30
0.0
  0
VERTEX
  5
65E2
  8
0
 10
33.198840300027371
 20
20.860206756307289
 30
0.0
  0
VERTEX
  5
65E3
  8
0
 10
33.29637072109125
 20
20.212009848541669
 30
0.0
  0
VERTEX
  5
65E4
  8
0
 10
33.615763461504628
 20
18.322202094854529
 30
0.0
  0
VERTEX
  5
65E5
  8
0
 10
33.900871076306601
 20
16.87217643220626
 30
0.0
  0
VERTEX
  5
65E6
  8
0
 10
34.148916575862302
 20
15.74951339120272
 30
0.0
  0
VERTEX
  5
65E7
  8
0
 10
34.465644227681942
 20
14.466607310373179
 30
0.0
  0
VERTEX
  5
65E8
  8
0
 10
34.738839717351141
 20
13.475353142534541
 30
0.0
  0
VERTEX
  5
65E9
  8
0
 10
35.111635481411042
 20
12.26726852259455
 30
0.0
  0
VERTEX
  5
65EA
  8
0
 10
35.434839304166587
 20
11.337871171334511
 30
0.0
  0
VERTEX
  5
65EB
  8
0
 10
35.867670007312142
 20
10.24103031447188
 30
0.0
  0
VERTEX
  5
65EC
  8
0
 10
35.980256267136781
 20
9.981010435150182
 30
0.0
  0
VERTEX
  5
65ED
  8
0
 10
36.038271640182472
 20
9.8524952425843537
 30
0.0
  0
VERTEX
  5
65EE
  8
0
 10
36.123046389919693
 20
9.6965175083788324
 30
0.0
  0
VERTEX
  5
65EF
  8
0
 10
36.327858991488881
 20
9.4202758234484634
 30
0.0
  0
VERTEX
  5
65F0
  8
0
 10
36.51601593208369
 20
9.2340776271629181
 30
0.0
  0
VERTEX
  5
65F1
  8
0
 10
36.791455655993047
 20
9.0268202569075982
 30
0.0
  0
VERTEX
  5
65F2
  8
0
 10
37.160530893389193
 20
8.8244892183515447
 30
0.0
  0
VERTEX
  5
65F3
  8
0
 10
37.466843398733381
 20
8.6994221210380545
 30
0.0
  0
VERTEX
  5
65F4
  8
0
 10
37.912985768771307
 20
8.5640429583937419
 30
0.0
  0
VERTEX
  5
65F5
  8
0
 10
38.550738636979482
 20
8.4383658212314856
 30
0.0
  0
VERTEX
  5
65F6
  8
0
 10
39.212567407734191
 20
8.3659495859367041
 30
0.0
  0
VERTEX
  5
65F7
  8
0
 10
39.734201469681068
 20
8.3411860405825262
 30
0.0
  0
VERTEX
  5
65F8
  8
0
 10
40.445379926646119
 20
8.3468951138880527
 30
0.0
  0
VERTEX
  5
65F9
  8
0
 10
40.99500033467956
 20
8.3839341452661245
 30
0.0
  0
VERTEX
  5
65FA
  8
0
 10
41.67704408772164
 20
8.4765779642535506
 30
0.0
  0
VERTEX
  5
65FB
  8
0
 10
42.190853960495069
 20
8.5929527996582635
 30
0.0
  0
VERTEX
  5
65FC
  8
0
 10
42.650688365707019
 20
8.7454439345319486
 30
0.0
  0
VERTEX
  5
65FD
  8
0
 10
42.985451850440477
 20
8.8991283937652668
 30
0.0
  0
VERTEX
  5
65FE
  8
0
 10
43.229993857551619
 20
9.0443629368691916
 30
0.0
  0
VERTEX
  5
65FF
  8
0
 10
43.514358921354813
 20
9.2656059563175575
 30
0.0
  0
VERTEX
  5
6600
  8
0
 10
43.709199410212527
 20
9.4689963650419884
 30
0.0
  0
VERTEX
  5
6601
  8
0
 10
43.895441321303963
 20
9.7361223790349811
 30
0.0
  0
VERTEX
  5
6602
  8
0
 10
43.963376758779582
 20
9.8662951165709671
 30
0.0
  0
VERTEX
  5
6603
  8
0
 10
44.021024986107527
 20
9.9950912203739506
 30
0.0
  0
VERTEX
  5
6604
  8
0
 10
44.45067504342574
 20
11.044984358211851
 30
0.0
  0
VERTEX
  5
6605
  8
0
 10
44.879193981435549
 20
12.25434147993232
 30
0.0
  0
VERTEX
  5
6606
  8
0
 10
45.177188128681621
 20
13.20605435387526
 30
0.0
  0
VERTEX
  5
6607
  8
0
 10
45.552229757292423
 20
14.55247975999109
 30
0.0
  0
VERTEX
  5
6608
  8
0
 10
45.94971041275442
 20
16.203016676839841
 30
0.0
  0
VERTEX
  5
6609
  8
0
 10
46.220997797084863
 20
17.494857311904148
 30
0.0
  0
VERTEX
  5
660A
  8
0
 10
46.556939591470659
 20
19.332714909876671
 30
0.0
  0
VERTEX
  5
660B
  8
0
 10
46.84927740876315
 20
21.230020327461229
 30
0.0
  0
VERTEX
  5
660C
  8
0
 10
46.935914380877357
 20
21.863937589735741
 30
0.0
  0
VERTEX
  5
660D
  8
0
 10
47.152509307408138
 20
23.646436033593631
 30
0.0
  0
VERTEX
  5
660E
  8
0
 10
47.33642684284478
 20
25.482474438693181
 30
0.0
  0
VERTEX
  5
660F
  8
0
 10
47.389505026453151
 20
26.095213392503162
 30
0.0
  0
VERTEX
  5
6610
  8
0
 10
47.433078741335578
 20
26.63653147201169
 30
0.0
  0
VERTEX
  5
6611
  8
0
 10
47.453430245207471
 20
26.89805586591385
 30
0.0
  0
VERTEX
  5
6612
  8
0
 10
47.477834746813919
 20
27.149608223596911
 30
0.0
  0
VERTEX
  5
6613
  8
0
 10
47.531230643543317
 20
27.56282425312904
 30
0.0
  0
VERTEX
  5
6614
  8
0
 10
47.593240963292651
 20
27.943753583796681
 30
0.0
  0
VERTEX
  5
6615
  8
0
 10
47.613979683118536
 20
28.0590328356827
 30
0.0
  0
VERTEX
  5
6616
  8
0
 10
47.664464748641933
 20
28.328202140647669
 30
0.0
  0
VERTEX
  5
6617
  8
0
 10
47.702329325706899
 20
28.530608949838179
 30
0.0
  0
VERTEX
  5
6618
  8
0
 10
47.728887219810133
 20
28.691602608349712
 30
0.0
  0
VERTEX
  5
6619
  8
0
 10
47.734228206444357
 20
28.733924461420859
 30
0.0
  0
VERTEX
  5
661A
  8
0
 10
47.73841160007219
 20
28.82205268960897
 30
0.0
  0
VERTEX
  5
661B
  8
0
 10
47.729719348485723
 20
28.856441422229839
 30
0.0
  0
VERTEX
  5
661C
  8
0
 10
47.720683113201339
 20
28.862078995227161
 30
0.0
  0
SEQEND
  5
661D
  8
0
  0
LINE
  5
5DED
  8
µę˝u
 10
33.99768413066392
 20
36.397949558675272
 30
0.0
 11
33.09753631619111
 21
35.498097397428673
 31
0.0
  0
LINE
  5
5DEE
  8
0
 10
32.256096409267521
 20
35.498097397428722
 30
0.0
 11
47.738976409267757
 21
35.498097397428722
 31
0.0
  0
LINE
  5
5DEF
  8
0
 10
32.256096409267521
 20
35.498097397428722
 30
0.0
 11
32.256096409267521
 21
28.86257739742863
 31
0.0
  0
LINE
  5
5DF0
  8
0
 10
47.738976409267757
 20
35.498097397428722
 30
0.0
 11
47.738976409267757
 21
28.86257739742863
 31
0.0
  0
LINE
  5
5DF1
  8
0
 10
47.695998465884998
 20
28.496767052336189
 30
0.0
 11
48.500000000000171
 21
28.496767052336189
 31
0.0
  0
LINE
  5
5DF2
  8
µę˝u
 10
33.99768413066392
 20
36.397949558675272
 30
0.0
 11
45.997683968792053
 21
36.395978537167217
 31
0.0
  0
LINE
  5
5DF3
  8
µę˝u
 10
45.997683968792053
 20
36.395978537167217
 30
0.0
 11
46.897536130038652
 21
35.495830722694372
 31
0.0
  0
LINE
  5
5DF4
  8
¤¤¤ß˝u
 10
58.50000000000005
 20
24.389737364747219
 30
0.0
 11
58.50000000000005
 21
35.610262635252731
 31
0.0
  0
CIRCLE
  5
5DF5
  8
0
 10
58.50000000000005
 20
29.999999999999972
 30
0.0
 40
4.5499999999999989
  0
CIRCLE
  5
5DF6
  8
0
 10
58.50000000000005
 20
29.999999999999972
 30
0.0
 40
3.9375
  0
CIRCLE
  5
5DF7
  8
0
 10
58.50000000000005
 20
29.999999999999972
 30
0.0
 40
4.25
  0
CIRCLE
  5
5DF8
  8
0
 10
58.50000000000005
 20
29.999999999999972
 30
0.0
 40
0.75
  0
LINE
  5
5DF9
  8
¤¤¤ß˝u
 10
52.386214728823518
 20
29.999999999999972
 30
0.0
 11
64.613785271176596
 21
29.999999999999972
 31
0.0
  0
LINE
  5
5DFA
  8
0
 10
64.500000000000057
 20
48.999999999999972
 30
0.0
 11
48.50000000000005
 21
48.999999999999972
 31
0.0
  0
LINE
  5
5DFB
  8
0
 10
64.500000000000057
 20
45.999999999999957
 30
0.0
 11
48.50000000000005
 21
45.999999999999957
 31
0.0
  0
LINE
  5
5DFC
  8
µę˝u
 10
33.999885104681262
 20
49.7979493779184
 30
0.0
 11
45.999884942809381
 21
49.795978356410359
 31
0.0
  0
LINE
  5
5DFD
  8
µę˝u
 10
33.999885104681262
 20
49.7979493779184
 30
0.0
 11
33.300000090378433
 21
50.498064344730302
 31
0.0
  0
LINE
  5
5DFE
  8
µę˝u
 10
45.999884942809381
 20
49.795978356410359
 30
0.0
 11
46.699999909621788
 21
50.495863370712947
 31
0.0
  0
ENDBLK
  5
5E00
  8
0
  0
BLOCK
  8
0
  2
*U2
 70
     1
 10
0.0
 20
0.0
 30
0.0
  3
*U2
  1

  0
TEXT
  5
661F
  8
0
 10
-540.77984974662741
 20
-43.18643927581703
 30
0.0
 40
7.8000001593418631
  1
HGW45CC
  0
TEXT
  5
6620
  8
0
 10
-540.9991720294064
 20
-56.284853386223489
 30
0.0
 40
7.8000001593418631
  1
C : 7910 kgf
  0
TEXT
  5
6621
  8
0
 10
-540.9991720294064
 20
-69.482880865643978
 30
0.0
 40
7.8000001593418631
  1
C
  0
TEXT
  5
6622
  8
0
 10
-533.31726848386847
 20
-64.672880767383162
 30
0.0
 40
5.4600001115393031
  1

  0
TEXT
  5
6623
  8
0
 10
-534.14588638697467
 20
-71.945482541967351
 30
0.0
 40
5.4600001115393031
  1
0
  0
TEXT
  5
6624
  8
0
 10
-529.70686190604863
 20
-69.484050865667882
 30
0.0
 40
7.8023401593896651
  1
: 15900 kgf
  0
ENDBLK
  5
6626
  8
0
  0
ENDSEC
  0
SECTION
  2
ENTITIES
  0
INSERT
  5
5EE4
  8
0
  2
*U2
 10
0.0
 20
0.0
 30
0.0
  0
LINE
  5
62B0
  8
0
 10
-135.57107822543091
 20
142.64298760462191
 30
0.0
 11
-135.57107822543091
 21
187.64371502559669
 31
0.0
  0
LINE
  5
62B1
  8
0
 10
-390.57107822543122
 20
142.64298760462199
 30
0.0
 11
-390.57107822543128
 21
187.6437150255968
 31
0.0
  0
LINE
  5
62B2
  8
0
 10
-321.6657181415477
 20
124.1434348772807
 30
0.0
 11
-302.10244687554689
 21
124.1434348772807
 31
0.0
  0
LINE
  5
62B3
  8
0
 10
-321.6657181415477
 20
206.14343487327341
 30
0.0
 11
-302.10244687554678
 21
206.14343487327341
 31
0.0
  0
LINE
  5
62B4
  8
0
 10
-185.53917560954571
 20
206.14343487327341
 30
0.0
 11
-205.1024468755468
 21
206.14343487327341
 31
0.0
  0
LINE
  5
62B5
  8
0
 10
-185.53917560954571
 20
124.1434348772807
 30
0.0
 11
-205.1024468755468
 21
124.1434348772807
 31
0.0
  0
LINE
  5
62B6
  8
0
 10
-323.30244687554671
 20
0.4930974445592824
 30
0.0
 11
-183.90244687554599
 21
0.4930974445592824
 31
0.0
  0
LINE
  5
62B7
  8
AM7
 10
-253.6024468755468
 20
100.92522345215581
 30
0.0
 11
-253.6024468755468
 21
229.36147917806321
 31
0.0
  0
LINE
  5
62B8
  8
µę˝u
 10
-207.60256193273739
 20
50.288435563677012
 30
0.0
 11
-206.90244696592501
 21
50.9883205779796
 31
0.0
  0
LINE
  5
62B9
  8
µę˝u
 10
-219.60256177086561
 20
50.290406585185053
 30
0.0
 11
-220.3024467851684
 21
50.990521551996949
 31
0.0
  0
LINE
  5
62BA
  8
µę˝u
 10
-219.60256177086561
 20
50.290406585185053
 30
0.0
 11
-207.60256193273739
 21
50.288435563677012
 31
0.0
  0
LINE
  5
62BB
  8
0
 10
-188.4024468755467
 20
46.492457207266618
 30
0.0
 11
-205.1024468755468
 21
46.492457207266618
 31
0.0
  0
LINE
  5
62BC
  8
0
 10
-188.4024468755467
 20
49.492457207266618
 30
0.0
 11
-205.1024468755468
 21
49.492457207266618
 31
0.0
  0
CIRCLE
  5
62BD
  8
0
 10
-194.4024468755467
 20
30.492457207266629
 30
0.0
 40
0.75
  0
CIRCLE
  5
62BE
  8
0
 10
-194.4024468755467
 20
30.492457207266629
 30
0.0
 40
4.25
  0
CIRCLE
  5
62BF
  8
0
 10
-194.4024468755467
 20
30.492457207266629
 30
0.0
 40
3.9375
  0
CIRCLE
  5
62C0
  8
0
 10
-194.4024468755467
 20
30.492457207266629
 30
0.0
 40
4.549999999999998
  0
LINE
  5
62C1
  8
µę˝u
 10
-207.60476290675479
 20
36.888435744433878
 30
0.0
 11
-206.7049107455081
 21
35.988287929961082
 31
0.0
  0
LINE
  5
62C2
  8
µę˝u
 10
-219.60476274488281
 20
36.890406765941982
 30
0.0
 11
-207.60476290675479
 21
36.888435744433878
 31
0.0
  0
LINE
  5
62C3
  8
0
 10
-205.90644840966189
 20
28.98922425960291
 30
0.0
 11
-205.10244687554649
 21
28.98922425960291
 31
0.0
  0
LINE
  5
62C4
  8
0
 10
-205.8634704662791
 20
35.990554604695383
 30
0.0
 11
-205.8634704662791
 21
29.35503460469533
 31
0.0
  0
LINE
  5
62C5
  8
0
 10
-221.3463504662792
 20
35.990554604695383
 30
0.0
 11
-221.3463504662792
 21
29.35503460469533
 31
0.0
  0
LINE
  5
62C6
  8
0
 10
-221.3463504662792
 20
35.990554604695383
 30
0.0
 11
-205.8634704662791
 21
35.990554604695383
 31
0.0
  0
LINE
  5
62C7
  8
µę˝u
 10
-219.60476274488281
 20
36.890406765941982
 30
0.0
 11
-220.50491055935569
 21
35.990554604695383
 31
0.0
  0
POLYLINE
  5
62C8
  8
0
 66
     1
 10
0.0
 20
0.0
 30
0.0
  0
VERTEX
  5
66ED
  8
0
 10
-221.3463504662792
 20
29.29726795637545
 30
0.0
  0
VERTEX
  5
66EE
  8
0
 10
-221.3382859015226
 20
29.199397306212081
 30
0.0
  0
VERTEX
  5
66EF
  8
0
 10
-221.31498591207969
 20
29.051718842846899
 30
0.0
  0
VERTEX
  5
66F0
  8
0
 10
-221.30431061248569
 20
28.992394641682179
 30
0.0
  0
VERTEX
  5
66F1
  8
0
 10
-221.2608700586656
 20
28.76242433141536
 30
0.0
  0
VERTEX
  5
66F2
  8
0
 10
-221.22118020672059
 20
28.550542632988279
 30
0.0
  0
VERTEX
  5
66F3
  8
0
 10
-221.1526820441558
 20
28.147660839350031
 30
0.0
  0
VERTEX
  5
66F4
  8
0
 10
-221.08890723347
 20
27.674959227645701
 30
0.0
  0
VERTEX
  5
66F5
  8
0
 10
-221.0713118632402
 20
27.506910995771161
 30
0.0
  0
VERTEX
  5
66F6
  8
0
 10
-221.04712850766359
 20
27.215468210040541
 30
0.0
  0
VERTEX
  5
66F7
  8
0
 10
-221.02500707246651
 20
26.932667536248719
 30
0.0
  0
VERTEX
  5
66F8
  8
0
 10
-220.97655287566869
 20
26.347533758820109
 30
0.0
  0
VERTEX
  5
66F9
  8
0
 10
-220.87106205092391
 20
25.202932335603489
 30
0.0
  0
VERTEX
  5
66FA
  8
0
 10
-220.66306319411771
 20
23.301597351595682
 30
0.0
  0
VERTEX
  5
66FB
  8
0
 10
-220.4036065755194
 20
21.352663963573981
 30
0.0
  0
VERTEX
  5
66FC
  8
0
 10
-220.3060761544555
 20
20.70446705580834
 30
0.0
  0
VERTEX
  5
66FD
  8
0
 10
-219.9866834140422
 20
18.814659302121211
 30
0.0
  0
VERTEX
  5
66FE
  8
0
 10
-219.70157579924009
 20
17.364633639472942
 30
0.0
  0
VERTEX
  5
66FF
  8
0
 10
-219.45353029968439
 20
16.241970598469411
 30
0.0
  0
VERTEX
  5
6700
  8
0
 10
-219.1368026478649
 20
14.959064517639851
 30
0.0
  0
VERTEX
  5
6701
  8
0
 10
-218.86360715819569
 20
13.967810349801219
 30
0.0
  0
VERTEX
  5
6702
  8
0
 10
-218.49081139413579
 20
12.75972572986122
 30
0.0
  0
VERTEX
  5
6703
  8
0
 10
-218.16760757138019
 20
11.830328378601189
 30
0.0
  0
VERTEX
  5
6704
  8
0
 10
-217.7347768682346
 20
10.73348752173856
 30
0.0
  0
VERTEX
  5
6705
  8
0
 10
-217.62219060840991
 20
10.47346764241686
 30
0.0
  0
VERTEX
  5
6706
  8
0
 10
-217.5641752353643
 20
10.34495244985103
 30
0.0
  0
VERTEX
  5
6707
  8
0
 10
-217.47940048562711
 20
10.188974715645511
 30
0.0
  0
VERTEX
  5
6708
  8
0
 10
-217.27458788405781
 20
9.9127330307151453
 30
0.0
  0
VERTEX
  5
6709
  8
0
 10
-217.0864309434632
 20
9.7265348344296001
 30
0.0
  0
VERTEX
  5
670A
  8
0
 10
-216.81099121955381
 20
9.5192774641742801
 30
0.0
  0
VERTEX
  5
670B
  8
0
 10
-216.44191598215761
 20
9.3169464256182266
 30
0.0
  0
VERTEX
  5
670C
  8
0
 10
-216.13560347681349
 20
9.1918793283047364
 30
0.0
  0
VERTEX
  5
670D
  8
0
 10
-215.6894611067755
 20
9.0565001656604238
 30
0.0
  0
VERTEX
  5
670E
  8
0
 10
-215.05170823856739
 20
8.9308230284981676
 30
0.0
  0
VERTEX
  5
670F
  8
0
 10
-214.38987946781259
 20
8.8584067932033861
 30
0.0
  0
VERTEX
  5
6710
  8
0
 10
-213.86824540586571
 20
8.8336432478492082
 30
0.0
  0
VERTEX
  5
6711
  8
0
 10
-213.15706694890071
 20
8.8393523211547347
 30
0.0
  0
VERTEX
  5
6712
  8
0
 10
-212.60744654086719
 20
8.8763913525328064
 30
0.0
  0
VERTEX
  5
6713
  8
0
 10
-211.92540278782511
 20
8.9690351715202326
 30
0.0
  0
VERTEX
  5
6714
  8
0
 10
-211.4115929150517
 20
9.0854100069249455
 30
0.0
  0
VERTEX
  5
6715
  8
0
 10
-210.95175850983981
 20
9.2379011417986305
 30
0.0
  0
VERTEX
  5
6716
  8
0
 10
-210.61699502510641
 20
9.3915856010319487
 30
0.0
  0
VERTEX
  5
6717
  8
0
 10
-210.37245301799521
 20
9.5368201441358735
 30
0.0
  0
VERTEX
  5
6718
  8
0
 10
-210.08808795419199
 20
9.7580631635842394
 30
0.0
  0
VERTEX
  5
6719
  8
0
 10
-209.8932474653343
 20
9.9614535723086703
 30
0.0
  0
VERTEX
  5
671A
  8
0
 10
-209.7070055542429
 20
10.22857958630166
 30
0.0
  0
VERTEX
  5
671B
  8
0
 10
-209.63907011676719
 20
10.35875232383764
 30
0.0
  0
VERTEX
  5
671C
  8
0
 10
-209.5814218894393
 20
10.487548427640631
 30
0.0
  0
VERTEX
  5
671D
  8
0
 10
-209.15177183212111
 20
11.53744156547851
 30
0.0
  0
VERTEX
  5
671E
  8
0
 10
-208.72325289411131
 20
12.746798687199
 30
0.0
  0
VERTEX
  5
671F
  8
0
 10
-208.42525874686521
 20
13.69851156114194
 30
0.0
  0
VERTEX
  5
6720
  8
0
 10
-208.0502171182543
 20
15.04493696725776
 30
0.0
  0
VERTEX
  5
6721
  8
0
 10
-207.6527364627924
 20
16.695473884106509
 30
0.0
  0
VERTEX
  5
6722
  8
0
 10
-207.381449078462
 20
17.98731451917083
 30
0.0
  0
VERTEX
  5
6723
  8
0
 10
-207.04550728407619
 20
19.825172117143349
 30
0.0
  0
VERTEX
  5
6724
  8
0
 10
-206.7531694667837
 20
21.722477534727911
 30
0.0
  0
VERTEX
  5
6725
  8
0
 10
-206.6665324946693
 20
22.35639479700243
 30
0.0
  0
VERTEX
  5
6726
  8
0
 10
-206.44993756813861
 20
24.138893240860298
 30
0.0
  0
VERTEX
  5
6727
  8
0
 10
-206.26602003270199
 20
25.97493164595986
 30
0.0
  0
VERTEX
  5
6728
  8
0
 10
-206.2129418490936
 20
26.587670599769829
 30
0.0
  0
VERTEX
  5
6729
  8
0
 10
-206.1693681342112
 20
27.128988679278368
 30
0.0
  0
VERTEX
  5
672A
  8
0
 10
-206.14901663033919
 20
27.390513073180539
 30
0.0
  0
VERTEX
  5
672B
  8
0
 10
-206.12461212873291
 20
27.6420654308636
 30
0.0
  0
VERTEX
  5
672C
  8
0
 10
-206.07121623200351
 20
28.055281460395712
 30
0.0
  0
VERTEX
  5
672D
  8
0
 10
-206.0092059122542
 20
28.43621079106336
 30
0.0
  0
VERTEX
  5
672E
  8
0
 10
-205.98846719242829
 20
28.551490042949379
 30
0.0
  0
VERTEX
  5
672F
  8
0
 10
-205.9379821269049
 20
28.820659347914361
 30
0.0
  0
VERTEX
  5
6730
  8
0
 10
-205.9001175498399
 20
29.023066157104861
 30
0.0
  0
VERTEX
  5
6731
  8
0
 10
-205.8735596557367
 20
29.18405981561639
 30
0.0
  0
VERTEX
  5
6732
  8
0
 10
-205.86821866910239
 20
29.226381668687541
 30
0.0
  0
VERTEX
  5
6733
  8
0
 10
-205.86403527547461
 20
29.314509896875649
 30
0.0
  0
VERTEX
  5
6734
  8
0
 10
-205.8727275270611
 20
29.34889862949651
 30
0.0
  0
VERTEX
  5
6735
  8
0
 10
-205.88176376234551
 20
29.354536202493851
 30
0.0
  0
SEQEND
  5
6736
  8
0
  0
LINE
  5
62C9
  8
¤¤¤ß˝u
 10
-213.60211837196221
 20
52.989421038009709
 30
0.0
 11
-213.60534715037039
 21
33.331928607169402
 31
0.0
  0
LINE
  5
62CA
  8
µę˝u
 10
-218.72756178266849
 20
50.290262864866797
 30
0.0
 11
-218.729762756686
 21
36.890263045623669
 31
0.0
  0
LINE
  5
62CB
  8
µę˝u
 10
-219.60256177086561
 20
50.290406585185053
 30
0.0
 11
-219.60476274488281
 21
36.890406765941982
 31
0.0
  0
LINE
  5
62CC
  8
µę˝u
 10
-208.47756192093419
 20
50.288579283995311
 30
0.0
 11
-208.47976289495151
 21
36.888579464752191
 31
0.0
  0
LINE
  5
62CD
  8
µę˝u
 10
-207.60256193273739
 20
50.288435563677012
 30
0.0
 11
-207.60476290675479
 21
36.888435744433878
 31
0.0
  0
LINE
  5
62CE
  8
0
 10
-188.4024468755467
 20
0.492457207266682
 30
0.0
 11
-188.4024468755467
 21
49.492457207266618
 31
0.0
  0
LINE
  5
62CF
  8
0
 10
-205.1024468755468
 20
50.993097444559339
 30
0.0
 11
-205.1024468755468
 21
0.492457207266682
 31
0.0
  0
LINE
  5
62D0
  8
µę˝u
 10
-287.6025619327371
 20
50.288435563677069
 30
0.0
 11
-286.90244696592481
 21
50.988320577979671
 31
0.0
  0
LINE
  5
62D1
  8
µę˝u
 10
-299.60256177086529
 20
50.29040658518511
 30
0.0
 11
-300.30244678516812
 21
50.990521551997062
 31
0.0
  0
LINE
  5
62D2
  8
µę˝u
 10
-299.60256177086529
 20
50.29040658518511
 30
0.0
 11
-287.6025619327371
 21
50.288435563677069
 31
0.0
  0
LINE
  5
62D3
  8
µę˝u
 10
-287.60476290675439
 20
36.888435744433991
 30
0.0
 11
-286.70491074550779
 21
35.988287929961082
 31
0.0
  0
LINE
  5
62D4
  8
0
 10
-285.86347046627873
 20
35.990554604695383
 30
0.0
 11
-285.86347046627873
 21
29.35503460469533
 31
0.0
  0
LINE
  5
62D5
  8
µę˝u
 10
-299.60476274488269
 20
36.890406765941982
 30
0.0
 11
-300.50491055935549
 21
35.990554604695383
 31
0.0
  0
LINE
  5
62D6
  8
0
 10
-302.10244687554678
 20
28.989224259602789
 30
0.0
 11
-301.30371173886027
 21
28.98922425960291
 31
0.0
  0
LINE
  5
62D7
  8
0
 10
-301.34635046627898
 20
35.990554604695383
 30
0.0
 11
-301.34635046627898
 21
29.35503460469533
 31
0.0
  0
LINE
  5
62D8
  8
µę˝u
 10
-299.60476274488269
 20
36.890406765941982
 30
0.0
 11
-287.60476290675439
 21
36.888435744433991
 31
0.0
  0
LINE
  5
62D9
  8
0
 10
-301.34635046627898
 20
35.990554604695383
 30
0.0
 11
-285.86347046627873
 21
35.990554604695383
 31
0.0
  0
POLYLINE
  5
62DA
  8
0
 66
     1
 10
0.0
 20
0.0
 30
0.0
  0
VERTEX
  5
6737
  8
0
 10
-301.34635046627898
 20
29.29726795637545
 30
0.0
  0
VERTEX
  5
6738
  8
0
 10
-301.33828590152228
 20
29.199397306212081
 30
0.0
  0
VERTEX
  5
6739
  8
0
 10
-301.31498591207952
 20
29.051718842846899
 30
0.0
  0
VERTEX
  5
673A
  8
0
 10
-301.30431061248532
 20
28.992394641682179
 30
0.0
  0
VERTEX
  5
673B
  8
0
 10
-301.26087005866532
 20
28.76242433141536
 30
0.0
  0
VERTEX
  5
673C
  8
0
 10
-301.22118020672042
 20
28.550542632988279
 30
0.0
  0
VERTEX
  5
673D
  8
0
 10
-301.15268204415543
 20
28.147660839350031
 30
0.0
  0
VERTEX
  5
673E
  8
0
 10
-301.08890723346963
 20
27.674959227645701
 30
0.0
  0
VERTEX
  5
673F
  8
0
 10
-301.07131186323988
 20
27.506910995771161
 30
0.0
  0
VERTEX
  5
6740
  8
0
 10
-301.04712850766339
 20
27.215468210040541
 30
0.0
  0
VERTEX
  5
6741
  8
0
 10
-301.02500707246611
 20
26.932667536248719
 30
0.0
  0
VERTEX
  5
6742
  8
0
 10
-300.9765528756684
 20
26.347533758820109
 30
0.0
  0
VERTEX
  5
6743
  8
0
 10
-300.87106205092368
 20
25.202932335603489
 30
0.0
  0
VERTEX
  5
6744
  8
0
 10
-300.66306319411751
 20
23.301597351595682
 30
0.0
  0
VERTEX
  5
6745
  8
0
 10
-300.40360657551918
 20
21.352663963573981
 30
0.0
  0
VERTEX
  5
6746
  8
0
 10
-300.30607615445518
 20
20.70446705580834
 30
0.0
  0
VERTEX
  5
6747
  8
0
 10
-299.98668341404192
 20
18.814659302121211
 30
0.0
  0
VERTEX
  5
6748
  8
0
 10
-299.70157579923989
 20
17.364633639472942
 30
0.0
  0
VERTEX
  5
6749
  8
0
 10
-299.45353029968419
 20
16.241970598469411
 30
0.0
  0
VERTEX
  5
674A
  8
0
 10
-299.13680264786461
 20
14.959064517639851
 30
0.0
  0
VERTEX
  5
674B
  8
0
 10
-298.86360715819552
 20
13.967810349801219
 30
0.0
  0
VERTEX
  5
674C
  8
0
 10
-298.49081139413539
 20
12.75972572986122
 30
0.0
  0
VERTEX
  5
674D
  8
0
 10
-298.1676075713799
 20
11.830328378601189
 30
0.0
  0
VERTEX
  5
674E
  8
0
 10
-297.73477686823452
 20
10.73348752173856
 30
0.0
  0
VERTEX
  5
674F
  8
0
 10
-297.62219060840971
 20
10.47346764241686
 30
0.0
  0
VERTEX
  5
6750
  8
0
 10
-297.56417523536402
 20
10.34495244985103
 30
0.0
  0
VERTEX
  5
6751
  8
0
 10
-297.47940048562691
 20
10.188974715645511
 30
0.0
  0
VERTEX
  5
6752
  8
0
 10
-297.27458788405761
 20
9.9127330307151453
 30
0.0
  0
VERTEX
  5
6753
  8
0
 10
-297.0864309434628
 20
9.7265348344296001
 30
0.0
  0
VERTEX
  5
6754
  8
0
 10
-296.81099121955339
 20
9.5192774641742801
 30
0.0
  0
VERTEX
  5
6755
  8
0
 10
-296.4419159821573
 20
9.3169464256182266
 30
0.0
  0
VERTEX
  5
6756
  8
0
 10
-296.13560347681317
 20
9.1918793283047364
 30
0.0
  0
VERTEX
  5
6757
  8
0
 10
-295.68946110677518
 20
9.0565001656604238
 30
0.0
  0
VERTEX
  5
6758
  8
0
 10
-295.05170823856702
 20
8.9308230284981676
 30
0.0
  0
VERTEX
  5
6759
  8
0
 10
-294.38987946781231
 20
8.8584067932033861
 30
0.0
  0
VERTEX
  5
675A
  8
0
 10
-293.86824540586542
 20
8.8336432478492082
 30
0.0
  0
VERTEX
  5
675B
  8
0
 10
-293.15706694890031
 20
8.8393523211547347
 30
0.0
  0
VERTEX
  5
675C
  8
0
 10
-292.6074465408671
 20
8.8763913525328064
 30
0.0
  0
VERTEX
  5
675D
  8
0
 10
-291.92540278782491
 20
8.9690351715202326
 30
0.0
  0
VERTEX
  5
675E
  8
0
 10
-291.41159291505141
 20
9.0854100069249455
 30
0.0
  0
VERTEX
  5
675F
  8
0
 10
-290.95175850983952
 20
9.2379011417986305
 30
0.0
  0
VERTEX
  5
6760
  8
0
 10
-290.61699502510601
 20
9.3915856010319487
 30
0.0
  0
VERTEX
  5
6761
  8
0
 10
-290.37245301799493
 20
9.5368201441358735
 30
0.0
  0
VERTEX
  5
6762
  8
0
 10
-290.08808795419168
 20
9.7580631635842394
 30
0.0
  0
VERTEX
  5
6763
  8
0
 10
-289.89324746533413
 20
9.9614535723086703
 30
0.0
  0
VERTEX
  5
6764
  8
0
 10
-289.70700555424258
 20
10.22857958630166
 30
0.0
  0
VERTEX
  5
6765
  8
0
 10
-289.6390701167669
 20
10.35875232383764
 30
0.0
  0
VERTEX
  5
6766
  8
0
 10
-289.58142188943913
 20
10.487548427640631
 30
0.0
  0
VERTEX
  5
6767
  8
0
 10
-289.15177183212091
 20
11.53744156547851
 30
0.0
  0
VERTEX
  5
6768
  8
0
 10
-288.723252894111
 20
12.746798687199
 30
0.0
  0
VERTEX
  5
6769
  8
0
 10
-288.42525874686498
 20
13.69851156114194
 30
0.0
  0
VERTEX
  5
676A
  8
0
 10
-288.05021711825412
 20
15.04493696725776
 30
0.0
  0
VERTEX
  5
676B
  8
0
 10
-287.65273646279212
 20
16.695473884106509
 30
0.0
  0
VERTEX
  5
676C
  8
0
 10
-287.38144907846163
 20
17.98731451917083
 30
0.0
  0
VERTEX
  5
676D
  8
0
 10
-287.04550728407582
 20
19.825172117143349
 30
0.0
  0
VERTEX
  5
676E
  8
0
 10
-286.75316946678328
 20
21.722477534727911
 30
0.0
  0
VERTEX
  5
676F
  8
0
 10
-286.66653249466913
 20
22.35639479700243
 30
0.0
  0
VERTEX
  5
6770
  8
0
 10
-286.44993756813841
 20
24.138893240860298
 30
0.0
  0
VERTEX
  5
6771
  8
0
 10
-286.2660200327017
 20
25.97493164595986
 30
0.0
  0
VERTEX
  5
6772
  8
0
 10
-286.21294184909328
 20
26.587670599769829
 30
0.0
  0
VERTEX
  5
6773
  8
0
 10
-286.16936813421103
 20
27.128988679278368
 30
0.0
  0
VERTEX
  5
6774
  8
0
 10
-286.14901663033902
 20
27.390513073180539
 30
0.0
  0
VERTEX
  5
6775
  8
0
 10
-286.12461212873262
 20
27.6420654308636
 30
0.0
  0
VERTEX
  5
6776
  8
0
 10
-286.07121623200322
 20
28.055281460395712
 30
0.0
  0
VERTEX
  5
6777
  8
0
 10
-286.00920591225378
 20
28.43621079106336
 30
0.0
  0
VERTEX
  5
6778
  8
0
 10
-285.98846719242812
 20
28.551490042949379
 30
0.0
  0
VERTEX
  5
6779
  8
0
 10
-285.93798212690473
 20
28.820659347914361
 30
0.0
  0
VERTEX
  5
677A
  8
0
 10
-285.90011754983959
 20
29.023066157104861
 30
0.0
  0
VERTEX
  5
677B
  8
0
 10
-285.87355965573641
 20
29.18405981561639
 30
0.0
  0
VERTEX
  5
677C
  8
0
 10
-285.86821866910208
 20
29.226381668687541
 30
0.0
  0
VERTEX
  5
677D
  8
0
 10
-285.86403527547429
 20
29.314509896875649
 30
0.0
  0
VERTEX
  5
677E
  8
0
 10
-285.87272752706082
 20
29.34889862949651
 30
0.0
  0
VERTEX
  5
677F
  8
0
 10
-285.88176376234509
 20
29.354536202493851
 30
0.0
  0
SEQEND
  5
6780
  8
0
  0
LINE
  5
62DB
  8
0
 10
-302.10244687554672
 20
50.993097444559339
 30
0.0
 11
-302.10244687554678
 21
0.492457207266682
 31
0.0
  0
LINE
  5
62DC
  8
¤¤¤ß˝u
 10
-293.60211837196198
 20
52.989421038009709
 30
0.0
 11
-293.60534715037011
 21
33.331928607169459
 31
0.0
  0
LINE
  5
62DD
  8
µę˝u
 10
-298.72756178266832
 20
50.290262864866797
 30
0.0
 11
-298.72976275668572
 21
36.890263045623669
 31
0.0
  0
LINE
  5
62DE
  8
µę˝u
 10
-299.60256177086529
 20
50.29040658518511
 30
0.0
 11
-299.60476274488269
 21
36.890406765941982
 31
0.0
  0
LINE
  5
62DF
  8
µę˝u
 10
-288.47756192093402
 20
50.288579283995311
 30
0.0
 11
-288.47976289495131
 21
36.888579464752191
 31
0.0
  0
LINE
  5
62E0
  8
µę˝u
 10
-287.6025619327371
 20
50.288435563677069
 30
0.0
 11
-287.60476290675439
 21
36.888435744433991
 31
0.0
  0
LINE
  5
62E1
  8
0
 10
-302.1024468755466
 20
48.98909258838227
 30
0.0
 11
-205.1024468755468
 21
48.98909258838227
 31
0.0
  0
LINE
  5
62E2
  8
0
 10
-285.90644840966149
 20
28.98922425960291
 30
0.0
 11
-221.3037117388605
 21
28.98922425960291
 31
0.0
  0
CIRCLE
  5
62E3
  8
0
 10
-312.80244687554682
 20
30.492457207266629
 30
0.0
 40
0.75
  0
CIRCLE
  5
62E4
  8
0
 10
-312.80244687554682
 20
30.492457207266629
 30
0.0
 40
3.9375
  0
CIRCLE
  5
62E5
  8
0
 10
-312.80244687554682
 20
30.492457207266629
 30
0.0
 40
4.25
  0
CIRCLE
  5
62E6
  8
0
 10
-312.80244687554682
 20
30.492457207266629
 30
0.0
 40
4.549999999999998
  0
LINE
  5
62E7
  8
0
 10
-318.80244687554688
 20
0.492457207266682
 30
0.0
 11
-318.80244687554688
 21
49.492457207266618
 31
0.0
  0
LINE
  5
62E8
  8
0
 10
-318.80244687554688
 20
0.492457207266682
 30
0.0
 11
-318.80244687554688
 21
49.492457207266618
 31
0.0
  0
LINE
  5
62E9
  8
0
 10
-321.30244687554682
 20
3.4924572072663969
 30
0.0
 11
-185.90244687554619
 21
3.4924572072663969
 31
0.0
  0
LINE
  5
62EA
  8
0
 10
-318.80244687554688
 20
49.492457207266618
 30
0.0
 11
-302.10244687554689
 21
49.492457207266618
 31
0.0
  0
LINE
  5
62EB
  8
0
 10
-318.80244687554688
 20
46.492457207266618
 30
0.0
 11
-302.10244687554689
 21
46.492457207266618
 31
0.0
  0
LINE
  5
62EC
  8
0
 10
-302.10244687554672
 20
50.993097444559339
 30
0.0
 11
-205.1024468755468
 21
50.993097444559339
 31
0.0
  0
LINE
  5
62ED
  8
0
 10
-435.77373506313643
 20
29.984370909061109
 30
0.0
 11
-435.73428916857353
 21
34.504422720163227
 31
0.0
  0
ARC
  5
62EE
  8
0
 10
-434.73432724550901
 20
34.49569618466478
 30
0.0
 40
1.0
 50
134.9999999999913
 51
179.4999999999954
  0
LINE
  5
62EF
  8
0
 10
-434.77540361669929
 20
35.86883337584743
 30
0.0
 11
-435.44143402669567
 21
35.20280296585122
 31
0.0
  0
LINE
  5
62F0
  8
0
 10
-434.77540361669929
 20
48.993097444559233
 30
0.0
 11
-434.77540361669929
 21
35.86883337584743
 31
0.0
  0
LINE
  5
62F1
  8
µę˝u
 10
-438.77540361669929
 20
50.293097444559521
 30
0.0
 11
-438.07540361669948
 21
50.993097444559339
 31
0.0
  0
LINE
  5
62F2
  8
µę˝u
 10
-450.77540361669929
 20
50.293097444559521
 30
0.0
 11
-451.47540361669923
 21
50.993097444559453
 31
0.0
  0
LINE
  5
62F3
  8
µę˝u
 10
-450.77540361669929
 20
50.293097444559521
 30
0.0
 11
-438.77540361669929
 21
50.293097444559521
 31
0.0
  0
LINE
  5
62F4
  8
0
 10
-456.19966768541099
 20
49.99309744455956
 30
0.0
 11
-455.19966768541138
 21
50.993097444559339
 31
0.0
  0
LINE
  5
62F5
  8
0
 10
-455.19966768541138
 20
50.993097444559339
 30
0.0
 11
-436.77540361669929
 21
50.993097444559339
 31
0.0
  0
LINE
  5
62F6
  8
0
 10
-443.43489351640977
 20
28.99309744455957
 30
0.0
 11
-436.77369698620021
 21
28.99309744455957
 31
0.0
  0
LINE
  5
62F7
  8
µę˝u
 10
-438.77540361669929
 20
36.89309744455943
 30
0.0
 11
-437.8754036166992
 21
35.993097444559339
 31
0.0
  0
LINE
  5
62F8
  8
µę˝u
 10
-450.77540361669929
 20
36.89309744455943
 30
0.0
 11
-451.67540361669938
 21
35.993097444559339
 31
0.0
  0
LINE
  5
62F9
  8
µę˝u
 10
-438.77540361669929
 20
36.89309744455943
 30
0.0
 11
-450.77540361669929
 21
36.89309744455943
 31
0.0
  0
ARC
  5
62FA
  8
0
 10
-443.43489351640977
 20
26.49309744455957
 30
0.0
 40
2.5
 50
90.0
 51
165.00000000000341
  0
LINE
  5
62FB
  8
µę˝u
 10
-450.77540361669929
 20
50.293097444559521
 30
0.0
 11
-450.77540361669929
 21
36.89309744455943
 31
0.0
  0
LINE
  5
62FC
  8
µę˝u
 10
-449.90040361669929
 20
50.293097444559521
 30
0.0
 11
-449.90040361669929
 21
36.89309744455943
 31
0.0
  0
LINE
  5
62FD
  8
µę˝u
 10
-438.77540361669929
 20
50.293097444559521
 30
0.0
 11
-438.77540361669929
 21
36.89309744455943
 31
0.0
  0
LINE
  5
62FE
  8
µę˝u
 10
-439.65040361669941
 20
50.293097444559521
 30
0.0
 11
-439.65040361669941
 21
36.89309744455943
 31
0.0
  0
LINE
  5
62FF
  8
¤¤¤ß˝u
 10
-444.77540361669929
 20
53.193097444559392
 30
0.0
 11
-444.77540361669929
 21
31.993097444559339
 31
0.0
  0
LINE
  5
6300
  8
0
 10
-484.3511395479872
 20
49.99309744455956
 30
0.0
 11
-485.3511395479872
 21
50.993097444559453
 31
0.0
  0
LINE
  5
6301
  8
0
 10
-505.19966768541087
 20
49.993097444559339
 30
0.0
 11
-504.19966768541138
 21
50.993097444559453
 31
0.0
  0
LINE
  5
6302
  8
0
 10
-504.19966768541138
 20
50.993097444559453
 30
0.0
 11
-485.3511395479872
 21
50.993097444559453
 31
0.0
  0
LINE
  5
6303
  8
0
 10
-456.19966768541099
 20
49.99309744455956
 30
0.0
 11
-484.3511395479872
 21
49.99309744455956
 31
0.0
  0
LINE
  5
6304
  8
0
 10
-453.52077896669971
 20
35.993097444559339
 30
0.0
 11
-434.77540361669929
 21
35.993097444559339
 31
0.0
  0
ARC
  5
6305
  8
0
 10
-436.77369698620021
 20
29.99309744455957
 30
0.0
 40
1.0
 50
270.0
 51
359.50000000000188
  0
LINE
  5
6306
  8
0
 10
-436.77540361669929
 20
50.993097444559339
 30
0.0
 11
-434.77540361669929
 21
48.993097444559233
 31
0.0
  0
LINE
  5
6307
  8
0
 10
-455.25593904486919
 20
0.4930974445592824
 30
0.0
 11
-452.12872621606391
 21
2.9131396068743238
 31
0.0
  0
LINE
  5
6308
  8
0
 10
-452.12872621606391
 20
2.9131396068743238
 30
0.0
 11
-445.84970808213262
 21
27.140145057315859
 31
0.0
  0
LINE
  5
6309
  8
0
 10
-453.52077896669971
 20
1.835877989860591
 30
0.0
 11
-453.52077896669971
 21
35.993097444559339
 31
0.0
  0
LINE
  5
630A
  8
0
 10
-533.35113954798715
 20
49.99309744455956
 30
0.0
 11
-534.35113954798715
 21
50.993097444559339
 31
0.0
  0
LINE
  5
630B
  8
µę˝u
 10
-538.77540361669935
 20
50.293097444559521
 30
0.0
 11
-538.0754036166993
 21
50.993097444559339
 31
0.0
  0
LINE
  5
630C
  8
µę˝u
 10
-538.77540361669935
 20
36.89309744455943
 30
0.0
 11
-537.87540361669915
 21
35.993097444559339
 31
0.0
  0
ARC
  5
630D
  8
0
 10
-546.11591371698887
 20
26.49309744455957
 30
0.0
 40
2.5
 50
14.999999999996421
 51
90.0
  0
LINE
  5
630E
  8
µę˝u
 10
-538.77540361669935
 20
50.293097444559521
 30
0.0
 11
-538.77540361669935
 21
36.89309744455943
 31
0.0
  0
LINE
  5
630F
  8
µę˝u
 10
-539.65040361669935
 20
50.293097444559521
 30
0.0
 11
-539.65040361669935
 21
36.89309744455943
 31
0.0
  0
LINE
  5
6310
  8
¤¤¤ß˝u
 10
-544.77540361669935
 20
53.193097444559392
 30
0.0
 11
-544.77540361669935
 21
31.993097444559339
 31
0.0
  0
LINE
  5
6311
  8
0
 10
-552.77540361669912
 20
50.993097444559339
 30
0.0
 11
-554.77540361669912
 21
48.993097444559332
 31
0.0
  0
LINE
  5
6312
  8
µę˝u
 10
-550.77540361669935
 20
50.293097444559521
 30
0.0
 11
-551.47540361669962
 21
50.993097444559339
 31
0.0
  0
LINE
  5
6313
  8
0
 10
-554.77540361669912
 20
29.793097444559521
 30
0.0
 11
-553.97540361669905
 21
28.99309744455957
 31
0.0
  0
LINE
  5
6314
  8
µę˝u
 10
-550.77540361669935
 20
36.89309744455943
 30
0.0
 11
-551.67540361669944
 21
35.993097444559339
 31
0.0
  0
LINE
  5
6315
  8
0
 10
-554.77540361669912
 20
29.793097444559521
 30
0.0
 11
-554.77540361669912
 21
48.993097444559332
 31
0.0
  0
LINE
  5
6316
  8
µę˝u
 10
-550.77540361669935
 20
50.293097444559521
 30
0.0
 11
-550.77540361669935
 21
36.89309744455943
 31
0.0
  0
LINE
  5
6317
  8
µę˝u
 10
-549.90040361669935
 20
50.293097444559521
 30
0.0
 11
-549.90040361669935
 21
36.89309744455943
 31
0.0
  0
LINE
  5
6318
  8
0
 10
-536.02077896669971
 20
35.993097444559339
 30
0.0
 11
-554.77540361669912
 21
35.993097444559339
 31
0.0
  0
LINE
  5
6319
  8
0
 10
-546.11591371698887
 20
28.99309744455957
 30
0.0
 11
-553.97540361669905
 21
28.99309744455957
 31
0.0
  0
LINE
  5
631A
  8
0
 10
-552.77540361669912
 20
50.993097444559339
 30
0.0
 11
-534.35113954798715
 21
50.993097444559339
 31
0.0
  0
LINE
  5
631B
  8
µę˝u
 10
-538.77540361669935
 20
50.293097444559521
 30
0.0
 11
-550.77540361669935
 21
50.293097444559521
 31
0.0
  0
LINE
  5
631C
  8
µę˝u
 10
-538.77540361669935
 20
36.89309744455943
 30
0.0
 11
-550.77540361669935
 21
36.89309744455943
 31
0.0
  0
LINE
  5
631D
  8
0
 10
-537.42208101733513
 20
2.9131396068743238
 30
0.0
 11
-534.29486818852945
 21
0.4930974445592824
 31
0.0
  0
LINE
  5
631E
  8
0
 10
-537.42208101733513
 20
2.9131396068743238
 30
0.0
 11
-543.70109915126613
 21
27.140145057315859
 31
0.0
  0
LINE
  5
631F
  8
0
 10
-536.02077896669971
 20
1.8287202755643639
 30
0.0
 11
-536.02077896669971
 21
35.993097444559339
 31
0.0
  0
LINE
  5
6320
  8
0
 10
-533.35113954798715
 20
49.99309744455956
 30
0.0
 11
-505.19966768541087
 21
49.993097444559339
 31
0.0
  0
LINE
  5
6321
  8
0
 10
-455.25593904486919
 20
0.4930974445592824
 30
0.0
 11
-474.27540361669912
 21
0.4930974445592824
 31
0.0
  0
LINE
  5
6322
  8
0
 10
-515.27540361669935
 20
0.4930974445592256
 30
0.0
 11
-534.29486818852945
 21
0.4930974445592824
 31
0.0
  0
CIRCLE
  5
6323
  8
0
 62
     3
 10
-528.77540361669935
 20
40.493963169197627
 30
0.0
 40
4.0
  0
CIRCLE
  5
6324
  8
0
 62
     3
 10
-457.77540361669941
 20
16.49396316919762
 30
0.0
 40
4.0
  0
LINE
  5
6325
  8
0
 62
     3
 10
-455.27540361669941
 20
17.293963169197639
 30
0.0
 11
-455.27540361669941
 21
15.693963169197611
 31
0.0
  0
LINE
  5
6326
  8
0
 62
     3
 10
-460.27540361669941
 20
17.293963169197639
 30
0.0
 11
-460.27540361669941
 21
15.693963169197611
 31
0.0
  0
LINE
  5
6327
  8
0
 62
     3
 10
-458.57540361669942
 20
18.99396316919762
 30
0.0
 11
-456.9754036166994
 21
18.99396316919762
 31
0.0
  0
LINE
  5
6328
  8
0
 62
     3
 10
-458.57540361669942
 20
13.99396316919762
 30
0.0
 11
-456.9754036166994
 21
13.99396316919762
 31
0.0
  0
LINE
  5
6329
  8
0
 62
     3
 10
-455.27540361669941
 20
17.293963169197639
 30
0.0
 11
-456.9754036166994
 21
17.293963169197639
 31
0.0
  0
LINE
  5
632A
  8
0
 62
     3
 10
-455.27540361669941
 20
15.693963169197611
 30
0.0
 11
-456.9754036166994
 21
15.693963169197611
 31
0.0
  0
LINE
  5
632B
  8
0
 62
     3
 10
-458.57540361669942
 20
13.99396316919762
 30
0.0
 11
-458.57540361669942
 21
15.693963169197611
 31
0.0
  0
LINE
  5
632C
  8
0
 62
     3
 10
-456.9754036166994
 20
13.99396316919762
 30
0.0
 11
-456.9754036166994
 21
15.693963169197611
 31
0.0
  0
LINE
  5
632D
  8
0
 62
     3
 10
-458.57540361669942
 20
15.693963169197611
 30
0.0
 11
-460.27540361669941
 21
15.693963169197611
 31
0.0
  0
LINE
  5
632E
  8
0
 62
     3
 10
-458.57540361669942
 20
17.293963169197639
 30
0.0
 11
-458.57540361669942
 21
18.99396316919762
 31
0.0
  0
LINE
  5
632F
  8
0
 62
     3
 10
-456.9754036166994
 20
17.293963169197639
 30
0.0
 11
-456.9754036166994
 21
18.99396316919762
 31
0.0
  0
LINE
  5
6330
  8
0
 62
     3
 10
-458.57540361669942
 20
17.293963169197639
 30
0.0
 11
-460.27540361669941
 21
17.293963169197639
 31
0.0
  0
CIRCLE
  5
6331
  8
0
 62
     3
 10
-460.77540361669941
 20
40.493963169197627
 30
0.0
 40
4.0
  0
LINE
  5
6332
  8
0
 62
     3
 10
-458.27540361669952
 20
41.293963169197639
 30
0.0
 11
-458.27540361669952
 21
39.693963169197623
 31
0.0
  0
LINE
  5
6333
  8
0
 62
     3
 10
-463.27540361669941
 20
41.293963169197639
 30
0.0
 11
-463.27540361669941
 21
39.693963169197623
 31
0.0
  0
LINE
  5
6334
  8
0
 62
     3
 10
-461.57540361669942
 20
42.993963169197627
 30
0.0
 11
-459.97540361669928
 21
42.993963169197627
 31
0.0
  0
LINE
  5
6335
  8
0
 62
     3
 10
-461.57540361669942
 20
37.993963169197627
 30
0.0
 11
-459.97540361669928
 21
37.993963169197627
 31
0.0
  0
LINE
  5
6336
  8
0
 62
     3
 10
-458.27540361669952
 20
41.293963169197639
 30
0.0
 11
-459.97540361669928
 21
41.293963169197639
 31
0.0
  0
LINE
  5
6337
  8
0
 62
     3
 10
-458.27540361669952
 20
39.693963169197623
 30
0.0
 11
-459.97540361669928
 21
39.693963169197623
 31
0.0
  0
LINE
  5
6338
  8
0
 62
     3
 10
-461.57540361669942
 20
37.993963169197627
 30
0.0
 11
-461.57540361669942
 21
39.693963169197623
 31
0.0
  0
LINE
  5
6339
  8
0
 62
     3
 10
-459.97540361669928
 20
37.993963169197627
 30
0.0
 11
-459.97540361669928
 21
39.693963169197623
 31
0.0
  0
LINE
  5
633A
  8
0
 62
     3
 10
-461.57540361669942
 20
39.693963169197623
 30
0.0
 11
-463.27540361669941
 21
39.693963169197623
 31
0.0
  0
LINE
  5
633B
  8
0
 62
     3
 10
-461.57540361669942
 20
41.293963169197639
 30
0.0
 11
-461.57540361669942
 21
42.993963169197627
 31
0.0
  0
LINE
  5
633C
  8
0
 62
     3
 10
-459.97540361669928
 20
41.293963169197639
 30
0.0
 11
-459.97540361669928
 21
42.993963169197627
 31
0.0
  0
LINE
  5
633D
  8
0
 62
     3
 10
-461.57540361669942
 20
41.293963169197639
 30
0.0
 11
-463.27540361669941
 21
41.293963169197639
 31
0.0
  0
LINE
  5
633E
  8
0
 62
     3
 10
-527.9754036166994
 20
41.293963169197639
 30
0.0
 11
-526.27540361669935
 21
41.293963169197639
 31
0.0
  0
LINE
  5
633F
  8
0
 62
     3
 10
-529.57540361669942
 20
41.293963169197639
 30
0.0
 11
-529.57540361669942
 21
42.993963169197627
 31
0.0
  0
LINE
  5
6340
  8
0
 62
     3
 10
-527.9754036166994
 20
41.293963169197639
 30
0.0
 11
-527.9754036166994
 21
42.993963169197627
 31
0.0
  0
LINE
  5
6341
  8
0
 62
     3
 10
-527.9754036166994
 20
39.693963169197623
 30
0.0
 11
-526.27540361669935
 21
39.693963169197623
 31
0.0
  0
LINE
  5
6342
  8
0
 62
     3
 10
-529.57540361669942
 20
37.993963169197627
 30
0.0
 11
-529.57540361669942
 21
39.693963169197623
 31
0.0
  0
LINE
  5
6343
  8
0
 62
     3
 10
-527.9754036166994
 20
37.993963169197627
 30
0.0
 11
-527.9754036166994
 21
39.693963169197623
 31
0.0
  0
LINE
  5
6344
  8
0
 62
     3
 10
-531.27540361669935
 20
39.693963169197623
 30
0.0
 11
-529.57540361669942
 21
39.693963169197623
 31
0.0
  0
LINE
  5
6345
  8
0
 62
     3
 10
-531.27540361669935
 20
41.293963169197639
 30
0.0
 11
-529.57540361669942
 21
41.293963169197639
 31
0.0
  0
LINE
  5
6346
  8
0
 62
     3
 10
-527.9754036166994
 20
37.993963169197627
 30
0.0
 11
-529.57540361669942
 21
37.993963169197627
 31
0.0
  0
LINE
  5
6347
  8
0
 62
     3
 10
-527.9754036166994
 20
42.993963169197627
 30
0.0
 11
-529.57540361669942
 21
42.993963169197627
 31
0.0
  0
LINE
  5
6348
  8
0
 62
     3
 10
-526.27540361669935
 20
41.293963169197639
 30
0.0
 11
-526.27540361669935
 21
39.693963169197623
 31
0.0
  0
LINE
  5
6349
  8
0
 62
     3
 10
-531.27540361669935
 20
41.293963169197639
 30
0.0
 11
-531.27540361669935
 21
39.693963169197623
 31
0.0
  0
LINE
  5
634A
  8
0
 62
     3
 10
-530.97540361669928
 20
17.293963169197639
 30
0.0
 11
-529.27540361669946
 21
17.293963169197639
 31
0.0
  0
LINE
  5
634B
  8
0
 62
     3
 10
-532.57540361669942
 20
17.293963169197639
 30
0.0
 11
-532.57540361669942
 21
18.99396316919762
 31
0.0
  0
LINE
  5
634C
  8
0
 62
     3
 10
-530.97540361669928
 20
17.293963169197639
 30
0.0
 11
-530.97540361669928
 21
18.99396316919762
 31
0.0
  0
LINE
  5
634D
  8
0
 62
     3
 10
-530.97540361669928
 20
15.693963169197611
 30
0.0
 11
-529.27540361669935
 21
15.693963169197611
 31
0.0
  0
LINE
  5
634E
  8
0
 62
     3
 10
-532.57540361669942
 20
13.99396316919762
 30
0.0
 11
-532.57540361669942
 21
15.693963169197611
 31
0.0
  0
LINE
  5
634F
  8
0
 62
     3
 10
-530.97540361669928
 20
13.99396316919762
 30
0.0
 11
-530.97540361669928
 21
15.693963169197611
 31
0.0
  0
LINE
  5
6350
  8
0
 62
     3
 10
-534.27540361669935
 20
15.693963169197611
 30
0.0
 11
-532.57540361669942
 21
15.693963169197611
 31
0.0
  0
LINE
  5
6351
  8
0
 62
     3
 10
-534.27540361669935
 20
17.293963169197639
 30
0.0
 11
-532.57540361669942
 21
17.293963169197639
 31
0.0
  0
LINE
  5
6352
  8
0
 62
     3
 10
-530.97540361669928
 20
13.99396316919762
 30
0.0
 11
-532.57540361669942
 21
13.99396316919762
 31
0.0
  0
LINE
  5
6353
  8
0
 62
     3
 10
-530.97540361669928
 20
18.99396316919762
 30
0.0
 11
-532.57540361669942
 21
18.99396316919762
 31
0.0
  0
LINE
  5
6354
  8
0
 62
     3
 10
-529.27540361669946
 20
17.293963169197639
 30
0.0
 11
-529.27540361669935
 21
15.693963169197611
 31
0.0
  0
LINE
  5
6355
  8
0
 62
     3
 10
-534.27540361669935
 20
17.293963169197639
 30
0.0
 11
-534.27540361669935
 21
15.693963169197611
 31
0.0
  0
CIRCLE
  5
6356
  8
0
 62
     3
 10
-531.77540361669935
 20
16.49396316919762
 30
0.0
 40
4.0
  0
LINE
  5
6357
  8
0
 10
-453.77540361669941
 20
3.493963169197627
 30
0.0
 11
-456.77540361669941
 21
0.4939631691976274
 31
0.0
  0
LINE
  5
6358
  8
0
 10
-535.77540361669935
 20
3.493963169197627
 30
0.0
 11
-532.77540361669935
 21
0.4939631691976274
 31
0.0
  0
ARC
  5
6359
  8
0
 10
-456.77540361669941
 20
46.49396316919762
 30
0.0
 40
3.0
 50
0.0
 51
90.0
  0
ARC
  5
635A
  8
0
 10
-532.77540361669935
 20
46.49396316919762
 30
0.0
 40
3.0
 50
90.0
 51
180.0
  0
LINE
  5
635B
  8
0
 10
-453.77540361669941
 20
3.493963169197627
 30
0.0
 11
-453.77540361669941
 21
46.49396316919762
 31
0.0
  0
LINE
  5
635C
  8
0
 10
-535.77540361669935
 20
3.493963169197627
 30
0.0
 11
-535.77540361669935
 21
46.49396316919762
 31
0.0
  0
LINE
  5
635D
  8
0
 10
-532.77540361669935
 20
49.493963169197627
 30
0.0
 11
-456.77540361669941
 21
49.493963169197627
 31
0.0
  0
ARC
  5
635E
  8
0
 10
-475.44333496666121
 20
11.332889865498769
 30
0.0
 40
4.0
 50
89.884068652309324
 51
180.11593211060361
  0
ARC
  5
635F
  8
0
 10
-475.44315318082528
 20
28.26288986452289
 30
0.0
 40
4.0
 50
182.96722500742791
 51
267.03275679006248
  0
ARC
  5
6360
  8
0
 10
-514.10333496443252
 20
11.33330497715945
 30
0.0
 40
4.0
 50
359.81902765862702
 51
90.180971569584344
  0
ARC
  5
6361
  8
0
 10
-514.1031531785967
 20
28.26330497618352
 30
0.0
 40
4.0
 50
272.90547361102659
 51
357.09454472589942
  0
LINE
  5
6362
  8
µę˝u
 10
-484.77540361669929
 20
28.593097444559358
 30
0.0
 11
-484.54446350902339
 21
28.99309744455946
 31
0.0
  0
LINE
  5
6363
  8
0
 10
-480.37505461666473
 20
28.993097444559339
 30
0.0
 11
-479.43779041756289
 21
28.055831064010651
 31
0.0
  0
LINE
  5
6364
  8
0
 10
-475.65021325040868
 20
24.268252693566811
 30
0.0
 11
-472.27540361669918
 21
20.893431673821169
 31
0.0
  0
LINE
  5
6365
  8
0
 10
-472.27540361669918
 20
20.893431673821169
 30
0.0
 11
-472.27540361669929
 21
18.49272483741413
 31
0.0
  0
LINE
  5
6366
  8
0
 10
-475.4352414372899
 20
15.33288167733815
 30
0.0
 11
-472.27540361669929
 21
18.49272483741413
 31
0.0
  0
LINE
  5
6367
  8
µę˝u
 10
-487.77540361669929
 20
11.693097444559379
 30
0.0
 11
-487.4754036166994
 21
11.993097444559339
 31
0.0
  0
LINE
  5
6368
  8
0
 10
-480.27540361669918
 20
10.49271944455972
 30
0.0
 11
-479.44332677839282
 21
11.324796282866309
 31
0.0
  0
LINE
  5
6369
  8
µę˝u
 10
-484.77540361669929
 20
28.593097444559358
 30
0.0
 11
-484.77540361669929
 21
11.993097444559339
 31
0.0
  0
LINE
  5
636A
  8
µę˝u
 10
-504.77540361669952
 20
28.593097444559358
 30
0.0
 11
-505.0063437243752
 21
28.99309744455946
 31
0.0
  0
LINE
  5
636B
  8
0
 10
-509.17575261673431
 20
28.993097444559339
 30
0.0
 11
-510.1082950362877
 21
28.060552854548739
 31
0.0
  0
LINE
  5
636C
  8
0
 10
-513.90039977844845
 20
24.26844689876344
 30
0.0
 11
-517.27540361669924
 21
20.893431673821741
 31
0.0
  0
LINE
  5
636D
  8
0
 10
-517.27540361669924
 20
20.893431673821741
 30
0.0
 11
-517.27540361669924
 21
18.492724837413729
 31
0.0
  0
LINE
  5
636E
  8
µę˝u
 10
-501.77540361669952
 20
11.693097444559379
 30
0.0
 11
-502.07540361669948
 21
11.993097444559339
 31
0.0
  0
LINE
  5
636F
  8
0
 10
-509.27540361669918
 20
10.49271944455915
 30
0.0
 11
-510.10335491745911
 21
11.32067074531915
 31
0.0
  0
LINE
  5
6370
  8
0
 10
-514.11596914239215
 20
15.333285024303111
 30
0.0
 11
-517.27540361669924
 21
18.492724837413729
 31
0.0
  0
LINE
  5
6371
  8
µę˝u
 10
-504.77540361669929
 20
28.593097444559358
 30
0.0
 11
-504.77540361669929
 21
11.993097444559339
 31
0.0
  0
LINE
  5
6372
  8
µę˝u
 10
-504.77540361669929
 20
11.993097444559339
 30
0.0
 11
-484.77540361669929
 21
11.993097444559339
 31
0.0
  0
LINE
  5
6373
  8
µę˝u
 10
-504.77540361669929
 20
28.593097444559358
 30
0.0
 11
-484.77540361669929
 21
28.593097444559358
 31
0.0
  0
LINE
  5
6374
  8
0
 10
-509.17575261673431
 20
28.993097444559339
 30
0.0
 11
-480.37505461666473
 21
28.993097444559339
 31
0.0
  0
LINE
  5
6375
  8
µę˝u
 10
-501.77540361669929
 20
11.693097444559379
 30
0.0
 11
-487.77540361669929
 21
11.693097444559379
 31
0.0
  0
LINE
  5
6376
  8
0
 10
-473.77540361669929
 20
-9.0069025554405471
 30
0.0
 11
-472.27540361669929
 21
-7.5069025554405471
 31
0.0
  0
LINE
  5
6377
  8
0
 10
-479.52578197478852
 20
-9.0069025554405471
 30
0.0
 11
-473.77540361669929
 21
-9.0069025554405471
 31
0.0
  0
LINE
  5
6378
  8
0
 10
-472.27540361669929
 20
-1.5069025554404329
 30
0.0
 11
-472.27540361669929
 21
-7.5069025554405471
 31
0.0
  0
LINE
  5
6379
  8
µę˝u
 10
-487.77540361669929
 20
-8.3069025554405016
 30
0.0
 11
-487.07540361669902
 21
-9.0069025554405471
 31
0.0
  0
LINE
  5
637A
  8
0
 10
-485.52578031669941
 20
-8.0069020554403778
 30
0.0
 11
-486.52578160127041
 21
-9.0069025554405471
 31
0.0
  0
LINE
  5
637B
  8
0
 10
-485.52578031669941
 20
-8.0069025554405471
 30
0.0
 11
-480.52578161669948
 21
-8.0069025554405471
 31
0.0
  0
LINE
  5
637C
  8
0
 10
-480.52578161669948
 20
-8.0069027354404625
 30
0.0
 11
-479.52578197478852
 21
-9.0069025554405471
 31
0.0
  0
LINE
  5
637D
  8
0
 10
-472.27540361669929
 20
-1.5069025554404329
 30
0.0
 11
-480.27540361669941
 21
6.493097444559452
 31
0.0
  0
LINE
  5
637E
  8
0
 10
-517.27540361669924
 20
-1.5069025554405471
 30
0.0
 11
-509.27540361669912
 21
6.4930974445596803
 31
0.0
  0
LINE
  5
637F
  8
µę˝u
 10
-501.77540361669929
 20
-8.3069025554405016
 30
0.0
 11
-502.4754036166994
 21
-9.0069025554405471
 31
0.0
  0
LINE
  5
6380
  8
0
 10
-504.02577841669938
 20
-8.0069025554405471
 30
0.0
 11
-503.02577724767139
 21
-9.0069025554405471
 31
0.0
  0
LINE
  5
6381
  8
0
 10
-509.02577861669931
 20
-8.0069027354404625
 30
0.0
 11
-510.02577793264322
 21
-9.0069025554405471
 31
0.0
  0
LINE
  5
6382
  8
0
 10
-517.27540361669912
 20
-7.5069025554405471
 30
0.0
 11
-515.77540361669901
 21
-9.0069025554405471
 31
0.0
  0
LINE
  5
6383
  8
0
 10
-515.77540361669901
 20
-9.0069025554405471
 30
0.0
 11
-510.02577793264322
 21
-9.0069025554405471
 31
0.0
  0
LINE
  5
6384
  8
0
 10
-509.02577761669949
 20
-8.0069025554405471
 30
0.0
 11
-504.02577841669938
 21
-8.0069025554405471
 31
0.0
  0
LINE
  5
6385
  8
0
 10
-517.27540361669924
 20
-1.5069025554405471
 30
0.0
 11
-517.27540361669912
 21
-7.5069025554405471
 31
0.0
  0
LINE
  5
6386
  8
0
 10
-503.02577724767139
 20
-9.0069025554405471
 30
0.0
 11
-486.52578160127041
 21
-9.0069025554405471
 31
0.0
  0
LINE
  5
6387
  8
µę˝u
 10
-501.77540361669929
 20
-8.3069025554405016
 30
0.0
 11
-487.77540361669929
 21
-8.3069025554405016
 31
0.0
  0
LINE
  5
6388
  8
µę˝u
 10
-501.77540361669929
 20
11.693097444559379
 30
0.0
 11
-501.77540361669929
 21
-8.3069025554405016
 31
0.0
  0
LINE
  5
6389
  8
¤¤¤ß˝u
 10
-494.77540361669929
 20
58.17063388847987
 30
0.0
 11
-494.77540361669929
 21
-11.3069025554405
 31
0.0
  0
LINE
  5
638A
  8
µę˝u
 10
-487.77540361669929
 20
11.693097444559379
 30
0.0
 11
-487.77540361669929
 21
-8.3069025554405016
 31
0.0
  0
LINE
  5
638B
  8
0
 10
-509.27540361669918
 20
10.49271944455915
 30
0.0
 11
-509.27540361669912
 21
6.4930974445596803
 31
0.0
  0
LINE
  5
638C
  8
0
 10
-480.27540361669918
 20
10.49271944455972
 30
0.0
 11
-480.27540361669941
 21
6.493097444559452
 31
0.0
  0
ARC
  5
638D
  8
0
 10
-494.77540361669929
 20
42.494693975869943
 30
0.0
 40
6.5625010959376811
 50
30.243297773998989
 51
329.75669075930261
  0
POLYLINE
  5
638E
  8
0
 66
     1
 10
0.0
 20
0.0
 30
0.0
  0
VERTEX
  5
6781
  8
0
 10
-483.58579208890927
 20
42.494693975869929
 30
0.0
  0
VERTEX
  5
6782
  8
0
 10
-483.54385670515609
 20
42.223397377438339
 30
0.0
  0
VERTEX
  5
6783
  8
0
 10
-483.50274296178992
 20
42.144767071807117
 30
0.0
  0
VERTEX
  5
6784
  8
0
 10
-483.45703003690591
 20
42.107840019765298
 30
0.0
  0
VERTEX
  5
6785
  8
0
 10
-483.41455858306318
 20
42.108224119829451
 30
0.0
  0
VERTEX
  5
6786
  8
0
 10
-483.3689425181953
 20
42.1459794921346
 30
0.0
  0
VERTEX
  5
6787
  8
0
 10
-483.32976263540229
 20
42.220691976486563
 30
0.0
  0
VERTEX
  5
6788
  8
0
 10
-483.2930293033927
 20
42.383283229514312
 30
0.0
  0
VERTEX
  5
6789
  8
0
 10
-483.286820241356
 20
42.494693975869929
 30
0.0
  0
VERTEX
  5
678A
  8
0
 10
-483.32875395510882
 20
42.765988904301167
 30
0.0
  0
VERTEX
  5
678B
  8
0
 10
-483.36986936847501
 20
42.844619209932432
 30
0.0
  0
VERTEX
  5
678C
  8
0
 10
-483.41558229335931
 20
42.881546261974258
 30
0.0
  0
VERTEX
  5
678D
  8
0
 10
-483.45805207720161
 20
42.881162161785078
 30
0.0
  0
VERTEX
  5
678E
  8
0
 10
-483.50366981206969
 20
42.843406789479943
 30
0.0
  0
VERTEX
  5
678F
  8
0
 10
-483.54284802486291
 20
42.768694305127923
 30
0.0
  0
VERTEX
  5
6790
  8
0
 10
-483.57958302687229
 20
42.606103052225201
 30
0.0
  0
VERTEX
  5
6791
  8
0
 10
-483.58579208890927
 20
42.494693975869929
 30
0.0
  0
SEQEND
  5
6792
  8
0
  0
ARC
  5
638F
  8
0
 10
-494.77540361669929
 20
42.494693975869943
 30
0.0
 40
5.0
 50
48.590377998903122
 51
311.40962200319859
  0
LINE
  5
6390
  8
0
 10
-491.16696330033972
 20
46.244693558369811
 30
0.0
 11
-491.88865236561202
 21
47.494693975869943
 31
0.0
  0
LINE
  5
6391
  8
0
 10
-497.6621548677868
 20
47.494693975869943
 30
0.0
 11
-491.88865236561202
 21
47.494693975869943
 31
0.0
  0
LINE
  5
6392
  8
0
 10
-497.6621548677868
 20
47.494693975869943
 30
0.0
 11
-500.5489061188743
 21
42.494693975869943
 31
0.0
  0
LINE
  5
6393
  8
0
 10
-500.5489061188743
 20
42.494693975869943
 30
0.0
 11
-497.6621548677868
 21
37.494692305869648
 31
0.0
  0
LINE
  5
6394
  8
0
 10
-491.8886506956116
 20
37.494692305869648
 30
0.0
 11
-497.6621548677868
 21
37.494692305869648
 31
0.0
  0
LINE
  5
6395
  8
0
 10
-491.16696330033972
 20
38.744692723369717
 30
0.0
 11
-491.8886506956116
 21
37.494692305869648
 31
0.0
  0
LINE
  5
6396
  8
0
 10
-493.14852081625992
 20
38.744692723369717
 30
0.0
 11
-489.38093445807328
 21
38.744692723369717
 31
0.0
  0
LINE
  5
6397
  8
0
 10
-489.3023108324428
 20
45.888834812316418
 30
0.0
 11
-489.38093445807328
 21
46.244693558369811
 31
0.0
  0
LINE
  5
6398
  8
0
 10
-489.38093445807328
 20
38.744692723369717
 30
0.0
 11
-489.3023108324428
 21
39.100551469423117
 31
0.0
  0
LINE
  5
6399
  8
0
 10
-493.14852081625992
 20
46.244693558369811
 30
0.0
 11
-489.38093445807328
 21
46.244693558369811
 31
0.0
  0
LINE
  5
639A
  8
0
 10
-489.92950124693368
 20
38.816748236902981
 30
0.0
 11
-487.42724257118152
 21
39.949016955991851
 31
0.0
  0
LINE
  5
639B
  8
0
 10
-482.5957239160677
 20
42.057773403404148
 30
0.0
 11
-482.5792560406926
 21
42.494693975869943
 31
0.0
  0
LINE
  5
639C
  8
0
 10
-482.64449461196261
 20
41.637643016492341
 30
0.0
 11
-482.5957239160677
 21
42.057773403404148
 31
0.0
  0
LINE
  5
639D
  8
0
 10
-482.5792560406926
 20
42.494693975869943
 30
0.0
 11
-482.5957239160677
 21
42.931614548335631
 31
0.0
  0
LINE
  5
639E
  8
0
 10
-490.20946848818818
 20
38.744692723369717
 30
0.0
 11
-489.92950124693368
 21
38.816748236902981
 31
0.0
  0
LINE
  5
639F
  8
0
 10
-490.20946848818818
 20
46.244693558369811
 30
0.0
 11
-489.92950124693368
 21
46.17263804483656
 31
0.0
  0
LINE
  5
63A0
  8
0
 10
-489.92950124693368
 20
46.17263804483656
 30
0.0
 11
-487.42724257118152
 21
45.04036932574769
 31
0.0
  0
LINE
  5
63A1
  8
0
 10
-482.72369438781391
 20
41.250450050206148
 30
0.0
 11
-482.64449461196261
 21
41.637643016492341
 31
0.0
  0
LINE
  5
63A2
  8
0
 10
-482.5957239160677
 20
42.931614548335631
 30
0.0
 11
-482.64449461196261
 21
43.351743265247137
 31
0.0
  0
LINE
  5
63A3
  8
0
 10
-482.83028050261402
 20
40.91107086965485
 30
0.0
 11
-482.72369438781391
 21
41.250450050206148
 31
0.0
  0
LINE
  5
63A4
  8
0
 10
-483.77947374200409
 20
40.446807378247847
 30
0.0
 11
-483.77710067123297
 21
40.447968028566663
 31
0.0
  0
LINE
  5
63A5
  8
0
 10
-482.64449461196261
 20
43.351743265247137
 30
0.0
 11
-482.72369438781391
 21
43.738937901533617
 31
0.0
  0
LINE
  5
63A6
  8
0
 10
-490.48943572944262
 20
38.816748236902981
 30
0.0
 11
-490.20946848818818
 21
38.744692723369717
 31
0.0
  0
LINE
  5
63A7
  8
0
 10
-490.48943572944262
 20
46.17263804483656
 30
0.0
 11
-490.20946848818818
 21
46.244693558369811
 31
0.0
  0
LINE
  5
63A8
  8
0
 10
-482.9601547749279
 20
40.632549848766871
 30
0.0
 11
-482.83028050261402
 21
40.91107086965485
 31
0.0
  0
LINE
  5
63A9
  8
0
 10
-482.72369438781391
 20
43.738937901533617
 30
0.0
 11
-482.83028050261402
 21
44.078315412084628
 31
0.0
  0
LINE
  5
63AA
  8
0
 10
-487.42724257118152
 20
39.949016955991851
 30
0.0
 11
-487.12583920297197
 21
40.072020846033517
 31
0.0
  0
LINE
  5
63AB
  8
0
 10
-487.42724257118152
 20
45.04036932574769
 30
0.0
 11
-487.12583920297197
 21
44.917367105706319
 31
0.0
  0
LINE
  5
63AC
  8
0
 10
-483.1083272431726
 20
40.425591691329821
 30
0.0
 11
-482.9601547749279
 21
40.632549848766871
 31
0.0
  0
LINE
  5
63AD
  8
0
 10
-482.83028050261402
 20
44.078315412084628
 30
0.0
 11
-482.9601547749279
 21
44.356836432972727
 31
0.0
  0
LINE
  5
63AE
  8
0
 10
-490.75864315727517
 20
39.030144246415091
 30
0.0
 11
-490.48943572944262
 21
38.816748236902981
 31
0.0
  0
LINE
  5
63AF
  8
0
 10
-490.75864315727517
 20
45.959242035324387
 30
0.0
 11
-490.48943572944262
 21
46.17263804483656
 31
0.0
  0
LINE
  5
63B0
  8
0
 10
-487.12583920297197
 20
40.072020846033517
 30
0.0
 11
-486.85718454535669
 21
40.060611402378129
 31
0.0
  0
LINE
  5
63B1
  8
0
 10
-487.12583920297197
 20
44.917367105706319
 30
0.0
 11
-486.85718454535669
 21
44.928774879361413
 31
0.0
  0
LINE
  5
63B2
  8
0
 10
-484.83219699518378
 20
39.364282965341317
 30
0.0
 11
-483.26910320564713
 21
40.298145599796328
 31
0.0
  0
LINE
  5
63B3
  8
0
 10
-483.26910320564713
 20
40.298145599796328
 30
0.0
 11
-483.1083272431726
 21
40.425591691329821
 31
0.0
  0
LINE
  5
63B4
  8
0
 10
-482.9601547749279
 20
44.356836432972727
 30
0.0
 11
-483.1083272431726
 21
44.563794590409657
 31
0.0
  0
LINE
  5
63B5
  8
0
 10
-493.97705484637532
 20
42.494693975869943
 30
0.0
 11
-493.14852081625992
 21
46.244693558369811
 31
0.0
  0
LINE
  5
63B6
  8
0
 10
-493.97705484637532
 20
42.494693975869943
 30
0.0
 11
-491.86653654841859
 21
42.494693975869943
 31
0.0
  0
LINE
  5
63B7
  8
0
 10
-493.14852081625992
 20
38.744692723369717
 30
0.0
 11
-493.97705484637532
 21
42.494693975869943
 31
0.0
  0
LINE
  5
63B8
  8
0
 10
-490.75864315727517
 20
39.030144246415091
 30
0.0
 11
-491.00674678808377
 21
39.376681049411793
 31
0.0
  0
LINE
  5
63B9
  8
0
 10
-491.00674678808377
 20
45.612705232327812
 30
0.0
 11
-490.75864315727517
 21
45.959242035324387
 31
0.0
  0
LINE
  5
63BA
  8
0
 10
-485.07048436285288
 20
39.302953865349309
 30
0.0
 11
-484.83219699518378
 21
39.364282965341317
 31
0.0
  0
LINE
  5
63BB
  8
0
 10
-485.52152478992667
 20
39.33780844667001
 30
0.0
 11
-485.07048436285288
 21
39.302953865349309
 31
0.0
  0
LINE
  5
63BC
  8
0
 10
-486.85718454535669
 20
40.060611402378129
 30
0.0
 11
-486.16475054959528
 21
39.604090033514069
 31
0.0
  0
LINE
  5
63BD
  8
0
 10
-483.4363053301949
 20
40.255113025734879
 30
0.0
 11
-483.26910320564713
 21
40.298145599796328
 31
0.0
  0
LINE
  5
63BE
  8
0
 10
-484.83219699518378
 20
45.625104986398519
 30
0.0
 11
-483.26910320564713
 21
44.691240681943214
 31
0.0
  0
LINE
  5
63BF
  8
0
 10
-483.26910320564713
 20
44.691240681943214
 30
0.0
 11
-483.1083272431726
 21
44.563794590409657
 31
0.0
  0
LINE
  5
63C0
  8
0
 10
-485.07048436285288
 20
45.686432416390232
 30
0.0
 11
-484.83219699518378
 21
45.625104986398519
 31
0.0
  0
LINE
  5
63C1
  8
0
 10
-485.52152478992667
 20
45.65157950494477
 30
0.0
 11
-485.07048436285288
 21
45.686432416390232
 31
0.0
  0
LINE
  5
63C2
  8
0
 10
-487.09572909306888
 20
40.24124033129317
 30
0.0
 11
-486.9206278660767
 21
40.10243990598849
 31
0.0
  0
LINE
  5
63C3
  8
0
 10
-486.16475054959528
 20
39.604090033514069
 30
0.0
 11
-485.75721029678613
 21
39.398466206549926
 31
0.0
  0
LINE
  5
63C4
  8
0
 10
-485.75721029678613
 20
39.398466206549926
 30
0.0
 11
-485.52152478992667
 21
39.33780844667001
 31
0.0
  0
LINE
  5
63C5
  8
0
 10
-486.85718454535669
 20
44.928774879361413
 30
0.0
 11
-486.16475054959528
 21
45.385296248225472
 31
0.0
  0
LINE
  5
63C6
  8
0
 10
-487.09572909306888
 20
44.748145950446357
 30
0.0
 11
-486.9206278660767
 21
44.886946375751052
 31
0.0
  0
LINE
  5
63C7
  8
0
 10
-491.00674678808377
 20
39.376681049411793
 30
0.0
 11
-491.2242109190251
 21
39.843042061419062
 31
0.0
  0
LINE
  5
63C8
  8
0
 10
-491.2242109190251
 20
45.146344220320479
 30
0.0
 11
-491.00674678808377
 21
45.612705232327812
 31
0.0
  0
LINE
  5
63C9
  8
0
 10
-485.30877340052211
 20
39.364282965341317
 30
0.0
 11
-485.07048436285288
 21
39.302953865349309
 31
0.0
  0
LINE
  5
63CA
  8
0
 10
-485.75721029678613
 20
45.590920075189672
 30
0.0
 11
-485.52152478992667
 21
45.65157950494477
 31
0.0
  0
LINE
  5
63CB
  8
0
 10
-486.16475054959528
 20
45.385296248225472
 30
0.0
 11
-485.75721029678613
 21
45.590920075189672
 31
0.0
  0
LINE
  5
63CC
  8
0
 10
-491.0380025183033
 20
38.744692723369717
 30
0.0
 11
-491.86653654841859
 21
42.494693975869943
 31
0.0
  0
LINE
  5
63CD
  8
0
 10
-491.86653654841859
 20
42.494693975869943
 30
0.0
 11
-491.0380025183033
 21
46.244693558369811
 31
0.0
  0
LINE
  5
63CE
  8
0
 10
-487.09572909306888
 20
40.24124033129317
 30
0.0
 11
-487.25710458576827
 21
40.466638634684671
 31
0.0
  0
LINE
  5
63CF
  8
0
 10
-483.60350745461801
 20
40.298145599796328
 30
0.0
 11
-483.4363053301949
 21
40.255113025734879
 31
0.0
  0
LINE
  5
63D0
  8
0
 10
-483.4363053301949
 20
44.734273256004649
 30
0.0
 11
-483.26910320564713
 21
44.691240681943214
 31
0.0
  0
LINE
  5
63D1
  8
0
 10
-485.30877340052211
 20
45.625104986398519
 30
0.0
 11
-485.07048436285288
 21
45.686432416390232
 31
0.0
  0
LINE
  5
63D2
  8
0
 10
-486.37632959855392
 20
45.217581433467103
 30
0.0
 11
-486.16475054959528
 21
45.385296248225472
 31
0.0
  0
LINE
  5
63D3
  8
0
 10
-487.25710458576827
 20
44.522747647054871
 30
0.0
 11
-487.09572909306888
 21
44.748145950446357
 31
0.0
  0
LINE
  5
63D4
  8
0
 10
-491.2242109190251
 20
39.843042061419062
 30
0.0
 11
-491.4026805372045
 21
40.41130483669388
 31
0.0
  0
LINE
  5
63D5
  8
0
 10
-491.4026805372045
 20
44.578081445045598
 30
0.0
 11
-491.2242109190251
 21
45.146344220320479
 31
0.0
  0
LINE
  5
63D6
  8
0
 10
-487.25710458576827
 20
40.466638634684671
 30
0.0
 11
-487.39855029176499
 21
40.769974193591729
 31
0.0
  0
LINE
  5
63D7
  8
0
 10
-485.53790415528698
 20
39.545910554548072
 30
0.0
 11
-485.30877340052211
 21
39.364282965341317
 31
0.0
  0
LINE
  5
63D8
  8
0
 10
-487.39855029176499
 20
44.219412088147799
 30
0.0
 11
-487.25710458576827
 21
44.522747647054871
 31
0.0
  0
LINE
  5
63D9
  8
0
 10
-483.76428508709262
 20
40.425591691329821
 30
0.0
 11
-483.60350745461801
 21
40.298145599796328
 31
0.0
  0
LINE
  5
63DA
  8
0
 10
-485.53790415528698
 20
45.443475727191462
 30
0.0
 11
-485.30877340052211
 21
45.625104986398519
 31
0.0
  0
LINE
  5
63DB
  8
0
 10
-483.60350745461801
 20
44.691240681943214
 30
0.0
 11
-483.4363053301949
 21
44.734273256004649
 31
0.0
  0
LINE
  5
63DC
  8
0
 10
-487.39855029176499
 20
40.769974193591729
 30
0.0
 11
-487.5146320296505
 21
41.139590404067633
 31
0.0
  0
LINE
  5
63DD
  8
0
 10
-491.4026805372045
 20
40.41130483669388
 30
0.0
 11
-491.53529361035089
 21
41.059630778089343
 31
0.0
  0
LINE
  5
63DE
  8
0
 10
-491.53529361035089
 20
43.929757173650437
 30
0.0
 11
-491.4026805372045
 21
44.578081445045598
 31
0.0
  0
LINE
  5
63DF
  8
0
 10
-487.5146320296505
 20
43.849795877671902
 30
0.0
 11
-487.39855029176499
 21
44.219412088147799
 31
0.0
  0
LINE
  5
63E0
  8
0
 10
-485.53790415528698
 20
39.545910554548072
 30
0.0
 11
-485.749072384052
 21
39.840859370679539
 31
0.0
  0
LINE
  5
63E1
  8
0
 10
-487.5146320296505
 20
41.139590404067633
 30
0.0
 11
-487.60088755780521
 21
41.561282241615167
 31
0.0
  0
LINE
  5
63E2
  8
0
 10
-491.53529361035089
 20
41.059630778089343
 30
0.0
 11
-491.61695663698879
 21
41.763105147319543
 31
0.0
  0
LINE
  5
63E3
  8
0
 10
-491.61695663698879
 20
43.226282804295231
 30
0.0
 11
-491.53529361035089
 21
43.929757173650437
 31
0.0
  0
LINE
  5
63E4
  8
0
 10
-483.76428508709262
 20
44.563794590409657
 30
0.0
 11
-483.60350745461801
 21
44.691240681943214
 31
0.0
  0
LINE
  5
63E5
  8
0
 10
-483.76428508709262
 20
40.425591691329821
 30
0.0
 11
-483.91245755533743
 21
40.632549848766871
 31
0.0
  0
LINE
  5
63E6
  8
0
 10
-485.749072384052
 20
45.148526911060003
 30
0.0
 11
-485.53790415528698
 21
45.443475727191462
 31
0.0
  0
LINE
  5
63E7
  8
0
 10
-487.60088755780521
 20
43.42810404012436
 30
0.0
 11
-487.5146320296505
 21
43.849795877671902
 31
0.0
  0
LINE
  5
63E8
  8
0
 10
-487.60088755780521
 20
41.561282241615167
 30
0.0
 11
-487.65400526505078
 21
42.018844020777969
 31
0.0
  0
LINE
  5
63E9
  8
0
 10
-491.61695663698879
 20
41.763105147319543
 30
0.0
 11
-491.6445316859689
 21
42.494693975869943
 31
0.0
  0
LINE
  5
63EA
  8
0
 10
-491.6445316859689
 20
42.494693975869943
 30
0.0
 11
-491.61695663698879
 21
43.226282804295231
 31
0.0
  0
LINE
  5
63EB
  8
0
 10
-487.65400526505078
 20
42.970542260961572
 30
0.0
 11
-487.60088755780521
 21
43.42810404012436
 31
0.0
  0
LINE
  5
63EC
  8
0
 10
-487.65400526505078
 20
42.018844020777969
 30
0.0
 11
-487.67193940092079
 21
42.494693975869943
 31
0.0
  0
LINE
  5
63ED
  8
0
 10
-487.67193940092079
 20
42.494693975869943
 30
0.0
 11
-487.65400526505078
 21
42.970542260961572
 31
0.0
  0
LINE
  5
63EE
  8
0
 10
-485.749072384052
 20
39.840859370679539
 30
0.0
 11
-485.93416355446237
 21
40.237793450092511
 31
0.0
  0
LINE
  5
63EF
  8
0
 10
-483.91245755533743
 20
44.356836432972727
 30
0.0
 11
-483.76428508709262
 21
44.563794590409657
 31
0.0
  0
LINE
  5
63F0
  8
0
 10
-483.91245755533743
 20
40.632549848766871
 30
0.0
 11
-484.04233182765131
 21
40.91107086965485
 31
0.0
  0
LINE
  5
63F1
  8
0
 10
-485.93416355446237
 20
44.751594501647332
 30
0.0
 11
-485.749072384052
 21
45.148526911060003
 31
0.0
  0
LINE
  5
63F2
  8
0
 10
-484.04233182765131
 20
44.078315412084628
 30
0.0
 11
-483.91245755533743
 21
44.356836432972727
 31
0.0
  0
LINE
  5
63F3
  8
0
 10
-485.93416355446237
 20
40.237793450092511
 30
0.0
 11
-486.08606346395447
 21
40.721457337739423
 31
0.0
  0
LINE
  5
63F4
  8
0
 10
-484.04233182765131
 20
40.91107086965485
 30
0.0
 11
-484.14891627245089
 21
41.250450050206148
 31
0.0
  0
LINE
  5
63F5
  8
0
 10
-486.08606346395447
 20
44.26792894387517
 30
0.0
 11
-485.93416355446237
 21
44.751594501647332
 31
0.0
  0
LINE
  5
63F6
  8
0
 10
-484.14891627245089
 20
43.738937901533617
 30
0.0
 11
-484.04233182765131
 21
44.078315412084628
 31
0.0
  0
LINE
  5
63F7
  8
0
 10
-486.08606346395447
 20
40.721457337739423
 30
0.0
 11
-486.19893546080408
 21
41.273267267641643
 31
0.0
  0
LINE
  5
63F8
  8
0
 10
-484.14891627245089
 20
41.250450050206148
 30
0.0
 11
-484.22811604830252
 21
41.637643016492341
 31
0.0
  0
LINE
  5
63F9
  8
0
 10
-486.19893546080408
 20
43.716119014097899
 30
0.0
 11
-486.08606346395447
 21
44.26792894387517
 31
0.0
  0
LINE
  5
63FA
  8
0
 10
-484.22811604830252
 20
43.351743265247137
 30
0.0
 11
-484.14891627245089
 21
43.738937901533617
 31
0.0
  0
LINE
  5
63FB
  8
0
 10
-486.19893546080408
 20
41.273267267641643
 30
0.0
 11
-486.26844088341147
 21
41.872015902882701
 31
0.0
  0
LINE
  5
63FC
  8
0
 10
-484.22811604830252
 20
41.637643016492341
 30
0.0
 11
-484.27688841419769
 21
42.057773403404148
 31
0.0
  0
LINE
  5
63FD
  8
0
 10
-486.26844088341147
 20
43.11737037885689
 30
0.0
 11
-486.19893546080408
 21
43.716119014097899
 31
0.0
  0
LINE
  5
63FE
  8
0
 10
-484.27688841419769
 20
42.931614548335631
 30
0.0
 11
-484.22811604830252
 21
43.351743265247137
 31
0.0
  0
LINE
  5
63FF
  8
0
 10
-486.26844088341147
 20
41.872015902882701
 30
0.0
 11
-486.29191107108119
 21
42.494693975869943
 31
0.0
  0
LINE
  5
6400
  8
0
 10
-484.27688841419769
 20
42.057773403404148
 30
0.0
 11
-484.29335628957239
 21
42.494693975869943
 31
0.0
  0
LINE
  5
6401
  8
0
 10
-484.29335628957239
 20
42.494693975869943
 30
0.0
 11
-484.27688841419769
 21
42.931614548335631
 31
0.0
  0
LINE
  5
6402
  8
0
 10
-486.29191107108119
 20
42.494693975869943
 30
0.0
 11
-486.26844088341147
 21
43.11737037885689
 31
0.0
  0
LINE
  5
6403
  8
0
 10
-486.9206278660767
 20
40.10243990598849
 30
0.0
 11
-486.85718454535669
 21
40.060611402378129
 31
0.0
  0
LINE
  5
6404
  8
0
 10
-487.18628153256611
 20
40.074587636962178
 30
0.0
 11
-487.12583920297197
 21
40.072020846033517
 31
0.0
  0
LINE
  5
6405
  8
0
 10
-486.9206278660767
 20
44.886946375751052
 30
0.0
 11
-486.85718454535669
 21
44.928774879361413
 31
0.0
  0
POINT
  5
6406
  8
0
 10
-482.5792560406926
 20
42.494693975869943
 30
0.0
1001
PNTFLAG
1000
endpoint
  0
LINE
  5
6407
  8
0
 10
-517.60885599461506
 20
0.4930974445592824
 30
0.0
 11
-510.9254036166991
 21
7.1765498224752937
 31
0.0
  0
LINE
  5
6408
  8
0
 10
-510.92540361669921
 20
9.8092670666435424
 30
0.0
 11
-510.9254036166991
 21
7.1765498224752937
 31
0.0
  0
LINE
  5
6409
  8
0
 10
-510.92540361669921
 20
9.8092670666435424
 30
0.0
 11
-511.83506623996192
 21
10.718929689906361
 31
0.0
  0
ARC
  5
640A
  8
0
 10
-514.10333496443252
 20
11.33330497715945
 30
0.0
 40
2.3500000000000001
 50
344.84469626684
 51
105.1553216347687
  0
LINE
  5
640B
  8
0
 10
-514.71771096038776
 20
13.601573509673409
 30
0.0
 11
-518.92540361669921
 21
17.809273276132039
 31
0.0
  0
LINE
  5
640C
  8
0
 10
-518.92540361669921
 20
21.576882421256759
 30
0.0
 11
-518.92540361669921
 21
17.809273276132039
 31
0.0
  0
LINE
  5
640D
  8
0
 10
-514.54674865014886
 20
25.955552160646789
 30
0.0
 11
-518.92540361669921
 21
21.576882421256759
 31
0.0
  0
ARC
  5
640E
  8
0
 10
-514.1031531785967
 20
28.26330497618352
 30
0.0
 40
2.3500000000000001
 50
259.11933678375959
 51
10.880626706424071
  0
LINE
  5
640F
  8
0
 10
-509.8592061194505
 20
30.64309744455937
 30
0.0
 11
-511.79540008039407
 21
28.70689897719728
 31
0.0
  0
LINE
  5
6410
  8
0
 10
-509.8592061194505
 20
30.64309744455937
 30
0.0
 11
-479.69160111394871
 21
30.64309744455943
 31
0.0
  0
LINE
  5
6411
  8
0
 10
-479.69160111394871
 20
30.64309744455943
 30
0.0
 11
-477.75156280406082
 21
28.703054619305821
 31
0.0
  0
ARC
  5
6412
  8
0
 10
-475.44315318082528
 20
28.26288986452289
 30
0.0
 40
2.3500000000000001
 50
169.20450083853351
 51
280.79553581927559
  0
LINE
  5
6413
  8
0
 10
-475.0029869491234
 20
25.954480522905101
 30
0.0
 11
-470.6254036166992
 21
21.576882421256069
 31
0.0
  0
LINE
  5
6414
  8
0
 10
-470.6254036166992
 20
21.576882421256069
 30
0.0
 11
-470.62540361669937
 21
17.809273276132441
 31
0.0
  0
LINE
  5
6415
  8
0
 10
-474.83254352379601
 20
13.602126259822169
 30
0.0
 11
-470.62540361669937
 21
17.809273276132441
 31
0.0
  0
ARC
  5
6416
  8
0
 10
-475.44333496666121
 20
11.332889865498769
 30
0.0
 40
2.3500000000000001
 50
74.935203763701907
 51
195.06477833699691
  0
LINE
  5
6417
  8
0
 10
-478.6254036166992
 20
9.8092670666442245
 30
0.0
 11
-477.71257155179683
 21
10.722099131546999
 31
0.0
  0
LINE
  5
6418
  8
0
 10
-478.6254036166992
 20
9.8092670666442245
 30
0.0
 11
-478.62540361669932
 21
7.1765498224750672
 31
0.0
  0
LINE
  5
6419
  8
0
 10
-471.94195123878347
 20
0.4930974445592824
 30
0.0
 11
-478.62540361669932
 21
7.1765498224750672
 31
0.0
  0
LINE
  5
641A
  8
0
 10
-519.23520159134409
 20
0.4930974445592256
 30
0.0
 11
-512.07540361669896
 21
7.6528954192043548
 31
0.0
  0
LINE
  5
641B
  8
0
 10
-512.07540361669908
 20
9.3329214699144813
 30
0.0
 11
-512.07540361669896
 21
7.6528954192043548
 31
0.0
  0
LINE
  5
641C
  8
0
 10
-512.07540361669908
 20
9.3329214699144813
 30
0.0
 11
-513.24114470823031
 21
10.498662561445711
 31
0.0
  0
ARC
  5
641D
  8
0
 10
-514.10333496443252
 20
11.33330497715945
 30
0.0
 40
1.2
 50
315.93010723545262
 51
134.0699570066229
  0
LINE
  5
641E
  8
0
 10
-514.93797834686438
 20
12.195494297530329
 30
0.0
 11
-520.07540361669919
 21
17.332928248572099
 31
0.0
  0
LINE
  5
641F
  8
0
 10
-520.07540361669919
 20
22.053226881590259
 30
0.0
 11
-520.07540361669919
 21
17.332928248572099
 31
0.0
  0
LINE
  5
6420
  8
0
 10
-514.82440391298815
 20
27.3042443012842
 30
0.0
 11
-520.07540361669919
 21
22.053226881590259
 31
0.0
  0
ARC
  5
6421
  8
0
 10
-514.1031531785967
 20
28.26330497618352
 30
0.0
 40
1.2
 50
233.05541811645361
 51
36.944417995166702
  0
LINE
  5
6422
  8
0
 10
-510.33555250013143
 20
31.793097444559411
 30
0.0
 11
-513.14409044064155
 21
28.984552967282859
 31
0.0
  0
LINE
  5
6423
  8
0
 10
-510.33555250013143
 20
31.793097444559411
 30
0.0
 11
-479.2152547332679
 21
31.793097444559411
 31
0.0
  0
LINE
  5
6424
  8
0
 10
-479.2152547332679
 20
31.793097444559411
 30
0.0
 11
-476.40396713894631
 21
28.981803307072539
 31
0.0
  0
ARC
  5
6425
  8
0
 10
-475.44315318082528
 20
28.26288986452289
 30
0.0
 40
1.2
 50
143.19492398790041
 51
306.80523992638371
  0
LINE
  5
6426
  8
0
 10
-474.72423698953969
 20
27.302077963105042
 30
0.0
 11
-469.47540361669923
 21
22.05322688158947
 31
0.0
  0
LINE
  5
6427
  8
0
 10
-469.47540361669923
 20
22.05322688158947
 30
0.0
 11
-469.4754036166994
 21
17.332928248572561
 31
0.0
  0
LINE
  5
6428
  8
0
 10
-474.61100779847692
 20
12.19731538866483
 30
0.0
 11
-469.4754036166994
 21
17.332928248572561
 31
0.0
  0
ARC
  5
6429
  8
0
 10
-475.44333496666121
 20
11.332889865498769
 30
0.0
 40
1.2
 50
46.083764851747588
 51
223.91617100702661
  0
LINE
  5
642A
  8
0
 10
-477.47540361669923
 20
9.3329214699152203
 30
0.0
 11
-476.30776142159658
 21
10.5005636650182
 31
0.0
  0
LINE
  5
642B
  8
0
 10
-477.47540361669923
 20
9.3329214699152203
 30
0.0
 11
-477.47540361669923
 21
7.6528954192041283
 31
0.0
  0
LINE
  5
642C
  8
0
 10
-470.31560564205449
 20
0.4930974445592824
 30
0.0
 11
-477.47540361669923
 21
7.6528954192041283
 31
0.0
  0
LINE
  5
642D
  8
0
 10
-512.07540361669896
 20
7.6528954192043548
 30
0.0
 11
-509.27540361669912
 21
6.4930974445596803
 31
0.0
  0
LINE
  5
642E
  8
0
 10
-512.07540361669908
 20
9.3329214699144813
 30
0.0
 11
-509.27540361669918
 21
10.49271944455915
 31
0.0
  0
LINE
  5
642F
  8
0
 10
-511.83506623996169
 20
10.71892968990619
 30
0.0
 11
-513.24114470822985
 21
10.49866256144537
 31
0.0
  0
LINE
  5
6430
  8
0
 10
-511.83506623996169
 20
10.7189296899063
 30
0.0
 11
-510.10333496443252
 21
11.33330497715945
 31
0.0
  0
LINE
  5
6431
  8
0
 10
-514.71771096038776
 20
13.601573509673409
 30
0.0
 11
-514.11596914239215
 21
15.333285024303111
 31
0.0
  0
LINE
  5
6432
  8
0
 10
-514.71771096038776
 20
13.601573509673409
 30
0.0
 11
-514.93797834686461
 21
12.19549429753067
 31
0.0
  0
LINE
  5
6433
  8
0
 10
-520.07540361669919
 20
17.332928248572099
 30
0.0
 11
-517.27540361669924
 21
18.492724837413729
 31
0.0
  0
LINE
  5
6434
  8
0
 10
-517.27540361669924
 20
20.893431673821741
 30
0.0
 11
-520.07540361669919
 21
22.053226881590259
 31
0.0
  0
LINE
  5
6435
  8
0
 10
-514.8244039129886
 20
27.304244301283799
 30
0.0
 11
-514.54674865014897
 21
25.955552160646668
 31
0.0
  0
LINE
  5
6436
  8
0
 10
-514.54674865014897
 20
25.955552160646668
 30
0.0
 11
-513.90039977844845
 21
24.26844689876344
 31
0.0
  0
LINE
  5
6437
  8
0
 10
-513.14409044064121
 20
28.984552967283211
 30
0.0
 11
-511.79540008039407
 21
28.70689897719728
 31
0.0
  0
LINE
  5
6438
  8
0
 10
-511.79540008039407
 20
28.70689897719728
 30
0.0
 11
-510.1082950362877
 21
28.060552854548689
 31
0.0
  0
LINE
  5
6439
  8
0
 10
-509.17575261673431
 20
28.993097444559339
 30
0.0
 11
-510.33555250013143
 21
31.793097444559411
 31
0.0
  0
LINE
  5
643A
  8
0
 10
-480.37505461666473
 20
28.993097444559339
 30
0.0
 11
-479.2152547332679
 21
31.793097444559411
 31
0.0
  0
LINE
  5
643B
  8
0
 10
-479.43779041756289
 20
28.055831064010651
 30
0.0
 11
-477.75156280406088
 21
28.703054619306041
 31
0.0
  0
LINE
  5
643C
  8
0
 10
-477.75156280406088
 20
28.703054619306041
 30
0.0
 11
-476.40396713894671
 21
28.981803307072941
 31
0.0
  0
LINE
  5
643D
  8
0
 10
-474.72423698953969
 20
27.302077963105042
 30
0.0
 11
-475.0029869491234
 21
25.954480522905101
 31
0.0
  0
LINE
  5
643E
  8
0
 10
-475.0029869491234
 20
25.954480522905101
 30
0.0
 11
-475.65021325040868
 21
24.268252693566811
 31
0.0
  0
LINE
  5
643F
  8
0
 10
-472.27540361669918
 20
20.893431673821169
 30
0.0
 11
-469.47540361669923
 21
22.05322688158947
 31
0.0
  0
LINE
  5
6440
  8
0
 10
-469.4754036166994
 20
17.332928248572561
 30
0.0
 11
-472.27540361669929
 21
18.49272483741413
 31
0.0
  0
LINE
  5
6441
  8
0
 10
-474.61100779847692
 20
12.19731538866483
 30
0.0
 11
-474.83254352379601
 21
13.602126259822169
 31
0.0
  0
LINE
  5
6442
  8
0
 10
-474.83254352379601
 20
13.602126259822169
 30
0.0
 11
-475.43524143728979
 21
15.33288167733815
 31
0.0
  0
LINE
  5
6443
  8
0
 10
-479.44332677839282
 20
11.324796282866201
 30
0.0
 11
-477.71257155179688
 21
10.72209913154688
 31
0.0
  0
LINE
  5
6444
  8
0
 10
-477.71257155179688
 20
10.72209913154688
 30
0.0
 11
-476.30776142159709
 21
10.500563665017809
 31
0.0
  0
LINE
  5
6445
  8
0
 10
-477.47540361669923
 20
7.6528954192041283
 30
0.0
 11
-480.27540361669941
 21
6.493097444559452
 31
0.0
  0
LINE
  5
6446
  8
0
 10
-135.57107822543091
 20
-9.0069025554405471
 30
0.0
 11
-263.07107822543128
 21
-9.0069025554405471
 31
0.0
  0
LINE
  5
6447
  8
0
 10
-135.57107822543091
 20
-6.7069066554444126
 30
0.0
 11
-263.07107822543128
 21
-6.7069066554444126
 31
0.0
  0
LINE
  5
6448
  8
0
 10
-135.57107822543091
 20
-1.806942850842574
 30
0.0
 11
-263.07107822543128
 21
-1.806942850842574
 31
0.0
  0
LINE
  5
6449
  8
0
 10
-135.57107822543091
 20
6.4930819214644648
 30
0.0
 11
-183.9024468755463
 21
6.4930819214647491
 31
0.0
  0
LINE
  5
644A
  8
0
 10
-135.57107822543091
 20
10.49308544455937
 30
0.0
 11
-183.9024468755463
 21
10.49308544455937
 31
0.0
  0
LINE
  5
644B
  8
0
 10
-135.57107822543091
 20
11.592727218344059
 30
0.0
 11
-183.9024468755463
 21
11.592727218344059
 31
0.0
  0
LINE
  5
644C
  8
0
 10
-135.57107822543091
 20
14.960942732940341
 30
0.0
 11
-183.9024468755463
 21
14.960942732940341
 31
0.0
  0
LINE
  5
644D
  8
0
 10
-135.57107822543091
 20
18.793091344971462
 30
0.0
 11
-183.9024468755463
 21
18.793091344971462
 31
0.0
  0
LINE
  5
644E
  8
0
 10
-135.57107822543091
 20
20.593064660436429
 30
0.0
 11
-183.9024468755463
 21
20.593064660436589
 31
0.0
  0
LINE
  5
644F
  8
0
 10
-135.57107822543091
 20
24.426338452249869
 30
0.0
 11
-183.9024468755463
 21
24.426338452249869
 31
0.0
  0
LINE
  5
6450
  8
0
 10
-135.57107822543091
 20
27.79332665088452
 30
0.0
 11
-183.9024468755463
 21
27.793326650884701
 31
0.0
  0
LINE
  5
6451
  8
0
 10
-135.57107822543091
 20
28.99309744455946
 30
0.0
 11
-183.9024468755463
 21
28.99309744455946
 31
0.0
  0
LINE
  5
6452
  8
0
 10
-263.07107822543128
 20
-9.0069025554404334
 30
0.0
 11
-390.57107822543111
 21
-9.0069025554405471
 31
0.0
  0
LINE
  5
6453
  8
0
 10
-378.07107822543111
 20
28.593097444559358
 30
0.0
 11
-378.07107822543111
 21
11.993097444559339
 31
0.0
  0
LINE
  5
6454
  8
0
 10
-358.07107822543082
 20
28.593097444559358
 30
0.0
 11
-358.07107822543082
 21
11.993097444559339
 31
0.0
  0
LINE
  5
6455
  8
0
 10
-390.57107822543111
 20
-9.0069025554405471
 30
0.0
 11
-390.57107822543111
 21
28.993097444559339
 31
0.0
  0
LINE
  5
6456
  8
¤¤¤ß˝u
 10
-368.07107822543111
 20
-10.96632371567784
 30
0.0
 11
-368.07107822543111
 21
31.008571607424759
 31
0.0
  0
LINE
  5
6457
  8
0
 10
-378.07107822543111
 20
11.993097444559339
 30
0.0
 11
-358.07107822543082
 21
11.993097444559339
 31
0.0
  0
LINE
  5
6458
  8
0
 10
-375.07107822543082
 20
11.693097444559379
 30
0.0
 11
-375.07107822543082
 21
-8.3069025554406153
 31
0.0
  0
LINE
  5
6459
  8
0
 10
-361.07107822543111
 20
11.693097444559379
 30
0.0
 11
-361.07107822543111
 21
-8.3069025554406153
 31
0.0
  0
LINE
  5
645A
  8
0
 10
-375.07107822543082
 20
-8.3069025554406153
 30
0.0
 11
-361.07107822543111
 21
-8.3069025554406153
 31
0.0
  0
LINE
  5
645B
  8
0
 10
-375.07107822543082
 20
-8.3069025554406153
 30
0.0
 11
-375.7710782254311
 21
-9.0069025554406608
 31
0.0
  0
LINE
  5
645C
  8
0
 10
-361.07107822543111
 20
-8.3069025554406153
 30
0.0
 11
-360.37107822543072
 21
-9.0069025554406608
 31
0.0
  0
LINE
  5
645D
  8
0
 10
-375.07107822543082
 20
11.693097444559379
 30
0.0
 11
-361.07107822543111
 21
11.693097444559379
 31
0.0
  0
LINE
  5
645E
  8
0
 10
-375.07107822543099
 20
11.693097444559379
 30
0.0
 11
-375.37107822543101
 21
11.993097444559339
 31
0.0
  0
LINE
  5
645F
  8
0
 10
-361.07107822543111
 20
11.693097444559379
 30
0.0
 11
-360.7710782254311
 21
11.993097444559339
 31
0.0
  0
LINE
  5
6460
  8
0
 10
-378.07107822543111
 20
28.593097444559358
 30
0.0
 11
-358.07107822543082
 21
28.593097444559358
 31
0.0
  0
LINE
  5
6461
  8
0
 10
-378.07107822543111
 20
28.593097444559358
 30
0.0
 11
-378.30201833310667
 21
28.993097444559339
 31
0.0
  0
LINE
  5
6462
  8
0
 10
-358.07107822543082
 20
28.593097444559358
 30
0.0
 11
-357.8401381177548
 21
28.993097444559339
 31
0.0
  0
LINE
  5
6463
  8
0
 10
-263.07107822543128
 20
-1.8069428508424601
 30
0.0
 11
-338.11979944261248
 21
-1.8069428508424601
 31
0.0
  0
LINE
  5
6464
  8
0
 10
-263.07107822543128
 20
-6.7068921204576091
 30
0.0
 11
-336.94898267692861
 21
-6.7068964009055199
 31
0.0
  0
LINE
  5
6465
  8
«Řşc˝u
 10
-339.26403916010003
 20
17.421982329311049
 30
0.0
 11
-336.7803204472462
 21
7.8747464934137952
 31
0.0
  0
LINE
  5
6466
  8
«Řşc˝u
 10
-338.88192910837881
 20
1.3826253812096629
 30
0.0
 11
-336.39940894334279
 21
-9.0069025554405471
 31
0.0
  0
LINE
  5
6467
  8
«Řşc˝u
 10
-336.7803204472462
 20
7.8747464934137952
 30
0.0
 11
-338.88192910837881
 21
1.3826253812096629
 31
0.0
  0
LINE
  5
6468
  8
«Řşc˝u
 10
-338.9230061847515
 20
28.993097444559339
 30
0.0
 11
-339.64615146293102
 21
26.205440148386518
 31
0.0
  0
LINE
  5
6469
  8
«Řşc˝u
 10
-338.11770675382621
 20
21.813711902950448
 30
0.0
 11
-339.26403916010003
 21
17.421982329311049
 31
0.0
  0
LINE
  5
646A
  8
«Řşc˝u
 10
-339.64615146293102
 20
26.205440148386518
 30
0.0
 11
-338.11770675382621
 21
21.813711902950448
 31
0.0
  0
LINE
  5
646B
  8
¤¤¤ß˝u
 10
-263.07107822543128
 20
-10.96632371567784
 30
0.0
 11
-263.07107822543128
 21
1.9563521847741749
 31
0.0
  0
LINE
  5
646C
  8
µę˝u
 10
-270.07107822543082
 20
-8.3069025554406153
 30
0.0
 11
-256.07107822543082
 21
-8.3069025554406153
 31
0.0
  0
LINE
  5
646D
  8
µę˝u
 10
-270.07107822543082
 20
0.492457207266682
 30
0.0
 11
-270.07107822543082
 21
-8.3069025554406153
 31
0.0
  0
LINE
  5
646E
  8
µę˝u
 10
-270.07107822543082
 20
-8.3069025554406153
 30
0.0
 11
-270.77107822543098
 21
-9.0069025554406608
 31
0.0
  0
LINE
  5
646F
  8
µę˝u
 10
-256.07107822543082
 20
0.492457207266682
 30
0.0
 11
-256.07107822543082
 21
-8.3069025554406153
 31
0.0
  0
LINE
  5
6470
  8
µę˝u
 10
-256.07107822543082
 20
-8.3069025554406153
 30
0.0
 11
-255.37107822543081
 21
-9.0069025554406608
 31
0.0
  0
LINE
  5
6471
  8
µę˝u
 10
-168.07107822543091
 20
28.593097444559358
 30
0.0
 11
-168.07107822543091
 21
11.993097444559339
 31
0.0
  0
LINE
  5
6472
  8
µę˝u
 10
-148.07107822543091
 20
28.593097444559358
 30
0.0
 11
-148.07107822543091
 21
11.993097444559339
 31
0.0
  0
LINE
  5
6473
  8
0
 10
-135.57107822543091
 20
-9.0069025554405471
 30
0.0
 11
-135.57107822543091
 21
28.993097444559339
 31
0.0
  0
LINE
  5
6474
  8
¤¤¤ß˝u
 10
-158.07107822543091
 20
-10.96632371567784
 30
0.0
 11
-158.07107822543091
 21
31.008571607424759
 31
0.0
  0
LINE
  5
6475
  8
µę˝u
 10
-165.07107822543091
 20
11.693097444559379
 30
0.0
 11
-165.07107822543091
 21
-8.3069025554406153
 31
0.0
  0
LINE
  5
6476
  8
µę˝u
 10
-151.07107822543091
 20
11.693097444559379
 30
0.0
 11
-151.07107822543091
 21
-8.3069025554406153
 31
0.0
  0
LINE
  5
6477
  8
µę˝u
 10
-165.07107822543091
 20
-8.3069025554406153
 30
0.0
 11
-151.07107822543091
 21
-8.3069025554406153
 31
0.0
  0
LINE
  5
6478
  8
µę˝u
 10
-165.07107822543091
 20
-8.3069025554406153
 30
0.0
 11
-165.77107822543101
 21
-9.0069025554406608
 31
0.0
  0
LINE
  5
6479
  8
µę˝u
 10
-151.07107822543091
 20
-8.3069025554406153
 30
0.0
 11
-150.37107822543061
 21
-9.0069025554406608
 31
0.0
  0
LINE
  5
647A
  8
µę˝u
 10
-168.07107822543091
 20
11.993097444559339
 30
0.0
 11
-148.07107822543091
 21
11.993097444559339
 31
0.0
  0
LINE
  5
647B
  8
µę˝u
 10
-165.07107822543091
 20
11.693097444559379
 30
0.0
 11
-151.07107822543091
 21
11.693097444559379
 31
0.0
  0
LINE
  5
647C
  8
µę˝u
 10
-165.07107822543091
 20
11.693097444559379
 30
0.0
 11
-165.37107822543109
 21
11.993097444559339
 31
0.0
  0
LINE
  5
647D
  8
µę˝u
 10
-151.07107822543091
 20
11.693097444559379
 30
0.0
 11
-150.77107822543121
 21
11.993097444559339
 31
0.0
  0
LINE
  5
647E
  8
µę˝u
 10
-168.07107822543091
 20
28.593097444559358
 30
0.0
 11
-148.07107822543091
 21
28.593097444559358
 31
0.0
  0
LINE
  5
647F
  8
µę˝u
 10
-168.07107822543091
 20
28.593097444559358
 30
0.0
 11
-168.30201833310679
 21
28.993097444559339
 31
0.0
  0
LINE
  5
6480
  8
µę˝u
 10
-148.07107822543091
 20
28.593097444559358
 30
0.0
 11
-147.84013811775461
 21
28.993097444559339
 31
0.0
  0
LINE
  5
6481
  8
0
 10
-323.30244687554688
 20
28.993097444559339
 30
0.0
 11
-390.57107822543111
 21
28.993097444559339
 31
0.0
  0
LINE
  5
6482
  8
0
 10
-323.30244687554682
 20
27.79332665088527
 30
0.0
 11
-339.23423833855099
 21
27.793326650885209
 31
0.0
  0
LINE
  5
6483
  8
0
 10
-323.30244687554688
 20
24.426338452249919
 30
0.0
 11
-339.02697413171882
 21
24.426338452249869
 31
0.0
  0
LINE
  5
6484
  8
0
 10
-323.30244687554682
 20
20.59306466043699
 30
0.0
 11
-338.43632097340821
 21
20.59306466043699
 31
0.0
  0
LINE
  5
6485
  8
0
 10
-323.30244687554682
 20
18.793091344971462
 30
0.0
 11
-338.9061513004695
 21
18.793091344971462
 31
0.0
  0
LINE
  5
6486
  8
0
 10
-323.30244687554671
 20
14.96094273294022
 30
0.0
 11
-338.6237983402807
 21
14.96094273294022
 31
0.0
  0
LINE
  5
6487
  8
0
 10
-323.30244687554682
 20
11.59272721834412
 30
0.0
 11
-337.74755520076701
 21
11.59272721834418
 31
0.0
  0
LINE
  5
6488
  8
0
 10
-323.30244687554682
 20
10.493085444559419
 30
0.0
 11
-337.46148278169949
 21
10.49308544455937
 31
0.0
  0
LINE
  5
6489
  8
0
 10
-323.30244687554682
 20
6.4930819214648627
 30
0.0
 11
-337.22758847891191
 21
6.4930819214648627
 31
0.0
  0
LINE
  5
648A
  8
0
 10
-185.90244687554619
 20
0.492457207266682
 30
0.0
 11
-185.90244687554619
 21
49.492457207266618
 31
0.0
  0
LINE
  5
648B
  8
0
 10
-184.26571814154769
 20
18.34327386613182
 30
0.0
 11
-184.26571814154769
 21
14.64164054840148
 31
0.0
  0
ARC
  5
648C
  8
0
 10
-186.52343995011279
 20
14.678197209083409
 30
0.0
 40
2.2580177488916551
 50
285.96302216882867
 51
359.07235721200408
  0
ARC
  5
648D
  8
0
 10
-186.52343995011279
 20
18.30671720544996
 30
0.0
 40
2.2580177488916551
 50
0.9276427879959022
 51
74.036977831171271
  0
LINE
  5
648E
  8
0
 10
-183.90244687554599
 20
0.4930974445592824
 30
0.0
 11
-183.9024468755463
 21
30.54245720726664
 31
0.0
  0
LINE
  5
648F
  8
0
 10
-183.9024468755463
 20
30.54245720726664
 30
0.0
 11
-185.90244687554619
 21
31.692457207266731
 31
0.0
  0
ARC
  5
6490
  8
0
 10
-186.52343995011279
 20
42.306717205449957
 30
0.0
 40
2.2580177488916551
 50
0.9276427879959022
 51
74.036977831171271
  0
LINE
  5
6491
  8
0
 10
-184.26571814154769
 20
42.343273866131817
 30
0.0
 11
-184.26571814154769
 21
38.64164054840154
 31
0.0
  0
ARC
  5
6492
  8
0
 10
-186.52343995011279
 20
38.678197209083407
 30
0.0
 40
2.2580177488916551
 50
285.96302216882867
 51
359.07235721200408
  0
LINE
  5
6493
  8
0
 10
-188.4024468755463
 20
46.492457207266682
 30
0.0
 11
-185.90244687554619
 21
46.492457207266682
 31
0.0
  0
LINE
  5
6494
  8
0
 10
-188.4024468755463
 20
49.492457207266618
 30
0.0
 11
-185.90244687554619
 21
49.492457207266618
 31
0.0
  0
LINE
  5
6495
  8
0
 10
-321.30244687554682
 20
0.492457207266682
 30
0.0
 11
-321.30244687554682
 21
49.492457207266618
 31
0.0
  0
LINE
  5
6496
  8
0
 10
-322.93917560954583
 20
18.34327386613182
 30
0.0
 11
-322.93917560954583
 21
14.64164054840148
 31
0.0
  0
ARC
  5
6497
  8
0
 10
-320.68145380098082
 20
14.678197209083409
 30
0.0
 40
2.2580177488916551
 50
180.92764278799569
 51
254.03697783117121
  0
ARC
  5
6498
  8
0
 10
-320.68145380098082
 20
18.30671720544996
 30
0.0
 40
2.2580177488916551
 50
105.9630221688287
 51
179.07235721200411
  0
LINE
  5
6499
  8
0
 10
-323.30244687554671
 20
0.4930974445592824
 30
0.0
 11
-323.30244687554682
 21
30.54245720726664
 31
0.0
  0
LINE
  5
649A
  8
0
 10
-323.30244687554682
 20
30.54245720726664
 30
0.0
 11
-321.30244687554682
 21
31.692457207266731
 31
0.0
  0
ARC
  5
649B
  8
0
 10
-320.68145380098082
 20
42.306717205449957
 30
0.0
 40
2.2580177488916551
 50
105.9630221688287
 51
179.07235721200411
  0
LINE
  5
649C
  8
0
 10
-322.93917560954583
 20
42.343273866131817
 30
0.0
 11
-322.93917560954583
 21
38.64164054840154
 31
0.0
  0
ARC
  5
649D
  8
0
 10
-320.68145380098082
 20
38.678197209083407
 30
0.0
 40
2.2580177488916551
 50
180.92764278799569
 51
254.03697783117121
  0
LINE
  5
649E
  8
0
 10
-318.80244687554682
 20
46.492457207266682
 30
0.0
 11
-321.30244687554682
 21
46.492457207266682
 31
0.0
  0
LINE
  5
649F
  8
0
 10
-318.80244687554682
 20
49.492457207266618
 30
0.0
 11
-321.30244687554682
 21
49.492457207266618
 31
0.0
  0
LINE
  5
64A0
  8
0
 10
-318.80244687554682
 20
0.492457207266682
 30
0.0
 11
-318.80244687554682
 21
49.492457207266618
 31
0.0
  0
LINE
  5
64A1
  8
0
 10
-318.80244687554682
 20
0.492457207266682
 30
0.0
 11
-318.80244687554682
 21
49.492457207266618
 31
0.0
  0
LINE
  5
64A2
  8
0
 10
-188.4024468755463
 20
0.492457207266682
 30
0.0
 11
-188.4024468755463
 21
49.492457207266618
 31
0.0
  0
ARC
  5
64A3
  8
0
 10
-319.00980687554681
 20
44.993347072598453
 30
0.0
 40
3.6926399999999688
 50
137.38859800219959
 51
200.64858871136201
  0
POLYLINE
  5
64A4
  8
0
 66
     1
 10
0.0
 20
0.0
 30
0.0
  0
VERTEX
  5
6793
  8
0
 10
-331.86334312554669
 20
42.493347072598482
 30
0.0
  0
VERTEX
  5
6794
  8
0
 10
-331.90436562554669
 20
42.756165822598518
 30
0.0
  0
VERTEX
  5
6795
  8
0
 10
-331.95954937554671
 20
42.888024572598482
 30
0.0
  0
VERTEX
  5
6796
  8
0
 10
-332.03834062554671
 20
43.0102483225985
 30
0.0
  0
VERTEX
  5
6797
  8
0
 10
-332.13768562554691
 20
43.115389572598502
 30
0.0
  0
VERTEX
  5
6798
  8
0
 10
-332.25204937554668
 20
43.197730822598508
 30
0.0
  0
VERTEX
  5
6799
  8
0
 10
-332.37444937554659
 20
43.254332072598402
 30
0.0
  0
VERTEX
  5
679A
  8
0
 10
-332.54024437554671
 20
43.29050832259847
 30
0.0
  0
VERTEX
  5
679B
  8
0
 10
-332.69400562554659
 20
43.287184572598477
 30
0.0
  0
VERTEX
  5
679C
  8
0
 10
-332.82766062554691
 20
43.255302072598468
 30
0.0
  0
VERTEX
  5
679D
  8
0
 10
-332.97291687554667
 20
43.185592072598467
 30
0.0
  0
VERTEX
  5
679E
  8
0
 10
-333.11112937554662
 20
43.073730822598499
 30
0.0
  0
VERTEX
  5
679F
  8
0
 10
-333.22141687554659
 20
42.93054332259851
 30
0.0
  0
VERTEX
  5
67A0
  8
0
 10
-333.29220937554669
 20
42.780744572598557
 30
0.0
  0
VERTEX
  5
67A1
  8
0
 10
-333.32702312554682
 20
42.651174572598471
 30
0.0
  0
VERTEX
  5
67A2
  8
0
 10
-333.34154937554678
 20
42.493347072598482
 30
0.0
  0
VERTEX
  5
67A3
  8
0
 10
-333.30052687554672
 20
42.230528322598538
 30
0.0
  0
VERTEX
  5
67A4
  8
0
 10
-333.24534187554673
 20
42.098668322598478
 30
0.0
  0
VERTEX
  5
67A5
  8
0
 10
-333.16655187554687
 20
41.976445822598471
 30
0.0
  0
VERTEX
  5
67A6
  8
0
 10
-333.0672068755469
 20
41.87130457259849
 30
0.0
  0
VERTEX
  5
67A7
  8
0
 10
-332.95284312554668
 20
41.788963322598477
 30
0.0
  0
VERTEX
  5
67A8
  8
0
 10
-332.83044312554682
 20
41.73236207259847
 30
0.0
  0
VERTEX
  5
67A9
  8
0
 10
-332.66464812554671
 20
41.696184572598447
 30
0.0
  0
VERTEX
  5
67AA
  8
0
 10
-332.5108868755467
 20
41.699509572598508
 30
0.0
  0
VERTEX
  5
67AB
  8
0
 10
-332.3772318755469
 20
41.731390822598513
 30
0.0
  0
VERTEX
  5
67AC
  8
0
 10
-332.23197562554691
 20
41.801100822598507
 30
0.0
  0
VERTEX
  5
67AD
  8
0
 10
-332.0937631255469
 20
41.912963322598472
 30
0.0
  0
VERTEX
  5
67AE
  8
0
 10
-331.98347562554687
 20
42.056149572598478
 30
0.0
  0
VERTEX
  5
67AF
  8
0
 10
-331.91268312554678
 20
42.205948322598481
 30
0.0
  0
VERTEX
  5
67B0
  8
0
 10
-331.87786812554702
 20
42.335519572598578
 30
0.0
  0
VERTEX
  5
67B1
  8
0
 10
-331.86334312554669
 20
42.493347072598482
 30
0.0
  0
SEQEND
  5
67B2
  8
0
  0
ARC
  5
64A5
  8
0
 10
-327.38787187554698
 20
42.493347072598503
 30
0.0
 40
4.99999999999996
 50
90.0
 51
131.40962199960259
  0
ARC
  5
64A6
  8
0
 10
-327.38787187554698
 20
42.493347072598503
 30
0.0
 40
4.99999999999996
 50
228.59037799729691
 51
270.0
  0
LINE
  5
64A7
  8
0
 10
-321.30244687554682
 20
47.493347072598503
 30
0.0
 11
-327.38787187554698
 21
47.493347072598503
 31
0.0
  0
LINE
  5
64A8
  8
0
 10
-327.38787187554698
 20
37.49334707259851
 30
0.0
 11
-322.60363337333672
 21
37.49334707259851
 31
0.0
  0
LINE
  5
64A9
  8
0
 10
-322.70244687554703
 20
47.493347072598503
 30
0.0
 11
-322.70244687554703
 21
43.313807641739452
 31
0.0
  0
LINE
  5
64AA
  8
0
 10
-331.7971681255471
 20
46.243347072598453
 30
0.0
 11
-326.92244812554679
 21
46.243347072598453
 31
0.0
  0
LINE
  5
64AB
  8
0
 10
-332.10515937554669
 20
39.320755822598528
 30
0.0
 11
-331.7971681255471
 21
38.743347072598567
 31
0.0
  0
LINE
  5
64AC
  8
0
 10
-331.7971681255471
 20
46.243347072598453
 30
0.0
 11
-332.10515937554669
 21
45.665938322598493
 31
0.0
  0
LINE
  5
64AD
  8
0
 10
-325.79639562554678
 20
42.493347072598503
 30
0.0
 11
-324.9221906255471
 21
42.493347072598503
 31
0.0
  0
LINE
  5
64AE
  8
0
 10
-326.92244812554679
 20
46.243347072598453
 30
0.0
 11
-324.9221906255471
 21
42.493347072598503
 31
0.0
  0
LINE
  5
64AF
  8
0
 10
-326.92244812554679
 20
38.743347072598567
 30
0.0
 11
-331.7971681255471
 21
38.743347072598567
 31
0.0
  0
LINE
  5
64B0
  8
0
 10
-324.9221906255471
 20
42.493347072598503
 30
0.0
 11
-326.92244812554679
 21
38.743347072598567
 31
0.0
  0
LINE
  5
64B1
  8
0
 10
-331.64581937554669
 20
45.655264572598469
 30
0.0
 11
-331.1227356255468
 21
45.957894572598491
 31
0.0
  0
LINE
  5
64B2
  8
0
 10
-331.64581937554669
 20
39.33142832259859
 30
0.0
 11
-331.1227356255468
 21
39.028798322598512
 31
0.0
  0
LINE
  5
64B3
  8
0
 10
-331.1227356255468
 20
45.957894572598491
 30
0.0
 11
-330.47281062554669
 21
46.171292072598419
 31
0.0
  0
LINE
  5
64B4
  8
0
 10
-331.1227356255468
 20
39.028798322598512
 30
0.0
 11
-330.47281062554669
 21
38.815402072598602
 31
0.0
  0
LINE
  5
64B5
  8
0
 10
-330.47281062554669
 20
46.171292072598419
 30
0.0
 11
-329.7969106255469
 21
46.243347072598453
 31
0.0
  0
LINE
  5
64B6
  8
0
 10
-330.47281062554669
 20
38.815402072598602
 30
0.0
 11
-329.7969106255469
 21
38.743347072598567
 31
0.0
  0
LINE
  5
64B7
  8
0
 10
-329.7969106255469
 20
46.243347072598453
 30
0.0
 11
-329.12101062554672
 21
46.171292072598419
 31
0.0
  0
LINE
  5
64B8
  8
0
 10
-329.7969106255469
 20
38.743347072598567
 30
0.0
 11
-329.12101062554672
 21
38.815402072598602
 31
0.0
  0
LINE
  5
64B9
  8
0
 10
-329.12101062554672
 20
46.171292072598419
 30
0.0
 11
-328.47108562554678
 21
45.957894572598491
 31
0.0
  0
LINE
  5
64BA
  8
0
 10
-329.12101062554672
 20
38.815402072598602
 30
0.0
 11
-328.47108562554678
 21
39.028798322598512
 31
0.0
  0
LINE
  5
64BB
  8
0
 10
-328.47108562554678
 20
45.957894572598491
 30
0.0
 11
-327.87211062554661
 21
45.611358322598498
 31
0.0
  0
LINE
  5
64BC
  8
0
 10
-328.47108562554678
 20
39.028798322598512
 30
0.0
 11
-327.87211062554661
 21
39.375335822598572
 31
0.0
  0
LINE
  5
64BD
  8
0
 10
-327.87211062554661
 20
45.611358322598498
 30
0.0
 11
-327.3471056255467
 21
45.144997072598528
 31
0.0
  0
LINE
  5
64BE
  8
0
 10
-327.87211062554661
 20
39.375335822598572
 30
0.0
 11
-327.3471056255467
 21
39.841695822598467
 31
0.0
  0
LINE
  5
64BF
  8
0
 10
-327.79665312554692
 20
46.243347072598453
 30
0.0
 11
-325.79639562554678
 21
42.493347072598503
 31
0.0
  0
LINE
  5
64C0
  8
0
 10
-325.79639562554678
 20
42.493347072598503
 30
0.0
 11
-327.79665312554692
 21
38.743347072598567
 31
0.0
  0
LINE
  5
64C1
  8
0
 10
-327.3471056255467
 20
45.144997072598528
 30
0.0
 11
-326.9162443755468
 21
44.576734572598461
 31
0.0
  0
LINE
  5
64C2
  8
0
 10
-326.9162443755468
 20
40.40995832259852
 30
0.0
 11
-327.3471056255467
 21
39.841695822598467
 31
0.0
  0
LINE
  5
64C3
  8
0
 10
-326.9162443755468
 20
44.576734572598461
 30
0.0
 11
-326.59608562554678
 21
43.928409572598468
 31
0.0
  0
LINE
  5
64C4
  8
0
 10
-326.59608562554678
 20
41.058283322598577
 30
0.0
 11
-326.9162443755468
 21
40.40995832259852
 31
0.0
  0
LINE
  5
64C5
  8
0
 10
-326.59608562554678
 20
43.928409572598468
 30
0.0
 11
-326.3989331255471
 21
43.224935822598582
 31
0.0
  0
LINE
  5
64C6
  8
0
 10
-326.3989331255471
 20
41.761758322598503
 30
0.0
 11
-326.59608562554678
 21
41.058283322598577
 31
0.0
  0
LINE
  5
64C7
  8
0
 10
-326.3989331255471
 20
43.224935822598582
 30
0.0
 11
-326.33236312554698
 21
42.493347072598503
 31
0.0
  0
LINE
  5
64C8
  8
0
 10
-326.33236312554698
 20
42.493347072598503
 30
0.0
 11
-326.3989331255471
 21
41.761758322598503
 31
0.0
  0
LINE
  5
64C9
  8
0
 10
-333.42678187554668
 20
44.543630822598452
 30
0.0
 11
-333.42306812554682
 21
44.541612072598461
 31
0.0
  0
LINE
  5
64CA
  8
0
 10
-333.42678187554668
 20
40.443062072598529
 30
0.0
 11
-333.42306812554682
 21
40.445082072598552
 31
0.0
  0
LINE
  5
64CB
  8
0
 10
-334.81766937554659
 20
43.116024572598512
 30
0.0
 11
-334.87432937554672
 21
42.493347072598503
 31
0.0
  0
LINE
  5
64CC
  8
0
 10
-334.64986687554659
 20
43.714772072598521
 30
0.0
 11
-334.81766937554659
 21
43.116024572598512
 31
0.0
  0
LINE
  5
64CD
  8
0
 10
-334.87432937554672
 20
42.493347072598503
 30
0.0
 11
-334.81766937554659
 21
41.870669572598558
 31
0.0
  0
LINE
  5
64CE
  8
0
 10
-334.37737062554658
 20
44.266582072598503
 30
0.0
 11
-334.64986687554659
 21
43.714772072598521
 31
0.0
  0
LINE
  5
64CF
  8
0
 10
-334.81766937554659
 20
41.870669572598558
 30
0.0
 11
-334.64986687554659
 21
41.271920822598531
 31
0.0
  0
LINE
  5
64D0
  8
0
 10
-334.01065062554659
 20
44.75024707259854
 30
0.0
 11
-334.37737062554658
 21
44.266582072598503
 31
0.0
  0
LINE
  5
64D1
  8
0
 10
-334.64986687554659
 20
41.271920822598531
 30
0.0
 11
-334.37737062554658
 21
40.720112072598504
 31
0.0
  0
LINE
  5
64D2
  8
0
 10
-334.01065062554659
 20
44.75024707259854
 30
0.0
 11
-333.5638031255466
 21
45.147180822598493
 31
0.0
  0
LINE
  5
64D3
  8
0
 10
-334.37737062554658
 20
40.720112072598504
 30
0.0
 11
-334.01065062554659
 21
40.23644707259848
 31
0.0
  0
LINE
  5
64D4
  8
0
 10
-334.63179062554678
 20
42.930267072598497
 30
0.0
 11
-334.67154812554702
 21
42.493347072598503
 31
0.0
  0
LINE
  5
64D5
  8
0
 10
-334.51404687554702
 20
43.350397072598518
 30
0.0
 11
-334.63179062554678
 21
42.930267072598497
 31
0.0
  0
LINE
  5
64D6
  8
0
 10
-334.67154812554702
 20
42.493347072598503
 30
0.0
 11
-334.63179062554678
 21
42.056427072598517
 31
0.0
  0
LINE
  5
64D7
  8
0
 10
-334.32284187554683
 20
43.737590822598513
 30
0.0
 11
-334.51404687554702
 21
43.350397072598518
 31
0.0
  0
LINE
  5
64D8
  8
0
 10
-334.63179062554678
 20
42.056427072598517
 30
0.0
 11
-334.51404687554702
 21
41.636297072598502
 31
0.0
  0
LINE
  5
64D9
  8
0
 10
-333.5638031255466
 20
45.147180822598493
 30
0.0
 11
-333.05399687554672
 21
45.442129572598503
 31
0.0
  0
LINE
  5
64DA
  8
0
 10
-334.01065062554659
 20
40.23644707259848
 30
0.0
 11
-333.5638031255466
 21
39.839513322598521
 31
0.0
  0
LINE
  5
64DB
  8
0
 10
-334.06552187554701
 20
44.076968322598532
 30
0.0
 11
-334.32284187554683
 21
43.737590822598513
 31
0.0
  0
LINE
  5
64DC
  8
0
 10
-334.51404687554702
 20
41.636297072598502
 30
0.0
 11
-334.32284187554683
 21
41.24910332259855
 31
0.0
  0
LINE
  5
64DD
  8
0
 10
-333.05399687554672
 20
45.442129572598503
 30
0.0
 11
-332.50082562554701
 21
45.623757072598487
 31
0.0
  0
LINE
  5
64DE
  8
0
 10
-333.5638031255466
 20
39.839513322598521
 30
0.0
 11
-333.05399687554672
 21
39.544564572598517
 31
0.0
  0
LINE
  5
64DF
  8
0
 10
-334.06552187554701
 20
44.076968322598532
 30
0.0
 11
-333.751978125547
 21
44.355489572598458
 31
0.0
  0
LINE
  5
64E0
  8
0
 10
-334.32284187554683
 20
41.24910332259855
 30
0.0
 11
-334.06552187554701
 21
40.909724572598627
 31
0.0
  0
LINE
  5
64E1
  8
0
 10
-332.50082562554701
 20
45.623757072598487
 30
0.0
 11
-331.92554687554679
 21
45.685085822598467
 31
0.0
  0
LINE
  5
64E2
  8
0
 10
-333.05399687554672
 20
39.544564572598517
 30
0.0
 11
-332.50082562554701
 21
39.362935822598502
 31
0.0
  0
LINE
  5
64E3
  8
0
 10
-333.751978125547
 20
44.355489572598458
 30
0.0
 11
-333.39425687554677
 21
44.56244832259847
 31
0.0
  0
LINE
  5
64E4
  8
0
 10
-334.06552187554701
 20
40.909724572598627
 30
0.0
 11
-333.751978125547
 21
40.631204572598563
 31
0.0
  0
LINE
  5
64E5
  8
0
 10
-331.16972312554662
 20
45.589573322598483
 30
0.0
 11
-330.62259312554681
 21
45.409928322598482
 31
0.0
  0
LINE
  5
64E6
  8
0
 10
-333.39425687554677
 20
44.56244832259847
 30
0.0
 11
-333.0061081255468
 21
44.689893322598493
 31
0.0
  0
LINE
  5
64E7
  8
0
 10
-333.751978125547
 20
40.631204572598563
 30
0.0
 11
-333.39425687554677
 21
40.424244572598568
 31
0.0
  0
LINE
  5
64E8
  8
0
 10
-331.35026812554668
 20
45.623757072598487
 30
0.0
 11
-331.16972312554662
 21
45.589573322598483
 31
0.0
  0
LINE
  5
64E9
  8
0
 10
-331.92554687554679
 20
45.685085822598467
 30
0.0
 11
-331.35026812554668
 21
45.623757072598487
 31
0.0
  0
LINE
  5
64EA
  8
0
 10
-332.50082562554701
 20
39.362935822598502
 30
0.0
 11
-331.92554687554679
 21
39.301608322598561
 31
0.0
  0
LINE
  5
64EB
  8
0
 10
-330.62259312554681
 20
45.409928322598482
 30
0.0
 11
-330.11835437554669
 21
45.11820082259851
 31
0.0
  0
LINE
  5
64EC
  8
0
 10
-331.16972312554662
 20
39.397120822598588
 30
0.0
 11
-330.62259312554681
 21
39.576765822598588
 31
0.0
  0
LINE
  5
64ED
  8
0
 10
-330.11835437554669
 20
45.11820082259851
 30
0.0
 11
-329.67638562554669
 21
44.725602072598519
 31
0.0
  0
LINE
  5
64EE
  8
0
 10
-330.62259312554681
 20
39.576765822598588
 30
0.0
 11
-330.11835437554669
 21
39.868493322598567
 31
0.0
  0
LINE
  5
64EF
  8
0
 10
-333.0061081255468
 20
44.689893322598493
 30
0.0
 11
-332.60244562554669
 21
44.732925822598531
 31
0.0
  0
LINE
  5
64F0
  8
0
 10
-333.39425687554677
 20
40.424244572598568
 30
0.0
 11
-333.0061081255468
 21
40.296799572598502
 31
0.0
  0
LINE
  5
64F1
  8
0
 10
-331.35026812554668
 20
45.623757072598487
 30
0.0
 11
-330.79709687554703
 21
45.442129572598503
 31
0.0
  0
LINE
  5
64F2
  8
0
 10
-331.35026812554668
 20
39.362935822598502
 30
0.0
 11
-331.16972312554662
 21
39.397120822598588
 31
0.0
  0
LINE
  5
64F3
  8
0
 10
-331.92554687554679
 20
39.301608322598561
 30
0.0
 11
-331.35026812554668
 21
39.362935822598502
 31
0.0
  0
LINE
  5
64F4
  8
0
 10
-329.67638562554669
 20
44.725602072598519
 30
0.0
 11
-329.31367187554667
 21
44.247218322598478
 31
0.0
  0
LINE
  5
64F5
  8
0
 10
-330.11835437554669
 20
39.868493322598567
 30
0.0
 11
-329.67638562554669
 21
40.261092072598501
 31
0.0
  0
LINE
  5
64F6
  8
0
 10
-332.60244562554669
 20
44.732925822598531
 30
0.0
 11
-332.19878437554672
 21
44.689893322598493
 31
0.0
  0
LINE
  5
64F7
  8
0
 10
-333.0061081255468
 20
40.296799572598502
 30
0.0
 11
-332.60244562554669
 21
40.253767072598578
 31
0.0
  0
LINE
  5
64F8
  8
0
 10
-330.79709687554703
 20
45.442129572598503
 30
0.0
 11
-330.28729187554671
 21
45.147180822598493
 31
0.0
  0
LINE
  5
64F9
  8
0
 10
-331.35026812554668
 20
39.362935822598502
 30
0.0
 11
-330.79709687554703
 21
39.544564572598517
 31
0.0
  0
LINE
  5
64FA
  8
0
 10
-329.31367187554667
 20
44.247218322598478
 30
0.0
 11
-329.0441506255471
 21
43.701434572598487
 31
0.0
  0
LINE
  5
64FB
  8
0
 10
-329.31367187554667
 20
40.739475822598592
 30
0.0
 11
-329.67638562554669
 21
40.261092072598501
 31
0.0
  0
LINE
  5
64FC
  8
0
 10
-329.0441506255471
 20
43.701434572598487
 30
0.0
 11
-328.87818062554669
 21
43.109224572598507
 31
0.0
  0
LINE
  5
64FD
  8
0
 10
-329.0441506255471
 20
41.285259572598527
 30
0.0
 11
-329.31367187554667
 21
40.739475822598592
 31
0.0
  0
LINE
  5
64FE
  8
0
 10
-330.28729187554671
 20
45.147180822598493
 30
0.0
 11
-329.8404431255467
 21
44.75024707259854
 31
0.0
  0
LINE
  5
64FF
  8
0
 10
-330.79709687554703
 20
39.544564572598517
 30
0.0
 11
-330.28729187554671
 21
39.839513322598521
 31
0.0
  0
LINE
  5
6500
  8
0
 10
-328.87818062554669
 20
43.109224572598507
 30
0.0
 11
-328.82213937554678
 21
42.493347072598503
 31
0.0
  0
LINE
  5
6501
  8
0
 10
-328.87818062554669
 20
41.877469572598493
 30
0.0
 11
-329.0441506255471
 21
41.285259572598527
 31
0.0
  0
LINE
  5
6502
  8
0
 10
-332.19878437554672
 20
44.689893322598493
 30
0.0
 11
-331.81063562554658
 21
44.56244832259847
 31
0.0
  0
LINE
  5
6503
  8
0
 10
-332.60244562554669
 20
40.253767072598578
 30
0.0
 11
-332.19878437554672
 21
40.296799572598502
 31
0.0
  0
LINE
  5
6504
  8
0
 10
-328.82213937554678
 20
42.493347072598503
 30
0.0
 11
-328.87818062554669
 21
41.877469572598493
 31
0.0
  0
LINE
  5
6505
  8
0
 10
-329.8404431255467
 20
44.75024707259854
 30
0.0
 11
-329.47372437554679
 21
44.266582072598503
 31
0.0
  0
LINE
  5
6506
  8
0
 10
-330.28729187554671
 20
39.839513322598521
 30
0.0
 11
-329.8404431255467
 21
40.23644707259848
 31
0.0
  0
LINE
  5
6507
  8
0
 10
-331.81063562554658
 20
44.56244832259847
 30
0.0
 11
-331.45291437554692
 21
44.355489572598458
 31
0.0
  0
LINE
  5
6508
  8
0
 10
-332.19878437554672
 20
40.296799572598502
 30
0.0
 11
-331.81063562554658
 21
40.424244572598568
 31
0.0
  0
LINE
  5
6509
  8
0
 10
-329.47372437554679
 20
44.266582072598503
 30
0.0
 11
-329.20122812554672
 21
43.714772072598521
 31
0.0
  0
LINE
  5
650A
  8
0
 10
-329.47372437554679
 20
40.720112072598504
 30
0.0
 11
-329.8404431255467
 21
40.23644707259848
 31
0.0
  0
LINE
  5
650B
  8
0
 10
-329.20122812554672
 20
43.714772072598521
 30
0.0
 11
-329.03342437554687
 21
43.116024572598512
 31
0.0
  0
LINE
  5
650C
  8
0
 10
-329.20122812554672
 20
41.271920822598531
 30
0.0
 11
-329.47372437554679
 21
40.720112072598504
 31
0.0
  0
LINE
  5
650D
  8
0
 10
-331.45291437554692
 20
44.355489572598458
 30
0.0
 11
-331.13937062554697
 21
44.076968322598532
 31
0.0
  0
LINE
  5
650E
  8
0
 10
-331.81063562554658
 20
40.424244572598568
 30
0.0
 11
-331.45291437554692
 21
40.631204572598563
 31
0.0
  0
LINE
  5
650F
  8
0
 10
-329.03342437554687
 20
43.116024572598512
 30
0.0
 11
-328.97676437554679
 21
42.493347072598503
 31
0.0
  0
LINE
  5
6510
  8
0
 10
-329.03342437554687
 20
41.870669572598558
 30
0.0
 11
-329.20122812554672
 21
41.271920822598531
 31
0.0
  0
LINE
  5
6511
  8
0
 10
-328.97676437554679
 20
42.493347072598503
 30
0.0
 11
-329.03342437554687
 21
41.870669572598558
 31
0.0
  0
LINE
  5
6512
  8
0
 10
-331.13937062554697
 20
44.076968322598532
 30
0.0
 11
-330.88205062554681
 21
43.737590822598513
 31
0.0
  0
LINE
  5
6513
  8
0
 10
-331.45291437554692
 20
40.631204572598563
 30
0.0
 11
-331.13937062554697
 21
40.909724572598627
 31
0.0
  0
LINE
  5
6514
  8
0
 10
-330.88205062554681
 20
43.737590822598513
 30
0.0
 11
-330.69084562554667
 21
43.350397072598518
 31
0.0
  0
LINE
  5
6515
  8
0
 10
-330.88205062554681
 20
41.24910332259855
 30
0.0
 11
-331.13937062554697
 21
40.909724572598627
 31
0.0
  0
LINE
  5
6516
  8
0
 10
-330.69084562554667
 20
43.350397072598518
 30
0.0
 11
-330.57310187554663
 21
42.930267072598497
 31
0.0
  0
LINE
  5
6517
  8
0
 10
-330.69084562554667
 20
41.636297072598502
 30
0.0
 11
-330.88205062554681
 21
41.24910332259855
 31
0.0
  0
LINE
  5
6518
  8
0
 10
-330.57310187554663
 20
42.930267072598497
 30
0.0
 11
-330.53334437554702
 21
42.493347072598503
 31
0.0
  0
LINE
  5
6519
  8
0
 10
-330.57310187554663
 20
42.056427072598517
 30
0.0
 11
-330.69084562554667
 21
41.636297072598502
 31
0.0
  0
LINE
  5
651A
  8
0
 10
-330.53334437554702
 20
42.493347072598503
 30
0.0
 11
-330.57310187554663
 21
42.056427072598517
 31
0.0
  0
POINT
  5
651B
  8
0
 10
-334.87432937554672
 20
42.493347072598503
 30
0.0
1001
PNTFLAG
1000
endpoint
  0
LINE
  5
651C
  8
0
 10
-322.70244687554703
 20
37.671106772793898
 30
0.0
 11
-322.70244687554703
 21
37.49334707259851
 31
0.0
  0
ARC
  5
651D
  8
0
  6
CONTINUOUS
 10
-334.16562932281602
 20
160.44721339002069
 30
0.0
 40
2.4721783065536602
 50
34.632779998940201
 51
100.3672200010636
  0
ARC
  5
651E
  8
0
  6
CONTINUOUS
 10
-337.07135297640582
 20
158.79802914578951
 30
0.0
 40
2.7462314797568039
 50
335.84790116506082
 51
45.847901165061977
  0
ARC
  5
651F
  8
0
  6
CONTINUOUS
 10
-333.33920375155287
 20
162.4423812124559
 30
0.0
 40
2.4721783065536602
 50
214.63277999894021
 51
280.36722000106357
  0
LINE
  5
6520
  8
0
  6
CONTINUOUS
 10
-336.39905147488071
 20
155.4031557328928
 30
0.0
 11
-328.71581829647971
 21
152.22065634752391
 31
0.0
  0
LINE
  5
6521
  8
0
  6
CONTINUOUS
 10
-334.31915184142582
 20
157.57233125715939
 30
0.0
 11
-328.65269070868987
 21
155.2252062053204
 31
0.0
  0
ARC
  5
6522
  8
0
  6
CONTINUOUS
 10
-327.86379657152759
 20
165.1433513151095
 30
0.0
 40
5.3333333333333321
 50
90.0
 51
210.8352048940848
  0
LINE
  5
6523
  8
0
  6
CONTINUOUS
 10
-336.39905147488071
 20
151.36049444971161
 30
0.0
 11
-331.57441150385722
 21
149.36206314014629
 31
0.0
  0
LINE
  5
6524
  8
0
 10
-390.57107822543128
 20
187.6437150255968
 30
0.0
 11
-321.66571814154781
 21
187.643715025597
 31
0.0
  0
LINE
  5
6525
  8
0
  6
CONTINUOUS
 10
-334.28526543132341
 20
160.1583862743127
 30
0.0
 11
-326.848034979913
 21
157.07778455484441
 31
0.0
  0
LINE
  5
6526
  8
0
 10
-390.57107822543122
 20
142.64298760462199
 30
0.0
 11
-321.66571814154781
 21
142.64298760462199
 31
0.0
  0
LINE
  5
6527
  8
¤¤¤ß˝u
 10
-368.07107822543122
 20
151.04968987771551
 30
0.0
 11
-368.07107822543122
 21
179.23701275250369
 31
0.0
  0
CIRCLE
  5
6528
  8
0
 10
-368.07107822543122
 20
165.14335131510961
 30
0.0
 40
6.9999999999998277
  0
CIRCLE
  5
6529
  8
0
 10
-368.07107822543122
 20
165.14335131510961
 30
0.0
 40
9.9999999999997726
  0
LINE
  5
652A
  8
¤¤¤ß˝u
 10
-382.16473966282513
 20
165.14335131510961
 30
0.0
 11
-353.97741678803698
 21
165.14335131510961
 31
0.0
  0
ARC
  5
652B
  8
0
  6
CONTINUOUS
 10
-332.7406751732268
 20
154.3254993339288
 30
0.0
 40
3.8137986940490149
 50
118.5864858262624
 51
163.58648582626151
  0
LINE
  5
652C
  8
0
  6
CONTINUOUS
 10
-336.39905147488071
 20
151.36049444971161
 30
0.0
 11
-336.39905147488071
 21
155.4031557328928
 31
0.0
  0
LINE
  5
652D
  8
0
  6
CONTINUOUS
 10
-335.37333964830032
 20
161.03748639494631
 30
0.0
 11
-334.61056995694628
 21
162.87897532878071
 31
0.0
  0
LINE
  5
652E
  8
0
 10
-302.10244687554678
 20
225.1433513151091
 30
0.0
 11
-302.10244687554678
 21
105.1433513151096
 31
0.0
  0
LINE
  5
652F
  8
0
 10
-205.10244687554689
 20
225.1433513151095
 30
0.0
 11
-205.10244687554689
 21
105.1433513151094
 31
0.0
  0
LINE
  5
6530
  8
0
 10
-188.03917560954571
 20
124.14342358541479
 30
0.0
 11
-188.03917560954571
 21
206.1434235813102
 31
0.0
  0
LINE
  5
6531
  8
0
 10
-185.53917560954571
 20
124.1434348772807
 30
0.0
 11
-185.53917560954571
 21
206.14343487327341
 31
0.0
  0
LINE
  5
6532
  8
0
 10
-183.9024468755463
 20
129.994425676052
 30
0.0
 11
-183.9024468755463
 21
126.2927923583218
 31
0.0
  0
LINE
  5
6533
  8
0
 10
-321.6657181415477
 20
124.1434348772807
 30
0.0
 11
-321.6657181415477
 21
206.14343487327341
 31
0.0
  0
LINE
  5
6534
  8
0
 10
-319.1657181415477
 20
124.14342358541479
 30
0.0
 11
-319.1657181415477
 21
206.1434235813102
 31
0.0
  0
LINE
  5
6535
  8
0
 10
-323.30244687554671
 20
129.9944256760522
 30
0.0
 11
-323.30244687554671
 21
126.2927923583219
 31
0.0
  0
LINE
  5
6536
  8
AM7
 10
-221.00771931046421
 20
115.1433513151095
 30
0.0
 11
-206.19717444062951
 21
115.1433513151095
 31
0.0
  0
ARC
  5
6537
  8
AM5
 10
-213.60244687554649
 20
115.1433513151095
 30
0.0
 40
6.0
 50
180.0
 51
90.0
  0
CIRCLE
  5
6538
  8
0
 10
-213.60244687554649
 20
115.1433513151095
 30
0.0
 40
5.125
  0
LINE
  5
6539
  8
0
 10
-302.10244687554678
 20
125.5676153838217
 30
0.0
 11
-205.10244687554689
 21
125.5676153838217
 31
0.0
  0
LINE
  5
653A
  8
0
 10
-302.10244687554678
 20
107.3433513151094
 30
0.0
 11
-205.10244687554689
 21
107.3433513151094
 31
0.0
  0
LINE
  5
653B
  8
0
 10
-302.10244687554678
 20
105.1433513151096
 30
0.0
 11
-205.10244687554689
 21
105.1433513151094
 31
0.0
  0
ARC
  5
653C
  8
0
 10
-321.0447250669813
 20
126.3293490190039
 30
0.0
 40
2.2580177488916551
 50
180.92764278799569
 51
254.03697783117121
  0
LINE
  5
653D
  8
AM7
 10
-293.60244687554678
 20
107.5162845208107
 30
0.0
 11
-293.60244687554678
 21
122.7704181094083
 31
0.0
  0
ARC
  5
653E
  8
AM5
 10
-293.60244687554678
 20
115.1433513151093
 30
0.0
 40
6.0
 50
180.0
 51
90.0
  0
CIRCLE
  5
653F
  8
0
 10
-293.60244687554678
 20
115.1433513151093
 30
0.0
 40
5.125
  0
LINE
  5
6540
  8
AM7
 10
-286.19717444062923
 20
115.1433513151095
 30
0.0
 11
-301.0077193104641
 21
115.1433513151095
 31
0.0
  0
LINE
  5
6541
  8
AM7
 10
-213.60244687554689
 20
107.5162845208107
 30
0.0
 11
-213.60244687554689
 21
122.7704181094083
 31
0.0
  0
ARC
  5
6542
  8
0
 10
-186.16016868411199
 20
126.3293490190036
 30
0.0
 40
2.2580177488916551
 50
285.96302216882867
 51
359.07235721200408
  0
LINE
  5
6543
  8
AM7
 10
-221.00771931046401
 20
215.1433513151095
 30
0.0
 11
-206.19717444062891
 21
215.1433513151095
 31
0.0
  0
ARC
  5
6544
  8
AM5
 10
-213.60244687554649
 20
215.1433513151095
 30
0.0
 40
6.0
 50
180.0
 51
90.0
  0
CIRCLE
  5
6545
  8
0
 10
-213.60244687554649
 20
215.1433513151095
 30
0.0
 40
5.125
  0
LINE
  5
6546
  8
0
 10
-302.10244687554678
 20
225.1433513151091
 30
0.0
 11
-205.10244687554689
 21
225.1433513151095
 31
0.0
  0
LINE
  5
6547
  8
0
 10
-302.10244687554678
 20
223.14335131510919
 30
0.0
 11
-205.10244687554689
 21
223.14335131510919
 31
0.0
  0
LINE
  5
6548
  8
0
 10
-302.10244687554678
 20
203.71908724639749
 30
0.0
 11
-205.10244687554689
 21
203.71908724639749
 31
0.0
  0
LINE
  5
6549
  8
0
 10
-302.10244687554678
 20
204.71908724639749
 30
0.0
 11
-205.10244687554689
 21
204.71908724639749
 31
0.0
  0
LINE
  5
654A
  8
0
 10
-302.10244687554678
 20
126.56761538382111
 30
0.0
 11
-205.10244687554689
 21
126.56761538382111
 31
0.0
  0
LINE
  5
654B
  8
0
 10
-302.10244687554678
 20
154.71908724639741
 30
0.0
 11
-205.10244687554689
 21
154.71908724639741
 31
0.0
  0
LINE
  5
654C
  8
0
 10
-302.10244687554678
 20
175.56761538382111
 30
0.0
 11
-205.10244687554689
 21
175.56761538382111
 31
0.0
  0
LINE
  5
654D
  8
0
 10
-302.10244687554678
 20
155.71908724639729
 30
0.0
 11
-205.10244687554689
 21
155.71908724639781
 31
0.0
  0
LINE
  5
654E
  8
0
 10
-302.10244687554678
 20
174.56761538382159
 30
0.0
 11
-205.10244687554689
 21
174.56761538382159
 31
0.0
  0
LINE
  5
654F
  8
AM7
 10
-308.1727565021497
 20
165.1433513151095
 30
0.0
 11
-199.0321372489438
 21
165.1433513151095
 31
0.0
  0
LINE
  5
6550
  8
0
  6
CONTINUOUS
 10
-331.57441150385722
 20
149.36206314014629
 30
0.0
 11
-328.71581829647971
 21
152.22065634752391
 31
0.0
  0
LINE
  5
6551
  8
0
 10
-323.30244687554671
 20
132.9941679759346
 30
0.0
 11
-323.30244687554671
 21
129.29253465820429
 31
0.0
  0
ARC
  5
6552
  8
0
 10
-321.0447250669813
 20
129.32909131888621
 30
0.0
 40
2.2580177488916551
 50
180.92764278799569
 51
254.03697783117121
  0
ARC
  5
6553
  8
0
 10
-321.0447250669813
 20
132.95761131525271
 30
0.0
 40
2.2580177488916551
 50
105.9630221688287
 51
179.07235721200411
  0
ARC
  5
6554
  8
0
  6
CONTINUOUS
 10
-312.44247283536907
 20
165.1433513151095
 30
0.0
 40
10.62324530617823
 50
163.22134999791021
 51
196.77865000208971
  0
LINE
  5
6555
  8
0
  6
CONTINUOUS
 10
-323.06571814154762
 20
160.5433511823191
 30
0.0
 11
-323.06571814154762
 21
169.7433514478999
 31
0.0
  0
LINE
  5
6556
  8
0
  6
CONTINUOUS
 10
-325.45708900207438
 20
156.92996051520041
 30
0.0
 11
-324.69426247758668
 21
158.77158665635659
 31
0.0
  0
ARC
  5
6557
  8
0
  6
CONTINUOUS
 10
-325.90197330014269
 20
159.36177949298769
 30
0.0
 40
2.4721783065536602
 50
214.63277999894021
 51
280.36722000106357
  0
ARC
  5
6558
  8
0
  6
CONTINUOUS
 10
-325.83989133422028
 20
154.14580540832301
 30
0.0
 40
2.7462314797568039
 50
89.152098834939196
 51
159.15209883493981
  0
ARC
  5
6559
  8
0
  6
CONTINUOUS
 10
-332.06469913500769
 20
154.04550089105931
 30
0.0
 40
3.8137986940490141
 50
331.41351417373619
 51
16.413514173741191
  0
ARC
  5
655A
  8
0
  6
CONTINUOUS
 10
-326.7283988714056
 20
157.36661167055249
 30
0.0
 40
2.4721783065536602
 50
34.632779998940201
 51
100.3672200010636
  0
LINE
  5
655B
  8
0
  6
CONTINUOUS
 10
-333.21956764304548
 20
162.73120832816409
 30
0.0
 11
-325.78233719163518
 21
159.6506066086958
 31
0.0
  0
LINE
  5
655C
  8
0
  6
CONTINUOUS
 10
-332.8942626880339
 20
160.0106190958374
 30
0.0
 11
-332.1314929966797
 21
161.8521080296718
 31
0.0
  0
ARC
  5
655D
  8
0
  6
CONTINUOUS
 10
-333.05812489688691
 20
152.6031334246083
 30
0.0
 40
9.2953396429059598
 50
50.721349997912021
 51
84.278650002089492
  0
ARC
  5
655E
  8
0
  6
CONTINUOUS
 10
-327.00947772607151
 20
167.20585945840011
 30
0.0
 40
9.2953396429059598
 50
230.72134999791211
 51
264.27865000208948
  0
LINE
  5
655F
  8
0
  6
CONTINUOUS
 10
-327.93610962627872
 20
157.9568848533367
 30
0.0
 11
-327.17333993492468
 21
159.79837378717099
 31
0.0
  0
ARC
  5
6560
  8
0
  6
CONTINUOUS
 10
-320.24037150548611
 20
160.5433511823191
 30
0.0
 40
2.825346636061326
 50
147.1327799989341
 51
212.8672200010659
  0
LINE
  5
6561
  8
0
  6
CONTINUOUS
 10
-322.61338141873489
 20
159.01001798177629
 30
0.0
 11
-321.6657181415477
 21
159.01001798177629
 31
0.0
  0
LINE
  5
6562
  8
0
  6
CONTINUOUS
 10
-326.35232550400673
 20
159.81001798177621
 30
0.0
 11
-322.96888869086069
 21
159.81001798177621
 31
0.0
  0
LINE
  5
6563
  8
0
  6
CONTINUOUS
 10
-322.61338141873489
 20
162.07668491402379
 30
0.0
 11
-321.6657181415477
 21
162.07668491402379
 31
0.0
  0
ARC
  5
6564
  8
0
  6
CONTINUOUS
 10
-320.24037150548611
 20
169.7433514478999
 30
0.0
 40
2.825346636061326
 50
147.1327799989341
 51
212.8672200010659
  0
LINE
  5
6565
  8
0
  6
CONTINUOUS
 10
-322.61338141873489
 20
168.21001771619501
 30
0.0
 11
-321.6657181415477
 21
168.21001771619501
 31
0.0
  0
LINE
  5
6566
  8
0
  6
CONTINUOUS
 10
-327.86379657152759
 20
170.47668464844281
 30
0.0
 11
-322.96888869086069
 21
170.47668464844281
 31
0.0
  0
LINE
  5
6567
  8
0
  6
CONTINUOUS
 10
-322.61338141873489
 20
171.27668464844291
 30
0.0
 11
-321.6657181415477
 21
171.27668464844291
 31
0.0
  0
LINE
  5
6568
  8
0
 10
-323.30244687554671
 20
203.9944256717863
 30
0.0
 11
-323.30244687554671
 21
200.2927923540559
 31
0.0
  0
LINE
  5
6569
  8
0
 10
-323.30244687554671
 20
200.99416797201471
 30
0.0
 11
-323.30244687554671
 21
197.29253465428451
 31
0.0
  0
ARC
  5
656A
  8
0
 10
-321.04472506698141
 20
197.32909131496649
 30
0.0
 40
2.2580177488916551
 50
180.92764278799569
 51
254.03697783117121
  0
ARC
  5
656B
  8
0
 10
-321.04472506698141
 20
200.95761131133281
 30
0.0
 40
2.2580177488916551
 50
105.9630221688287
 51
179.07235721200411
  0
ARC
  5
656C
  8
0
 10
-321.04472506698141
 20
203.95786901110441
 30
0.0
 40
2.2580177488916551
 50
105.9630221688287
 51
179.07235721200411
  0
LINE
  5
656D
  8
AM7
 10
-293.60244687554678
 20
222.7704181094083
 30
0.0
 11
-293.60244687554678
 21
207.5162845208107
 31
0.0
  0
ARC
  5
656E
  8
AM5
 10
-293.60244687554678
 20
215.1433513151095
 30
0.0
 40
6.0
 50
180.0
 51
90.0
  0
CIRCLE
  5
656F
  8
0
 10
-293.60244687554678
 20
215.1433513151095
 30
0.0
 40
5.125
  0
LINE
  5
6570
  8
AM7
 10
-286.19717444062923
 20
215.1433513151095
 30
0.0
 11
-301.0077193104641
 21
215.1433513151095
 31
0.0
  0
LINE
  5
6571
  8
AM7
 10
-213.60244687554649
 20
222.7704181094083
 30
0.0
 11
-213.60244687554649
 21
207.5162845208107
 31
0.0
  0
LINE
  5
6572
  8
¤¤¤ß˝u
 10
-158.07107822543091
 20
151.04968987771539
 30
0.0
 11
-158.07107822543091
 21
179.2370127525036
 31
0.0
  0
LINE
  5
6573
  8
¤¤¤ß˝u
 10
-172.16473966282541
 20
165.1433513151095
 30
0.0
 11
-143.97741678803681
 21
165.1433513151095
 31
0.0
  0
LINE
  5
6574
  8
0
 10
-135.57107822543091
 20
142.64298760462191
 30
0.0
 11
-185.53917560954571
 21
142.64298760462179
 31
0.0
  0
LINE
  5
6575
  8
0
 10
-183.9024468755463
 20
132.99416797593449
 30
0.0
 11
-183.9024468755463
 21
129.29253465820429
 31
0.0
  0
ARC
  5
6576
  8
0
 10
-186.16016868411199
 20
129.3290913188861
 30
0.0
 40
2.2580177488916551
 50
285.96302216882867
 51
359.07235721200408
  0
ARC
  5
6577
  8
0
 10
-186.16016868411199
 20
132.95761131525271
 30
0.0
 40
2.2580177488916551
 50
0.9276427879959022
 51
74.036977831171271
  0
CIRCLE
  5
6578
  8
0
 10
-158.07107822543091
 20
165.1433513151095
 30
0.0
 40
6.9999999999998277
  0
CIRCLE
  5
6579
  8
0
 10
-158.07107822543091
 20
165.1433513151095
 30
0.0
 40
9.9999999999997726
  0
LINE
  5
657A
  8
0
 10
-135.57107822543091
 20
187.64371502559669
 30
0.0
 11
-185.53917560954571
 21
187.643715025597
 31
0.0
  0
LINE
  5
657B
  8
0
 10
-183.9024468755463
 20
203.9944256717863
 30
0.0
 11
-183.9024468755463
 21
200.29279235405579
 31
0.0
  0
LINE
  5
657C
  8
0
 10
-183.9024468755463
 20
200.99416797201471
 30
0.0
 11
-183.9024468755463
 21
197.29253465428431
 31
0.0
  0
ARC
  5
657D
  8
0
 10
-186.16016868411151
 20
197.32909131496621
 30
0.0
 40
2.2580177488916551
 50
285.96302216882867
 51
359.07235721200408
  0
ARC
  5
657E
  8
0
 10
-186.16016868411151
 20
203.95786901110441
 30
0.0
 40
2.2580177488916551
 50
0.9276427879959022
 51
74.036977831171271
  0
ARC
  5
657F
  8
0
 10
-186.16016868411151
 20
200.95761131133281
 30
0.0
 40
2.2580177488916551
 50
0.9276427879959022
 51
74.036977831171271
  0
ENDSEC
  0
EOF
