  0
SECTION
  2
HEADER
  9
$ACADVER
  1
AC1015
  9
$ACADMAINTVER
 70
    11
  9
$DWGCODEPAGE
  3
ANSI_950
  9
$INSBASE
 10
0.0
 20
0.0
 30
0.0
  9
$EXTMIN
 10
-34.99999999999367
 20
-54.4697771069107
 30
0.0
  9
$EXTMAX
 10
253.0264222688051
 20
144.7732835398888
 30
0.0
  9
$LIMMIN
 10
-10.0
 20
-15.0
  9
$LIMMAX
 10
120.0
 20
90.0
  9
$ORTHOMODE
 70
     1
  9
$REGENMODE
 70
     0
  9
$FILLMODE
 70
     1
  9
$QTEXTMODE
 70
     0
  9
$MIRRTEXT
 70
     0
  9
$LTSCALE
 40
2.0
  9
$ATTMODE
 70
     1
  9
$TEXTSIZE
 40
3.0
  9
$TRACEWID
 40
1.0
  9
$TEXTSTYLE
  7
STANDARD
  9
$CLAYER
  8
0
  9
$CELTYPE
  6
ByLayer
  9
$CECOLOR
 62
   256
  9
$CELTSCALE
 40
1.0
  9
$DISPSILH
 70
     0
  9
$DIMSCALE
 40
1.0
  9
$DIMASZ
 40
3.0
  9
$DIMEXO
 40
1.0
  9
$DIMDLI
 40
6.0
  9
$DIMRND
 40
0.0
  9
$DIMDLE
 40
0.0
  9
$DIMEXE
 40
1.0
  9
$DIMTP
 40
0.0
  9
$DIMTM
 40
0.0
  9
$DIMTXT
 40
3.0
  9
$DIMCEN
 40
1.5
  9
$DIMTSZ
 40
0.0
  9
$DIMTOL
 70
     0
  9
$DIMLIM
 70
     0
  9
$DIMTIH
 70
     1
  9
$DIMTOH
 70
     1
  9
$DIMSE1
 70
     0
  9
$DIMSE2
 70
     0
  9
$DIMTAD
 70
     0
  9
$DIMZIN
 70
     0
  9
$DIMBLK
  1

  9
$DIMASO
 70
     1
  9
$DIMSHO
 70
     0
  9
$DIMPOST
  1

  9
$DIMAPOST
  1

  9
$DIMALT
 70
     0
  9
$DIMALTD
 70
     2
  9
$DIMALTF
 40
25.4
  9
$DIMLFAC
 40
1.0
  9
$DIMTOFL
 70
     1
  9
$DIMTVP
 40
0.0
  9
$DIMTIX
 70
     0
  9
$DIMSOXD
 70
     0
  9
$DIMSAH
 70
     0
  9
$DIMBLK1
  1

  9
$DIMBLK2
  1

  9
$DIMSTYLE
  2
Standard
  9
$DIMCLRD
 70
     0
  9
$DIMCLRE
 70
     0
  9
$DIMCLRT
 70
     0
  9
$DIMTFAC
 40
1.0
  9
$DIMGAP
 40
0.09
  9
$DIMJUST
 70
     0
  9
$DIMSD1
 70
     0
  9
$DIMSD2
 70
     0
  9
$DIMTOLJ
 70
     1
  9
$DIMTZIN
 70
     0
  9
$DIMALTZ
 70
     0
  9
$DIMALTTZ
 70
     0
  9
$DIMUPT
 70
     0
  9
$DIMDEC
 70
     4
  9
$DIMTDEC
 70
     8
  9
$DIMALTU
 70
     2
  9
$DIMALTTD
 70
     2
  9
$DIMTXSTY
  7
STANDARD
  9
$DIMAUNIT
 70
     0
  9
$DIMADEC
 70
     0
  9
$DIMALTRND
 40
0.0
  9
$DIMAZIN
 70
     0
  9
$DIMDSEP
 70
    46
  9
$DIMATFIT
 70
     3
  9
$DIMFRAC
 70
     0
  9
$DIMLDRBLK
  1

  9
$DIMLUNIT
 70
     2
  9
$DIMLWD
 70
    -2
  9
$DIMLWE
 70
    -2
  9
$DIMTMOVE
 70
     2
  9
$LUNITS
 70
     2
  9
$LUPREC
 70
     4
  9
$SKETCHINC
 40
0.5
  9
$FILLETRAD
 40
0.0
  9
$AUNITS
 70
     0
  9
$AUPREC
 70
     0
  9
$MENU
  1
ACAD
  9
$ELEVATION
 40
0.0
  9
$PELEVATION
 40
0.0
  9
$THICKNESS
 40
0.0
  9
$LIMCHECK
 70
     0
  9
$CHAMFERA
 40
0.0
  9
$CHAMFERB
 40
0.0
  9
$CHAMFERC
 40
0.0
  9
$CHAMFERD
 40
0.0
  9
$SKPOLY
 70
     0
  9
$TDCREATE
 40
2444975.333333333
  9
$TDUCREATE
 40
2444974.999999999
  9
$TDUPDATE
 40
2453022.599599965
  9
$TDUUPDATE
 40
2453022.266266632
  9
$TDINDWG
 40
0.0345779282
  9
$TDUSRTIMER
 40
0.0000000000
  9
$USRTIMER
 70
     0
  9
$ANGBASE
 50
0.0
  9
$ANGDIR
 70
     0
  9
$PDMODE
 70
   171
  9
$PDSIZE
 40
0.001
  9
$PLINEWID
 40
0.0
  9
$SPLFRAME
 70
     0
  9
$SPLINETYPE
 70
     6
  9
$SPLINESEGS
 70
     8
  9
$HANDSEED
  5
4E2E
  9
$SURFTAB1
 70
     6
  9
$SURFTAB2
 70
     6
  9
$SURFTYPE
 70
     6
  9
$SURFU
 70
     6
  9
$SURFV
 70
     6
  9
$UCSBASE
  2

  9
$UCSNAME
  2

  9
$UCSORG
 10
0.0
 20
0.0
 30
0.0
  9
$UCSXDIR
 10
1.0
 20
0.0
 30
0.0
  9
$UCSYDIR
 10
0.0
 20
1.0
 30
0.0
  9
$UCSORTHOREF
  2

  9
$UCSORTHOVIEW
 70
     0
  9
$UCSORGTOP
 10
0.0
 20
0.0
 30
0.0
  9
$UCSORGBOTTOM
 10
0.0
 20
0.0
 30
0.0
  9
$UCSORGLEFT
 10
0.0
 20
0.0
 30
0.0
  9
$UCSORGRIGHT
 10
0.0
 20
0.0
 30
0.0
  9
$UCSORGFRONT
 10
0.0
 20
0.0
 30
0.0
  9
$UCSORGBACK
 10
0.0
 20
0.0
 30
0.0
  9
$PUCSBASE
  2

  9
$PUCSNAME
  2

  9
$PUCSORG
 10
0.0
 20
0.0
 30
0.0
  9
$PUCSXDIR
 10
1.0
 20
0.0
 30
0.0
  9
$PUCSYDIR
 10
0.0
 20
1.0
 30
0.0
  9
$PUCSORTHOREF
  2

  9
$PUCSORTHOVIEW
 70
     0
  9
$PUCSORGTOP
 10
0.0
 20
0.0
 30
0.0
  9
$PUCSORGBOTTOM
 10
0.0
 20
0.0
 30
0.0
  9
$PUCSORGLEFT
 10
0.0
 20
0.0
 30
0.0
  9
$PUCSORGRIGHT
 10
0.0
 20
0.0
 30
0.0
  9
$PUCSORGFRONT
 10
0.0
 20
0.0
 30
0.0
  9
$PUCSORGBACK
 10
0.0
 20
0.0
 30
0.0
  9
$USERI1
 70
     0
  9
$USERI2
 70
     0
  9
$USERI3
 70
     0
  9
$USERI4
 70
     0
  9
$USERI5
 70
     0
  9
$USERR1
 40
0.0
  9
$USERR2
 40
0.0
  9
$USERR3
 40
0.0
  9
$USERR4
 40
0.0
  9
$USERR5
 40
0.0
  9
$WORLDVIEW
 70
     1
  9
$SHADEDGE
 70
     3
  9
$SHADEDIF
 70
    70
  9
$TILEMODE
 70
     1
  9
$MAXACTVP
 70
    48
  9
$PINSBASE
 10
0.0
 20
0.0
 30
0.0
  9
$PLIMCHECK
 70
     0
  9
$PEXTMIN
 10
1.000000000000000E+20
 20
1.000000000000000E+20
 30
1.000000000000000E+20
  9
$PEXTMAX
 10
-1.000000000000000E+20
 20
-1.000000000000000E+20
 30
-1.000000000000000E+20
  9
$PLIMMIN
 10
0.0
 20
0.0
  9
$PLIMMAX
 10
12.0
 20
9.0
  9
$UNITMODE
 70
     0
  9
$VISRETAIN
 70
     1
  9
$PLINEGEN
 70
     0
  9
$PSLTSCALE
 70
     0
  9
$TREEDEPTH
 70
  3020
  9
$CMLSTYLE
  2
Standard
  9
$CMLJUST
 70
     0
  9
$CMLSCALE
 40
1.0
  9
$PROXYGRAPHICS
 70
     1
  9
$MEASUREMENT
 70
     0
  9
$CELWEIGHT
370
    -1
  9
$ENDCAPS
280
     0
  9
$JOINSTYLE
280
     0
  9
$LWDISPLAY
290
     0
  9
$INSUNITS
 70
     0
  9
$HYPERLINKBASE
  1

  9
$STYLESHEET
  1

  9
$XEDIT
290
     1
  9
$CEPSNTYPE
380
     0
  9
$PSTYLEMODE
290
     1
  9
$FINGERPRINTGUID
  2
{77095E5F-9CE7-11D7-970D-0040F4541FA8}
  9
$VERSIONGUID
  2
{53902050-305C-4E78-95E7-A66AC021515F}
  9
$EXTNAMES
290
     1
  9
$PSVPSCALE
 40
0.0
  9
$OLESTARTUP
290
     0
  0
ENDSEC
  0
SECTION
  2
CLASSES
  0
CLASS
  1
ACDBDICTIONARYWDFLT
  2
AcDbDictionaryWithDefault
  3
AutoCAD 2000
 90
        0
280
     0
281
     0
  0
CLASS
  1
ACDBPLACEHOLDER
  2
AcDbPlaceHolder
  3
AutoCAD 2000
 90
        0
280
     0
281
     0
  0
CLASS
  1
LAYOUT
  2
AcDbLayout
  3
AutoCAD 2000
 90
        0
280
     0
281
     0
  0
CLASS
  1
LONG_TRANSACTION
  2
AcDbLongTransaction
  3
AutoCAD 2000
 90
    32768
280
     0
281
     0
  0
CLASS
  1
LWPOLYLINE
  2
AcDbPolyline
  3
AutoCAD 2000
 90
    32768
280
     0
281
     1
  0
CLASS
  1
HATCH
  2
AcDbHatch
  3
AutoCAD 2000
 90
    32768
280
     0
281
     1
  0
CLASS
  1
XRECORD
  2
AcDbXrecord
  3
AutoCAD 2000
 90
    32768
280
     0
281
     0
  0
CLASS
  1
LONG_TRANSACTION
  2
AcDbLongTransaction
  3
AutoCAD 2000
 90
    32768
280
     0
281
     0
  0
CLASS
  1
LWPOLYLINE
  2
AcDbPolyline
  3
AutoCAD 2000
 90
    32768
280
     0
281
     1
  0
CLASS
  1
HATCH
  2
AcDbHatch
  3
AutoCAD 2000
 90
    32768
280
     0
281
     1
  0
CLASS
  1
XRECORD
  2
AcDbXrecord
  3
AutoCAD 2000
 90
    32768
280
     0
281
     0
  0
CLASS
  1
DICTIONARYVAR
  2
AcDbDictionaryVar
  3
AutoCAD 2000
 90
        0
280
     0
281
     0
  0
CLASS
  1
PLOTSETTINGS
  2
AcDbPlotSettings
  3
AutoCAD 2000
 90
        0
280
     0
281
     0
  0
ENDSEC
  0
SECTION
  2
TABLES
  0
TABLE
  2
VPORT
  5
8
330
0
100
AcDbSymbolTable
 70
     2
  0
VPORT
  5
4E0C
330
8
100
AcDbSymbolTableRecord
100
AcDbViewportTableRecord
  2
*Active
 70
     0
 10
0.0
 20
0.0
 11
1.0
 21
1.0
 12
109.0132118050042
 22
45.14969137580808
 13
457.9999999999997
 23
1082.0
 14
10.0
 24
10.0
 15
10.0
 25
10.0
 16
0.0
 26
0.0
 36
1.0
 17
0.0
 27
0.0
 37
0.0
 40
201.7540150850848
 41
1.936974789915966
 42
1.0
 43
0.0
 44
0.0
 50
0.0
 51
0.0
 71
     0
 72
   100
 73
     1
 74
     1
 75
     0
 76
     0
 77
     0
 78
     0
281
     0
 65
     1
110
0.0
120
0.0
130
0.0
111
1.0
121
0.0
131
0.0
112
0.0
122
1.0
132
0.0
 79
     0
146
0.0
  0
ENDTAB
  0
TABLE
  2
LTYPE
  5
5
330
0
100
AcDbSymbolTable
 70
     5
  0
LTYPE
  5
13
330
5
100
AcDbSymbolTableRecord
100
AcDbLinetypeTableRecord
  2
ByBlock
 70
     0
  3

 72
    65
 73
     0
 40
0.0
  0
LTYPE
  5
14
330
5
100
AcDbSymbolTableRecord
100
AcDbLinetypeTableRecord
  2
ByLayer
 70
     0
  3

 72
    65
 73
     0
 40
0.0
  0
LTYPE
  5
15
330
5
100
AcDbSymbolTableRecord
100
AcDbLinetypeTableRecord
  2
CONTINUOUS
 70
     0
  3
連續線 ________________________
 72
    65
 73
     2
 40
200000.0
 49
200000.0
 74
     0
 49
0.0
 74
     0
  0
LTYPE
  5
225
330
5
100
AcDbSymbolTableRecord
100
AcDbLinetypeTableRecord
  2
BYBLOCK
 70
     0
  3
Solid line
 72
    65
 73
     0
 40
0.0
  0
LTYPE
  5
226
330
5
100
AcDbSymbolTableRecord
100
AcDbLinetypeTableRecord
  2
BYLAYER
 70
     0
  3
Solid line
 72
    65
 73
     0
 40
0.0
  0
LTYPE
  5
413C
330
5
100
AcDbSymbolTableRecord
100
AcDbLinetypeTableRecord
  2
CENTER2
 70
     0
  3
Center (.5x) ___ _ ___ _ ___ _ ___ _ ___ _ ___
 72
    65
 73
     4
 40
28.57499999999999
 49
19.05
 74
     0
 49
-3.174999999999999
 74
     0
 49
3.174999999999999
 74
     0
 49
-3.174999999999999
 74
     0
  0
LTYPE
  5
413D
330
5
100
AcDbSymbolTableRecord
100
AcDbLinetypeTableRecord
  2
DASHED2
 70
     0
  3
Dashed (.5x) _ _ _ _ _ _ _ _ _ _ _ _ _ _ _ _ _
 72
    65
 73
     2
 40
9.524999999999998
 49
6.349999999999999
 74
     0
 49
-3.174999999999999
 74
     0
  0
ENDTAB
  0
TABLE
  2
LAYER
  5
2
102
{ACAD_XDICTIONARY
360
43C2
102
}
330
0
100
AcDbSymbolTable
 70
     5
  0
LAYER
  5
10
330
2
100
AcDbSymbolTableRecord
100
AcDbLayerTableRecord
  2
0
 70
     0
 62
     7
  6
CONTINUOUS
370
    -3
390
F
  0
LAYER
  5
413E
330
2
100
AcDbSymbolTableRecord
100
AcDbLayerTableRecord
  2
指線
 70
     0
 62
     3
  6
CONTINUOUS
370
    15
390
F
  0
LAYER
  5
413F
330
2
100
AcDbSymbolTableRecord
100
AcDbLayerTableRecord
  2
中心線
 70
     0
 62
     4
  6
CENTER2
370
    20
390
F
  0
LAYER
  5
4140
330
2
100
AcDbSymbolTableRecord
100
AcDbLayerTableRecord
  2
虛線
 70
     0
 62
     6
  6
DASHED2
290
     0
370
    -3
390
F
  0
LAYER
  5
43B4
330
2
100
AcDbSymbolTableRecord
100
AcDbLayerTableRecord
  2
建構線
 70
     0
 62
     1
  6
CONTINUOUS
370
    -3
390
F
  0
ENDTAB
  0
TABLE
  2
STYLE
  5
3
330
0
100
AcDbSymbolTable
 70
     1
  0
STYLE
  5
11
330
3
100
AcDbSymbolTableRecord
100
AcDbTextStyleTableRecord
  2
STANDARD
 70
     0
 40
0.0
 41
1.0
 50
0.0
 71
     0
 42
3.0
  3

  4

  0
ENDTAB
  0
TABLE
  2
VIEW
  5
6
330
0
100
AcDbSymbolTable
 70
     0
  0
ENDTAB
  0
TABLE
  2
UCS
  5
7
330
0
100
AcDbSymbolTable
 70
     0
  0
ENDTAB
  0
TABLE
  2
APPID
  5
9
330
0
100
AcDbSymbolTable
 70
     4
  0
APPID
  5
12
330
9
100
AcDbSymbolTableRecord
100
AcDbRegAppTableRecord
  2
ACAD
 70
     0
  0
APPID
  5
230
330
9
100
AcDbSymbolTableRecord
100
AcDbRegAppTableRecord
  2
TCAD
 70
     0
  0
APPID
  5
4142
330
9
100
AcDbSymbolTableRecord
100
AcDbRegAppTableRecord
  2
CONTENTBLOCKICON
 70
     0
  0
APPID
  5
44BA
330
9
100
AcDbSymbolTableRecord
100
AcDbRegAppTableRecord
  2
pntflag
 70
     0
  0
ENDTAB
  0
TABLE
  2
DIMSTYLE
  5
A
330
0
100
AcDbSymbolTable
 70
     1
100
AcDbDimStyleTable
 71
     0
  0
DIMSTYLE
105
3C9D
330
A
100
AcDbSymbolTableRecord
100
AcDbDimStyleTableRecord
  2
Standard
 70
     0
340
11
  0
ENDTAB
  0
TABLE
  2
BLOCK_RECORD
  5
1
330
0
100
AcDbSymbolTable
 70
     2
  0
BLOCK_RECORD
  5
1E
102
{ACAD_XDICTIONARY
360
3D1E
102
}
330
1
100
AcDbSymbolTableRecord
100
AcDbBlockTableRecord
  2
*Model_Space
340
21
  0
BLOCK_RECORD
  5
1A
102
{ACAD_XDICTIONARY
360
3D20
102
}
330
1
100
AcDbSymbolTableRecord
100
AcDbBlockTableRecord
  2
*Paper_Space
340
1D
  0
BLOCK_RECORD
  5
4BE8
330
1
100
AcDbSymbolTableRecord
100
AcDbBlockTableRecord
  2
HGW25HC_F
340
0
102
{BLKREFS
331
4C26
102
}
  0
BLOCK_RECORD
  5
4D25
330
1
100
AcDbSymbolTableRecord
100
AcDbBlockTableRecord
  2
A$C5AC322EB
340
0
102
{BLKREFS
331
4DC6
331
4DD5
331
4DF8
331
4DF9
102
}
  0
ENDTAB
  0
ENDSEC
  0
SECTION
  2
BLOCKS
  0
BLOCK
  5
254
330
1E
100
AcDbEntity
  8
0
100
AcDbBlockBegin
  2
*Model_Space
 70
     0
 10
0.0
 20
0.0
 30
0.0
  3
*Model_Space
  1

  0
ENDBLK
  5
255
330
1E
100
AcDbEntity
  8
0
100
AcDbBlockEnd
  0
BLOCK
  5
252
330
1A
100
AcDbEntity
 67
     1
  8
0
100
AcDbBlockBegin
  2
*Paper_Space
 70
     0
 10
0.0
 20
0.0
 30
0.0
  3
*Paper_Space
  1

  0
ENDBLK
  5
253
330
1A
100
AcDbEntity
 67
     1
  8
0
100
AcDbBlockEnd
  0
BLOCK
  5
4C24
330
4BE8
100
AcDbEntity
  8
0
100
AcDbBlockBegin
  2
HGW25HC_F
 70
     0
 10
0.0
 20
0.0
 30
0.0
  3
HGW25HC_F
  1

  0
LINE
  5
4BE9
330
4BE8
100
AcDbEntity
  8
0
 48
0.27
100
AcDbLine
 10
48.8
 20
0.0
 30
0.0
 11
-48.80000000000001
 21
0.0
 31
0.0
  0
LINE
  5
4BEA
330
4BE8
100
AcDbEntity
  8
0
 48
0.27
100
AcDbLine
 10
27.87599999999974
 20
16.50000000000633
 30
0.0
 11
39.29999999999995
 21
16.50000000000636
 31
0.0
  0
LINE
  5
4BEB
330
4BE8
100
AcDbEntity
  8
0
 48
0.27
100
AcDbLine
 10
-39.30000000000001
 20
0.7386664873267251
 30
0.0
 11
39.29999999999995
 21
0.7386664873267251
 31
0.0
  0
LINE
  5
4BEC
330
4BE8
100
AcDbEntity
  8
0
 48
0.27
100
AcDbLine
 10
39.29999999999995
 20
30.50000000000645
 30
0.0
 11
-39.30000000000006
 21
30.50000000000639
 31
0.0
  0
LINE
  5
4BED
330
4BE8
100
AcDbEntity
  8
0
 48
0.27
100
AcDbLine
 10
-39.30000000000006
 20
29.00000000000634
 30
0.0
 11
39.29999999999995
 21
29.00000000000636
 31
0.0
  0
LINE
  5
4BEE
330
4BE8
100
AcDbEntity
  8
虛線
 48
0.27
100
AcDbLine
 10
-26.61524191936706
 20
29.6500000000064
 30
0.0
 11
-27.51246414158941
 21
30.50000000000642
 31
0.0
  0
LWPOLYLINE
  5
4BEF
330
4BE8
100
AcDbEntity
  8
0
 48
0.27
100
AcDbPolyline
 90
       73
 70
     0
 43
0.0
 10
-27.87600000000026
 20
15.85188427200651
 10
-27.87039960780822
 20
15.78391854272641
 10
-27.85421905958395
 20
15.68136405427841
 10
-27.84680565708805
 20
15.64016669235846
 10
-27.81663860582415
 20
15.48046508800647
 10
-27.78907620864021
 20
15.33332501965444
 10
-27.74150804019228
 20
15.0535459962945
 10
-27.69721997721609
 20
14.72528098816647
 10
-27.68500097011207
 20
14.6085808271425
 10
-27.66820697318399
 20
14.40619000371848
 10
-27.6528448654081
 20
14.20980064691852
 10
-27.61919611763193
 20
13.80345774592646
 10
-27.54593860044809
 20
13.00859564647046
 10
-27.4014949498881
 20
11.68822412979844
 10
-27.22131674252824
 20
10.33479816589445
 10
-27.15358728345603
 20
9.884661424390486
 10
-26.93178676928011
 20
8.572294928774425
 10
-26.73379537011209
 20
7.565332663046461
 10
-26.56154155097619
 20
6.785705551238464
 10
-26.34159179276804
 20
5.894798550662386
 10
-26.15187270272002
 20
5.206427600774446
 10
-25.8929867554562
 20
4.367479948038379
 10
-25.66853965632043
 20
3.722065120774487
 10
-25.367962779136
 20
2.96037008128647
 10
-25.28977787648006
 20
2.77980072064642
 10
-25.24948942297607
 20
2.690554059142442
 10
-25.19061806899191
 20
2.582236188166376
 10
-25.04838709567997
 20
2.390401684742442
 10
-24.91772255360018
 20
2.261097381766404
 10
-24.72644496755203
 20
2.117168652422463
 10
-24.47014271936024
 20
1.976660986758503
 10
-24.25742570176015
 20
1.889808835846366
 10
-23.94760461145602
 20
1.795795528454476
 10
-23.5047206752003
 20
1.70851973875844
 10
-23.04511736217619
 20
1.658230686470432
 10
-22.68287148582424
 20
1.641033779974492
 10
-22.18899755737623
 20
1.644998414214427
 10
-21.80731671846416
 20
1.670719963782488
 10
-21.3336752232961
 20
1.735055949190467
 10
-20.97686281164789
 20
1.815871807110426
 10
-20.65753336358403
 20
1.92176842855045
 10
-20.42505872140799
 20
2.02849374746242
 10
-20.25523788313631
 20
2.129351069062437
 10
-20.05776214438418
 20
2.282992054790469
 10
-19.92245624934406
 20
2.424235394182431
 10
-19.79312158886392
 20
2.609739570566404
 10
-19.74594420172803
 20
2.700137304966432
 10
-19.70591071052814
 20
2.789579043718475
 10
-19.40754261516821
 20
3.518671500550425
 10
-19.10996001932807
 20
4.358502835078439
 10
-18.90301963929601
 20
5.019414553094435
 10
-18.6425740638719
 20
5.954432196230442
 10
-18.36654583091223
 20
7.100638388486487
 10
-18.17815181401607
 20
7.997749940614454
 10
-17.94485890124821
 20
9.27403993920646
 10
-17.7418465281284
 20
10.59161314586245
 10
-17.68168196416019
 20
11.03183346688641
 10
-17.53126882073599
 20
12.26967960845442
 10
-17.4035483100161
 20
13.5447062786624
 10
-17.36668846028811
 20
13.97021944103048
 10
-17.33642893606412
 20
14.34613477402248
 10
-17.32229594726419
 20
14.52774893645451
 10
-17.30534837670421
 20
14.70243807373449
 10
-17.26826789286434
 20
14.98939364979847
 10
-17.22520517081619
 20
15.25392790720647
 10
-17.21080328204817
 20
15.33398294323845
 10
-17.17574420876809
 20
15.52090607168642
 10
-17.14944936358409
 20
15.6614663558465
 10
-17.13100638156794
 20
15.77326750759053
 10
-17.12729736307193
 20
15.80265768333438
 10
-17.1243922286082
 20
15.86385784179842
 10
-17.13042851443214
 20
15.88773890611841
 10
-17.13670367782407
 20
15.89165388736651
  0
LINE
  5
4BF0
330
4BE8
100
AcDbEntity
  8
虛線
 48
0.27
100
AcDbLine
 10
-26.61524191936706
 20
21.55000000000654
 30
0.0
 11
-27.72357525270064
 21
20.50000000000648
 31
0.0
  0
LINE
  5
4BF1
330
4BE8
100
AcDbEntity
  8
0
 48
0.27
100
AcDbLine
 10
-27.87600000000026
 20
20.50000000000653
 30
0.0
 11
-17.12400000000019
 21
20.5000000000065
 31
0.0
  0
LINE
  5
4BF2
330
4BE8
100
AcDbEntity
  8
0
 48
0.27
100
AcDbLine
 10
-39.30000000000006
 20
30.50000000000642
 30
0.0
 11
-39.30000000000006
 21
0.0
 31
0.0
  0
LINE
  5
4BF3
330
4BE8
100
AcDbEntity
  8
0
 48
0.27
100
AcDbLine
 10
-48.80000000000001
 20
0.0
 30
0.0
 11
-48.80000000000001
 21
29.50000000000642
 31
0.0
  0
LINE
  5
4BF4
330
4BE8
100
AcDbEntity
  8
0
 48
0.27
100
AcDbLine
 10
-39.30000000000006
 20
1.5
 30
0.0
 11
-48.80000000000001
 21
1.5
 31
0.0
  0
CIRCLE
  5
4BF5
330
4BE8
100
AcDbEntity
  8
0
 48
0.27
100
AcDbCircle
 10
-43.50000000000005
 20
21.50000000000639
 30
0.0
 40
2.1986552691
  0
CIRCLE
  5
4BF6
330
4BE8
100
AcDbEntity
  8
0
 48
0.27
100
AcDbCircle
 10
-43.50000000000005
 20
21.50000000000639
 30
0.0
 40
2.75
  0
CIRCLE
  5
4BF7
330
4BE8
100
AcDbEntity
  8
0
 48
0.27
100
AcDbCircle
 10
-43.50000000000005
 20
21.50000000000639
 30
0.0
 40
2.5
  0
CIRCLE
  5
4BF8
330
4BE8
100
AcDbEntity
  8
0
 48
0.27
100
AcDbCircle
 10
-43.50000000000005
 20
21.50000000000639
 30
0.0
 40
0.75
  0
LINE
  5
4BF9
330
4BE8
100
AcDbEntity
  8
中心線
 48
0.27
100
AcDbLine
 10
-46.60024419756576
 20
21.50000000000639
 30
0.0
 11
-40.39975580243435
 21
21.50000000000639
 31
0.0
  0
LINE
  5
4BFA
330
4BE8
100
AcDbEntity
  8
0
 48
0.27
100
AcDbLine
 10
-27.87600000000026
 20
20.5000000000065
 30
0.0
 11
-27.87600000000026
 21
15.8920000000065
 31
0.0
  0
LINE
  5
4BFB
330
4BE8
100
AcDbEntity
  8
0
 48
0.27
100
AcDbLine
 10
-39.30000000000006
 20
16.50000000000645
 30
0.0
 11
-27.87600000000026
 21
16.50000000000642
 31
0.0
  0
LINE
  5
4BFC
330
4BE8
100
AcDbEntity
  8
中心線
 48
0.27
100
AcDbLine
 10
-43.50000000000005
 20
18.38629739017065
 30
0.0
 11
-43.50000000000005
 21
24.61370260984213
 31
0.0
  0
LINE
  5
4BFD
330
4BE8
100
AcDbEntity
  8
0
 48
0.27
100
AcDbLine
 10
-48.80000000000001
 20
28.00000000000642
 30
0.0
 11
-39.30000000000001
 21
28.00000000000642
 31
0.0
  0
LINE
  5
4BFE
330
4BE8
100
AcDbEntity
  8
0
 48
0.27
100
AcDbLine
 10
-48.80000000000001
 20
29.50000000000642
 30
0.0
 11
-39.30000000000001
 21
29.50000000000642
 31
0.0
  0
LWPOLYLINE
  5
4BFF
330
4BE8
100
AcDbEntity
  8
0
 48
0.27
100
AcDbPolyline
 90
       73
 70
     0
 43
0.0
 10
17.12399999999979
 20
15.85188427200651
 10
17.12960039219171
 20
15.78391854272641
 10
17.14578094041598
 20
15.68136405427841
 10
17.15319434291188
 20
15.64016669235846
 10
17.18336139417579
 20
15.48046508800647
 10
17.21092379135984
 20
15.33332501965444
 10
17.25849195980765
 20
15.0535459962945
 10
17.30278002278384
 20
14.72528098816647
 10
17.31499902988798
 20
14.6085808271425
 10
17.33179302681594
 20
14.40619000371848
 10
17.34715513459195
 20
14.20980064691852
 10
17.38080388236812
 20
13.80345774592646
 10
17.45406139955184
 20
13.00859564647046
 10
17.59850505011195
 20
11.68822412979844
 10
17.77868325747181
 20
10.33479816589445
 10
17.84641271654391
 20
9.884661424390486
 10
18.06821323071994
 20
8.572294928774425
 10
18.26620462988785
 20
7.565332663046461
 10
18.43845844902387
 20
6.785705551238464
 10
18.65840820723201
 20
5.894798550662386
 10
18.84812729727991
 20
5.206427600774446
 10
19.10701324454385
 20
4.367479948038379
 10
19.33146034367962
 20
3.722065120774487
 10
19.63203722086393
 20
2.96037008128647
 10
19.71022212351999
 20
2.77980072064642
 10
19.75051057702398
 20
2.690554059142442
 10
19.80938193100803
 20
2.582236188166376
 10
19.95161290431997
 20
2.390401684742442
 10
20.08227744639987
 20
2.261097381766404
 10
20.27355503244791
 20
2.117168652422463
 10
20.5298572806397
 20
1.976660986758503
 10
20.7425742982399
 20
1.889808835846366
 10
21.05239538854402
 20
1.795795528454476
 10
21.49527932479975
 20
1.70851973875844
 10
21.95488263782385
 20
1.658230686470432
 10
22.31712851417569
 20
1.641033779974492
 10
22.8110024426237
 20
1.644998414214427
 10
23.19268328153589
 20
1.670719963782488
 10
23.66632477670384
 20
1.735055949190467
 10
24.02313718835205
 20
1.815871807110426
 10
24.34246663641602
 20
1.92176842855045
 10
24.57494127859206
 20
2.02849374746242
 10
24.74476211686374
 20
2.129351069062437
 10
24.94223785561587
 20
2.282992054790469
 10
25.07754375065587
 20
2.424235394182431
 10
25.20687841113613
 20
2.609739570566404
 10
25.25405579827202
 20
2.700137304966432
 10
25.29408928947191
 20
2.789579043718475
 10
25.59245738483184
 20
3.518671500550425
 10
25.89003998067198
 20
4.358502835078439
 10
26.09698036070403
 20
5.019414553094435
 10
26.35742593612803
 20
5.954432196230442
 10
26.63345416908771
 20
7.100638388486487
 10
26.82184818598398
 20
7.997749940614454
 10
27.05514109875184
 20
9.27403993920646
 10
27.25815347187154
 20
10.59161314586245
 10
27.31831803583986
 20
11.03183346688641
 10
27.46873117926407
 20
12.26967960845442
 10
27.59645168998395
 20
13.5447062786624
 10
27.63331153971193
 20
13.97021944103048
 10
27.66357106393582
 20
14.34613477402248
 10
27.67770405273586
 20
14.52774893645451
 10
27.69465162329572
 20
14.70243807373449
 10
27.73173210713571
 20
14.98939364979847
 10
27.77479482918386
 20
15.25392790720647
 10
27.78919671795188
 20
15.33398294323845
 10
27.82425579123184
 20
15.52090607168642
 10
27.85055063641584
 20
15.6614663558465
 10
27.868993618432
 20
15.77326750759053
 10
27.87270263692801
 20
15.80265768333438
 10
27.87560777139185
 20
15.86385784179842
 10
27.86957148556791
 20
15.88773890611841
 10
27.86329632217598
 20
15.89165388736651
  0
LINE
  5
4C00
330
4BE8
100
AcDbEntity
  8
0
 48
0.27
100
AcDbLine
 10
-17.12400000000019
 20
16.50000000000642
 30
0.0
 11
17.12399999999973
 21
16.50000000000642
 31
0.0
  0
LINE
  5
4C01
330
4BE8
100
AcDbEntity
  8
虛線
 48
0.27
100
AcDbLine
 10
-26.11524191936706
 20
29.6500000000064
 30
0.0
 11
-26.11524191936706
 21
21.55000000000654
 31
0.0
  0
LINE
  5
4C02
330
4BE8
100
AcDbEntity
  8
虛線
 48
0.27
100
AcDbLine
 10
-26.61524191936706
 20
29.6500000000064
 30
0.0
 11
-26.61524191936706
 21
21.55000000000654
 31
0.0
  0
LINE
  5
4C03
330
4BE8
100
AcDbEntity
  8
虛線
 48
0.27
100
AcDbLine
 10
-19.11524191936706
 20
29.6500000000064
 30
0.0
 11
-19.11524191936706
 21
21.55000000000654
 31
0.0
  0
LINE
  5
4C04
330
4BE8
100
AcDbEntity
  8
虛線
 48
0.27
100
AcDbLine
 10
-18.61524191936706
 20
29.6500000000064
 30
0.0
 11
-18.61524191936706
 21
21.55000000000654
 31
0.0
  0
LINE
  5
4C05
330
4BE8
100
AcDbEntity
  8
中心線
 48
0.27
100
AcDbLine
 10
-22.50000000000005
 20
31.50000000000642
 30
0.0
 11
-22.50000000000005
 21
17.26228675973493
 31
0.0
  0
LINE
  5
4C06
330
4BE8
100
AcDbEntity
  8
0
 48
0.27
100
AcDbLine
 10
-17.12400000000019
 20
20.5000000000065
 30
0.0
 11
-17.12400000000019
 21
15.8920000000065
 31
0.0
  0
LINE
  5
4C07
330
4BE8
100
AcDbEntity
  8
虛線
 48
0.27
100
AcDbLine
 10
-18.61524191936706
 20
21.55000000000654
 30
0.0
 11
-26.61524191936706
 21
21.55000000000654
 31
0.0
  0
LINE
  5
4C08
330
4BE8
100
AcDbEntity
  8
虛線
 48
0.27
100
AcDbLine
 10
-18.61524191936706
 20
21.55000000000654
 30
0.0
 11
-17.49524191936717
 21
20.50000000000648
 31
0.0
  0
LINE
  5
4C09
330
4BE8
100
AcDbEntity
  8
虛線
 48
0.27
100
AcDbLine
 10
-18.61524191936706
 20
29.6500000000064
 30
0.0
 11
-26.61524191936706
 21
29.6500000000064
 31
0.0
  0
LINE
  5
4C0A
330
4BE8
100
AcDbEntity
  8
虛線
 48
0.27
100
AcDbLine
 10
-18.61524191936706
 20
29.6500000000064
 30
0.0
 11
-17.70857525270054
 21
30.50000000000642
 31
0.0
  0
LINE
  5
4C0B
330
4BE8
100
AcDbEntity
  8
虛線
 48
0.27
100
AcDbLine
 10
25.88475808063293
 20
29.6500000000064
 30
0.0
 11
25.88475808063293
 21
21.55000000000654
 31
0.0
  0
LINE
  5
4C0C
330
4BE8
100
AcDbEntity
  8
虛線
 48
0.27
100
AcDbLine
 10
26.38475808063293
 20
29.6500000000064
 30
0.0
 11
26.38475808063293
 21
21.55000000000654
 31
0.0
  0
LINE
  5
4C0D
330
4BE8
100
AcDbEntity
  8
虛線
 48
0.27
100
AcDbLine
 10
18.38475808063293
 20
29.6500000000064
 30
0.0
 11
18.38475808063293
 21
21.55000000000654
 31
0.0
  0
LINE
  5
4C0E
330
4BE8
100
AcDbEntity
  8
虛線
 48
0.27
100
AcDbLine
 10
18.88475808063293
 20
29.6500000000064
 30
0.0
 11
18.88475808063293
 21
21.55000000000654
 31
0.0
  0
LINE
  5
4C0F
330
4BE8
100
AcDbEntity
  8
中心線
 48
0.27
100
AcDbLine
 10
22.49999999999994
 20
31.50000000000642
 30
0.0
 11
22.49999999999994
 21
17.26228675973493
 31
0.0
  0
LINE
  5
4C10
330
4BE8
100
AcDbEntity
  8
0
 48
0.27
100
AcDbLine
 10
17.12399999999973
 20
20.50000000000648
 30
0.0
 11
27.8759999999998
 21
20.50000000000648
 31
0.0
  0
LINE
  5
4C11
330
4BE8
100
AcDbEntity
  8
虛線
 48
0.27
100
AcDbLine
 10
26.38475808063293
 20
21.55000000000654
 30
0.0
 11
18.38475808063293
 21
21.55000000000654
 31
0.0
  0
LINE
  5
4C12
330
4BE8
100
AcDbEntity
  8
0
 48
0.27
100
AcDbLine
 10
17.12399999999973
 20
20.5000000000065
 30
0.0
 11
17.12399999999973
 21
15.8920000000065
 31
0.0
  0
LINE
  5
4C13
330
4BE8
100
AcDbEntity
  8
虛線
 48
0.27
100
AcDbLine
 10
18.38475808063293
 20
21.55000000000654
 30
0.0
 11
17.27642474729935
 21
20.50000000000648
 31
0.0
  0
LINE
  5
4C14
330
4BE8
100
AcDbEntity
  8
0
 48
0.27
100
AcDbLine
 10
27.8759999999998
 20
20.5000000000065
 30
0.0
 11
27.8759999999998
 21
15.8920000000065
 31
0.0
  0
LINE
  5
4C15
330
4BE8
100
AcDbEntity
  8
虛線
 48
0.27
100
AcDbLine
 10
26.38475808063293
 20
21.55000000000654
 30
0.0
 11
27.50475808063282
 21
20.50000000000648
 31
0.0
  0
LINE
  5
4C16
330
4BE8
100
AcDbEntity
  8
虛線
 48
0.27
100
AcDbLine
 10
26.38475808063293
 20
29.6500000000064
 30
0.0
 11
18.38475808063293
 21
29.6500000000064
 31
0.0
  0
LINE
  5
4C17
330
4BE8
100
AcDbEntity
  8
虛線
 48
0.27
100
AcDbLine
 10
18.38475808063293
 20
29.6500000000064
 30
0.0
 11
17.48753585841058
 21
30.50000000000642
 31
0.0
  0
LINE
  5
4C18
330
4BE8
100
AcDbEntity
  8
虛線
 48
0.27
100
AcDbLine
 10
26.38475808063293
 20
29.6500000000064
 30
0.0
 11
27.29142474729945
 21
30.50000000000642
 31
0.0
  0
LINE
  5
4C19
330
4BE8
100
AcDbEntity
  8
0
 48
0.27
100
AcDbLine
 10
48.80000000000001
 20
0.0
 30
0.0
 11
48.80000000000001
 21
29.50000000000642
 31
0.0
  0
LINE
  5
4C1A
330
4BE8
100
AcDbEntity
  8
0
 48
0.27
100
AcDbLine
 10
39.29999999999995
 20
30.50000000000642
 30
0.0
 11
39.29999999999995
 21
0.0
 31
0.0
  0
LINE
  5
4C1B
330
4BE8
100
AcDbEntity
  8
0
 48
0.27
100
AcDbLine
 10
48.8
 20
1.5
 30
0.0
 11
39.29999999999995
 21
1.5
 31
0.0
  0
LINE
  5
4C1C
330
4BE8
100
AcDbEntity
  8
中心線
 48
0.27
100
AcDbLine
 10
46.61956760593892
 20
21.50000000000645
 30
0.0
 11
40.41907921080752
 21
21.50000000000645
 31
0.0
  0
CIRCLE
  5
4C1D
330
4BE8
100
AcDbEntity
  8
0
 48
0.27
100
AcDbCircle
 10
43.51932340837322
 20
21.50000000000645
 30
0.0
 40
0.75
  0
CIRCLE
  5
4C1E
330
4BE8
100
AcDbEntity
  8
0
 48
0.27
100
AcDbCircle
 10
43.51932340837322
 20
21.50000000000645
 30
0.0
 40
2.5
  0
CIRCLE
  5
4C1F
330
4BE8
100
AcDbEntity
  8
0
 48
0.27
100
AcDbCircle
 10
43.51932340837322
 20
21.50000000000645
 30
0.0
 40
2.75
  0
CIRCLE
  5
4C20
330
4BE8
100
AcDbEntity
  8
0
 48
0.27
100
AcDbCircle
 10
43.51932340837322
 20
21.50000000000645
 30
0.0
 40
2.1986552691
  0
LINE
  5
4C21
330
4BE8
100
AcDbEntity
  8
中心線
 48
0.27
100
AcDbLine
 10
43.51932340837322
 20
18.38629739017071
 30
0.0
 11
43.51932340837322
 21
24.61370260984219
 31
0.0
  0
LINE
  5
4C22
330
4BE8
100
AcDbEntity
  8
0
 48
0.27
100
AcDbLine
 10
48.80000000000001
 20
29.50000000000642
 30
0.0
 11
39.30000000000001
 21
29.50000000000642
 31
0.0
  0
LINE
  5
4C23
330
4BE8
100
AcDbEntity
  8
0
 48
0.27
100
AcDbLine
 10
48.80000000000001
 20
28.00000000000642
 30
0.0
 11
39.30000000000001
 21
28.00000000000642
 31
0.0
  0
ENDBLK
  5
4C25
330
4BE8
100
AcDbEntity
  8
0
100
AcDbBlockEnd
  0
BLOCK
  5
4D2A
330
4D25
100
AcDbEntity
  8
0
100
AcDbBlockBegin
  2
A$C5AC322EB
 70
     0
 10
0.0
 20
0.0
 30
0.0
  3
A$C5AC322EB
  1

  0
LINE
  5
4D26
330
4D25
100
AcDbEntity
  8
中心線
100
AcDbLine
 10
-4.5
 20
0.0
 30
0.0
 11
4.5
 21
0.0
 31
0.0
  0
ARC
  5
4D27
330
4D25
100
AcDbEntity
  8
指線
100
AcDbCircle
 10
0.0
 20
0.0
 30
0.0
 40
4.0
100
AcDbArc
 50
266.1774462707258
 51
183.8225537292741
  0
CIRCLE
  5
4D28
330
4D25
100
AcDbEntity
  8
0
100
AcDbCircle
 10
0.0
 20
0.0
 30
0.0
 40
3.375
  0
LINE
  5
4D29
330
4D25
100
AcDbEntity
  8
中心線
100
AcDbLine
 10
0.0
 20
-4.5
 30
0.0
 11
0.0
 21
4.5
 31
0.0
  0
ENDBLK
  5
4D2B
330
4D25
100
AcDbEntity
  8
0
100
AcDbBlockEnd
  0
ENDSEC
  0
SECTION
  2
ENTITIES
  0
ARC
  5
426F
330
1E
100
AcDbEntity
  8
0
 48
0.27
100
AcDbCircle
 10
-10.69075001643509
 20
16.60796928313611
 30
0.0
 40
0.5
100
AcDbArc
 50
135.0000137315018
 51
205.7922836031186
  0
LINE
  5
4270
330
1E
100
AcDbEntity
  8
0
 48
0.27
100
AcDbLine
 10
-8.508698852271475
 20
16.39999999999726
 30
0.0
 11
-9.057532008431632
 21
17.72499999999747
 31
0.0
  0
LINE
  5
4271
330
1E
100
AcDbEntity
  8
0
 48
0.27
100
AcDbLine
 10
-9.057532008431632
 20
17.72499999999747
 30
0.0
 11
-10.27221160581369
 21
16.5103198203955
 31
0.0
  0
LINE
  5
4272
330
1E
100
AcDbEntity
  8
0
 48
0.27
100
AcDbLine
 10
-11.04430349176096
 20
16.9615225889968
 30
0.0
 11
-10.27221160581306
 21
16.51031982039525
 31
0.0
  0
LINE
  5
4273
330
1E
100
AcDbEntity
  8
0
 48
0.27
100
AcDbLine
 10
8.508698852264462
 20
16.39999999998981
 30
0.0
 11
9.057532008425756
 21
17.72499999998955
 31
0.0
  0
ARC
  5
4274
330
1E
100
AcDbEntity
  8
0
 48
0.27
100
AcDbCircle
 10
10.69075001642831
 20
16.60796928312679
 30
0.0
 40
0.5
100
AcDbArc
 50
334.2077163968307
 51
44.99998626844742
  0
LINE
  5
4275
330
1E
100
AcDbEntity
  8
0
 48
0.27
100
AcDbLine
 10
11.04430349175446
 20
16.96152258898716
 30
0.0
 11
10.27221160580616
 21
16.51031982038627
 31
0.0
  0
LINE
  5
4276
330
1E
100
AcDbEntity
  8
0
 48
0.27
100
AcDbLine
 10
9.057532008425756
 20
17.72499999998955
 30
0.0
 11
10.27221160580679
 21
16.51031982038652
 31
0.0
  0
LINE
  5
4279
330
1E
100
AcDbEntity
  8
0
 48
0.27
100
AcDbLine
 10
7.699999999991252
 20
4.398648986679333
 30
0.0
 11
12.09864958097175
 21
-0.0000000000117524
 31
0.0
  0
LINE
  5
427A
330
1E
100
AcDbEntity
  8
0
 48
0.27
100
AcDbLine
 10
8.929704990899825
 20
9.009842724315674
 30
0.0
 11
7.699999999992758
 21
7.780138132221694
 31
0.0
  0
LINE
  5
427B
330
1E
100
AcDbEntity
  8
0
 48
0.27
100
AcDbLine
 10
7.699999999992758
 20
7.780138132221694
 30
0.0
 11
9.024999999992491
 21
7.231305036215374
 31
0.0
  0
LINE
  5
427C
330
1E
100
AcDbEntity
  8
0
 48
0.27
100
AcDbLine
 10
7.699999999991252
 20
4.398648986679333
 30
0.0
 11
9.024999999991496
 21
4.947482009256347
 31
0.0
  0
ARC
  5
427D
330
1E
100
AcDbEntity
  8
0
 48
0.27
100
AcDbCircle
 10
11.44706701449319
 20
8.757278985488525
 30
0.0
 40
2.53
100
AcDbArc
 50
95.72922242478901
 51
174.2707590208204
  0
ARC
  5
427E
330
1E
100
AcDbEntity
  8
0
 48
0.27
100
AcDbCircle
 10
11.44706701449645
 20
16.24247701448853
 30
0.0
 40
2.53
100
AcDbArc
 50
186.0063102577856
 51
263.9936732034378
  0
LINE
  5
427F
330
1E
100
AcDbEntity
  8
0
 48
0.27
100
AcDbLine
 10
8.508698852264462
 20
16.39999999998981
 30
0.0
 11
8.930955760388076
 21
15.97774288946941
 31
0.0
  0
LINE
  5
4280
330
1E
100
AcDbEntity
  8
0
 48
0.27
100
AcDbLine
 10
-7.700000000008781
 20
4.398648986686069
 30
0.0
 11
-12.09864958099303
 21
-0.0000000000011795
 31
0.0
  0
LINE
  5
4281
330
1E
100
AcDbEntity
  8
0
 48
0.27
100
AcDbLine
 10
-8.929704990913261
 20
9.009842724323462
 30
0.0
 11
-7.700000000007275
 21
7.780138132228429
 31
0.0
  0
LINE
  5
4282
330
1E
100
AcDbEntity
  8
0
 48
0.27
100
AcDbLine
 10
-7.700000000007275
 20
7.780138132228429
 30
0.0
 11
-9.025000000007519
 21
7.231305036223247
 31
0.0
  0
LINE
  5
4283
330
1E
100
AcDbEntity
  8
0
 48
0.27
100
AcDbLine
 10
-7.700000000008781
 20
4.398648986686069
 30
0.0
 11
-9.025000000008514
 21
4.94748200926422
 31
0.0
  0
LINE
  5
4284
330
1E
100
AcDbEntity
  8
0
 48
0.27
100
AcDbLine
 10
-8.508698852271532
 20
16.39999999999726
 30
0.0
 11
8.508698852264462
 21
16.39999999998981
 31
0.0
  0
LINE
  5
4285
330
1E
100
AcDbEntity
  8
0
 48
0.27
100
AcDbLine
 10
-9.890000000008381
 20
5.30577677494729
 30
0.0
 11
-11.87762707029331
 21
3.31814997320869
 31
0.0
  0
LINE
  5
4286
330
1E
100
AcDbEntity
  8
0
 48
0.27
100
AcDbLine
 10
-9.025000000008514
 20
4.94748200926422
 30
0.0
 11
-9.890000000008381
 21
5.30577677494729
 31
0.0
  0
LINE
  5
4287
330
1E
100
AcDbEntity
  8
0
 48
0.27
100
AcDbLine
 10
-9.025000000007519
 20
7.231305036223247
 30
0.0
 11
-9.025000000008514
 21
4.94748200926422
 31
0.0
  0
LINE
  5
428B
330
1E
100
AcDbEntity
  8
0
 48
0.27
100
AcDbLine
 10
-9.025000000008514
 20
4.94748200926422
 30
0.0
 11
-11.87326020794484
 21
2.099222186153397
 31
0.0
  0
LINE
  5
428C
330
1E
100
AcDbEntity
  8
0
 48
0.27
100
AcDbLine
 10
-13.69922251403748
 20
0.2732601267646686
 30
0.0
 11
-13.97248267772242
 21
-0.0000000000003837
 31
0.0
  0
LINE
  5
428D
330
1E
100
AcDbEntity
  8
0
 48
0.27
100
AcDbLine
 10
-14.91815030050268
 20
0.2776271538011912
 30
0.0
 11
-15.19577749181364
 21
0.0000000000001563
 31
0.0
  0
ARC
  5
428E
330
1E
100
AcDbEntity
  8
0
 48
0.27
100
AcDbCircle
 10
-11.44706701450685
 20
8.75727898549853
 30
0.0
 40
2.53
100
AcDbArc
 50
5.729240979127214
 51
84.27077757515858
  0
LINE
  5
428F
330
1E
100
AcDbEntity
  8
0
 48
0.27
100
AcDbLine
 10
-11.19450409088785
 20
11.27464109088047
 30
0.0
 11
-11.72377422274918
 21
9.930078252596999
 31
0.0
  0
LINE
  5
4290
330
1E
100
AcDbEntity
  8
0
 48
0.27
100
AcDbLine
 10
-12.72500000000583
 20
10.93130402985492
 30
0.0
 11
-11.72377422274872
 21
9.930078252596544
 31
0.0
  0
LINE
  5
4291
330
1E
100
AcDbEntity
  8
0
 48
0.27
100
AcDbLine
 10
-13.59000000000427
 20
14.41582570159646
 30
0.0
 11
-13.59000000000601
 21
10.57300929840265
 31
0.0
  0
LINE
  5
4292
330
1E
100
AcDbEntity
  8
0
 48
0.27
100
AcDbLine
 10
-12.72500000000583
 20
10.93130402985492
 30
0.0
 11
-13.59000000000601
 21
10.57300929840265
 31
0.0
  0
LINE
  5
4293
330
1E
100
AcDbEntity
  8
0
 48
0.27
100
AcDbLine
 10
-12.17344558654779
 20
9.156454884942618
 30
0.0
 11
-11.72377422274872
 21
9.930078252596544
 31
0.0
  0
ARC
  5
4294
330
1E
100
AcDbEntity
  8
0
 48
0.27
100
AcDbCircle
 10
-11.81989219595432
 20
9.510008275535639
 30
0.0
 40
0.5
100
AcDbArc
 50
224.9999999999645
 51
296.3491143007122
  0
LINE
  5
4295
330
1E
100
AcDbEntity
  8
0
 48
0.27
100
AcDbLine
 10
-13.59000000000601
 20
10.57300929840265
 30
0.0
 11
-12.17344558654779
 21
9.156454884942618
 31
0.0
  0
ARC
  5
4296
330
1E
100
AcDbEntity
  8
0
 48
0.27
100
AcDbCircle
 10
-11.44706701450685
 20
8.75727898549853
 30
0.0
 40
1.205
100
AcDbArc
 50
346.7245850711628
 51
103.2754386934385
  0
LINE
  5
4297
330
1E
100
AcDbEntity
  8
0
 48
0.27
100
AcDbLine
 10
-10.27426763263893
 20
8.480572263699272
 30
0.0
 11
-8.929704990913261
 21
9.009842724323462
 31
0.0
  0
LINE
  5
4298
330
1E
100
AcDbEntity
  8
0
 48
0.27
100
AcDbLine
 10
-10.27426763263893
 20
8.480572263699272
 30
0.0
 11
-9.025000000007519
 21
7.231305036223247
 31
0.0
  0
LINE
  5
4299
330
1E
100
AcDbEntity
  8
0
 48
0.27
100
AcDbLine
 10
-9.025000000007519
 20
7.231305036223247
 30
0.0
 11
-9.89000000000767
 21
6.873010222604747
 31
0.0
  0
ARC
  5
429A
330
1E
100
AcDbEntity
  8
0
 48
0.27
100
AcDbCircle
 10
-10.69433754272618
 20
8.384454170989201
 30
0.0
 40
0.5
100
AcDbArc
 50
153.6509136296524
 51
225.0000092909186
  0
LINE
  5
429B
330
1E
100
AcDbEntity
  8
0
 48
0.27
100
AcDbLine
 10
-11.14239079973814
 20
8.606373703435068
 30
0.0
 11
-10.27426763263893
 21
8.480572263699272
 31
0.0
  0
LINE
  5
429C
330
1E
100
AcDbEntity
  8
0
 48
0.27
100
AcDbLine
 10
-9.89000000000767
 20
6.873010222604747
 30
0.0
 11
-9.890000000008381
 21
5.30577677494729
 31
0.0
  0
LINE
  5
429D
330
1E
100
AcDbEntity
  8
0
 48
0.27
100
AcDbLine
 10
-10.27426763263893
 20
8.480572263699272
 30
0.0
 11
-11.04789087598821
 21
8.030900723064732
 31
0.0
  0
LINE
  5
429E
330
1E
100
AcDbEntity
  8
0
 48
0.27
100
AcDbLine
 10
-11.04789087598824
 20
8.030900723064732
 30
0.0
 11
-9.89000000000767
 21
6.873010222604747
 31
0.0
  0
ARC
  5
429F
330
1E
100
AcDbEntity
  8
0
 48
0.27
100
AcDbCircle
 10
-11.44706701450685
 20
8.75727898549853
 30
0.0
 40
0.3400000000000003
100
AcDbArc
 50
333.6509136296541
 51
116.34911430071
  0
LINE
  5
42A0
330
1E
100
AcDbEntity
  8
0
 48
0.27
100
AcDbLine
 10
-11.59797244509261
 20
9.061955126703779
 30
0.0
 11
-11.72377422275068
 21
9.930078252593162
 31
0.0
  0
LINE
  5
42A1
330
1E
100
AcDbEntity
  8
0
 48
0.27
100
AcDbLine
 10
-11.40000000000473
 20
13.50869799999848
 30
0.0
 11
-12.72500000000446
 21
14.05753097014339
 31
0.0
  0
LINE
  5
42A2
330
1E
100
AcDbEntity
  8
0
 48
0.27
100
AcDbLine
 10
-11.40000000000561
 20
11.48013699999857
 30
0.0
 11
-12.72500000000583
 21
10.93130402985492
 31
0.0
  0
LINE
  5
42A3
330
1E
100
AcDbEntity
  8
0
 48
0.27
100
AcDbLine
 10
-11.71490944900825
 20
15.06762152113888
 30
0.0
 11
-12.72500000000446
 21
14.05753097014339
 31
0.0
  0
LINE
  5
42A4
330
1E
100
AcDbEntity
  8
0
 48
0.27
100
AcDbLine
 10
-12.16611241810833
 20
15.83971328349152
 30
0.0
 11
-11.71490944900825
 21
15.06762152113888
 31
0.0
  0
ARC
  5
42A5
330
1E
100
AcDbEntity
  8
0
 48
0.27
100
AcDbCircle
 10
-11.81255902751514
 20
15.48615989289815
 30
0.0
 40
0.5
100
AcDbArc
 50
64.20773576216268
 51
134.9999999999836
  0
LINE
  5
42A6
330
1E
100
AcDbEntity
  8
0
 48
0.27
100
AcDbLine
 10
-12.72500000000446
 20
14.05753097014339
 30
0.0
 11
-13.59000000000427
 21
14.41582570159646
 31
0.0
  0
LINE
  5
42A7
330
1E
100
AcDbEntity
  8
0
 48
0.27
100
AcDbLine
 10
-12.16611241810831
 20
15.83971328349149
 30
0.0
 11
-13.59000000000427
 21
14.41582570159646
 31
0.0
  0
LINE
  5
42A8
330
1E
100
AcDbEntity
  8
0
 48
0.27
100
AcDbLine
 10
-12.72500000000446
 20
14.05753097014339
 30
0.0
 11
-12.72500000000583
 21
10.93130402985492
 31
0.0
  0
ARC
  5
42A9
330
1E
100
AcDbEntity
  8
0
 48
0.27
100
AcDbCircle
 10
-11.44706701450358
 20
16.24247701449853
 30
0.0
 40
2.53
100
AcDbArc
 50
276.0063267965097
 51
353.9936897421619
  0
LINE
  5
42AA
330
1E
100
AcDbEntity
  8
0
 48
0.27
100
AcDbLine
 10
-8.508698852271475
 20
16.39999999999726
 30
0.0
 11
-8.930955760395431
 21
15.9777428894772
 31
0.0
  0
ARC
  5
42AB
330
1E
100
AcDbEntity
  8
0
 48
0.27
100
AcDbCircle
 10
-11.44706701450358
 20
16.24247701449853
 30
0.0
 40
1.205
100
AcDbArc
 50
257.1572584101224
 51
12.84275970207395
  0
LINE
  5
42AC
330
1E
100
AcDbEntity
  8
0
 48
0.27
100
AcDbLine
 10
-8.930955760395544
 20
15.97774288947708
 30
0.0
 11
-10.27221160581369
 21
16.5103198203955
 31
0.0
  0
LINE
  5
42AD
330
1E
100
AcDbEntity
  8
0
 48
0.27
100
AcDbLine
 10
-10.27221160581306
 20
16.51031982039525
 30
0.0
 11
-11.14093870576122
 21
16.39041436132821
 31
0.0
  0
ARC
  5
42AE
330
1E
100
AcDbEntity
  8
0
 48
0.27
100
AcDbCircle
 10
-11.44706701450358
 20
16.24247701449853
 30
0.0
 40
0.3400000000000003
100
AcDbArc
 50
244.2077357621642
 51
25.79228360311681
  0
LINE
  5
42AF
330
1E
100
AcDbEntity
  8
0
 48
0.27
100
AcDbLine
 10
-11.18233216319587
 20
13.72636583680723
 30
0.0
 11
-11.71490944900837
 21
15.06762152113837
 31
0.0
  0
LINE
  5
42B0
330
1E
100
AcDbEntity
  8
0
 48
0.27
100
AcDbLine
 10
-11.18233216319596
 20
13.72636583680714
 30
0.0
 11
-11.40000000000473
 21
13.50869799999848
 31
0.0
  0
LINE
  5
42B1
330
1E
100
AcDbEntity
  8
0
 48
0.27
100
AcDbLine
 10
-11.40000000000561
 20
11.48013699999857
 30
0.0
 11
-11.19450409088788
 21
11.27464109088059
 31
0.0
  0
LINE
  5
42B2
330
1E
100
AcDbEntity
  8
0
 48
0.27
100
AcDbLine
 10
-11.40000000000473
 20
13.50869799999848
 30
0.0
 11
-11.40000000000561
 21
11.48013699999857
 31
0.0
  0
LINE
  5
42B3
330
1E
100
AcDbEntity
  8
0
 48
0.27
100
AcDbLine
 10
-11.71490944900825
 20
15.06762152113888
 30
0.0
 11
-11.59500425786556
 21
15.93634865575514
 31
0.0
  0
LINE
  5
42B4
330
1E
100
AcDbEntity
  8
0
 48
0.27
100
AcDbLine
 10
-7.700000000007275
 20
7.780138132228429
 30
0.0
 11
-7.700000000008781
 21
4.398648986686069
 31
0.0
  0
LINE
  5
42B5
330
1E
100
AcDbEntity
  8
0
 48
0.27
100
AcDbLine
 10
7.699999999992758
 20
7.780138132221694
 30
0.0
 11
7.699999999991252
 21
4.398648986679333
 31
0.0
  0
LINE
  5
42B6
330
1E
100
AcDbEntity
  8
0
 48
0.27
100
AcDbLine
 10
9.889999999991648
 20
5.305776774938649
 30
0.0
 11
11.87762707027484
 21
3.318149973198259
 31
0.0
  0
LINE
  5
42B7
330
1E
100
AcDbEntity
  8
0
 48
0.27
100
AcDbLine
 10
9.024999999992491
 20
7.231305036215374
 30
0.0
 11
9.024999999991496
 21
4.947482009256347
 31
0.0
  0
LINE
  5
42B8
330
1E
100
AcDbEntity
  8
0
 48
0.27
100
AcDbLine
 10
9.024999999991496
 20
4.947482009256347
 30
0.0
 11
9.889999999991648
 21
5.305776774938649
 31
0.0
  0
LINE
  5
42BB
330
1E
100
AcDbEntity
  8
0
 48
0.27
100
AcDbLine
 10
9.024999999991496
 20
4.947482009256347
 30
0.0
 11
11.87326020792536
 21
2.099222186142966
 31
0.0
  0
LINE
  5
42BC
330
1E
100
AcDbEntity
  8
0
 48
0.27
100
AcDbLine
 10
13.69922251401637
 20
0.2732601267527315
 30
0.0
 11
13.97248267770114
 21
-0.000000000012605
 31
0.0
  0
LINE
  5
42BD
330
1E
100
AcDbEntity
  8
0
 48
0.27
100
AcDbLine
 10
14.91815030048163
 20
0.277627153788174
 30
0.0
 11
15.19577749179235
 21
-0.0000000000131166
 31
0.0
  0
LINE
  5
42BF
330
1E
100
AcDbEntity
  8
0
 48
0.27
100
AcDbLine
 10
12.7249999999941
 20
10.93130402984381
 30
0.0
 11
11.72377422273608
 21
9.930078252586284
 31
0.0
  0
LINE
  5
42C0
330
1E
100
AcDbEntity
  8
0
 48
0.27
100
AcDbLine
 10
11.19450409087641
 20
11.2746410908707
 30
0.0
 11
11.72377422273654
 21
9.930078252586739
 31
0.0
  0
LINE
  5
42C1
330
1E
100
AcDbEntity
  8
0
 48
0.27
100
AcDbLine
 10
12.7249999999941
 20
10.93130402984381
 30
0.0
 11
13.58999999999394
 21
10.57300929839077
 31
0.0
  0
LINE
  5
42C2
330
1E
100
AcDbEntity
  8
0
 48
0.27
100
AcDbLine
 10
13.58999999999555
 20
14.41582570158458
 30
0.0
 11
13.58999999999394
 21
10.57300929839077
 31
0.0
  0
LINE
  5
42C3
330
1E
100
AcDbEntity
  8
0
 48
0.27
100
AcDbLine
 10
13.58999999999394
 20
10.57300929839077
 30
0.0
 11
12.17344558653447
 21
9.156454884931989
 31
0.0
  0
ARC
  5
42C4
330
1E
100
AcDbEntity
  8
0
 48
0.27
100
AcDbCircle
 10
11.81989219594128
 20
9.510008275525322
 30
0.0
 40
0.5
100
AcDbArc
 50
243.6508856992392
 51
314.9999999999859
  0
LINE
  5
42C5
330
1E
100
AcDbEntity
  8
0
 48
0.27
100
AcDbLine
 10
12.17344558653447
 20
9.156454884931989
 30
0.0
 11
11.72377422273608
 21
9.930078252586284
 31
0.0
  0
ARC
  5
42C6
330
1E
100
AcDbEntity
  8
0
 48
0.27
100
AcDbCircle
 10
11.44706701449319
 20
8.757278985488525
 30
0.0
 40
1.205
100
AcDbArc
 50
76.72456130651126
 51
193.2754149287869
  0
ARC
  5
42C7
330
1E
100
AcDbEntity
  8
0
 48
0.27
100
AcDbCircle
 10
10.69433754271218
 20
8.38445417097985
 30
0.0
 40
0.5
100
AcDbArc
 50
314.9999907090307
 51
26.34908637029661
  0
LINE
  5
42C8
330
1E
100
AcDbEntity
  8
0
 48
0.27
100
AcDbLine
 10
11.14239079972431
 20
8.606373703425347
 30
0.0
 11
10.27426763262498
 21
8.480572263690291
 31
0.0
  0
LINE
  5
42C9
330
1E
100
AcDbEntity
  8
0
 48
0.27
100
AcDbLine
 10
10.27426763262498
 20
8.480572263690291
 30
0.0
 11
8.929704990899825
 21
9.009842724315674
 31
0.0
  0
LINE
  5
42CA
330
1E
100
AcDbEntity
  8
0
 48
0.27
100
AcDbLine
 10
9.889999999992358
 20
6.873010222596107
 30
0.0
 11
9.889999999991648
 21
5.305776774938649
 31
0.0
  0
LINE
  5
42CB
330
1E
100
AcDbEntity
  8
0
 48
0.27
100
AcDbLine
 10
9.024999999992491
 20
7.231305036215374
 30
0.0
 11
9.889999999992358
 21
6.873010222596107
 31
0.0
  0
LINE
  5
42CC
330
1E
100
AcDbEntity
  8
0
 48
0.27
100
AcDbLine
 10
10.27426763262498
 20
8.480572263690291
 30
0.0
 11
11.04789087597392
 21
8.030900723055069
 31
0.0
  0
LINE
  5
42CD
330
1E
100
AcDbEntity
  8
0
 48
0.27
100
AcDbLine
 10
11.04789087597395
 20
8.030900723055069
 30
0.0
 11
9.889999999992358
 21
6.873010222596107
 31
0.0
  0
LINE
  5
42CE
330
1E
100
AcDbEntity
  8
0
 48
0.27
100
AcDbLine
 10
10.27426763262498
 20
8.480572263690291
 30
0.0
 11
9.024999999992491
 21
7.231305036215374
 31
0.0
  0
ARC
  5
42CF
330
1E
100
AcDbEntity
  8
0
 48
0.27
100
AcDbCircle
 10
11.44706701449319
 20
8.757278985488525
 30
0.0
 40
0.3400000000000003
100
AcDbArc
 50
63.65088569923926
 51
206.3490863702948
  0
LINE
  5
42D0
330
1E
100
AcDbEntity
  8
0
 48
0.27
100
AcDbLine
 10
11.59797244507918
 20
9.061955126693661
 30
0.0
 11
11.72377422273804
 21
9.930078252582902
 31
0.0
  0
LINE
  5
42D1
330
1E
100
AcDbEntity
  8
0
 48
0.27
100
AcDbLine
 10
12.16611241810078
 20
15.83971328348086
 30
0.0
 11
13.58999999999555
 21
14.41582570158458
 31
0.0
  0
LINE
  5
42D2
330
1E
100
AcDbEntity
  8
0
 48
0.27
100
AcDbLine
 10
12.7249999999954
 20
14.05753097013227
 30
0.0
 11
13.58999999999555
 21
14.41582570158458
 31
0.0
  0
LINE
  5
42D3
330
1E
100
AcDbEntity
  8
0
 48
0.27
100
AcDbLine
 10
11.7149094490001
 20
15.06762152112865
 30
0.0
 11
12.7249999999954
 21
14.05753097013227
 31
0.0
  0
LINE
  5
42D4
330
1E
100
AcDbEntity
  8
0
 48
0.27
100
AcDbLine
 10
11.39999999999522
 20
13.50869799998854
 30
0.0
 11
12.7249999999954
 21
14.05753097013227
 31
0.0
  0
LINE
  5
42D5
330
1E
100
AcDbEntity
  8
0
 48
0.27
100
AcDbLine
 10
11.39999999999433
 20
11.48013699998863
 30
0.0
 11
12.7249999999941
 21
10.93130402984381
 31
0.0
  0
ARC
  5
42D6
330
1E
100
AcDbEntity
  8
0
 48
0.27
100
AcDbCircle
 10
11.81255902750733
 20
15.48615989288784
 30
0.0
 40
0.5
100
AcDbArc
 50
44.99999999996568
 51
115.7922642377869
  0
LINE
  5
42D7
330
1E
100
AcDbEntity
  8
0
 48
0.27
100
AcDbLine
 10
12.16611241810081
 20
15.83971328348089
 30
0.0
 11
11.7149094490001
 21
15.06762152112865
 31
0.0
  0
LINE
  5
42D8
330
1E
100
AcDbEntity
  8
0
 48
0.27
100
AcDbLine
 10
12.7249999999954
 20
14.05753097013227
 30
0.0
 11
12.7249999999941
 21
10.93130402984381
 31
0.0
  0
LINE
  5
42D9
330
1E
100
AcDbEntity
  8
0
 48
0.27
100
AcDbLine
 10
8.93095576038819
 20
15.97774288946929
 30
0.0
 11
10.27221160580679
 21
16.51031982038652
 31
0.0
  0
LINE
  5
42DA
330
1E
100
AcDbEntity
  8
0
 48
0.27
100
AcDbLine
 10
10.27221160580616
 20
16.51031982038627
 30
0.0
 11
11.14093870575421
 21
16.39041436131849
 31
0.0
  0
ARC
  5
42DB
330
1E
100
AcDbEntity
  8
0
 48
0.27
100
AcDbCircle
 10
11.44706701449645
 20
16.24247701448853
 30
0.0
 40
1.205
100
AcDbArc
 50
167.1572402978759
 51
282.8427415898277
  0
LINE
  5
42DC
330
1E
100
AcDbEntity
  8
0
 48
0.27
100
AcDbLine
 10
11.18233216318653
 20
13.72636583679748
 30
0.0
 11
11.71490944900022
 21
15.06762152112814
 31
0.0
  0
LINE
  5
42DD
330
1E
100
AcDbEntity
  8
0
 48
0.27
100
AcDbLine
 10
11.18233216318661
 20
13.7263658367974
 30
0.0
 11
11.39999999999522
 21
13.50869799998854
 31
0.0
  0
LINE
  5
42DE
330
1E
100
AcDbEntity
  8
0
 48
0.27
100
AcDbLine
 10
11.39999999999433
 20
11.48013699998863
 30
0.0
 11
11.19450409087644
 21
11.27464109087081
 31
0.0
  0
LINE
  5
42DF
330
1E
100
AcDbEntity
  8
0
 48
0.27
100
AcDbLine
 10
11.39999999999522
 20
13.50869799998854
 30
0.0
 11
11.39999999999433
 21
11.48013699998863
 31
0.0
  0
ARC
  5
42E0
330
1E
100
AcDbEntity
  8
0
 48
0.27
100
AcDbCircle
 10
11.44706701449645
 20
16.24247701448853
 30
0.0
 40
0.3400000000000003
100
AcDbArc
 50
154.2077163968325
 51
295.7922642377848
  0
LINE
  5
42E1
330
1E
100
AcDbEntity
  8
0
 48
0.27
100
AcDbLine
 10
11.7149094490001
 20
15.06762152112865
 30
0.0
 11
11.59500425785815
 21
15.93634865574502
 31
0.0
  0
LINE
  5
42E2
330
1E
100
AcDbEntity
  8
0
 48
0.27
100
AcDbLine
 10
-9.415826861321033
 20
18.58999999999768
 30
0.0
 11
9.415826861316009
 21
18.58999999998944
 31
0.0
  0
LINE
  5
42E3
330
1E
100
AcDbEntity
  8
0
 48
0.27
100
AcDbLine
 10
-9.057532008431603
 20
17.7249999999975
 30
0.0
 11
9.057532008425756
 21
17.72499999998955
 31
0.0
  0
LINE
  5
42F3
330
1E
100
AcDbEntity
  8
0
 48
0.27
100
AcDbLine
 10
-9.41582686132109
 20
18.58999999999765
 30
0.0
 11
-11.04430349176093
 21
16.96152258899677
 31
0.0
  0
LINE
  5
42F4
330
1E
100
AcDbEntity
  8
0
 48
0.27
100
AcDbLine
 10
-9.057532008431632
 20
17.72499999999747
 30
0.0
 11
-9.41582686132109
 21
18.58999999999765
 31
0.0
  0
LINE
  5
42FB
330
1E
100
AcDbEntity
  8
0
 48
0.27
100
AcDbLine
 10
-5.249999999999982
 20
24.49999999999583
 30
0.0
 11
-5.249999999997765
 21
29.49999999999586
 31
0.0
  0
LINE
  5
42FD
330
1E
100
AcDbEntity
  8
0
 48
0.27
100
AcDbLine
 10
5.250000000001047
 20
26.82094795717716
 30
0.0
 11
5.250000000002234
 21
29.49999999999126
 31
0.0
  0
LINE
  5
430D
330
1E
100
AcDbEntity
  8
0
 48
0.27
100
AcDbLine
 10
9.057532008425756
 20
17.72499999998955
 30
0.0
 11
9.415826861316009
 21
18.58999999998944
 31
0.0
  0
LINE
  5
430E
330
1E
100
AcDbEntity
  8
0
 48
0.27
100
AcDbLine
 10
9.415826861316009
 20
18.58999999998944
 30
0.0
 11
11.04430349175443
 21
16.96152258898713
 31
0.0
  0
LINE
  5
431F
330
1E
100
AcDbEntity
  8
指線
 48
0.27
100
AcDbLine
 10
-14.81048340697866
 20
3.20333248013938
 30
0.0
 11
-16.76984384766647
 21
3.203683750083037
 31
0.0
  0
LINE
  5
4320
330
1E
100
AcDbEntity
  8
指線
 48
0.27
100
AcDbLine
 10
-14.81063903290405
 20
2.19723307774813
 30
0.0
 11
-16.76999947359185
 21
2.197584347691787
 31
0.0
  0
LINE
  5
4321
330
1E
100
AcDbEntity
  8
指線
 48
0.27
100
AcDbLine
 10
-13.80438602353536
 20
3.203176758349613
 30
0.0
 11
-11.840993405401
 21
3.202920871905483
 31
0.0
  0
LINE
  5
4322
330
1E
100
AcDbEntity
  8
指線
 48
0.27
100
AcDbLine
 10
-13.80454164946052
 20
2.197077355958597
 30
0.0
 11
-11.84114903132615
 21
2.196821469514233
 31
0.0
  0
LINE
  5
4323
330
1E
100
AcDbEntity
  8
指線
 48
0.27
100
AcDbLine
 10
-14.81063903290405
 20
2.19723307774813
 30
0.0
 11
-14.81078130841158
 21
1.277443359086134
 31
0.0
  0
LINE
  5
4324
330
1E
100
AcDbEntity
  8
指線
 48
0.27
100
AcDbLine
 10
-13.80454164946052
 20
2.197077355958597
 30
0.0
 11
-13.80468392476696
 21
1.277287637300943
 31
0.0
  0
LINE
  5
4325
330
1E
100
AcDbEntity
  8
指線
 48
0.27
100
AcDbLine
 10
-14.81034113167244
 20
4.123122198796806
 30
0.0
 11
-14.81048340697866
 21
3.20333248013938
 31
0.0
  0
LINE
  5
4326
330
1E
100
AcDbEntity
  8
指線
 48
0.27
100
AcDbLine
 10
-13.80424374802783
 20
4.122966477011843
 30
0.0
 11
-13.80438602353536
 21
3.203176758349613
 31
0.0
  0
LINE
  5
432F
330
1E
100
AcDbEntity
  8
指線
 48
0.27
100
AcDbLine
 10
13.78951659302135
 20
3.203332480126874
 30
0.0
 11
11.83015615233354
 21
3.203683750070531
 31
0.0
  0
LINE
  5
4330
330
1E
100
AcDbEntity
  8
指線
 48
0.27
100
AcDbLine
 10
13.78936096709597
 20
2.197233077735624
 30
0.0
 11
11.83000052640816
 21
2.197584347679281
 31
0.0
  0
LINE
  5
4331
330
1E
100
AcDbEntity
  8
指線
 48
0.27
100
AcDbLine
 10
14.79561397646465
 20
3.203176758337107
 30
0.0
 11
16.75900659459902
 21
3.202920871892978
 31
0.0
  0
LINE
  5
4332
330
1E
100
AcDbEntity
  8
指線
 48
0.27
100
AcDbLine
 10
14.7954583505395
 20
2.197077355946092
 30
0.0
 11
16.75885096867386
 21
2.196821469501728
 31
0.0
  0
LINE
  5
4333
330
1E
100
AcDbEntity
  8
指線
 48
0.27
100
AcDbLine
 10
13.78936096709597
 20
2.197233077735624
 30
0.0
 11
13.78921869158844
 21
1.277443359073629
 31
0.0
  0
LINE
  5
4334
330
1E
100
AcDbEntity
  8
指線
 48
0.27
100
AcDbLine
 10
14.7954583505395
 20
2.197077355946092
 30
0.0
 11
14.79531607523305
 21
1.277287637288438
 31
0.0
  0
LINE
  5
4335
330
1E
100
AcDbEntity
  8
指線
 48
0.27
100
AcDbLine
 10
13.78965886832757
 20
4.123122198784301
 30
0.0
 11
13.78951659302135
 21
3.203332480126874
 31
0.0
  0
LINE
  5
4336
330
1E
100
AcDbEntity
  8
指線
 48
0.27
100
AcDbLine
 10
14.79575625197218
 20
4.122966476999337
 30
0.0
 11
14.79561397646465
 21
3.203176758337107
 31
0.0
  0
ARC
  5
4341
330
1E
100
AcDbEntity
  8
指線
 48
0.27
100
AcDbCircle
 10
-14.30527306165886
 20
2.70029817068773
 30
0.0
 40
1.508492115360205
100
AcDbArc
 50
199.4740415212036
 51
250.4208853925178
  0
ARC
  5
4342
330
1E
100
AcDbEntity
  8
指線
 48
0.27
100
AcDbCircle
 10
-14.30527306165886
 20
2.70029817068773
 30
0.0
 40
1.508492115360205
100
AcDbArc
 50
289.3809415722936
 51
340.5082247682504
  0
ARC
  5
4343
330
1E
100
AcDbEntity
  8
指線
 48
0.27
100
AcDbCircle
 10
-14.30527306165886
 20
2.70029817068773
 30
0.0
 40
1.508492115360205
100
AcDbArc
 50
19.46831212368986
 51
70.60133311813122
  0
ARC
  5
4344
330
1E
100
AcDbEntity
  8
指線
 48
0.27
100
AcDbCircle
 10
-14.30527306165886
 20
2.70029817068773
 30
0.0
 40
1.508492115360205
100
AcDbArc
 50
109.5613892979122
 51
160.5139541657127
  0
CIRCLE
  5
4345
330
1E
100
AcDbEntity
  8
指線
 48
0.27
100
AcDbCircle
 10
-14.30527306165886
 20
2.70029817068773
 30
0.0
 40
2.512096663740535
  0
ARC
  5
4346
330
1E
100
AcDbEntity
  8
指線
 48
0.27
100
AcDbCircle
 10
14.29472693834116
 20
2.700298170675225
 30
0.0
 40
1.508492115360205
100
AcDbArc
 50
199.4740415212036
 51
250.4208853925178
  0
ARC
  5
4347
330
1E
100
AcDbEntity
  8
指線
 48
0.27
100
AcDbCircle
 10
14.29472693834116
 20
2.700298170675225
 30
0.0
 40
1.508492115360205
100
AcDbArc
 50
289.3809415722936
 51
340.5082247682504
  0
ARC
  5
4348
330
1E
100
AcDbEntity
  8
指線
 48
0.27
100
AcDbCircle
 10
14.29472693834116
 20
2.700298170675225
 30
0.0
 40
1.508492115360205
100
AcDbArc
 50
19.46831212368986
 51
70.60133311813122
  0
ARC
  5
4349
330
1E
100
AcDbEntity
  8
指線
 48
0.27
100
AcDbCircle
 10
14.29472693834116
 20
2.700298170675225
 30
0.0
 40
1.508492115360205
100
AcDbArc
 50
109.5613892979122
 51
160.5139541657127
  0
CIRCLE
  5
434A
330
1E
100
AcDbEntity
  8
指線
 48
0.27
100
AcDbCircle
 10
14.29472693834116
 20
2.700298170675225
 30
0.0
 40
2.512096663740535
  0
LINE
  5
434B
330
1E
100
AcDbEntity
  8
中心線
 48
0.27
100
AcDbLine
 10
-0.000000000015131
 20
-10.34663117638537
 30
0.0
 11
-0.0000000000030447
 21
17.39999999999354
 31
0.0
  0
LINE
  5
434C
330
1E
100
AcDbEntity
  8
0
 62
     0
 48
0.27
100
AcDbLine
 10
9.999999999977081
 20
-5.500000000003851
 30
0.0
 11
-10.00000000002291
 21
-5.499999999980602
 31
0.0
  0
LINE
  5
434D
330
1E
100
AcDbEntity
  8
0
 48
0.27
100
AcDbLine
 10
7.699999999991252
 20
4.398648986679333
 30
0.0
 11
11.49999999998415
 21
0.5986495000939556
 31
0.0
  0
LINE
  5
434E
330
1E
100
AcDbEntity
  8
0
 48
0.27
100
AcDbLine
 10
8.929704990899825
 20
9.009842724315674
 30
0.0
 11
7.699999999992758
 21
7.780138132221694
 31
0.0
  0
ARC
  5
434F
330
1E
100
AcDbEntity
  8
0
 48
0.27
100
AcDbCircle
 10
11.44706701449319
 20
8.757278985488525
 30
0.0
 40
2.53
100
AcDbArc
 50
95.72922242478901
 51
174.2707590208204
  0
ARC
  5
4350
330
1E
100
AcDbEntity
  8
0
 48
0.27
100
AcDbCircle
 10
11.44706701449645
 20
16.24247701448853
 30
0.0
 40
2.53
100
AcDbArc
 50
186.0063102577856
 51
263.9936732034378
  0
LINE
  5
4351
330
1E
100
AcDbEntity
  8
0
 48
0.27
100
AcDbLine
 10
8.508698852264462
 20
16.39999999998981
 30
0.0
 11
8.930955760388076
 21
15.97774288946941
 31
0.0
  0
LINE
  5
4352
330
1E
100
AcDbEntity
  8
0
 48
0.27
100
AcDbLine
 10
-7.700000000008781
 20
4.398648986686069
 30
0.0
 11
-11.50000000001584
 21
0.5986495000930887
 31
0.0
  0
LINE
  5
4353
330
1E
100
AcDbEntity
  8
0
 48
0.27
100
AcDbLine
 10
-8.929704990913261
 20
9.009842724323462
 30
0.0
 11
-7.700000000007275
 21
7.780138132228429
 31
0.0
  0
LINE
  5
4354
330
1E
100
AcDbEntity
  8
0
 48
0.27
100
AcDbLine
 10
-8.508698852271532
 20
16.39999999999726
 30
0.0
 11
8.508698852264462
 21
16.39999999998981
 31
0.0
  0
LINE
  5
4355
330
1E
100
AcDbEntity
  8
0
 62
     0
 48
0.27
100
AcDbLine
 10
-11.50000000001584
 20
0.598649500126939
 30
0.0
 11
-11.50000000002118
 21
-3.999999999978868
 31
0.0
  0
LINE
  5
4356
330
1E
100
AcDbEntity
  8
0
 62
     0
 48
0.27
100
AcDbLine
 10
-11.50000000002118
 20
-3.999999999978868
 30
0.0
 11
-10.00000000002291
 21
-5.499999999980602
 31
0.0
  0
ARC
  5
4357
330
1E
100
AcDbEntity
  8
0
 48
0.27
100
AcDbCircle
 10
-11.44706701450685
 20
8.75727898549853
 30
0.0
 40
2.53
100
AcDbArc
 50
5.729240979127214
 51
84.27077757515858
  0
ARC
  5
4358
330
1E
100
AcDbEntity
  8
0
 48
0.27
100
AcDbCircle
 10
-11.44706701450358
 20
16.24247701449853
 30
0.0
 40
2.53
100
AcDbArc
 50
276.0063267965097
 51
353.9936897421619
  0
LINE
  5
4359
330
1E
100
AcDbEntity
  8
0
 48
0.27
100
AcDbLine
 10
-8.508698852271475
 20
16.39999999999726
 30
0.0
 11
-8.930955760395431
 21
15.9777428894772
 31
0.0
  0
LINE
  5
435A
330
1E
100
AcDbEntity
  8
0
 48
0.27
100
AcDbLine
 10
-11.18233216319596
 20
13.72636583680714
 30
0.0
 11
-11.40000000000473
 21
13.50869799999848
 31
0.0
  0
LINE
  5
435B
330
1E
100
AcDbEntity
  8
0
 48
0.27
100
AcDbLine
 10
-11.40000000000561
 20
11.48013699999857
 30
0.0
 11
-11.19450409088788
 21
11.27464109088059
 31
0.0
  0
LINE
  5
435C
330
1E
100
AcDbEntity
  8
0
 48
0.27
100
AcDbLine
 10
-11.40000000000473
 20
13.50869799999848
 30
0.0
 11
-11.40000000000561
 21
11.48013699999857
 31
0.0
  0
LINE
  5
435D
330
1E
100
AcDbEntity
  8
虛線
 62
     6
 48
0.27
100
AcDbLine
 10
-3.500000000022406
 20
-4.999999999988105
 30
0.0
 11
-3.500000000008224
 21
7.200000000011769
 31
0.0
  0
LINE
  5
435E
330
1E
100
AcDbEntity
  8
虛線
 62
     6
 48
0.27
100
AcDbLine
 10
3.499999999977593
 20
-4.999999999996248
 30
0.0
 11
3.499999999991775
 21
7.200000000003697
 31
0.0
  0
LINE
  5
435F
330
1E
100
AcDbEntity
  8
0
 48
0.27
100
AcDbLine
 10
-7.700000000007275
 20
7.780138132228429
 30
0.0
 11
-7.700000000008781
 21
4.398648986686069
 31
0.0
  0
LINE
  5
4360
330
1E
100
AcDbEntity
  8
0
 48
0.27
100
AcDbLine
 10
7.699999999992758
 20
7.780138132221694
 30
0.0
 11
7.699999999991252
 21
4.398648986679333
 31
0.0
  0
LINE
  5
4361
330
1E
100
AcDbEntity
  8
虛線
 62
     6
 48
0.27
100
AcDbLine
 10
-3.500000000022406
 20
-4.999999999988105
 30
0.0
 11
3.499999999977593
 21
-4.999999999996248
 31
0.0
  0
LINE
  5
4362
330
1E
100
AcDbEntity
  8
虛線
 62
     6
 48
0.27
100
AcDbLine
 10
-4.000000000023032
 20
-5.499999999987579
 30
0.0
 11
-3.500000000022406
 21
-4.999999999988105
 31
0.0
  0
LINE
  5
4363
330
1E
100
AcDbEntity
  8
虛線
 62
     6
 48
0.27
100
AcDbLine
 10
3.499999999977593
 20
-4.999999999996248
 30
0.0
 11
3.999999999977081
 21
-5.499999999996887
 31
0.0
  0
LINE
  5
4364
330
1E
100
AcDbEntity
  8
虛線
 62
     6
 48
0.27
100
AcDbLine
 10
-3.500000000008224
 20
7.200000000011826
 30
0.0
 11
3.499999999991775
 21
7.200000000003697
 31
0.0
  0
LINE
  5
4365
330
1E
100
AcDbEntity
  8
虛線
 62
     6
 48
0.27
100
AcDbLine
 10
-5.500000000007826
 20
7.500000000014168
 30
0.0
 11
5.499999999992201
 21
7.500000000001037
 31
0.0
  0
LINE
  5
4366
330
1E
100
AcDbEntity
  8
虛線
 62
     6
 48
0.27
100
AcDbLine
 10
-5.499999999997822
 20
16.10000000001419
 30
0.0
 11
5.50000000000212
 21
16.1000000000014
 31
0.0
  0
LINE
  5
4367
330
1E
100
AcDbEntity
  8
虛線
 62
     6
 48
0.27
100
AcDbLine
 10
-5.500000000007826
 20
7.500000000014168
 30
0.0
 11
-5.499999999997879
 21
16.10000000001419
 31
0.0
  0
LINE
  5
4368
330
1E
100
AcDbEntity
  8
虛線
 62
     1
 48
0.27
100
AcDbLine
 10
-3.800000000007894
 20
7.500000000012121
 30
0.0
 11
-3.500000000008224
 21
7.200000000011769
 31
0.0
  0
LINE
  5
4369
330
1E
100
AcDbEntity
  8
虛線
 62
     6
 48
0.27
100
AcDbLine
 10
-5.499999999997879
 20
16.10000000001419
 30
0.0
 11
-5.67320508074378
 21
16.39999999999604
 31
0.0
  0
LINE
  5
436A
330
1E
100
AcDbEntity
  8
虛線
 62
     6
 48
0.27
100
AcDbLine
 10
5.499999999992173
 20
7.500000000001378
 30
0.0
 11
5.50000000000212
 21
16.1000000000014
 31
0.0
  0
LINE
  5
436B
330
1E
100
AcDbEntity
  8
虛線
 62
     1
 48
0.27
100
AcDbLine
 10
3.499999999991775
 20
7.200000000003697
 30
0.0
 11
3.799999999992127
 21
7.500000000003339
 31
0.0
  0
LINE
  5
436C
330
1E
100
AcDbEntity
  8
虛線
 62
     6
 48
0.27
100
AcDbLine
 10
5.500000000002234
 20
16.1000000000014
 30
0.0
 11
5.673205080753621
 21
16.39999999999103
 31
0.0
  0
LINE
  5
436D
330
1E
100
AcDbEntity
  8
0
 62
     0
 48
0.27
100
AcDbLine
 10
11.49999999998415
 20
0.5986495001002226
 30
0.0
 11
11.49999999997881
 21
-4.000000000005599
 31
0.0
  0
LINE
  5
436E
330
1E
100
AcDbEntity
  8
0
 62
     0
 48
0.27
100
AcDbLine
 10
11.49999999997881
 20
-4.000000000005599
 30
0.0
 11
9.999999999977081
 21
-5.500000000003851
 31
0.0
  0
LINE
  5
436F
330
1E
100
AcDbEntity
  8
0
 48
0.27
100
AcDbLine
 10
11.18233216318661
 20
13.7263658367974
 30
0.0
 11
11.39999999999522
 21
13.50869799998854
 31
0.0
  0
LINE
  5
4370
330
1E
100
AcDbEntity
  8
0
 48
0.27
100
AcDbLine
 10
11.39999999999433
 20
11.48013699998863
 30
0.0
 11
11.19450409087644
 21
11.27464109087081
 31
0.0
  0
LINE
  5
4371
330
1E
100
AcDbEntity
  8
0
 48
0.27
100
AcDbLine
 10
11.39999999999522
 20
13.50869799998854
 30
0.0
 11
11.39999999999433
 21
11.48013699998863
 31
0.0
  0
LINE
  5
4427
330
1E
100
AcDbEntity
  8
0
 48
0.27
100
AcDbLine
 10
116.0079649411722
 20
0.5986495001021411
 30
0.0
 11
108.6090548212379
 21
0.5986495001021411
 31
0.0
  0
LINE
  5
4428
330
1E
100
AcDbEntity
  8
0
 48
0.27
100
AcDbLine
 10
152.4264222687743
 20
-4.000000000003637
 30
0.0
 11
108.5405297296304
 21
-4.000000000003637
 31
0.0
  0
LINE
  5
4429
330
1E
100
AcDbEntity
  8
0
 48
0.27
100
AcDbLine
 10
116.0079649411722
 20
16.49999999999619
 30
0.0
 11
72.42642226877427
 21
16.49999999999621
 31
0.0
  0
LINE
  5
442A
330
1E
100
AcDbEntity
  8
0
 48
0.27
100
AcDbLine
 10
116.0079649411722
 20
4.298649000109385
 30
0.0
 11
108.8950921514646
 21
4.298649000109378
 31
0.0
  0
LINE
  5
442B
330
1E
100
AcDbEntity
  8
0
 48
0.27
100
AcDbLine
 10
116.0079649411722
 20
7.880138099795011
 30
0.0
 11
108.8838897770805
 21
7.880138099795004
 31
0.0
  0
LINE
  5
442C
330
1E
100
AcDbEntity
  8
0
 48
0.27
100
AcDbLine
 10
116.0079649411722
 20
9.125222738373679
 30
0.0
 11
108.4235555706805
 21
9.125222738373679
 31
0.0
  0
LINE
  5
442D
330
1E
100
AcDbEntity
  8
0
 48
0.27
100
AcDbLine
 10
116.0079649411722
 20
11.15926108360642
 30
0.0
 11
108.7274194349288
 21
11.15926108360642
 31
0.0
  0
LINE
  5
442E
330
1E
100
AcDbEntity
  8
0
 48
0.27
100
AcDbLine
 10
116.0079649411722
 20
11.58013699999633
 30
0.0
 11
108.7902938554739
 21
11.58013699999631
 31
0.0
  0
LINE
  5
442F
330
1E
100
AcDbEntity
  8
0
 48
0.27
100
AcDbLine
 10
116.0079649411722
 20
13.40869799999635
 30
0.0
 11
108.1301656672743
 21
13.40869799999635
 31
0.0
  0
LINE
  5
4430
330
1E
100
AcDbEntity
  8
0
 48
0.27
100
AcDbLine
 10
116.0079649411722
 20
13.84251259878234
 30
0.0
 11
108.2948559152463
 21
13.84251259878235
 31
0.0
  0
LINE
  5
4431
330
1E
100
AcDbEntity
  8
0
 48
0.27
100
AcDbLine
 10
116.0079649411722
 20
15.86159610740523
 30
0.0
 11
109.0613662278122
 21
15.86159610740523
 31
0.0
  0
LINE
  5
4432
330
1E
100
AcDbEntity
  8
0
 48
0.27
100
AcDbLine
 10
148.426422268774
 20
-5.500000000003822
 30
0.0
 11
72.42642226877433
 21
-5.500000000003836
 31
0.0
  0
LINE
  5
4433
330
1E
100
AcDbEntity
  8
0
 48
0.27
100
AcDbLine
 10
72.42642226877427
 20
-5.500000000003836
 30
0.0
 11
72.42642226877427
 21
16.49999999999621
 31
0.0
  0
LINE
  5
4442
330
1E
100
AcDbEntity
  8
中心線
 48
0.27
100
AcDbLine
 10
152.4264222687743
 20
-6.000000000003694
 30
0.0
 11
152.4264222687743
 21
1.071822973999303
 31
0.0
  0
LINE
  5
4443
330
1E
100
AcDbEntity
  8
中心線
 48
0.27
100
AcDbLine
 10
233.0264222687743
 20
-6.000000000003694
 30
0.0
 11
233.0264222687743
 21
16.9999999999963
 31
0.0
  0
LINE
  5
4444
330
1E
100
AcDbEntity
  8
0
 48
0.27
100
AcDbLine
 10
253.0264222687743
 20
-5.500000000003851
 30
0.0
 11
253.0264222687744
 21
16.49999999999621
 31
0.0
  0
LINE
  5
4445
330
1E
100
AcDbEntity
  8
0
 48
0.27
100
AcDbLine
 10
253.0264222687743
 20
-5.500000000003851
 30
0.0
 11
253.0264222687744
 21
16.49999999999621
 31
0.0
  0
LINE
  5
4446
330
1E
100
AcDbEntity
  8
0
 48
0.27
100
AcDbLine
 10
253.0264222687744
 20
16.49999999999636
 30
0.0
 11
219.6079649411723
 21
16.49999999999636
 31
0.0
  0
LINE
  5
4447
330
1E
100
AcDbEntity
  8
0
 48
0.27
100
AcDbLine
 10
253.0264222687744
 20
15.8615961074052
 30
0.0
 11
219.6079649411723
 21
15.8615961074052
 31
0.0
  0
LINE
  5
4448
330
1E
100
AcDbEntity
  8
0
 48
0.27
100
AcDbLine
 10
253.0264222687743
 20
13.84251259878232
 30
0.0
 11
219.6079649411723
 21
13.84251259878232
 31
0.0
  0
LINE
  5
4449
330
1E
100
AcDbEntity
  8
0
 48
0.27
100
AcDbLine
 10
253.0264222687743
 20
13.40869799999637
 30
0.0
 11
219.6079649411723
 21
13.40869799999637
 31
0.0
  0
LINE
  5
444A
330
1E
100
AcDbEntity
  8
0
 48
0.27
100
AcDbLine
 10
253.0264222687743
 20
11.15926108360642
 30
0.0
 11
219.6079649411723
 21
11.15926108360641
 31
0.0
  0
LINE
  5
444B
330
1E
100
AcDbEntity
  8
0
 48
0.27
100
AcDbLine
 10
253.0264222687743
 20
11.58013699999634
 30
0.0
 11
219.6079649411723
 21
11.58013699999634
 31
0.0
  0
LINE
  5
444C
330
1E
100
AcDbEntity
  8
0
 48
0.27
100
AcDbLine
 10
253.0264222687743
 20
9.125222738373679
 30
0.0
 11
219.6079649411723
 21
9.125222738373679
 31
0.0
  0
LINE
  5
444D
330
1E
100
AcDbEntity
  8
0
 48
0.27
100
AcDbLine
 10
253.0264222687743
 20
-4.000000000003637
 30
0.0
 11
146.3682635315
 21
-4.000000000003637
 31
0.0
  0
LINE
  5
444E
330
1E
100
AcDbEntity
  8
0
 48
0.27
100
AcDbLine
 10
253.0264222687743
 20
-5.500000000003694
 30
0.0
 11
146.2213264819464
 21
-5.500000000003694
 31
0.0
  0
LINE
  5
444F
330
1E
100
AcDbEntity
  8
0
 48
0.27
100
AcDbLine
 10
253.0264222687743
 20
7.880138099795225
 30
0.0
 11
219.6079649411723
 21
7.880138099795125
 31
0.0
  0
LINE
  5
4450
330
1E
100
AcDbEntity
  8
0
 48
0.27
100
AcDbLine
 10
253.0264222687743
 20
4.298649000109406
 30
0.0
 11
219.6079649411723
 21
4.298649000109396
 31
0.0
  0
LINE
  5
4451
330
1E
100
AcDbEntity
  8
0
 48
0.27
100
AcDbLine
 10
253.0264222687743
 20
0.5986495001021695
 30
0.0
 11
219.6079649411723
 21
0.5986495001021695
 31
0.0
  0
LINE
  5
4452
330
1E
100
AcDbEntity
  8
0
 48
0.27
100
AcDbLine
 10
97.92642226877427
 20
7.499999999996219
 30
0.0
 11
97.92642226877422
 21
16.09999999999624
 31
0.0
  0
LINE
  5
4453
330
1E
100
AcDbEntity
  8
0
 48
0.27
100
AcDbLine
 10
86.92642226877428
 20
7.499999999996219
 30
0.0
 11
86.92642226877422
 21
16.09999999999624
 31
0.0
  0
LINE
  5
4454
330
1E
100
AcDbEntity
  8
中心線
 48
0.27
100
AcDbLine
 10
92.42642226877427
 20
17.49999999999622
 30
0.0
 11
92.42642226877427
 21
-6.00000000000378
 31
0.0
  0
LINE
  5
4455
330
1E
100
AcDbEntity
  8
0
 48
0.27
100
AcDbLine
 10
88.92642226877422
 20
7.199999999996208
 30
0.0
 11
95.92642226877421
 21
7.199999999996208
 31
0.0
  0
LINE
  5
4456
330
1E
100
AcDbEntity
  8
0
 48
0.27
100
AcDbLine
 10
88.92642226877422
 20
-5.000000000003723
 30
0.0
 11
95.92642226877421
 21
-5.000000000003723
 31
0.0
  0
LINE
  5
4457
330
1E
100
AcDbEntity
  8
0
 48
0.27
100
AcDbLine
 10
86.92642226877428
 20
7.499999999996219
 30
0.0
 11
97.92642226877433
 21
7.499999999995878
 31
0.0
  0
LINE
  5
4458
330
1E
100
AcDbEntity
  8
0
 48
0.27
100
AcDbLine
 10
88.92642226877422
 20
-5.000000000003723
 30
0.0
 11
88.92642226877422
 21
7.199999999996151
 31
0.0
  0
LINE
  5
4459
330
1E
100
AcDbEntity
  8
0
 48
0.27
100
AcDbLine
 10
88.42642226877416
 20
-5.50000000000378
 30
0.0
 11
88.92642226877422
 21
-5.000000000003723
 31
0.0
  0
LINE
  5
445A
330
1E
100
AcDbEntity
  8
0
 48
0.27
100
AcDbLine
 10
88.6264222687742
 20
7.499999999996163
 30
0.0
 11
88.92642226877422
 21
7.199999999996151
 31
0.0
  0
LINE
  5
445B
330
1E
100
AcDbEntity
  8
0
 48
0.27
100
AcDbLine
 10
95.92642226877421
 20
-5.000000000003723
 30
0.0
 11
95.92642226877421
 21
7.199999999996208
 31
0.0
  0
LINE
  5
445C
330
1E
100
AcDbEntity
  8
0
 48
0.27
100
AcDbLine
 10
95.92642226877421
 20
-5.000000000003723
 30
0.0
 11
96.42642226877427
 21
-5.50000000000378
 31
0.0
  0
LINE
  5
445D
330
1E
100
AcDbEntity
  8
0
 48
0.27
100
AcDbLine
 10
95.92642226877421
 20
7.199999999996208
 30
0.0
 11
96.22642226877424
 21
7.499999999996219
 31
0.0
  0
LINE
  5
445E
330
1E
100
AcDbEntity
  8
0
 48
0.27
100
AcDbLine
 10
86.92642226877428
 20
16.09999999999624
 30
0.0
 11
97.92642226877422
 21
16.09999999999624
 31
0.0
  0
LINE
  5
445F
330
1E
100
AcDbEntity
  8
0
 48
0.27
100
AcDbLine
 10
86.92642226877428
 20
16.09999999999641
 30
0.0
 11
86.69548216109843
 21
16.49999999999644
 31
0.0
  0
LINE
  5
4460
330
1E
100
AcDbEntity
  8
0
 48
0.27
100
AcDbLine
 10
97.9264222687744
 20
16.09999999999641
 30
0.0
 11
98.1573623764503
 21
16.49999999999644
 31
0.0
  0
LINE
  5
4461
330
1E
100
AcDbEntity
  8
建構線
 48
0.27
100
AcDbLine
 10
109.3037252808991
 20
16.49999999999619
 30
0.0
 11
108.1301656672743
 21
13.40869799999623
 31
0.0
  0
LINE
  5
4462
330
1E
100
AcDbEntity
  8
建構線
 48
0.27
100
AcDbLine
 10
108.1301656672743
 20
13.40869799999623
 30
0.0
 11
108.790293855474
 21
11.58013699999625
 31
0.0
  0
LINE
  5
4463
330
1E
100
AcDbEntity
  8
建構線
 48
0.27
100
AcDbLine
 10
108.790293855474
 20
11.58013699999625
 30
0.0
 11
108.4235555706806
 21
9.125222738373537
 31
0.0
  0
LINE
  5
4464
330
1E
100
AcDbEntity
  8
建構線
 48
0.27
100
AcDbLine
 10
108.4235555706806
 20
9.125222738373537
 30
0.0
 11
109.3770736622863
 21
6.546203599757831
 31
0.0
  0
LINE
  5
4465
330
1E
100
AcDbEntity
  8
建構線
 48
0.27
100
AcDbLine
 10
109.3770736622863
 20
6.546203599757831
 30
0.0
 11
108.2768612226678
 21
1.415742215378912
 31
0.0
  0
LINE
  5
4466
330
1E
100
AcDbEntity
  8
建構線
 48
0.27
100
AcDbLine
 10
108.2768612226678
 20
1.415742215378912
 30
0.0
 11
109.2303781068927
 21
-0.9296121302417361
 31
0.0
  0
LINE
  5
4467
330
1E
100
AcDbEntity
  8
建構線
 48
0.27
100
AcDbLine
 10
109.2303781068927
 20
-0.9296121302417361
 30
0.0
 11
108.2035128412807
 21
-5.500000000003829
 31
0.0
  0
LINE
  5
446E
330
1E
100
AcDbEntity
  8
虛線
 48
0.27
100
AcDbLine
 10
148.9264222687742
 20
-5.000000000003623
 30
0.0
 11
148.9264222687742
 21
-0.0000000000000284
 31
0.0
  0
LINE
  5
446F
330
1E
100
AcDbEntity
  8
虛線
 48
0.27
100
AcDbLine
 10
148.9264222687742
 20
-5.000000000003623
 30
0.0
 11
155.9264222687742
 21
-5.000000000003623
 31
0.0
  0
LINE
  5
4470
330
1E
100
AcDbEntity
  8
虛線
 48
0.27
100
AcDbLine
 10
155.9264222687742
 20
-5.000000000003623
 30
0.0
 11
155.9264222687742
 21
-0.0000000000000284
 31
0.0
  0
LINE
  5
4475
330
1E
100
AcDbEntity
  8
虛線
 48
0.27
100
AcDbLine
 10
148.4264222687742
 20
-5.500000000003637
 30
0.0
 11
148.9264222687742
 21
-5.000000000003581
 31
0.0
  0
LINE
  5
4476
330
1E
100
AcDbEntity
  8
虛線
 48
0.27
100
AcDbLine
 10
155.9264222687742
 20
-5.000000000003581
 30
0.0
 11
156.4264222687743
 21
-5.500000000003637
 31
0.0
  0
LINE
  5
4477
330
1E
100
AcDbEntity
  8
虛線
 48
0.27
100
AcDbLine
 10
236.5264222687742
 20
-5.000000000003637
 30
0.0
 11
236.5264222687742
 21
7.199999999996293
 31
0.0
  0
LINE
  5
4478
330
1E
100
AcDbEntity
  8
虛線
 48
0.27
100
AcDbLine
 10
229.5264222687741
 20
-5.000000000003637
 30
0.0
 11
229.5264222687741
 21
7.199999999996236
 31
0.0
  0
LINE
  5
4479
330
1E
100
AcDbEntity
  8
虛線
 48
0.27
100
AcDbLine
 10
229.5264222687741
 20
7.199999999996293
 30
0.0
 11
236.5264222687742
 21
7.199999999996293
 31
0.0
  0
LINE
  5
447A
330
1E
100
AcDbEntity
  8
虛線
 48
0.27
100
AcDbLine
 10
227.5264222687742
 20
7.499999999996305
 30
0.0
 11
238.5264222687742
 21
7.499999999995964
 31
0.0
  0
LINE
  5
447B
330
1E
100
AcDbEntity
  8
虛線
 48
0.27
100
AcDbLine
 10
229.2264222687741
 20
7.499999999996276
 30
0.0
 11
229.5264222687741
 21
7.199999999996265
 31
0.0
  0
LINE
  5
447C
330
1E
100
AcDbEntity
  8
虛線
 48
0.27
100
AcDbLine
 10
238.5264222687742
 20
7.499999999996305
 30
0.0
 11
238.5264222687742
 21
16.09999999999632
 31
0.0
  0
LINE
  5
447D
330
1E
100
AcDbEntity
  8
虛線
 48
0.27
100
AcDbLine
 10
227.5264222687742
 20
7.499999999996305
 30
0.0
 11
227.5264222687741
 21
16.09999999999632
 31
0.0
  0
LINE
  5
447E
330
1E
100
AcDbEntity
  8
虛線
 48
0.27
100
AcDbLine
 10
229.5264222687741
 20
-5.000000000003637
 30
0.0
 11
236.5264222687742
 21
-5.000000000003637
 31
0.0
  0
LINE
  5
447F
330
1E
100
AcDbEntity
  8
虛線
 48
0.27
100
AcDbLine
 10
227.5264222687741
 20
16.09999999999635
 30
0.0
 11
238.5264222687741
 21
16.09999999999635
 31
0.0
  0
LINE
  5
4480
330
1E
100
AcDbEntity
  8
虛線
 48
0.27
100
AcDbLine
 10
236.5264222687742
 20
7.199999999996322
 30
0.0
 11
236.8264222687742
 21
7.499999999996333
 31
0.0
  0
LINE
  5
4481
330
1E
100
AcDbEntity
  8
虛線
 48
0.27
100
AcDbLine
 10
236.5264222687742
 20
-5.000000000003595
 30
0.0
 11
237.0264222687743
 21
-5.500000000003652
 31
0.0
  0
LINE
  5
4482
330
1E
100
AcDbEntity
  8
虛線
 48
0.27
100
AcDbLine
 10
229.0264222687742
 20
-5.500000000003652
 30
0.0
 11
229.5264222687742
 21
-5.000000000003595
 31
0.0
  0
LINE
  5
4483
330
1E
100
AcDbEntity
  8
虛線
 48
0.27
100
AcDbLine
 10
229.2264222687741
 20
7.499999999996276
 30
0.0
 11
229.5264222687741
 21
7.199999999996265
 31
0.0
  0
LINE
  5
4484
330
1E
100
AcDbEntity
  8
虛線
 48
0.27
100
AcDbLine
 10
227.5264222687741
 20
16.09999999999658
 30
0.0
 11
227.2954821610983
 21
16.49999999999661
 31
0.0
  0
LINE
  5
4485
330
1E
100
AcDbEntity
  8
虛線
 48
0.27
100
AcDbLine
 10
238.5264222687743
 20
16.09999999999658
 30
0.0
 11
238.7573623764502
 21
16.49999999999661
 31
0.0
  0
LINE
  5
4499
330
1E
100
AcDbEntity
  8
0
100
AcDbLine
 10
117.5079649411723
 20
29.49999999999997
 30
0.0
 11
117.5079649411722
 21
-0.0000000000000284
 31
0.0
  0
LINE
  5
449A
330
1E
100
AcDbEntity
  8
0
100
AcDbLine
 10
116.0079649411722
 20
16.72397459621555
 30
0.0
 11
116.0079649411722
 21
0.0
 31
0.0
  0
LINE
  5
449B
330
1E
100
AcDbEntity
  8
中心線
100
AcDbLine
 10
115.7241151448011
 20
2.700000000006099
 30
0.0
 11
121.475752119182
 21
2.700000000006099
 31
0.0
  0
LINE
  5
449C
330
1E
100
AcDbEntity
  8
0
100
AcDbLine
 10
116.623637081814
 20
3.700000000006099
 30
0.0
 11
116.623637081814
 21
1.700000000006099
 31
0.0
  0
LINE
  5
449D
330
1E
100
AcDbEntity
  8
0
100
AcDbLine
 10
116.0079649411722
 20
0.0
 30
0.0
 11
119.0079649411722
 21
0.0
 31
0.0
  0
ARC
  5
449E
330
1E
100
AcDbEntity
  8
0
100
AcDbCircle
 10
117.8434887606664
 20
1.719751638023211
 30
0.0
 40
1.220011576012179
100
AcDbArc
 50
180.9276427879975
 51
254.0369778311712
  0
LINE
  5
449F
330
1E
100
AcDbEntity
  8
0
100
AcDbLine
 10
119.0079649411722
 20
1.499999999983401
 30
0.0
 11
117.5079649411722
 21
1.499999999983401
 31
0.0
  0
ARC
  5
44A0
330
1E
100
AcDbEntity
  8
0
100
AcDbCircle
 10
117.8434887606664
 20
3.680248361988986
 30
0.0
 40
1.220011576012179
100
AcDbArc
 50
105.9630221688287
 51
179.0723572120024
  0
LINE
  5
44A1
330
1E
100
AcDbEntity
  8
0
100
AcDbLine
 10
117.5079649411723
 20
17.59
 30
0.0
 11
116.0079649411722
 21
16.72397459621555
 31
0.0
  0
LINE
  5
44A2
330
1E
100
AcDbEntity
  8
中心線
100
AcDbLine
 10
115.7241151448011
 20
26.00000000000932
 30
0.0
 11
121.4757521191821
 21
26.00000000000932
 31
0.0
  0
LINE
  5
44A3
330
1E
100
AcDbEntity
  8
0
100
AcDbLine
 10
116.623637081814
 20
27.00000000000932
 30
0.0
 11
116.623637081814
 21
25.00000000000932
 31
0.0
  0
ARC
  5
44A4
330
1E
100
AcDbEntity
  8
0
100
AcDbCircle
 10
117.8434887606665
 20
25.01975163802643
 30
0.0
 40
1.220011576012179
100
AcDbArc
 50
180.9276427879975
 51
254.0369778311712
  0
ARC
  5
44A5
330
1E
100
AcDbEntity
  8
0
100
AcDbCircle
 10
117.8434887606665
 20
26.98024836199221
 30
0.0
 40
1.220011576012179
100
AcDbArc
 50
105.9630221688287
 51
179.0723572120024
  0
LINE
  5
44A6
330
1E
100
AcDbEntity
  8
0
100
AcDbLine
 10
119.0079649411722
 20
29.49999999999997
 30
0.0
 11
117.5079649411723
 21
29.49999999999997
 31
0.0
  0
LINE
  5
44A7
330
1E
100
AcDbEntity
  8
0
100
AcDbLine
 10
117.5079649411723
 20
27.99999999999997
 30
0.0
 11
119.0079649411722
 21
27.99999999999997
 31
0.0
  0
LINE
  5
44A8
330
1E
100
AcDbEntity
  8
0
100
AcDbLine
 10
218.1079649411722
 20
29.49999999999996
 30
0.0
 11
218.1079649411723
 21
-0.000000000000032
 31
0.0
  0
LINE
  5
44A9
330
1E
100
AcDbEntity
  8
0
100
AcDbLine
 10
219.6079649411723
 20
16.72397459621555
 30
0.0
 11
219.6079649411723
 21
-0.0000000000000036
 31
0.0
  0
LINE
  5
44AA
330
1E
100
AcDbEntity
  8
中心線
100
AcDbLine
 10
219.8918147375434
 20
2.700000000006092
 30
0.0
 11
214.1401777631624
 21
2.700000000006095
 31
0.0
  0
LINE
  5
44AB
330
1E
100
AcDbEntity
  8
0
100
AcDbLine
 10
218.9922928005306
 20
3.700000000006095
 30
0.0
 11
218.9922928005306
 21
1.700000000006095
 31
0.0
  0
LINE
  5
44AC
330
1E
100
AcDbEntity
  8
0
100
AcDbLine
 10
216.6079649411723
 20
1.499999999983398
 30
0.0
 11
218.1079649411723
 21
1.499999999983398
 31
0.0
  0
LINE
  5
44AD
330
1E
100
AcDbEntity
  8
0
100
AcDbLine
 10
219.6079649411723
 20
-0.0000000000000036
 30
0.0
 11
216.6079649411723
 21
-0.0000000000000036
 31
0.0
  0
ARC
  5
44AE
330
1E
100
AcDbEntity
  8
0
100
AcDbCircle
 10
217.7724411216781
 20
1.719751638023208
 30
0.0
 40
1.220011576012179
100
AcDbArc
 50
285.9630221688287
 51
359.0723572120023
  0
ARC
  5
44AF
330
1E
100
AcDbEntity
  8
0
100
AcDbCircle
 10
217.7724411216781
 20
3.680248361988983
 30
0.0
 40
1.220011576012179
100
AcDbArc
 50
0.9276427879975949
 51
74.03697783117127
  0
LINE
  5
44B0
330
1E
100
AcDbEntity
  8
0
100
AcDbLine
 10
218.1079649411722
 20
17.59
 30
0.0
 11
219.6079649411723
 21
16.72397459621555
 31
0.0
  0
LINE
  5
44B1
330
1E
100
AcDbEntity
  8
中心線
100
AcDbLine
 10
219.8918147375434
 20
26.00000000000932
 30
0.0
 11
214.1401777631624
 21
26.00000000000932
 31
0.0
  0
LINE
  5
44B2
330
1E
100
AcDbEntity
  8
0
100
AcDbLine
 10
218.9922928005305
 20
27.00000000000932
 30
0.0
 11
218.9922928005305
 21
25.00000000000932
 31
0.0
  0
ARC
  5
44B3
330
1E
100
AcDbEntity
  8
0
100
AcDbCircle
 10
217.772441121678
 20
25.01975163802643
 30
0.0
 40
1.220011576012179
100
AcDbArc
 50
285.9630221688287
 51
359.0723572120023
  0
LINE
  5
44B4
330
1E
100
AcDbEntity
  8
0
100
AcDbLine
 10
216.6079649411723
 20
29.49999999999997
 30
0.0
 11
218.1079649411722
 21
29.49999999999997
 31
0.0
  0
LINE
  5
44B5
330
1E
100
AcDbEntity
  8
0
100
AcDbLine
 10
218.1079649411722
 20
27.99999999999997
 30
0.0
 11
216.6079649411723
 21
27.99999999999997
 31
0.0
  0
ARC
  5
44B6
330
1E
100
AcDbEntity
  8
0
100
AcDbCircle
 10
217.772441121678
 20
26.98024836199221
 30
0.0
 40
1.220011576012179
100
AcDbArc
 50
0.9276427879975949
 51
74.03697783117127
  0
LINE
  5
45BB
330
1E
100
AcDbEntity
  8
中心線
 48
0.27
100
AcDbLine
 10
102.507966700189
 20
24.49999999999333
 30
0.0
 11
116.7397286053947
 21
24.49999999999333
 31
0.0
  0
ARC
  5
45BC
330
1E
100
AcDbEntity
  8
0
 48
0.27
100
AcDbCircle
 10
116.6995819411721
 20
22.50001933109337
 30
0.0
 40
2.954110999999976
100
AcDbArc
 50
137.3885930045003
 51
222.6114069976005
  0
ARC
  5
45BD
330
1E
100
AcDbEntity
  8
0
 48
0.27
100
AcDbCircle
 10
116.6995829411722
 20
26.50001933109326
 30
0.0
 40
2.954111999999976
100
AcDbArc
 50
137.388598002199
 51
222.6114019998987
  0
LWPOLYLINE
  5
45BE
330
1E
100
AcDbEntity
  8
0
 48
0.27
100
AcDbPolyline
 90
       31
 70
     0
 43
0.0
 10
106.4167539411723
 20
24.50001933109329
 10
106.3839359411722
 20
24.7102743310933
 10
106.3397889411722
 20
24.81576133109329
 10
106.2767559411722
 20
24.91354033109329
 10
106.1972799411722
 20
24.99765333109329
 10
106.1057889411722
 20
25.0635263310933
 10
106.0078689411723
 20
25.10880733109324
 10
105.8752329411722
 20
25.13774833109327
 10
105.7522239411722
 20
25.13508933109327
 10
105.6452999411722
 20
25.10958333109327
 10
105.5290949411722
 20
25.05381533109327
 10
105.4185249411722
 20
24.96432633109331
 10
105.3302949411723
 20
24.8497763310933
 10
105.2736609411723
 20
24.72993733109334
 10
105.2458099411723
 20
24.62628133109328
 10
105.2341889411722
 20
24.50001933109329
 10
105.2670069411722
 20
24.28976433109333
 10
105.3111549411722
 20
24.18427633109329
 10
105.3741869411722
 20
24.08649833109329
 10
105.4536629411723
 20
24.00238533109328
 10
105.5451539411722
 20
23.93651233109327
 10
105.6430739411722
 20
23.89123133109329
 10
105.7757099411723
 20
23.86228933109325
 10
105.8987189411723
 20
23.8649493310933
 10
106.0056429411722
 20
23.89045433109331
 10
106.1218479411722
 20
23.94622233109331
 10
106.2324179411723
 20
24.03571233109327
 10
106.3206479411722
 20
24.15026133109328
 10
106.3772819411722
 20
24.27010033109329
 10
106.4051339411723
 20
24.37375733109335
 10
106.4167539411723
 20
24.50001933109329
  0
ARC
  5
45BF
330
1E
100
AcDbEntity
  8
0
 48
0.27
100
AcDbCircle
 10
109.9971309411722
 20
24.50001933109332
 30
0.0
 40
3.999999999999968
100
AcDbArc
 50
90.0
 51
131.4096219995999
  0
ARC
  5
45C0
330
1E
100
AcDbEntity
  8
0
 48
0.27
100
AcDbCircle
 10
109.9971309411722
 20
24.50001933109332
 30
0.0
 40
3.999999999999968
100
AcDbArc
 50
228.5903779973006
 51
270.0
  0
LINE
  5
45C1
330
1E
100
AcDbEntity
  8
0
 48
0.27
100
AcDbLine
 10
117.5079649411723
 20
28.50001933109332
 30
0.0
 11
109.9971309411722
 21
28.50001933109332
 31
0.0
  0
LINE
  5
45C2
330
1E
100
AcDbEntity
  8
0
 48
0.27
100
AcDbLine
 10
114.5254669411722
 20
24.50001933109332
 30
0.0
 11
116.7397195027445
 21
24.50001933109332
 31
0.0
  0
LINE
  5
45C3
330
1E
100
AcDbEntity
  8
0
 48
0.27
100
AcDbLine
 10
109.9971309411722
 20
20.50001933109331
 30
0.0
 11
117.5079649411723
 21
20.50001933109331
 31
0.0
  0
LINE
  5
45C4
330
1E
100
AcDbEntity
  8
0
 48
0.27
100
AcDbLine
 10
113.7454709411722
 20
28.50001933109332
 30
0.0
 11
113.7454709411722
 21
20.50001933109331
 31
0.0
  0
LINE
  5
45C5
330
1E
100
AcDbEntity
  8
0
 48
0.27
100
AcDbLine
 10
106.4696939411722
 20
27.50001933109329
 30
0.0
 11
110.3694699411722
 21
27.50001933109329
 31
0.0
  0
LINE
  5
45C6
330
1E
100
AcDbEntity
  8
0
 48
0.27
100
AcDbLine
 10
106.2233009411722
 20
21.96194633109332
 30
0.0
 11
106.4696939411722
 21
21.50001933109334
 31
0.0
  0
LINE
  5
45C7
330
1E
100
AcDbEntity
  8
0
 48
0.27
100
AcDbLine
 10
106.4696939411722
 20
27.50001933109329
 30
0.0
 11
106.2233009411722
 21
27.03809233109331
 31
0.0
  0
LINE
  5
45C8
330
1E
100
AcDbEntity
  8
0
 48
0.27
100
AcDbLine
 10
111.2703119411722
 20
24.50001933109332
 30
0.0
 11
111.9696759411722
 21
24.50001933109332
 31
0.0
  0
LINE
  5
45C9
330
1E
100
AcDbEntity
  8
0
 48
0.27
100
AcDbLine
 10
110.3694699411722
 20
27.50001933109329
 30
0.0
 11
111.9696759411722
 21
24.50001933109332
 31
0.0
  0
LINE
  5
45CA
330
1E
100
AcDbEntity
  8
0
 48
0.27
100
AcDbLine
 10
110.3694699411722
 20
21.50001933109334
 30
0.0
 11
106.4696939411722
 21
21.50001933109334
 31
0.0
  0
LINE
  5
45CB
330
1E
100
AcDbEntity
  8
0
 48
0.27
100
AcDbLine
 10
111.9696759411722
 20
24.50001933109332
 30
0.0
 11
110.3694699411722
 21
21.50001933109334
 31
0.0
  0
LINE
  5
45CC
330
1E
100
AcDbEntity
  8
0
 48
0.27
100
AcDbLine
 10
106.5907729411722
 20
27.0295533310933
 30
0.0
 11
107.0092399411722
 21
27.27165733109329
 31
0.0
  0
LINE
  5
45CD
330
1E
100
AcDbEntity
  8
0
 48
0.27
100
AcDbLine
 10
106.5907729411722
 20
21.97048433109336
 30
0.0
 11
107.0092399411722
 21
21.72838033109332
 31
0.0
  0
LINE
  5
45CE
330
1E
100
AcDbEntity
  8
0
 48
0.27
100
AcDbLine
 10
107.0092399411722
 20
27.27165733109329
 30
0.0
 11
107.5291799411722
 21
27.44237533109325
 31
0.0
  0
LINE
  5
45CF
330
1E
100
AcDbEntity
  8
0
 48
0.27
100
AcDbLine
 10
107.0092399411722
 20
21.72838033109332
 30
0.0
 11
107.5291799411722
 21
21.55766333109338
 31
0.0
  0
LINE
  5
45D0
330
1E
100
AcDbEntity
  8
0
 48
0.27
100
AcDbLine
 10
107.5291799411722
 20
27.44237533109325
 30
0.0
 11
108.0698999411722
 21
27.50001933109329
 31
0.0
  0
LINE
  5
45D1
330
1E
100
AcDbEntity
  8
0
 48
0.27
100
AcDbLine
 10
107.5291799411722
 20
21.55766333109338
 30
0.0
 11
108.0698999411722
 21
21.50001933109334
 31
0.0
  0
LINE
  5
45D2
330
1E
100
AcDbEntity
  8
0
 48
0.27
100
AcDbLine
 10
108.0698999411722
 20
27.50001933109329
 30
0.0
 11
108.6106199411722
 21
27.44237533109325
 31
0.0
  0
LINE
  5
45D3
330
1E
100
AcDbEntity
  8
0
 48
0.27
100
AcDbLine
 10
108.0698999411722
 20
21.50001933109334
 30
0.0
 11
108.6106199411722
 21
21.55766333109338
 31
0.0
  0
LINE
  5
45D4
330
1E
100
AcDbEntity
  8
0
 48
0.27
100
AcDbLine
 10
108.6106199411722
 20
27.44237533109325
 30
0.0
 11
109.1305599411722
 21
27.27165733109329
 31
0.0
  0
LINE
  5
45D5
330
1E
100
AcDbEntity
  8
0
 48
0.27
100
AcDbLine
 10
108.6106199411722
 20
21.55766333109338
 30
0.0
 11
109.1305599411722
 21
21.72838033109332
 31
0.0
  0
LINE
  5
45D6
330
1E
100
AcDbEntity
  8
0
 48
0.27
100
AcDbLine
 10
109.1305599411722
 20
27.27165733109329
 30
0.0
 11
109.6097399411722
 21
26.99442833109331
 31
0.0
  0
LINE
  5
45D7
330
1E
100
AcDbEntity
  8
0
 48
0.27
100
AcDbLine
 10
109.1305599411722
 20
21.72838033109332
 30
0.0
 11
109.6097399411722
 21
22.00561033109333
 31
0.0
  0
LINE
  5
45D8
330
1E
100
AcDbEntity
  8
0
 48
0.27
100
AcDbLine
 10
109.6097399411722
 20
26.99442833109331
 30
0.0
 11
110.0297439411722
 21
26.62133933109331
 31
0.0
  0
LINE
  5
45D9
330
1E
100
AcDbEntity
  8
0
 48
0.27
100
AcDbLine
 10
109.6097399411722
 20
22.00561033109333
 30
0.0
 11
110.0297439411722
 21
22.37869833109329
 31
0.0
  0
LINE
  5
45DA
330
1E
100
AcDbEntity
  8
0
 48
0.27
100
AcDbLine
 10
109.6701059411722
 20
27.50001933109329
 30
0.0
 11
111.2703119411722
 21
24.50001933109332
 31
0.0
  0
LINE
  5
45DB
330
1E
100
AcDbEntity
  8
0
 48
0.27
100
AcDbLine
 10
111.2703119411722
 20
24.50001933109332
 30
0.0
 11
109.6701059411722
 21
21.50001933109334
 31
0.0
  0
LINE
  5
45DC
330
1E
100
AcDbEntity
  8
0
 48
0.27
100
AcDbLine
 10
110.0297439411722
 20
26.62133933109331
 30
0.0
 11
110.3744329411722
 21
26.16672933109331
 31
0.0
  0
LINE
  5
45DD
330
1E
100
AcDbEntity
  8
0
 48
0.27
100
AcDbLine
 10
110.3744329411722
 20
22.83330833109329
 30
0.0
 11
110.0297439411722
 21
22.37869833109329
 31
0.0
  0
LINE
  5
45DE
330
1E
100
AcDbEntity
  8
0
 48
0.27
100
AcDbLine
 10
110.3744329411722
 20
26.16672933109331
 30
0.0
 11
110.6305599411722
 21
25.6480693310933
 31
0.0
  0
LINE
  5
45DF
330
1E
100
AcDbEntity
  8
0
 48
0.27
100
AcDbLine
 10
110.6305599411722
 20
23.35196833109336
 30
0.0
 11
110.3744329411722
 21
22.83330833109329
 31
0.0
  0
LINE
  5
45E0
330
1E
100
AcDbEntity
  8
0
 48
0.27
100
AcDbLine
 10
110.6305599411722
 20
25.6480693310933
 30
0.0
 11
110.7882819411722
 21
25.08529033109335
 31
0.0
  0
LINE
  5
45E1
330
1E
100
AcDbEntity
  8
0
 48
0.27
100
AcDbLine
 10
110.7882819411722
 20
23.91474833109328
 30
0.0
 11
110.6305599411722
 21
23.35196833109336
 31
0.0
  0
LINE
  5
45E2
330
1E
100
AcDbEntity
  8
0
 48
0.27
100
AcDbLine
 10
110.7882819411722
 20
25.08529033109335
 30
0.0
 11
110.8415379411722
 21
24.50001933109332
 31
0.0
  0
LINE
  5
45E3
330
1E
100
AcDbEntity
  8
0
 48
0.27
100
AcDbLine
 10
110.8415379411722
 20
24.50001933109332
 30
0.0
 11
110.7882819411722
 21
23.91474833109328
 31
0.0
  0
LINE
  5
45E4
330
1E
100
AcDbEntity
  8
0
 48
0.27
100
AcDbLine
 10
105.1660029411723
 20
26.14024633109327
 30
0.0
 11
105.1689739411723
 21
26.13863133109331
 31
0.0
  0
LINE
  5
45E5
330
1E
100
AcDbEntity
  8
0
 48
0.27
100
AcDbLine
 10
105.1660029411723
 20
22.85979133109333
 30
0.0
 11
105.1689739411723
 21
22.86140733109332
 31
0.0
  0
LINE
  5
45E6
330
1E
100
AcDbEntity
  8
0
 48
0.27
100
AcDbLine
 10
104.0532929411723
 20
24.99816133109332
 30
0.0
 11
104.0079649411723
 21
24.50001933109332
 31
0.0
  0
LINE
  5
45E7
330
1E
100
AcDbEntity
  8
0
 48
0.27
100
AcDbLine
 10
104.1875349411722
 20
25.47715933109331
 30
0.0
 11
104.0532929411723
 21
24.99816133109332
 31
0.0
  0
LINE
  5
45E8
330
1E
100
AcDbEntity
  8
0
 48
0.27
100
AcDbLine
 10
104.0079649411723
 20
24.50001933109332
 30
0.0
 11
104.0532929411723
 21
24.00187733109332
 31
0.0
  0
LINE
  5
45E9
330
1E
100
AcDbEntity
  8
0
 48
0.27
100
AcDbLine
 10
104.4055319411723
 20
25.91860733109331
 30
0.0
 11
104.1875349411722
 21
25.47715933109331
 31
0.0
  0
LINE
  5
45EA
330
1E
100
AcDbEntity
  8
0
 48
0.27
100
AcDbLine
 10
104.0532929411723
 20
24.00187733109332
 30
0.0
 11
104.1875349411722
 21
23.5228783310933
 31
0.0
  0
LINE
  5
45EB
330
1E
100
AcDbEntity
  8
0
 48
0.27
100
AcDbLine
 10
104.6989079411723
 20
26.30553933109335
 30
0.0
 11
104.4055319411723
 21
25.91860733109331
 31
0.0
  0
LINE
  5
45EC
330
1E
100
AcDbEntity
  8
0
 48
0.27
100
AcDbLine
 10
104.1875349411722
 20
23.5228783310933
 30
0.0
 11
104.4055319411723
 21
23.08143133109332
 31
0.0
  0
LINE
  5
45ED
330
1E
100
AcDbEntity
  8
0
 48
0.27
100
AcDbLine
 10
104.6989079411723
 20
26.30553933109335
 30
0.0
 11
105.0563859411723
 21
26.62308633109331
 31
0.0
  0
LINE
  5
45EE
330
1E
100
AcDbEntity
  8
0
 48
0.27
100
AcDbLine
 10
104.4055319411723
 20
23.08143133109332
 30
0.0
 11
104.6989079411723
 21
22.69449933109329
 31
0.0
  0
LINE
  5
45EF
330
1E
100
AcDbEntity
  8
0
 48
0.27
100
AcDbLine
 10
104.2019959411722
 20
24.84955533109332
 30
0.0
 11
104.1701899411723
 21
24.50001933109332
 31
0.0
  0
LINE
  5
45F0
330
1E
100
AcDbEntity
  8
0
 48
0.27
100
AcDbLine
 10
104.2961909411723
 20
25.18565933109332
 30
0.0
 11
104.2019959411722
 21
24.84955533109332
 31
0.0
  0
LINE
  5
45F1
330
1E
100
AcDbEntity
  8
0
 48
0.27
100
AcDbLine
 10
104.1701899411723
 20
24.50001933109332
 30
0.0
 11
104.2019959411722
 21
24.15048333109332
 31
0.0
  0
LINE
  5
45F2
330
1E
100
AcDbEntity
  8
0
 48
0.27
100
AcDbLine
 10
104.4491549411723
 20
25.49541433109329
 30
0.0
 11
104.2961909411723
 21
25.18565933109332
 31
0.0
  0
LINE
  5
45F3
330
1E
100
AcDbEntity
  8
0
 48
0.27
100
AcDbLine
 10
104.2019959411722
 20
24.15048333109332
 30
0.0
 11
104.2961909411723
 21
23.81437933109331
 31
0.0
  0
LINE
  5
45F4
330
1E
100
AcDbEntity
  8
0
 48
0.27
100
AcDbLine
 10
105.0563859411723
 20
26.62308633109331
 30
0.0
 11
105.4642309411722
 21
26.85904533109329
 31
0.0
  0
LINE
  5
45F5
330
1E
100
AcDbEntity
  8
0
 48
0.27
100
AcDbLine
 10
104.6989079411723
 20
22.69449933109329
 30
0.0
 11
105.0563859411723
 21
22.37695233109332
 31
0.0
  0
LINE
  5
45F6
330
1E
100
AcDbEntity
  8
0
 48
0.27
100
AcDbLine
 10
104.6550109411723
 20
25.76691633109332
 30
0.0
 11
104.4491549411723
 21
25.49541433109329
 31
0.0
  0
LINE
  5
45F7
330
1E
100
AcDbEntity
  8
0
 48
0.27
100
AcDbLine
 10
104.2961909411723
 20
23.81437933109331
 30
0.0
 11
104.4491549411723
 21
23.50462433109334
 31
0.0
  0
LINE
  5
45F8
330
1E
100
AcDbEntity
  8
0
 48
0.27
100
AcDbLine
 10
105.4642309411722
 20
26.85904533109329
 30
0.0
 11
105.9067679411723
 21
27.00434733109325
 31
0.0
  0
LINE
  5
45F9
330
1E
100
AcDbEntity
  8
0
 48
0.27
100
AcDbLine
 10
105.0563859411723
 20
22.37695233109332
 30
0.0
 11
105.4642309411722
 21
22.14099333109332
 31
0.0
  0
LINE
  5
45FA
330
1E
100
AcDbEntity
  8
0
 48
0.27
100
AcDbLine
 10
104.6550109411723
 20
25.76691633109332
 30
0.0
 11
104.9058459411723
 21
25.98973333109328
 31
0.0
  0
LINE
  5
45FB
330
1E
100
AcDbEntity
  8
0
 48
0.27
100
AcDbLine
 10
104.4491549411723
 20
23.50462433109334
 30
0.0
 11
104.6550109411723
 21
23.23312133109337
 31
0.0
  0
LINE
  5
45FC
330
1E
100
AcDbEntity
  8
0
 48
0.27
100
AcDbLine
 10
105.9067679411723
 20
27.00434733109325
 30
0.0
 11
106.3669909411723
 21
27.05341033109329
 31
0.0
  0
LINE
  5
45FD
330
1E
100
AcDbEntity
  8
0
 48
0.27
100
AcDbLine
 10
105.4642309411722
 20
22.14099333109332
 30
0.0
 11
105.9067679411723
 21
21.9956903310933
 31
0.0
  0
LINE
  5
45FE
330
1E
100
AcDbEntity
  8
0
 48
0.27
100
AcDbLine
 10
104.9058459411723
 20
25.98973333109328
 30
0.0
 11
105.1920229411722
 21
26.15530033109326
 31
0.0
  0
LINE
  5
45FF
330
1E
100
AcDbEntity
  8
0
 48
0.27
100
AcDbLine
 10
104.6550109411723
 20
23.23312133109337
 30
0.0
 11
104.9058459411723
 21
23.01030533109335
 31
0.0
  0
LINE
  5
4600
330
1E
100
AcDbEntity
  8
0
 48
0.27
100
AcDbLine
 10
106.9716499411722
 20
26.97700033109328
 30
0.0
 11
107.4093539411723
 21
26.83328433109327
 31
0.0
  0
LINE
  5
4601
330
1E
100
AcDbEntity
  8
0
 48
0.27
100
AcDbLine
 10
105.1920229411722
 20
26.15530033109326
 30
0.0
 11
105.5025419411723
 21
26.25725633109329
 31
0.0
  0
LINE
  5
4602
330
1E
100
AcDbEntity
  8
0
 48
0.27
100
AcDbLine
 10
104.9058459411723
 20
23.01030533109335
 30
0.0
 11
105.1920229411722
 21
22.84473733109334
 31
0.0
  0
LINE
  5
4603
330
1E
100
AcDbEntity
  8
0
 48
0.27
100
AcDbLine
 10
106.8272139411722
 20
27.00434733109325
 30
0.0
 11
106.9716499411722
 21
26.97700033109328
 31
0.0
  0
LINE
  5
4604
330
1E
100
AcDbEntity
  8
0
 48
0.27
100
AcDbLine
 10
106.3669909411723
 20
27.05341033109329
 30
0.0
 11
106.8272139411722
 21
27.00434733109325
 31
0.0
  0
LINE
  5
4605
330
1E
100
AcDbEntity
  8
0
 48
0.27
100
AcDbLine
 10
105.9067679411723
 20
21.9956903310933
 30
0.0
 11
106.3669909411723
 21
21.94662833109334
 31
0.0
  0
LINE
  5
4606
330
1E
100
AcDbEntity
  8
0
 48
0.27
100
AcDbLine
 10
107.4093539411723
 20
26.83328433109327
 30
0.0
 11
107.8127449411722
 21
26.59990233109329
 31
0.0
  0
LINE
  5
4607
330
1E
100
AcDbEntity
  8
0
 48
0.27
100
AcDbLine
 10
106.9716499411722
 20
22.02303833109335
 30
0.0
 11
107.4093539411723
 21
22.16675433109336
 31
0.0
  0
LINE
  5
4608
330
1E
100
AcDbEntity
  8
0
 48
0.27
100
AcDbLine
 10
107.8127449411722
 20
26.59990233109329
 30
0.0
 11
108.1663199411722
 21
26.2858233310933
 31
0.0
  0
LINE
  5
4609
330
1E
100
AcDbEntity
  8
0
 48
0.27
100
AcDbLine
 10
107.4093539411723
 20
22.16675433109336
 30
0.0
 11
107.8127449411722
 21
22.40013633109334
 31
0.0
  0
LINE
  5
460A
330
1E
100
AcDbEntity
  8
0
 48
0.27
100
AcDbLine
 10
105.5025419411723
 20
26.25725633109329
 30
0.0
 11
105.8254719411722
 21
26.29168233109332
 31
0.0
  0
LINE
  5
460B
330
1E
100
AcDbEntity
  8
0
 48
0.27
100
AcDbLine
 10
105.1920229411722
 20
22.84473733109334
 30
0.0
 11
105.5025419411723
 21
22.74278133109331
 31
0.0
  0
LINE
  5
460C
330
1E
100
AcDbEntity
  8
0
 48
0.27
100
AcDbLine
 10
106.8272139411722
 20
27.00434733109325
 30
0.0
 11
107.2697509411722
 21
26.85904533109329
 31
0.0
  0
LINE
  5
460D
330
1E
100
AcDbEntity
  8
0
 48
0.27
100
AcDbLine
 10
106.8272139411722
 20
21.9956903310933
 30
0.0
 11
106.9716499411722
 21
22.02303833109335
 31
0.0
  0
LINE
  5
460E
330
1E
100
AcDbEntity
  8
0
 48
0.27
100
AcDbLine
 10
106.3669909411723
 20
21.94662833109334
 30
0.0
 11
106.8272139411722
 21
21.9956903310933
 31
0.0
  0
LINE
  5
460F
330
1E
100
AcDbEntity
  8
0
 48
0.27
100
AcDbLine
 10
108.1663199411722
 20
26.2858233310933
 30
0.0
 11
108.4564909411722
 21
25.90311633109329
 31
0.0
  0
LINE
  5
4610
330
1E
100
AcDbEntity
  8
0
 48
0.27
100
AcDbLine
 10
107.8127449411722
 20
22.40013633109334
 30
0.0
 11
108.1663199411722
 21
22.7142153310933
 31
0.0
  0
LINE
  5
4611
330
1E
100
AcDbEntity
  8
0
 48
0.27
100
AcDbLine
 10
105.8254719411722
 20
26.29168233109332
 30
0.0
 11
106.1484009411722
 21
26.25725633109329
 31
0.0
  0
LINE
  5
4612
330
1E
100
AcDbEntity
  8
0
 48
0.27
100
AcDbLine
 10
105.5025419411723
 20
22.74278133109331
 30
0.0
 11
105.8254719411722
 21
22.70835533109335
 31
0.0
  0
LINE
  5
4613
330
1E
100
AcDbEntity
  8
0
 48
0.27
100
AcDbLine
 10
107.2697509411722
 20
26.85904533109329
 30
0.0
 11
107.6775949411722
 21
26.62308633109331
 31
0.0
  0
LINE
  5
4614
330
1E
100
AcDbEntity
  8
0
 48
0.27
100
AcDbLine
 10
106.8272139411722
 20
21.9956903310933
 30
0.0
 11
107.2697509411722
 21
22.14099333109332
 31
0.0
  0
LINE
  5
4615
330
1E
100
AcDbEntity
  8
0
 48
0.27
100
AcDbLine
 10
108.4564909411722
 20
25.90311633109329
 30
0.0
 11
108.6721079411722
 21
25.4664893310933
 31
0.0
  0
LINE
  5
4616
330
1E
100
AcDbEntity
  8
0
 48
0.27
100
AcDbLine
 10
108.4564909411722
 20
23.09692233109334
 30
0.0
 11
108.1663199411722
 21
22.7142153310933
 31
0.0
  0
LINE
  5
4617
330
1E
100
AcDbEntity
  8
0
 48
0.27
100
AcDbLine
 10
108.6721079411722
 20
25.4664893310933
 30
0.0
 11
108.8048839411722
 21
24.99272133109332
 31
0.0
  0
LINE
  5
4618
330
1E
100
AcDbEntity
  8
0
 48
0.27
100
AcDbLine
 10
108.6721079411722
 20
23.53354933109333
 30
0.0
 11
108.4564909411722
 21
23.09692233109334
 31
0.0
  0
LINE
  5
4619
330
1E
100
AcDbEntity
  8
0
 48
0.27
100
AcDbLine
 10
107.6775949411722
 20
26.62308633109331
 30
0.0
 11
108.0350739411722
 21
26.30553933109335
 31
0.0
  0
LINE
  5
461A
330
1E
100
AcDbEntity
  8
0
 48
0.27
100
AcDbLine
 10
107.2697509411722
 20
22.14099333109332
 30
0.0
 11
107.6775949411722
 21
22.37695233109332
 31
0.0
  0
LINE
  5
461B
330
1E
100
AcDbEntity
  8
0
 48
0.27
100
AcDbLine
 10
108.8048839411722
 20
24.99272133109332
 30
0.0
 11
108.8497169411722
 21
24.50001933109332
 31
0.0
  0
LINE
  5
461C
330
1E
100
AcDbEntity
  8
0
 48
0.27
100
AcDbLine
 10
108.8048839411722
 20
24.00731733109331
 30
0.0
 11
108.6721079411722
 21
23.53354933109333
 31
0.0
  0
LINE
  5
461D
330
1E
100
AcDbEntity
  8
0
 48
0.27
100
AcDbLine
 10
106.1484009411722
 20
26.25725633109329
 30
0.0
 11
106.4589199411722
 21
26.15530033109326
 31
0.0
  0
LINE
  5
461E
330
1E
100
AcDbEntity
  8
0
 48
0.27
100
AcDbLine
 10
105.8254719411722
 20
22.70835533109335
 30
0.0
 11
106.1484009411722
 21
22.74278133109331
 31
0.0
  0
LINE
  5
461F
330
1E
100
AcDbEntity
  8
0
 48
0.27
100
AcDbLine
 10
108.8497169411722
 20
24.50001933109332
 30
0.0
 11
108.8048839411722
 21
24.00731733109331
 31
0.0
  0
LINE
  5
4620
330
1E
100
AcDbEntity
  8
0
 48
0.27
100
AcDbLine
 10
108.0350739411722
 20
26.30553933109335
 30
0.0
 11
108.3284489411722
 21
25.91860733109331
 31
0.0
  0
LINE
  5
4621
330
1E
100
AcDbEntity
  8
0
 48
0.27
100
AcDbLine
 10
107.6775949411722
 20
22.37695233109332
 30
0.0
 11
108.0350739411722
 21
22.69449933109329
 31
0.0
  0
LINE
  5
4622
330
1E
100
AcDbEntity
  8
0
 48
0.27
100
AcDbLine
 10
106.4589199411722
 20
26.15530033109326
 30
0.0
 11
106.7450969411722
 21
25.98973333109328
 31
0.0
  0
LINE
  5
4623
330
1E
100
AcDbEntity
  8
0
 48
0.27
100
AcDbLine
 10
106.1484009411722
 20
22.74278133109331
 30
0.0
 11
106.4589199411722
 21
22.84473733109334
 31
0.0
  0
LINE
  5
4624
330
1E
100
AcDbEntity
  8
0
 48
0.27
100
AcDbLine
 10
108.3284489411722
 20
25.91860733109331
 30
0.0
 11
108.5464459411722
 21
25.47715933109331
 31
0.0
  0
LINE
  5
4625
330
1E
100
AcDbEntity
  8
0
 48
0.27
100
AcDbLine
 10
108.3284489411722
 20
23.08143133109332
 30
0.0
 11
108.0350739411722
 21
22.69449933109329
 31
0.0
  0
LINE
  5
4626
330
1E
100
AcDbEntity
  8
0
 48
0.27
100
AcDbLine
 10
108.5464459411722
 20
25.47715933109331
 30
0.0
 11
108.6806889411722
 21
24.99816133109332
 31
0.0
  0
LINE
  5
4627
330
1E
100
AcDbEntity
  8
0
 48
0.27
100
AcDbLine
 10
108.5464459411722
 20
23.5228783310933
 30
0.0
 11
108.3284489411722
 21
23.08143133109332
 31
0.0
  0
LINE
  5
4628
330
1E
100
AcDbEntity
  8
0
 48
0.27
100
AcDbLine
 10
106.7450969411722
 20
25.98973333109328
 30
0.0
 11
106.9959319411722
 21
25.76691633109332
 31
0.0
  0
LINE
  5
4629
330
1E
100
AcDbEntity
  8
0
 48
0.27
100
AcDbLine
 10
106.4589199411722
 20
22.84473733109334
 30
0.0
 11
106.7450969411722
 21
23.01030533109335
 31
0.0
  0
LINE
  5
462A
330
1E
100
AcDbEntity
  8
0
 48
0.27
100
AcDbLine
 10
108.6806889411722
 20
24.99816133109332
 30
0.0
 11
108.7260169411722
 21
24.50001933109332
 31
0.0
  0
LINE
  5
462B
330
1E
100
AcDbEntity
  8
0
 48
0.27
100
AcDbLine
 10
108.6806889411722
 20
24.00187733109332
 30
0.0
 11
108.5464459411722
 21
23.5228783310933
 31
0.0
  0
LINE
  5
462C
330
1E
100
AcDbEntity
  8
0
 48
0.27
100
AcDbLine
 10
108.7260169411722
 20
24.50001933109332
 30
0.0
 11
108.6806889411722
 21
24.00187733109332
 31
0.0
  0
LINE
  5
462D
330
1E
100
AcDbEntity
  8
0
 48
0.27
100
AcDbLine
 10
106.9959319411722
 20
25.76691633109332
 30
0.0
 11
107.2017879411722
 21
25.49541433109329
 31
0.0
  0
LINE
  5
462E
330
1E
100
AcDbEntity
  8
0
 48
0.27
100
AcDbLine
 10
106.7450969411722
 20
23.01030533109335
 30
0.0
 11
106.9959319411722
 21
23.23312133109337
 31
0.0
  0
LINE
  5
462F
330
1E
100
AcDbEntity
  8
0
 48
0.27
100
AcDbLine
 10
107.2017879411722
 20
25.49541433109329
 30
0.0
 11
107.3547519411722
 21
25.18565933109332
 31
0.0
  0
LINE
  5
4630
330
1E
100
AcDbEntity
  8
0
 48
0.27
100
AcDbLine
 10
107.2017879411722
 20
23.50462433109334
 30
0.0
 11
106.9959319411722
 21
23.23312133109337
 31
0.0
  0
LINE
  5
4631
330
1E
100
AcDbEntity
  8
0
 48
0.27
100
AcDbLine
 10
107.3547519411722
 20
25.18565933109332
 30
0.0
 11
107.4489469411722
 21
24.84955533109332
 31
0.0
  0
LINE
  5
4632
330
1E
100
AcDbEntity
  8
0
 48
0.27
100
AcDbLine
 10
107.3547519411722
 20
23.81437933109331
 30
0.0
 11
107.2017879411722
 21
23.50462433109334
 31
0.0
  0
LINE
  5
4633
330
1E
100
AcDbEntity
  8
0
 48
0.27
100
AcDbLine
 10
107.4489469411722
 20
24.84955533109332
 30
0.0
 11
107.4807529411722
 21
24.50001933109332
 31
0.0
  0
LINE
  5
4634
330
1E
100
AcDbEntity
  8
0
 48
0.27
100
AcDbLine
 10
107.4489469411722
 20
24.15048333109332
 30
0.0
 11
107.3547519411722
 21
23.81437933109331
 31
0.0
  0
LINE
  5
4635
330
1E
100
AcDbEntity
  8
0
 48
0.27
100
AcDbLine
 10
107.4807529411722
 20
24.50001933109332
 30
0.0
 11
107.4489469411722
 21
24.15048333109332
 31
0.0
  0
POINT
  5
4636
330
1E
100
AcDbEntity
  8
0
100
AcDbPoint
 10
104.0079649411723
 20
24.50001933109332
 30
0.0
1001
pntflag
1000
endpoint
  0
ARC
  5
4637
330
1E
100
AcDbEntity
  8
0
 48
0.27
100
AcDbCircle
 10
0.0000000000000178
 20
24.49999999999353
 30
0.0
 40
5.249999999999996
100
AcDbArc
 50
30.24329777399993
 51
329.7566907592998
  0
LWPOLYLINE
  5
4638
330
1E
100
AcDbEntity
  8
0
 48
0.27
100
AcDbPolyline
 90
       17
 70
     0
 43
0.0
 10
8.951687727300008
 20
24.49999999999352
 10
8.98523602870004
 20
24.28296275749351
 10
9.018127017900024
 20
24.22005852349354
 10
9.054697351699996
 20
24.19051688679352
 10
9.088674509100012
 20
24.19082416679354
 10
9.125167354900025
 20
24.22102845959353
 10
9.156511255900039
 20
24.28079843709351
 10
9.185897916600037
 20
24.41087141779352
 10
9.190865165400037
 20
24.49999999999352
 10
9.15731820000003
 20
24.71703590649351
 10
9.124425874799992
 20
24.77994014049353
 10
9.087855541000021
 20
24.80948177719353
 10
9.053879719600029
 20
24.80917449709351
 10
9.01738553780002
 20
24.77897020429352
 10
8.986042972800003
 20
24.71920022679352
 10
8.956654976100008
 20
24.58912724619352
 10
8.951687727300008
 20
24.49999999999352
  0
ARC
  5
4639
330
1E
100
AcDbEntity
  8
0
 48
0.27
100
AcDbCircle
 10
0.0000000000000178
 20
24.49999999999353
 30
0.0
 40
3.999999331999998
100
AcDbArc
 50
48.59037799889998
 51
311.4096220031999
  0
LINE
  5
463A
330
1E
100
AcDbEntity
  8
0
 48
0.27
100
AcDbLine
 10
2.886751771000003
 20
27.49999916499351
 30
0.0
 11
2.309400615200015
 21
28.49999933199352
 31
0.0
  0
LINE
  5
463B
330
1E
100
AcDbEntity
  8
0
 48
0.27
100
AcDbLine
 10
-2.309400615199987
 20
28.49999933199352
 30
0.0
 11
2.309400615200015
 21
28.49999933199352
 31
0.0
  0
LINE
  5
463C
330
1E
100
AcDbEntity
  8
0
 48
0.27
100
AcDbLine
 10
-2.309400615199987
 20
28.49999933199352
 30
0.0
 11
-4.618801230399977
 21
24.49999999999353
 31
0.0
  0
LINE
  5
463D
330
1E
100
AcDbEntity
  8
0
 48
0.27
100
AcDbLine
 10
-4.618801230399977
 20
24.49999999999353
 30
0.0
 11
-2.309400615199987
 21
20.49999933199352
 31
0.0
  0
LINE
  5
463E
330
1E
100
AcDbEntity
  8
0
 48
0.27
100
AcDbLine
 10
2.309401951200012
 20
20.49999933199352
 30
0.0
 11
-2.309400615199987
 21
20.49999933199352
 31
0.0
  0
LINE
  5
463F
330
1E
100
AcDbEntity
  8
0
 48
0.27
100
AcDbLine
 10
2.886751771000003
 20
21.49999949899352
 30
0.0
 11
2.309401951200012
 21
20.49999933199352
 31
0.0
  0
LINE
  5
4640
330
1E
100
AcDbEntity
  8
0
 48
0.27
100
AcDbLine
 10
1.301506023000019
 20
21.49999949899352
 30
0.0
 11
4.315574606199998
 21
21.49999949899352
 31
0.0
  0
LINE
  5
4641
330
1E
100
AcDbEntity
  8
0
 48
0.27
100
AcDbLine
 10
4.378473496200012
 20
27.21531221569353
 30
0.0
 11
4.315574606199998
 21
27.49999916499351
 31
0.0
  0
LINE
  5
4642
330
1E
100
AcDbEntity
  8
0
 48
0.27
100
AcDbLine
 10
4.315574606199998
 20
21.49999949899352
 30
0.0
 11
4.378473496200012
 21
21.78468644829352
 31
0.0
  0
LINE
  5
4643
330
1E
100
AcDbEntity
  8
0
 48
0.27
100
AcDbLine
 10
1.301506023000019
 20
27.49999916499351
 30
0.0
 11
4.315574606199998
 21
27.49999916499351
 31
0.0
  0
LINE
  5
4644
330
1E
100
AcDbEntity
  8
0
 48
0.27
100
AcDbLine
 10
3.876721248400013
 20
21.55764390019353
 30
0.0
 11
5.878527854700006
 21
22.46345872419353
 31
0.0
  0
LINE
  5
4645
330
1E
100
AcDbEntity
  8
0
 48
0.27
100
AcDbLine
 10
9.743742133299985
 20
24.15046360039351
 30
0.0
 11
9.756916431400011
 21
24.49999999999353
 31
0.0
  0
LINE
  5
4646
330
1E
100
AcDbEntity
  8
0
 48
0.27
100
AcDbLine
 10
9.704725583100024
 20
23.81435934699351
 30
0.0
 11
9.743742133299985
 21
24.15046360039351
 31
0.0
  0
LINE
  5
4647
330
1E
100
AcDbEntity
  8
0
 48
0.27
100
AcDbLine
 10
9.756916431400011
 20
24.49999999999353
 30
0.0
 11
9.743742133299985
 21
24.84953639959353
 31
0.0
  0
LINE
  5
4648
330
1E
100
AcDbEntity
  8
0
 48
0.27
100
AcDbLine
 10
3.652747492800013
 20
21.49999949899352
 30
0.0
 11
3.876721248400013
 21
21.55764390019353
 31
0.0
  0
LINE
  5
4649
330
1E
100
AcDbEntity
  8
0
 48
0.27
100
AcDbLine
 10
3.652747492800013
 20
27.49999916499351
 30
0.0
 11
3.876721248400013
 21
27.44235476379352
 31
0.0
  0
LINE
  5
464A
330
1E
100
AcDbEntity
  8
0
 48
0.27
100
AcDbLine
 10
3.876721248400013
 20
27.44235476379352
 30
0.0
 11
5.878527854700006
 21
26.53653993979352
 31
0.0
  0
LINE
  5
464B
330
1E
100
AcDbEntity
  8
0
 48
0.27
100
AcDbLine
 10
9.641365773000014
 20
23.50460502569352
 30
0.0
 11
9.704725583100024
 21
23.81435934699351
 31
0.0
  0
LINE
  5
464C
330
1E
100
AcDbEntity
  8
0
 48
0.27
100
AcDbLine
 10
9.743742133299985
 20
24.84953639959353
 30
0.0
 11
9.704725583100024
 21
25.18563931699352
 31
0.0
  0
LINE
  5
464D
330
1E
100
AcDbEntity
  8
0
 48
0.27
100
AcDbLine
 10
9.556096895399999
 20
23.23310172659352
 30
0.0
 11
9.641365773000014
 21
23.50460502569352
 31
0.0
  0
LINE
  5
464E
330
1E
100
AcDbEntity
  8
0
 48
0.27
100
AcDbLine
 10
8.796742430699989
 20
22.86169099549353
 30
0.0
 11
8.798640887000001
 21
22.86261951559352
 31
0.0
  0
LINE
  5
464F
330
1E
100
AcDbEntity
  8
0
 48
0.27
100
AcDbLine
 10
9.704725583100024
 20
25.18563931699352
 30
0.0
 11
9.641365773000014
 21
25.49539497429353
 31
0.0
  0
LINE
  5
4650
330
1E
100
AcDbEntity
  8
0
 48
0.27
100
AcDbLine
 10
3.428773737200014
 20
21.55764390019353
 30
0.0
 11
3.652747492800013
 21
21.49999949899352
 31
0.0
  0
LINE
  5
4651
330
1E
100
AcDbEntity
  8
0
 48
0.27
100
AcDbLine
 10
3.428773737200014
 20
27.44235476379352
 30
0.0
 11
3.652747492800013
 21
27.49999916499351
 31
0.0
  0
LINE
  5
4652
330
1E
100
AcDbEntity
  8
0
 48
0.27
100
AcDbLine
 10
9.452197494900016
 20
23.01028494709353
 30
0.0
 11
9.556096895399999
 21
23.23310172659352
 31
0.0
  0
LINE
  5
4653
330
1E
100
AcDbEntity
  8
0
 48
0.27
100
AcDbLine
 10
9.641365773000014
 20
25.49539497429353
 30
0.0
 11
9.556096895399999
 21
25.76689693739352
 31
0.0
  0
LINE
  5
4654
330
1E
100
AcDbEntity
  8
0
 48
0.27
100
AcDbLine
 10
5.878527854700006
 20
22.46345872419353
 30
0.0
 11
6.119650508999992
 21
22.56186181979355
 31
0.0
  0
LINE
  5
4655
330
1E
100
AcDbEntity
  8
0
 48
0.27
100
AcDbLine
 10
5.878527854700006
 20
26.53653993979352
 30
0.0
 11
6.119650508999992
 21
26.43813818019352
 31
0.0
  0
LINE
  5
4656
330
1E
100
AcDbEntity
  8
0
 48
0.27
100
AcDbLine
 10
9.333659540100011
 20
22.84471844879353
 30
0.0
 11
9.452197494900016
 21
23.01028494709353
 31
0.0
  0
LINE
  5
4657
330
1E
100
AcDbEntity
  8
0
 48
0.27
100
AcDbLine
 10
9.556096895399999
 20
25.76689693739352
 30
0.0
 11
9.452197494900016
 21
25.98971371689354
 31
0.0
  0
LINE
  5
4658
330
1E
100
AcDbEntity
  8
0
 48
0.27
100
AcDbLine
 10
3.213407830900006
 20
21.72836067929352
 30
0.0
 11
3.428773737200014
 21
21.55764390019353
 31
0.0
  0
LINE
  5
4659
330
1E
100
AcDbEntity
  8
0
 48
0.27
100
AcDbLine
 10
3.213407830900006
 20
27.27163798469352
 30
0.0
 11
3.428773737200014
 21
27.44235476379352
 31
0.0
  0
LINE
  5
465A
330
1E
100
AcDbEntity
  8
0
 48
0.27
100
AcDbLine
 10
6.119650508999992
 20
22.56186181979355
 30
0.0
 11
6.334574199200002
 21
22.55273426639353
 31
0.0
  0
LINE
  5
465B
330
1E
100
AcDbEntity
  8
0
 48
0.27
100
AcDbLine
 10
6.119650508999992
 20
26.43813818019352
 30
0.0
 11
6.334574199200002
 21
26.44726439759351
 31
0.0
  0
LINE
  5
465C
330
1E
100
AcDbEntity
  8
0
 48
0.27
100
AcDbLine
 10
7.954563968800027
 20
21.99567160979353
 30
0.0
 11
9.205038791599999
 21
22.74276159259352
 31
0.0
  0
LINE
  5
465D
330
1E
100
AcDbEntity
  8
0
 48
0.27
100
AcDbLine
 10
9.205038791599999
 20
22.74276159259352
 30
0.0
 11
9.333659540100011
 21
22.84471844879353
 31
0.0
  0
LINE
  5
465E
330
1E
100
AcDbEntity
  8
0
 48
0.27
100
AcDbLine
 10
9.452197494900016
 20
25.98971371689354
 30
0.0
 11
9.333659540100011
 21
26.15528021519351
 31
0.0
  0
LINE
  5
465F
330
1E
100
AcDbEntity
  8
0
 48
0.27
100
AcDbLine
 10
0.6386789096000137
 20
24.49999999999353
 30
0.0
 11
1.301506023000019
 21
27.49999916499351
 31
0.0
  0
LINE
  5
4660
330
1E
100
AcDbEntity
  8
0
 48
0.27
100
AcDbLine
 10
0.6386789096000137
 20
24.49999999999353
 30
0.0
 11
2.327093266000016
 21
24.49999999999353
 31
0.0
  0
LINE
  5
4661
330
1E
100
AcDbEntity
  8
0
 48
0.27
100
AcDbLine
 10
1.301506023000019
 20
21.49999949899352
 30
0.0
 11
0.6386789096000137
 21
24.49999999999353
 31
0.0
  0
LINE
  5
4662
330
1E
100
AcDbEntity
  8
0
 48
0.27
100
AcDbLine
 10
3.213407830900006
 20
21.72836067929352
 30
0.0
 11
3.014924959400016
 21
22.00559007539352
 31
0.0
  0
LINE
  5
4663
330
1E
100
AcDbEntity
  8
0
 48
0.27
100
AcDbLine
 10
3.014924959400016
 20
26.99440858859351
 30
0.0
 11
3.213407830900006
 21
27.27163798469352
 31
0.0
  0
LINE
  5
4664
330
1E
100
AcDbEntity
  8
0
 48
0.27
100
AcDbLine
 10
7.763934106499998
 20
21.94660833799351
 30
0.0
 11
7.954563968800027
 21
21.99567160979353
 31
0.0
  0
LINE
  5
4665
330
1E
100
AcDbEntity
  8
0
 48
0.27
100
AcDbLine
 10
7.403101825099991
 20
21.97449199839352
 30
0.0
 11
7.763934106499998
 21
21.94660833799351
 31
0.0
  0
LINE
  5
4666
330
1E
100
AcDbEntity
  8
0
 48
0.27
100
AcDbLine
 10
6.334574199200002
 20
22.55273426639353
 30
0.0
 11
6.888521303300006
 21
22.18751723229352
 31
0.0
  0
LINE
  5
4667
330
1E
100
AcDbEntity
  8
0
 48
0.27
100
AcDbLine
 10
9.071277114300013
 20
22.70833553909351
 30
0.0
 11
9.205038791599999
 21
22.74276159259352
 31
0.0
  0
LINE
  5
4668
330
1E
100
AcDbEntity
  8
0
 48
0.27
100
AcDbLine
 10
7.954563968800027
 20
27.00432839019351
 30
0.0
 11
9.205038791599999
 21
26.25723707139353
 31
0.0
  0
LINE
  5
4669
330
1E
100
AcDbEntity
  8
0
 48
0.27
100
AcDbLine
 10
9.205038791599999
 20
26.25723707139353
 30
0.0
 11
9.333659540100011
 21
26.15528021519351
 31
0.0
  0
LINE
  5
466A
330
1E
100
AcDbEntity
  8
0
 48
0.27
100
AcDbLine
 10
7.763934106499998
 20
27.05339032599352
 30
0.0
 11
7.954563968800027
 21
27.00432839019351
 31
0.0
  0
LINE
  5
466B
330
1E
100
AcDbEntity
  8
0
 48
0.27
100
AcDbLine
 10
7.403101825099991
 20
27.02550800149353
 30
0.0
 11
7.763934106499998
 21
27.05339032599352
 31
0.0
  0
LINE
  5
466C
330
1E
100
AcDbEntity
  8
0
 48
0.27
100
AcDbLine
 10
6.143738592900003
 20
22.69723738539352
 30
0.0
 11
6.283819551100005
 21
22.58619706369354
 31
0.0
  0
LINE
  5
466D
330
1E
100
AcDbEntity
  8
0
 48
0.27
100
AcDbLine
 10
6.888521303300006
 20
22.18751723229352
 30
0.0
 11
7.214553451099998
 21
22.02301819819353
 31
0.0
  0
LINE
  5
466E
330
1E
100
AcDbEntity
  8
0
 48
0.27
100
AcDbLine
 10
7.214553451099998
 20
22.02301819819353
 30
0.0
 11
7.403101825099991
 21
21.97449199839352
 31
0.0
  0
LINE
  5
466F
330
1E
100
AcDbEntity
  8
0
 48
0.27
100
AcDbLine
 10
6.334574199200002
 20
26.44726439759351
 30
0.0
 11
6.888521303300006
 21
26.81248143169352
 31
0.0
  0
LINE
  5
4670
330
1E
100
AcDbEntity
  8
0
 48
0.27
100
AcDbLine
 10
6.143738592900003
 20
26.30276127859352
 30
0.0
 11
6.283819551100005
 21
26.41380160029353
 31
0.0
  0
LINE
  5
4671
330
1E
100
AcDbEntity
  8
0
 48
0.27
100
AcDbLine
 10
3.014924959400016
 20
22.00559007539352
 30
0.0
 11
2.840953683700004
 21
22.37867882269352
 31
0.0
  0
LINE
  5
4672
330
1E
100
AcDbEntity
  8
0
 48
0.27
100
AcDbLine
 10
2.840953683700004
 20
26.62131984129352
 30
0.0
 11
3.014924959400016
 21
26.99440858859351
 31
0.0
  0
LINE
  5
4673
330
1E
100
AcDbEntity
  8
0
 48
0.27
100
AcDbLine
 10
7.573302908199988
 20
21.99567160979353
 30
0.0
 11
7.763934106499998
 21
21.94660833799351
 31
0.0
  0
LINE
  5
4674
330
1E
100
AcDbEntity
  8
0
 48
0.27
100
AcDbLine
 10
7.214553451099998
 20
26.97698046579353
 30
0.0
 11
7.403101825099991
 21
27.02550800149353
 31
0.0
  0
LINE
  5
4675
330
1E
100
AcDbEntity
  8
0
 48
0.27
100
AcDbLine
 10
6.888521303300006
 20
26.81248143169352
 30
0.0
 11
7.214553451099998
 21
26.97698046579353
 31
0.0
  0
LINE
  5
4676
330
1E
100
AcDbEntity
  8
0
 48
0.27
100
AcDbLine
 10
2.989920379400029
 20
21.49999949899352
 30
0.0
 11
2.327093266000016
 21
24.49999999999353
 31
0.0
  0
LINE
  5
4677
330
1E
100
AcDbEntity
  8
0
 48
0.27
100
AcDbLine
 10
2.327093266000016
 20
24.49999999999353
 30
0.0
 11
2.989920379400029
 21
27.49999916499351
 31
0.0
  0
LINE
  5
4678
330
1E
100
AcDbEntity
  8
0
 48
0.27
100
AcDbLine
 10
6.143738592900003
 20
22.69723738539352
 30
0.0
 11
6.01463822030001
 21
22.87755599799352
 31
0.0
  0
LINE
  5
4679
330
1E
100
AcDbEntity
  8
0
 48
0.27
100
AcDbLine
 10
8.9375154371
 20
22.74276159259352
 30
0.0
 11
9.071277114300013
 21
22.70833553909351
 31
0.0
  0
LINE
  5
467A
330
1E
100
AcDbEntity
  8
0
 48
0.27
100
AcDbLine
 10
9.071277114300013
 20
26.29166312489352
 30
0.0
 11
9.205038791599999
 21
26.25723707139353
 31
0.0
  0
LINE
  5
467B
330
1E
100
AcDbEntity
  8
0
 48
0.27
100
AcDbLine
 10
7.573302908199988
 20
27.00432839019351
 30
0.0
 11
7.763934106499998
 21
27.05339032599352
 31
0.0
  0
LINE
  5
467C
330
1E
100
AcDbEntity
  8
0
 48
0.27
100
AcDbLine
 10
6.719258092400007
 20
26.67830960229351
 30
0.0
 11
6.888521303300006
 21
26.81248143169352
 31
0.0
  0
LINE
  5
467D
330
1E
100
AcDbEntity
  8
0
 48
0.27
100
AcDbLine
 10
6.01463822030001
 20
26.12244266599353
 30
0.0
 11
6.143738592900003
 21
26.30276127859352
 31
0.0
  0
LINE
  5
467E
330
1E
100
AcDbEntity
  8
0
 48
0.27
100
AcDbLine
 10
2.840953683700004
 20
22.37867882269352
 30
0.0
 11
2.698178013000013
 21
22.8332889669935
 31
0.0
  0
LINE
  5
467F
330
1E
100
AcDbEntity
  8
0
 48
0.27
100
AcDbLine
 10
2.698178013000013
 20
26.16670969699352
 30
0.0
 11
2.840953683700004
 21
26.62131984129352
 31
0.0
  0
LINE
  5
4680
330
1E
100
AcDbEntity
  8
0
 48
0.27
100
AcDbLine
 10
6.01463822030001
 20
22.87755599799352
 30
0.0
 11
5.901481674400013
 21
23.12022440459353
 31
0.0
  0
LINE
  5
4681
330
1E
100
AcDbEntity
  8
0
 48
0.27
100
AcDbLine
 10
7.389998335000012
 20
22.14097365689352
 30
0.0
 11
7.573302908199988
 21
21.99567160979353
 31
0.0
  0
LINE
  5
4682
330
1E
100
AcDbEntity
  8
0
 48
0.27
100
AcDbLine
 10
5.901481674400013
 20
25.87977425939352
 30
0.0
 11
6.01463822030001
 21
26.12244266599353
 31
0.0
  0
LINE
  5
4683
330
1E
100
AcDbEntity
  8
0
 48
0.27
100
AcDbLine
 10
8.808893352599991
 20
22.84471844879353
 30
0.0
 11
8.9375154371
 21
22.74276159259352
 31
0.0
  0
LINE
  5
4684
330
1E
100
AcDbEntity
  8
0
 48
0.27
100
AcDbLine
 10
7.389998335000012
 20
26.85902500709352
 30
0.0
 11
7.573302908199988
 21
27.00432839019351
 31
0.0
  0
LINE
  5
4685
330
1E
100
AcDbEntity
  8
0
 48
0.27
100
AcDbLine
 10
8.9375154371
 20
26.25723707139353
 30
0.0
 11
9.071277114300013
 21
26.29166312489352
 31
0.0
  0
LINE
  5
4686
330
1E
100
AcDbEntity
  8
0
 48
0.27
100
AcDbLine
 10
5.901481674400013
 20
23.12022440459353
 30
0.0
 11
5.808616299600014
 21
23.41591732359353
 31
0.0
  0
LINE
  5
4687
330
1E
100
AcDbEntity
  8
0
 48
0.27
100
AcDbLine
 10
2.698178013000013
 20
22.8332889669935
 30
0.0
 11
2.592087572200011
 21
23.35194963349354
 31
0.0
  0
LINE
  5
4688
330
1E
100
AcDbEntity
  8
0
 48
0.27
100
AcDbLine
 10
2.592087572200011
 20
25.6480503664935
 30
0.0
 11
2.698178013000013
 21
26.16670969699352
 31
0.0
  0
LINE
  5
4689
330
1E
100
AcDbEntity
  8
0
 48
0.27
100
AcDbLine
 10
5.808616299600014
 20
25.58408134039351
 30
0.0
 11
5.901481674400013
 21
25.87977425939352
 31
0.0
  0
LINE
  5
468A
330
1E
100
AcDbEntity
  8
0
 48
0.27
100
AcDbLine
 10
7.389998335000012
 20
22.14097365689352
 30
0.0
 11
7.221063780199994
 21
22.37693267039353
 31
0.0
  0
LINE
  5
468B
330
1E
100
AcDbEntity
  8
0
 48
0.27
100
AcDbLine
 10
5.808616299600014
 20
23.41591732359353
 30
0.0
 11
5.739611888600006
 21
23.75327073729354
 31
0.0
  0
LINE
  5
468C
330
1E
100
AcDbEntity
  8
0
 48
0.27
100
AcDbLine
 10
2.592087572200011
 20
23.35194963349354
 30
0.0
 11
2.526757161800009
 21
23.91472903489353
 31
0.0
  0
LINE
  5
468D
330
1E
100
AcDbEntity
  8
0
 48
0.27
100
AcDbLine
 10
2.526757161800009
 20
25.08527096499352
 30
0.0
 11
2.592087572200011
 21
25.6480503664935
 31
0.0
  0
LINE
  5
468E
330
1E
100
AcDbEntity
  8
0
 48
0.27
100
AcDbLine
 10
8.808893352599991
 20
26.15528021519351
 30
0.0
 11
8.9375154371
 21
26.25723707139353
 31
0.0
  0
LINE
  5
468F
330
1E
100
AcDbEntity
  8
0
 48
0.27
100
AcDbLine
 10
8.808893352599991
 20
22.84471844879353
 30
0.0
 11
8.690355397800029
 21
23.01028494709353
 31
0.0
  0
LINE
  5
4690
330
1E
100
AcDbEntity
  8
0
 48
0.27
100
AcDbLine
 10
7.221063780199994
 20
26.62306599359351
 30
0.0
 11
7.389998335000012
 21
26.85902500709352
 31
0.0
  0
LINE
  5
4691
330
1E
100
AcDbEntity
  8
0
 48
0.27
100
AcDbLine
 10
5.739611888600006
 20
25.24672792669351
 30
0.0
 11
5.808616299600014
 21
25.58408134039351
 31
0.0
  0
LINE
  5
4692
330
1E
100
AcDbEntity
  8
0
 48
0.27
100
AcDbLine
 10
5.739611888600006
 20
23.75327073729354
 30
0.0
 11
5.697117729900011
 21
24.11932009949351
 31
0.0
  0
LINE
  5
4693
330
1E
100
AcDbEntity
  8
0
 48
0.27
100
AcDbLine
 10
2.526757161800009
 20
23.91472903489353
 30
0.0
 11
2.504697126300019
 21
24.49999999999353
 31
0.0
  0
LINE
  5
4694
330
1E
100
AcDbEntity
  8
0
 48
0.27
100
AcDbLine
 10
2.504697126300019
 20
24.49999999999353
 30
0.0
 11
2.526757161800009
 21
25.08527096499352
 31
0.0
  0
LINE
  5
4695
330
1E
100
AcDbEntity
  8
0
 48
0.27
100
AcDbLine
 10
5.697117729900011
 20
24.88067856449351
 30
0.0
 11
5.739611888600006
 21
25.24672792669351
 31
0.0
  0
LINE
  5
4696
330
1E
100
AcDbEntity
  8
0
 48
0.27
100
AcDbLine
 10
5.697117729900011
 20
24.11932009949351
 30
0.0
 11
5.682770423600015
 21
24.49999999999353
 31
0.0
  0
LINE
  5
4697
330
1E
100
AcDbEntity
  8
0
 48
0.27
100
AcDbLine
 10
5.682770423600015
 20
24.49999999999353
 30
0.0
 11
5.697117729900011
 21
24.88067856449351
 31
0.0
  0
LINE
  5
4698
330
1E
100
AcDbEntity
  8
0
 48
0.27
100
AcDbLine
 10
7.221063780199994
 20
22.37693267039353
 30
0.0
 11
7.072990868600012
 21
22.69447988089352
 31
0.0
  0
LINE
  5
4699
330
1E
100
AcDbEntity
  8
0
 48
0.27
100
AcDbLine
 10
8.690355397800029
 20
25.98971371689354
 30
0.0
 11
8.808893352599991
 21
26.15528021519351
 31
0.0
  0
LINE
  5
469A
330
1E
100
AcDbEntity
  8
0
 48
0.27
100
AcDbLine
 10
8.690355397800029
 20
23.01028494709353
 30
0.0
 11
8.586455997299989
 21
23.23310172659352
 31
0.0
  0
LINE
  5
469B
330
1E
100
AcDbEntity
  8
0
 48
0.27
100
AcDbLine
 10
7.072990868600012
 20
26.30552011909353
 30
0.0
 11
7.221063780199994
 21
26.62306599359351
 31
0.0
  0
LINE
  5
469C
330
1E
100
AcDbEntity
  8
0
 48
0.27
100
AcDbLine
 10
8.586455997299989
 20
25.76689693739352
 30
0.0
 11
8.690355397800029
 21
25.98971371689354
 31
0.0
  0
LINE
  5
469D
330
1E
100
AcDbEntity
  8
0
 48
0.27
100
AcDbLine
 10
7.072990868600012
 20
22.69447988089352
 30
0.0
 11
6.951470961300014
 21
23.08141092639352
 31
0.0
  0
LINE
  5
469E
330
1E
100
AcDbEntity
  8
0
 48
0.27
100
AcDbLine
 10
8.586455997299989
 20
23.23310172659352
 30
0.0
 11
8.501188455699985
 21
23.50460502569352
 31
0.0
  0
LINE
  5
469F
330
1E
100
AcDbEntity
  8
0
 48
0.27
100
AcDbLine
 10
6.951470961300014
 20
25.91858773749352
 30
0.0
 11
7.072990868600012
 21
26.30552011909353
 31
0.0
  0
LINE
  5
46A0
330
1E
100
AcDbEntity
  8
0
 48
0.27
100
AcDbLine
 10
8.501188455699985
 20
25.49539497429353
 30
0.0
 11
8.586455997299989
 21
25.76689693739352
 31
0.0
  0
LINE
  5
46A1
330
1E
100
AcDbEntity
  8
0
 48
0.27
100
AcDbLine
 10
6.951470961300014
 20
23.08141092639352
 30
0.0
 11
6.86117337890003
 21
23.52285879659351
 31
0.0
  0
LINE
  5
46A2
330
1E
100
AcDbEntity
  8
0
 48
0.27
100
AcDbLine
 10
8.501188455699985
 20
23.50460502569352
 30
0.0
 11
8.437828645600017
 21
23.81435934699351
 31
0.0
  0
LINE
  5
46A3
330
1E
100
AcDbEntity
  8
0
 48
0.27
100
AcDbLine
 10
6.86117337890003
 20
25.47713986739352
 30
0.0
 11
6.951470961300014
 21
25.91858773749352
 31
0.0
  0
LINE
  5
46A4
330
1E
100
AcDbEntity
  8
0
 48
0.27
100
AcDbLine
 10
8.437828645600017
 20
25.18563931699352
 30
0.0
 11
8.501188455699985
 21
25.49539497429353
 31
0.0
  0
LINE
  5
46A5
330
1E
100
AcDbEntity
  8
0
 48
0.27
100
AcDbLine
 10
6.86117337890003
 20
23.52285879659351
 30
0.0
 11
6.8055690501
 21
24.00185762479353
 31
0.0
  0
LINE
  5
46A6
330
1E
100
AcDbEntity
  8
0
 48
0.27
100
AcDbLine
 10
8.437828645600017
 20
23.81435934699351
 30
0.0
 11
8.398810759399989
 21
24.15046360039351
 31
0.0
  0
LINE
  5
46A7
330
1E
100
AcDbEntity
  8
0
 48
0.27
100
AcDbLine
 10
6.8055690501
 20
24.99814103919353
 30
0.0
 11
6.86117337890003
 21
25.47713986739352
 31
0.0
  0
LINE
  5
46A8
330
1E
100
AcDbEntity
  8
0
 48
0.27
100
AcDbLine
 10
8.398810759399989
 20
24.84953639959353
 30
0.0
 11
8.437828645600017
 21
25.18563931699352
 31
0.0
  0
LINE
  5
46A9
330
1E
100
AcDbEntity
  8
0
 48
0.27
100
AcDbLine
 10
6.8055690501
 20
24.00185762479353
 30
0.0
 11
6.786792903099989
 21
24.49999999999353
 31
0.0
  0
LINE
  5
46AA
330
1E
100
AcDbEntity
  8
0
 48
0.27
100
AcDbLine
 10
8.398810759399989
 20
24.15046360039351
 30
0.0
 11
8.38563646130002
 21
24.49999999999353
 31
0.0
  0
LINE
  5
46AB
330
1E
100
AcDbEntity
  8
0
 48
0.27
100
AcDbLine
 10
8.38563646130002
 20
24.49999999999353
 30
0.0
 11
8.398810759399989
 21
24.84953639959353
 31
0.0
  0
LINE
  5
46AC
330
1E
100
AcDbEntity
  8
0
 48
0.27
100
AcDbLine
 10
6.786792903099989
 20
24.49999999999353
 30
0.0
 11
6.8055690501
 21
24.99814103919353
 31
0.0
  0
LINE
  5
46AD
330
1E
100
AcDbEntity
  8
0
 48
0.27
100
AcDbLine
 10
6.283819551100005
 20
22.58619706369354
 30
0.0
 11
6.334574199200002
 21
22.55273426639353
 31
0.0
  0
LINE
  5
46AE
330
1E
100
AcDbEntity
  8
0
 48
0.27
100
AcDbLine
 10
6.071296653400008
 20
22.56391525219353
 30
0.0
 11
6.119650508999992
 21
22.56186181979355
 31
0.0
  0
LINE
  5
46AF
330
1E
100
AcDbEntity
  8
0
 48
0.27
100
AcDbLine
 10
6.283819551100005
 20
26.41380160029353
 30
0.0
 11
6.334574199200002
 21
26.44726439759351
 31
0.0
  0
LINE
  5
46B0
330
1E
100
AcDbEntity
  8
中心線
 48
0.27
100
AcDbLine
 10
0.0000000000000171
 20
17.74999999999353
 30
0.0
 11
0.0000000000000184
 21
35.56675827044136
 31
0.0
  0
LINE
  5
46B1
330
1E
100
AcDbEntity
  8
中心線
 48
0.27
100
AcDbLine
 10
11.25691643140001
 20
24.49999999999353
 30
0.0
 11
-6.749999999999978
 21
24.49999999999353
 31
0.0
  0
POINT
  5
46B2
330
1E
100
AcDbEntity
  8
0
100
AcDbPoint
 10
9.756916431400011
 20
24.49999999999353
 30
0.0
1001
pntflag
1000
endpoint
  0
LINE
  5
46B7
330
1E
100
AcDbEntity
  8
0
 48
0.27
100
AcDbLine
 10
216.6079649411722
 20
-0.0000000000000284
 30
0.0
 11
216.6079649411722
 21
29.49999999999997
 31
0.0
  0
LINE
  5
4806
330
1E
100
AcDbEntity
  8
0
 48
0.27
100
AcDbLine
 10
-23.42997589631595
 20
0.7386664873202591
 30
0.0
 11
-24.99999999999367
 21
6.598076211353216
 31
0.0
  0
LINE
  5
480F
330
1E
100
AcDbEntity
  8
0
 48
0.27
100
AcDbLine
 10
-22.46732698796425
 20
-0.0000000000064375
 30
0.0
 11
-12.09864958098238
 21
-0.0000000000064659
 31
0.0
  0
LINE
  5
4811
330
1E
100
AcDbEntity
  8
0
 48
0.27
100
AcDbLine
 10
-22.46732698796425
 20
-0.0000000000064375
 30
0.0
 11
-23.42997589631595
 21
0.7386664873202591
 31
0.0
  0
LINE
  5
4812
330
1E
100
AcDbEntity
  8
0
 48
0.27
100
AcDbLine
 10
-23.19999999999997
 20
1.499999999993534
 30
0.0
 11
-21.69999999999997
 21
-0.0000000000064659
 31
0.0
  0
LINE
  5
4866
330
1E
100
AcDbEntity
  8
0
 48
0.27
100
AcDbLine
 10
22.46732698797684
 20
-0.0000000000064375
 30
0.0
 11
12.09864958098241
 21
-0.0000000000064659
 31
0.0
  0
LINE
  5
4873
330
1E
100
AcDbEntity
  8
0
 48
0.27
100
AcDbLine
 10
23.42997589632848
 20
0.7386664873202591
 30
0.0
 11
25.00000000000632
 21
6.598076211353273
 31
0.0
  0
LINE
  5
4874
330
1E
100
AcDbEntity
  8
0
 48
0.27
100
AcDbLine
 10
22.46732698797684
 20
-0.0000000000064375
 30
0.0
 11
23.42997589632848
 21
0.7386664873202591
 31
0.0
  0
LINE
  5
4875
330
1E
100
AcDbEntity
  8
0
 48
0.27
100
AcDbLine
 10
21.7
 20
-0.0000000000064659
 30
0.0
 11
23.2
 21
1.499999999993534
 31
0.0
  0
LINE
  5
488F
330
1E
100
AcDbEntity
  8
0
 48
0.27
100
AcDbLine
 10
6.000000000006323
 20
30.49999999999995
 30
0.0
 11
-5.999999999993676
 21
30.49999999999995
 31
0.0
  0
LINE
  5
4892
330
1E
100
AcDbEntity
  8
0
 48
0.27
100
AcDbLine
 10
-5.999999999993676
 20
30.49999999999995
 30
0.0
 11
-6.499999999993676
 21
29.99999999999996
 31
0.0
  0
LINE
  5
4894
330
1E
100
AcDbEntity
  8
0
 48
0.27
100
AcDbLine
 10
6.000000000006323
 20
30.49999999999995
 30
0.0
 11
6.500000000006323
 21
29.99999999999996
 31
0.0
  0
INSERT
  5
4C26
330
1E
100
AcDbEntity
  8
0
100
AcDbBlockReference
  2
HGW25HC_F
 10
167.8079649411722
 20
0.0
 30
0.0
  0
LINE
  5
4C27
330
1E
100
AcDbEntity
  8
0
 48
0.27
100
AcDbLine
 10
-21.49999999999367
 20
29.99999999999996
 30
0.0
 11
-6.499999999993672
 21
29.99999999999996
 31
0.0
  0
LINE
  5
4C2B
330
1E
100
AcDbEntity
  8
0
 48
0.27
100
AcDbLine
 10
-21.69999999999997
 20
29.49999999999353
 30
0.0
 11
21.7
 21
29.49999999999353
 31
0.0
  0
LINE
  5
4C2D
330
1E
100
AcDbEntity
  8
0
 48
0.27
100
AcDbLine
 10
-34.49999999999367
 20
21.99999999999995
 30
0.0
 11
-34.49999999999367
 21
17.49999999999995
 31
0.0
  0
LINE
  5
4C2E
330
1E
100
AcDbEntity
  8
0
 48
0.27
100
AcDbLine
 10
-23.19999999999997
 20
1.499999999993534
 30
0.0
 11
-23.19999999999997
 21
27.99999999999353
 31
0.0
  0
LINE
  5
4C2F
330
1E
100
AcDbEntity
  8
虛線
 48
0.27
100
AcDbLine
 10
-24.88475808062666
 20
29.64999999999993
 30
0.0
 11
-24.88475808062666
 21
21.55000000000008
 31
0.0
  0
LINE
  5
4C30
330
1E
100
AcDbEntity
  8
虛線
 48
0.27
100
AcDbLine
 10
-24.38475808062666
 20
29.64999999999993
 30
0.0
 11
-24.38475808062666
 21
21.55000000000008
 31
0.0
  0
LINE
  5
4C31
330
1E
100
AcDbEntity
  8
虛線
 48
0.27
100
AcDbLine
 10
-31.88475808062666
 20
29.64999999999993
 30
0.0
 11
-31.88475808062666
 21
21.55000000000008
 31
0.0
  0
LINE
  5
4C32
330
1E
100
AcDbEntity
  8
虛線
 48
0.27
100
AcDbLine
 10
-32.38475808062666
 20
29.64999999999993
 30
0.0
 11
-32.38475808062666
 21
21.55000000000008
 31
0.0
  0
LINE
  5
4C33
330
1E
100
AcDbEntity
  8
中心線
 48
0.27
100
AcDbLine
 10
-28.49999999999367
 20
31.45
 30
0.0
 11
-28.49999999999367
 21
15.49999999999995
 31
0.0
  0
LINE
  5
4C35
330
1E
100
AcDbEntity
  8
虛線
 48
0.27
100
AcDbLine
 10
-22.88475808062666
 20
20.50000000000001
 30
0.0
 11
-24.99999999999367
 21
20.49999999999995
 31
0.0
  0
LINE
  5
4C36
330
1E
100
AcDbEntity
  8
虛線
 48
0.27
100
AcDbLine
 10
-24.38475808062666
 20
21.55000000000008
 30
0.0
 11
-23.27642474729308
 21
20.50000000000001
 31
0.0
  0
LINE
  5
4C37
330
1E
100
AcDbEntity
  8
0
 48
0.27
100
AcDbLine
 10
-24.99999999999367
 20
20.50000000000001
 30
0.0
 11
-24.99999999999367
 21
6.598076211353784
 31
0.0
  0
LINE
  5
4C38
330
1E
100
AcDbEntity
  8
0
 48
0.27
100
AcDbLine
 10
-24.99999999999367
 20
6.598076211353216
 30
0.0
 11
-27.25601480605591
 21
15.01763809020504
 31
0.0
  0
LINE
  5
4C39
330
1E
100
AcDbEntity
  8
0
 48
0.27
100
AcDbLine
 10
-33.49999999999367
 20
16.49999999999995
 30
0.0
 11
-28.93786645863387
 21
16.49999999999995
 31
0.0
  0
LINE
  5
4C3A
330
1E
100
AcDbEntity
  8
0
 48
0.27
100
AcDbLine
 10
-24.99999999999367
 20
20.50000000000001
 30
0.0
 11
-34.49999999999367
 21
20.50000000000001
 31
0.0
  0
LINE
  5
4C3B
330
1E
100
AcDbEntity
  8
虛線
 48
0.27
100
AcDbLine
 10
-32.38475808062666
 20
21.55000000000008
 30
0.0
 11
-24.38475808062666
 21
21.55000000000008
 31
0.0
  0
LINE
  5
4C3C
330
1E
100
AcDbEntity
  8
虛線
 48
0.27
100
AcDbLine
 10
-32.38475808062666
 20
21.55000000000008
 30
0.0
 11
-33.50475808062656
 21
20.50000000000001
 31
0.0
  0
LINE
  5
4C3D
330
1E
100
AcDbEntity
  8
0
 48
0.27
100
AcDbLine
 10
-34.49999999999367
 20
17.49999999999995
 30
0.0
 11
-33.49999999999367
 21
16.49999999999995
 31
0.0
  0
ARC
  5
4C3E
330
1E
100
AcDbEntity
  8
0
 48
0.27
100
AcDbCircle
 10
-29.18786645863387
 20
14.49999999999995
 30
0.0
 40
2.0
100
AcDbArc
 50
15.00000000000116
 51
90.0
  0
LINE
  5
4C3F
330
1E
100
AcDbEntity
  8
虛線
 48
0.27
100
AcDbLine
 10
-22.88475808062666
 20
20.50000000000001
 30
0.0
 11
-22.88475808062677
 21
0.3203061430150029
 31
0.0
  0
LINE
  5
4C7A
330
1E
100
AcDbEntity
  8
虛線
 48
0.27
100
AcDbLine
 10
-24.38475808062666
 20
29.64999999999993
 30
0.0
 11
-23.48753585840431
 21
30.49999999999995
 31
0.0
  0
LINE
  5
4C7B
330
1E
100
AcDbEntity
  8
0
 48
0.27
100
AcDbLine
 10
-33.49999999999367
 20
30.49999999999995
 30
0.0
 11
-21.99999999999367
 21
30.49999999999995
 31
0.0
  0
LINE
  5
4C7C
330
1E
100
AcDbEntity
  8
虛線
 48
0.27
100
AcDbLine
 10
-32.38475808062666
 20
29.64999999999993
 30
0.0
 11
-24.38475808062666
 21
29.64999999999993
 31
0.0
  0
LINE
  5
4C7D
330
1E
100
AcDbEntity
  8
0
 48
0.27
100
AcDbLine
 10
-34.99999999999367
 20
22.49999999999996
 30
0.0
 11
-34.99999999999367
 21
28.99999999999995
 31
0.0
  0
LINE
  5
4C7E
330
1E
100
AcDbEntity
  8
0
 48
0.27
100
AcDbLine
 10
-34.49999999999367
 20
21.99999999999995
 30
0.0
 11
-34.99999999999367
 21
22.49999999999996
 31
0.0
  0
LINE
  5
4C7F
330
1E
100
AcDbEntity
  8
虛線
 48
0.27
100
AcDbLine
 10
-32.38475808062666
 20
29.64999999999993
 30
0.0
 11
-33.29142474729319
 21
30.49999999999995
 31
0.0
  0
LINE
  5
4C80
330
1E
100
AcDbEntity
  8
0
 48
0.27
100
AcDbLine
 10
-33.49999999999367
 20
30.49999999999995
 30
0.0
 11
-34.99999999999367
 21
28.99999999999995
 31
0.0
  0
LINE
  5
4C81
330
1E
100
AcDbEntity
  8
0
 48
0.27
100
AcDbLine
 10
-21.69999999999997
 20
29.49999999999353
 30
0.0
 11
-23.19999999999997
 21
27.99999999999353
 31
0.0
  0
LINE
  5
4C82
330
1E
100
AcDbEntity
  8
0
 48
0.27
100
AcDbLine
 10
-21.99999999999367
 20
30.49999999999995
 30
0.0
 11
-21.49999999999367
 21
29.99999999999996
 31
0.0
  0
LINE
  5
4C85
330
1E
100
AcDbEntity
  8
0
 48
0.27
100
AcDbLine
 10
35.00000000000632
 20
17.49999999999995
 30
0.0
 11
35.00000000000632
 21
28.99999999999995
 31
0.0
  0
LINE
  5
4C86
330
1E
100
AcDbEntity
  8
0
 48
0.27
100
AcDbLine
 10
23.2
 20
27.99999999999353
 30
0.0
 11
23.2
 21
1.499999999993534
 31
0.0
  0
LINE
  5
4C87
330
1E
100
AcDbEntity
  8
虛線
 48
0.27
100
AcDbLine
 10
24.88475808063931
 20
29.64999999999993
 30
0.0
 11
24.88475808063931
 21
21.55000000000008
 31
0.0
  0
LINE
  5
4C88
330
1E
100
AcDbEntity
  8
虛線
 48
0.27
100
AcDbLine
 10
24.38475808063932
 20
29.64999999999993
 30
0.0
 11
24.38475808063932
 21
21.55000000000008
 31
0.0
  0
LINE
  5
4C89
330
1E
100
AcDbEntity
  8
虛線
 48
0.27
100
AcDbLine
 10
31.88475808063932
 20
29.64999999999993
 30
0.0
 11
31.88475808063932
 21
21.55000000000008
 31
0.0
  0
LINE
  5
4C8A
330
1E
100
AcDbEntity
  8
虛線
 48
0.27
100
AcDbLine
 10
32.38475808063931
 20
29.64999999999993
 30
0.0
 11
32.38475808063931
 21
21.55000000000008
 31
0.0
  0
LINE
  5
4C8B
330
1E
100
AcDbEntity
  8
中心線
 48
0.27
100
AcDbLine
 10
28.50000000000632
 20
31.45
 30
0.0
 11
28.50000000000632
 21
15.49999999999995
 31
0.0
  0
LINE
  5
4C8C
330
1E
100
AcDbEntity
  8
虛線
 48
0.27
100
AcDbLine
 10
32.38475808063931
 20
21.55000000000008
 30
0.0
 11
24.38475808063932
 21
21.55000000000008
 31
0.0
  0
LINE
  5
4C8D
330
1E
100
AcDbEntity
  8
0
 48
0.27
100
AcDbLine
 10
25.00000000000632
 20
20.50000000000001
 30
0.0
 11
35.00000000000632
 21
20.50000000000001
 31
0.0
  0
LINE
  5
4C8E
330
1E
100
AcDbEntity
  8
0
 48
0.27
100
AcDbLine
 10
25.00000000000632
 20
6.598076211353273
 30
0.0
 11
27.25601480606856
 21
15.01763809020504
 31
0.0
  0
LINE
  5
4CA1
330
1E
100
AcDbEntity
  8
虛線
 48
0.27
100
AcDbLine
 10
22.88475808063931
 20
20.50000000000001
 30
0.0
 11
22.8847580806392
 21
0.3203061430151166
 31
0.0
  0
LINE
  5
4CA6
330
1E
100
AcDbEntity
  8
0
 48
0.27
100
AcDbLine
 10
25.00000000000632
 20
20.50000000000001
 30
0.0
 11
25.00000000000632
 21
6.598076211353784
 31
0.0
  0
LINE
  5
4CCC
330
1E
100
AcDbEntity
  8
虛線
 48
0.27
100
AcDbLine
 10
22.88475808063931
 20
20.50000000000001
 30
0.0
 11
25.00000000000632
 21
20.50000000000001
 31
0.0
  0
LINE
  5
4CCD
330
1E
100
AcDbEntity
  8
虛線
 48
0.27
100
AcDbLine
 10
24.38475808063932
 20
21.55000000000008
 30
0.0
 11
23.27642474730597
 21
20.50000000000001
 31
0.0
  0
LINE
  5
4CCE
330
1E
100
AcDbEntity
  8
0
 48
0.27
100
AcDbLine
 10
34.00000000000632
 20
16.49999999999995
 30
0.0
 11
29.18786645864675
 21
16.49999999999995
 31
0.0
  0
ARC
  5
4CCF
330
1E
100
AcDbEntity
  8
0
 48
0.27
100
AcDbCircle
 10
29.18786645864675
 20
14.49999999999995
 30
0.0
 40
2.0
100
AcDbArc
 50
90.0
 51
164.9999999999988
  0
LINE
  5
4CD0
330
1E
100
AcDbEntity
  8
虛線
 48
0.27
100
AcDbLine
 10
32.38475808063931
 20
21.55000000000008
 30
0.0
 11
33.5047580806392
 21
20.50000000000001
 31
0.0
  0
LINE
  5
4CD1
330
1E
100
AcDbEntity
  8
0
 48
0.27
100
AcDbLine
 10
35.00000000000632
 20
17.49999999999995
 30
0.0
 11
34.00000000000632
 21
16.49999999999995
 31
0.0
  0
LINE
  5
4CD2
330
1E
100
AcDbEntity
  8
虛線
 48
0.27
100
AcDbLine
 10
32.38475808063931
 20
29.64999999999993
 30
0.0
 11
24.38475808063932
 21
29.64999999999993
 31
0.0
  0
LINE
  5
4CD3
330
1E
100
AcDbEntity
  8
0
 48
0.27
100
AcDbLine
 10
33.50000000000632
 20
30.49999999999995
 30
0.0
 11
22.00000000000633
 21
30.49999999999995
 31
0.0
  0
LINE
  5
4CD4
330
1E
100
AcDbEntity
  8
0
 48
0.27
100
AcDbLine
 10
21.50000000000632
 20
29.99999999999996
 30
0.0
 11
6.500000000006327
 21
29.99999999999996
 31
0.0
  0
LINE
  5
4CDB
330
1E
100
AcDbEntity
  8
0
 48
0.27
100
AcDbLine
 10
22.00000000000633
 20
30.49999999999995
 30
0.0
 11
21.50000000000632
 21
29.99999999999996
 31
0.0
  0
LINE
  5
4CDC
330
1E
100
AcDbEntity
  8
0
 48
0.27
100
AcDbLine
 10
23.2
 20
27.99999999999353
 30
0.0
 11
21.7
 21
29.49999999999353
 31
0.0
  0
LINE
  5
4CDD
330
1E
100
AcDbEntity
  8
虛線
 48
0.27
100
AcDbLine
 10
24.38475808063932
 20
29.64999999999993
 30
0.0
 11
23.48753585841719
 21
30.49999999999995
 31
0.0
  0
LINE
  5
4CDE
330
1E
100
AcDbEntity
  8
0
 48
0.27
100
AcDbLine
 10
33.50000000000632
 20
30.49999999999995
 30
0.0
 11
35.00000000000632
 21
28.99999999999995
 31
0.0
  0
LINE
  5
4CDF
330
1E
100
AcDbEntity
  8
虛線
 48
0.27
100
AcDbLine
 10
32.38475808063931
 20
29.64999999999993
 30
0.0
 11
33.29142474730584
 21
30.49999999999995
 31
0.0
  0
LINE
  5
4CE0
330
1E
100
AcDbEntity
  8
指線
 48
0.27
100
AcDbLine
 10
19.2604834069692
 20
26.50333248013311
 30
0.0
 11
21.219843847657
 21
26.50368375007677
 31
0.0
  0
LINE
  5
4CE1
330
1E
100
AcDbEntity
  8
指線
 48
0.27
100
AcDbLine
 10
19.26063903289458
 20
25.49723307774186
 30
0.0
 11
21.21999947358238
 21
25.49758434768552
 31
0.0
  0
LINE
  5
4CE2
330
1E
100
AcDbEntity
  8
指線
 48
0.27
100
AcDbLine
 10
18.2543860235259
 20
26.50317675834334
 30
0.0
 11
16.29099340539153
 21
26.5029208718992
 31
0.0
  0
LINE
  5
4CE3
330
1E
100
AcDbEntity
  8
指線
 48
0.27
100
AcDbLine
 10
18.25454164945104
 20
25.49707735595232
 30
0.0
 11
16.29114903131668
 21
25.49682146950796
 31
0.0
  0
LINE
  5
4CE4
330
1E
100
AcDbEntity
  8
指線
 48
0.27
100
AcDbLine
 10
19.26063903289458
 20
25.49723307774186
 30
0.0
 11
19.26078130840211
 21
24.57744335907986
 31
0.0
  0
LINE
  5
4CE5
330
1E
100
AcDbEntity
  8
指線
 48
0.27
100
AcDbLine
 10
18.25454164945104
 20
25.49707735595232
 30
0.0
 11
18.25468414513732
 21
24.5758629129411
 31
0.0
  0
LINE
  5
4CE6
330
1E
100
AcDbEntity
  8
指線
 48
0.27
100
AcDbLine
 10
19.26034111682722
 20
27.42321810987623
 30
0.0
 11
19.2604834069692
 21
26.50333248013311
 31
0.0
  0
LINE
  5
4CE7
330
1E
100
AcDbEntity
  8
指線
 48
0.27
100
AcDbLine
 10
18.25424351277271
 20
27.4244873046823
 30
0.0
 11
18.2543860235259
 21
26.50317675834334
 31
0.0
  0
CIRCLE
  5
4CE8
330
1E
100
AcDbEntity
  8
指線
 48
0.27
100
AcDbCircle
 10
18.7554964394869
 20
26.00025260979238
 30
0.0
 40
2.515244062099623
  0
ARC
  5
4CE9
330
1E
100
AcDbEntity
  8
指線
 48
0.27
100
AcDbCircle
 10
18.7554964394869
 20
26.00025260979238
 30
0.0
 40
1.509867200341724
100
AcDbArc
 50
109.3892877642609
 51
160.5483054832645
  0
ARC
  5
4CEA
330
1E
100
AcDbEntity
  8
指線
 48
0.27
100
AcDbCircle
 10
18.7554964394869
 20
26.00025260979238
 30
0.0
 40
1.509867200341724
100
AcDbArc
 50
199.4714791587353
 51
250.6284375453168
  0
ARC
  5
4CEB
330
1E
100
AcDbEntity
  8
指線
 48
0.27
100
AcDbCircle
 10
18.7554964394869
 20
26.00025260979238
 30
0.0
 40
1.509867200341724
100
AcDbArc
 50
289.5515705539441
 51
340.546254997506
  0
ARC
  5
4CEC
330
1E
100
AcDbEntity
  8
指線
 48
0.27
100
AcDbCircle
 10
18.7554964394869
 20
26.00025260979238
 30
0.0
 40
1.509867200341724
100
AcDbArc
 50
19.46942867289129
 51
70.46615475562997
  0
CIRCLE
  5
4D07
330
1E
100
AcDbEntity
  8
指線
 48
0.27
100
AcDbCircle
 10
-18.74450356051309
 20
26.00025260979238
 30
0.0
 40
2.515244062099623
  0
ARC
  5
4D08
330
1E
100
AcDbEntity
  8
指線
 48
0.27
100
AcDbCircle
 10
-18.74450356051309
 20
26.00025260979238
 30
0.0
 40
1.509867200341724
100
AcDbArc
 50
199.4714791587353
 51
250.6284375453168
  0
ARC
  5
4D09
330
1E
100
AcDbEntity
  8
指線
 48
0.27
100
AcDbCircle
 10
-18.74450356051309
 20
26.00025260979238
 30
0.0
 40
1.509867200341724
100
AcDbArc
 50
109.3892877642609
 51
160.5483054832645
  0
LINE
  5
4D0A
330
1E
100
AcDbEntity
  8
指線
 48
0.27
100
AcDbLine
 10
-19.24545835054895
 20
25.49707735595232
 30
0.0
 11
-19.24531585486267
 21
24.5758629129411
 31
0.0
  0
LINE
  5
4D0B
330
1E
100
AcDbEntity
  8
指線
 48
0.27
100
AcDbLine
 10
-19.24575648722728
 20
27.4244873046823
 30
0.0
 11
-19.2456139764741
 21
26.50317675834334
 31
0.0
  0
LINE
  5
4D0C
330
1E
100
AcDbEntity
  8
指線
 48
0.27
100
AcDbLine
 10
-19.24545835054895
 20
25.49707735595232
 30
0.0
 11
-21.20885096868331
 21
25.49682146950796
 31
0.0
  0
LINE
  5
4D0D
330
1E
100
AcDbEntity
  8
指線
 48
0.27
100
AcDbLine
 10
-19.2456139764741
 20
26.50317675834334
 30
0.0
 11
-21.20900659460847
 21
26.5029208718992
 31
0.0
  0
ARC
  5
4D0E
330
1E
100
AcDbEntity
  8
指線
 48
0.27
100
AcDbCircle
 10
-18.74450356051309
 20
26.00025260979238
 30
0.0
 40
1.509867200341724
100
AcDbArc
 50
289.5515705539441
 51
340.546254997506
  0
ARC
  5
4D0F
330
1E
100
AcDbEntity
  8
指線
 48
0.27
100
AcDbCircle
 10
-18.74450356051309
 20
26.00025260979238
 30
0.0
 40
1.509867200341724
100
AcDbArc
 50
19.46942867289129
 51
70.46615475562997
  0
LINE
  5
4D10
330
1E
100
AcDbEntity
  8
指線
 48
0.27
100
AcDbLine
 10
-18.23965888317277
 20
27.42321810987623
 30
0.0
 11
-18.23951659303079
 21
26.50333248013311
 31
0.0
  0
LINE
  5
4D11
330
1E
100
AcDbEntity
  8
指線
 48
0.27
100
AcDbLine
 10
-18.23936096710541
 20
25.49723307774186
 30
0.0
 11
-18.23921869159788
 21
24.57744335907986
 31
0.0
  0
LINE
  5
4D12
330
1E
100
AcDbEntity
  8
指線
 48
0.27
100
AcDbLine
 10
-18.23936096710541
 20
25.49723307774186
 30
0.0
 11
-16.28000052641761
 21
25.49758434768552
 31
0.0
  0
LINE
  5
4D13
330
1E
100
AcDbEntity
  8
指線
 48
0.27
100
AcDbLine
 10
-18.23951659303079
 20
26.50333248013311
 30
0.0
 11
-16.28015615234299
 21
26.50368375007677
 31
0.0
  0
MTEXT
  5
4D1F
330
1E
100
AcDbEntity
  8
0
100
AcDbMText
 10
-26.66471112952797
 20
-16.07593689596899
 30
0.0
 40
7.800000159341863
 41
100.6094999999999
 71
     1
 72
     5
  1
\A1;{\fTimes New Roman|b0|i0|c0|p18;HGW25HC\PC : 3340 kgf\PC\fProxy 1|b0|i0|c0|p0;\H0.7x;\S^ 0;\fTimes New Roman|b0|i0|c0|p18;\H1.429x;: 7750 kgf}
 73
     1
 44
1.0
  0
ARC
  5
4D9B
330
1E
100
AcDbEntity
  8
0
  6
Continuous
100
AcDbCircle
 10
110.1469121187179
 20
108.6732835398933
 30
0.0
 40
4.0
100
AcDbArc
 50
90.0
 51
210.8352048940846
  0
ARC
  5
4D9C
330
1E
100
AcDbEntity
  8
0
  6
Continuous
100
AcDbCircle
 10
106.2511658746984
 20
99.2681201220175
 30
0.0
 40
6.971504732179473
100
AcDbArc
 50
50.7213499979131
 51
84.27865000208788
  0
LINE
  5
4D9D
330
1E
100
AcDbEntity
  8
0
  6
Continuous
100
AcDbLine
 10
106.1300838150795
 20
106.8641762996843
 30
0.0
 11
111.7080066536372
 21
104.5537250100831
 31
0.0
  0
LINE
  5
4D9E
330
1E
100
AcDbEntity
  8
0
100
AcDbLine
 10
72.4264222688184
 20
120.1732835398885
 30
0.0
 11
117.5079649412031
 21
120.1732835398885
 31
0.0
  0
LINE
  5
4D9F
330
1E
100
AcDbEntity
  8
0
100
AcDbLine
 10
107.6999170506855
 20
97.17328353988577
 30
0.0
 11
117.5079649412031
 21
97.17328353988932
 31
0.0
  0
LINE
  5
4DA0
330
1E
100
AcDbEntity
  8
0
  6
Continuous
100
AcDbLine
 10
107.3639509194707
 20
96.83731740867091
 30
0.0
 11
109.507895825004
 21
98.98126231420423
 31
0.0
  0
LINE
  5
4DA1
330
1E
100
AcDbEntity
  8
0
  6
Continuous
100
AcDbLine
 10
103.745470941203
 20
101.3681368532308
 30
0.0
 11
109.507895825004
 21
98.98126231420423
 31
0.0
  0
LINE
  5
4DA2
330
1E
100
AcDbEntity
  8
0
  6
Continuous
100
AcDbLine
 10
105.3053956662942
 20
102.9950184964309
 30
0.0
 11
109.5552415158461
 21
101.2346747075514
 31
0.0
  0
ARC
  5
4DA3
330
1E
100
AcDbEntity
  8
0
  6
Continuous
100
AcDbCircle
 10
110.7876512528098
 20
110.2201646473613
 30
0.0
 40
6.971504732179473
100
AcDbArc
 50
230.721349997913
 51
264.2786500020894
  0
LINE
  5
4DA4
330
1E
100
AcDbEntity
  8
0
  6
Continuous
100
AcDbLine
 10
105.3308104738711
 20
104.9345597592957
 30
0.0
 11
110.9087333124287
 21
102.6241084696944
 31
0.0
  0
LINE
  5
4DA5
330
1E
100
AcDbEntity
  8
0
100
AcDbLine
 10
72.42642226877427
 20
97.17328353987296
 30
0.0
 11
72.4264222688184
 21
120.1732835398885
 31
0.0
  0
ARC
  5
4DA6
330
1E
100
AcDbEntity
  8
0
  6
Continuous
100
AcDbCircle
 10
103.2412448150593
 20
103.9142919129034
 30
0.0
 40
2.059673609817605
100
AcDbArc
 50
335.8479011650596
 51
45.84790116506002
  0
LINE
  5
4DA7
330
1E
100
AcDbEntity
  8
中心線
 48
0.27
100
AcDbLine
 10
92.42642226876631
 20
115.6751679152661
 30
0.0
 11
92.42642226876631
 21
101.6713991645026
 31
0.0
  0
CIRCLE
  5
4DA8
330
1E
100
AcDbEntity
  8
0
100
AcDbCircle
 10
92.42642226876631
 20
108.6732835398844
 30
0.0
 40
5.499999999961204
  0
LINE
  5
4DA9
330
1E
100
AcDbEntity
  8
0
100
AcDbLine
 10
72.42642226879171
 20
97.17328353987296
 30
0.0
 11
106.5528569289947
 21
97.17328353988534
 31
0.0
  0
LINE
  5
4DAA
330
1E
100
AcDbEntity
  8
0
  6
Continuous
100
AcDbLine
 10
103.745470941203
 20
98.33614089084486
 30
0.0
 11
103.745470941203
 21
101.3681368532308
 31
0.0
  0
LINE
  5
4DAB
330
1E
100
AcDbEntity
  8
0
  6
Continuous
100
AcDbLine
 10
103.745470941203
 20
98.33614089084486
 30
0.0
 11
107.3639509194707
 21
96.83731740867091
 31
0.0
  0
ARC
  5
4DAC
330
1E
100
AcDbEntity
  8
0
  6
Continuous
100
AcDbCircle
 10
106.4892531674434
 20
100.559894554008
 30
0.0
 40
2.860349020536762
100
AcDbArc
 50
118.5864858262623
 51
163.5864858262621
  0
LINE
  5
4DAD
330
1E
100
AcDbEntity
  8
中心線
 48
0.27
100
AcDbLine
 10
99.30561821220646
 20
108.6732835398843
 30
0.0
 11
85.54722632532614
 21
108.6732835398844
 31
0.0
  0
CIRCLE
  5
4DAE
330
1E
100
AcDbEntity
  8
0
100
AcDbCircle
 10
92.42642226876631
 20
108.6732835398844
 30
0.0
 40
3.499999999961232
  0
ARC
  5
4DAF
330
1E
100
AcDbEntity
  8
0
  6
Continuous
100
AcDbCircle
 10
105.4205375552516
 20
105.1511800960768
 30
0.0
 40
1.854133729915247
100
AcDbArc
 50
34.63277999893714
 51
100.3672200010619
  0
ARC
  5
4DB0
330
1E
100
AcDbEntity
  8
0
  6
Continuous
100
AcDbCircle
 10
106.040356733699
 20
106.6475559629032
 30
0.0
 40
1.854133729915247
100
AcDbArc
 50
214.6327799989371
 51
280.3672200010619
  0
LINE
  5
4DB1
330
1E
100
AcDbEntity
  8
0
  6
Continuous
100
AcDbLine
 10
104.5147548111384
 20
105.593884849771
 30
0.0
 11
105.086832079654
 21
106.9750015501468
 31
0.0
  0
LINE
  5
4DB2
330
1E
100
AcDbEntity
  8
0
  6
Continuous
100
AcDbLine
 10
106.3740625313381
 20
104.8237343754392
 30
0.0
 11
106.9461397998538
 21
106.204851075815
 31
0.0
  0
LINE
  5
4DB3
330
1E
100
AcDbEntity
  8
0
 48
0.27
100
AcDbLine
 10
253.0264222688047
 20
97.17328353987666
 30
0.0
 11
253.0264222688051
 21
120.1732835398884
 31
0.0
  0
LINE
  5
4DB4
330
1E
100
AcDbEntity
  8
中心線
 48
2.0
100
AcDbLine
 10
167.807964941203
 20
144.7732835398888
 30
0.0
 11
167.807964941203
 21
72.57328353988907
 31
0.0
  0
LINE
  5
4DB5
330
1E
100
AcDbEntity
  8
0
100
AcDbLine
 10
207.1079649412029
 20
143.6732835398889
 30
0.0
 11
207.1079649412029
 21
73.47328353988894
 31
0.0
  0
CIRCLE
  5
4DB6
330
1E
100
AcDbEntity
  8
0
100
AcDbCircle
 10
233.026422268805
 20
108.6732835398889
 30
0.0
 40
5.499999999961204
  0
LINE
  5
4DB7
330
1E
100
AcDbEntity
  8
中心線
 48
0.27
100
AcDbLine
 10
233.026422268805
 20
115.6751679152706
 30
0.0
 11
233.026422268805
 21
101.6713991645072
 31
0.0
  0
LINE
  5
4DB8
330
1E
100
AcDbEntity
  8
0
100
AcDbLine
 10
218.1079649412028
 20
131.8732835398933
 30
0.0
 11
218.1079649412029
 21
85.47328353989332
 31
0.0
  0
LINE
  5
4DB9
330
1E
100
AcDbEntity
  8
0
 48
0.27
100
AcDbLine
 10
216.6079649412029
 20
85.47328353989266
 30
0.0
 11
216.6079649412029
 21
131.8732835398926
 31
0.0
  0
LINE
  5
4DBA
330
1E
100
AcDbEntity
  8
0
100
AcDbLine
 10
128.507964941203
 20
143.673283539889
 30
0.0
 11
128.507964941203
 21
73.47328353988894
 31
0.0
  0
LINE
  5
4DBB
330
1E
100
AcDbEntity
  8
0
 48
0.27
100
AcDbLine
 10
119.007964941203
 20
85.47328353989266
 30
0.0
 11
119.007964941203
 21
131.8732835398926
 31
0.0
  0
LINE
  5
4DBC
330
1E
100
AcDbEntity
  8
0
100
AcDbLine
 10
117.5079649412031
 20
131.8732835398933
 30
0.0
 11
117.507964941203
 21
85.47328353989332
 31
0.0
  0
LINE
  5
4DBD
330
1E
100
AcDbEntity
  8
0
  6
Continuous
100
AcDbLine
 10
110.0926773276545
 20
103.2834336935637
 30
0.0
 11
110.6647545961702
 21
104.6645503939395
 31
0.0
  0
ARC
  5
4DBE
330
1E
100
AcDbEntity
  8
0
  6
Continuous
100
AcDbCircle
 10
115.864480918249
 20
105.2232834403004
 30
0.0
 40
2.119009977045996
100
AcDbArc
 50
147.1327799989379
 51
212.867220001062
  0
ARC
  5
4DBF
330
1E
100
AcDbEntity
  8
0
  6
Continuous
100
AcDbCircle
 10
110.9984603938093
 20
102.8407288064755
 30
0.0
 40
1.854133729915247
100
AcDbArc
 50
34.63277999893714
 51
100.3672200010619
  0
LINE
  5
4DC0
330
1E
100
AcDbEntity
  8
0
100
AcDbLine
 10
207.1079649412029
 20
102.1732835398889
 30
0.0
 11
128.507964941203
 21
102.1732835398889
 31
0.0
  0
LINE
  5
4DC1
330
1E
100
AcDbEntity
  8
0
100
AcDbLine
 10
207.1079649412029
 20
102.873283539889
 30
0.0
 11
128.507964941203
 21
102.873283539889
 31
0.0
  0
LINE
  5
4DC2
330
1E
100
AcDbEntity
  8
0
100
AcDbLine
 10
207.1079649412029
 20
75.37328353988903
 30
0.0
 11
128.507964941203
 21
75.37328353988903
 31
0.0
  0
LINE
  5
4DC3
330
1E
100
AcDbEntity
  8
0
100
AcDbLine
 10
207.1079649412029
 20
73.47328353988894
 30
0.0
 11
128.507964941203
 21
73.47328353988894
 31
0.0
  0
LINE
  5
4DC4
330
1E
100
AcDbEntity
  8
0
100
AcDbLine
 10
207.1079649412029
 20
86.47328353988894
 30
0.0
 11
128.507964941203
 21
86.47328353988894
 31
0.0
  0
LINE
  5
4DC5
330
1E
100
AcDbEntity
  8
0
100
AcDbLine
 10
207.1079649412029
 20
87.17328353988898
 30
0.0
 11
128.507964941203
 21
87.17328353988898
 31
0.0
  0
INSERT
  5
4DC6
330
1E
100
AcDbEntity
  8
0
100
AcDbBlockReference
  2
A$C5AC322EB
 10
145.3079649412029
 20
80.17328353988899
 30
0.0
 50
270.0
  0
ARC
  5
4DC7
330
1E
100
AcDbEntity
  8
0
100
AcDbCircle
 10
117.8434887606973
 20
93.39161409943148
 30
0.0
 40
1.220011576012179
100
AcDbArc
 50
180.9276427879975
 51
254.0369778311712
  0
LINE
  5
4DC8
330
1E
100
AcDbEntity
  8
0
 48
0.27
100
AcDbLine
 10
128.507964941203
 20
85.4732835398885
 30
0.0
 11
117.507964941203
 21
85.47328353989332
 31
0.0
  0
LINE
  5
4DC9
330
1E
100
AcDbEntity
  8
中心線
100
AcDbLine
 10
115.7241151448319
 20
89.92186246140409
 30
0.0
 11
121.4757521192128
 21
89.92186246140409
 31
0.0
  0
LINE
  5
4DCA
330
1E
100
AcDbEntity
  8
0
100
AcDbLine
 10
116.6236370818447
 20
90.92186246140409
 30
0.0
 11
116.6236370818447
 21
88.92186246140409
 31
0.0
  0
ARC
  5
4DCB
330
1E
100
AcDbEntity
  8
0
100
AcDbCircle
 10
117.8434887606972
 20
88.94161409942119
 30
0.0
 40
1.220011576012179
100
AcDbArc
 50
180.9276427879975
 51
254.0369778311712
  0
ARC
  5
4DCC
330
1E
100
AcDbEntity
  8
0
100
AcDbCircle
 10
117.8434887606972
 20
90.90211082338697
 30
0.0
 40
1.220011576012179
100
AcDbArc
 50
105.9630221688286
 51
179.0723572120024
  0
LINE
  5
4DCD
330
1E
100
AcDbEntity
  8
中心線
100
AcDbLine
 10
115.7241151448319
 20
94.37186246141436
 30
0.0
 11
121.4757521192129
 21
94.37186246141436
 31
0.0
  0
ARC
  5
4DCE
330
1E
100
AcDbEntity
  8
0
100
AcDbCircle
 10
117.8434887606973
 20
95.35211082339726
 30
0.0
 40
1.220011576012179
100
AcDbArc
 50
105.9630221688286
 51
179.0723572120024
  0
LINE
  5
4DCF
330
1E
100
AcDbEntity
  8
0
100
AcDbLine
 10
116.6236370818448
 20
95.37186246141436
 30
0.0
 11
116.6236370818448
 21
93.37186246141436
 31
0.0
  0
LINE
  5
4DD0
330
1E
100
AcDbEntity
  8
0
  6
Continuous
100
AcDbLine
 10
114.0847234833124
 20
104.0732835398933
 30
0.0
 11
117.5079649412031
 21
104.0732835398933
 31
0.0
  0
ARC
  5
4DD1
330
1E
100
AcDbEntity
  8
0
  6
Continuous
100
AcDbCircle
 10
111.6648410466985
 20
100.4251241098035
 30
0.0
 40
2.059673609817604
100
AcDbArc
 50
89.15209883494084
 51
159.1520988349398
  0
ARC
  5
4DD2
330
1E
100
AcDbEntity
  8
0
  6
Continuous
100
AcDbCircle
 10
106.996235196108
 20
100.3498957218557
 30
0.0
 40
2.860349020536762
100
AcDbArc
 50
331.4135141737373
 51
16.41351417373787
  0
ARC
  5
4DD3
330
1E
100
AcDbEntity
  8
0
  6
Continuous
100
AcDbCircle
 10
111.6182795722566
 20
104.337104673302
 30
0.0
 40
1.854133729915247
100
AcDbArc
 50
214.6327799989371
 51
280.3672200010619
  0
LINE
  5
4DD4
330
1E
100
AcDbEntity
  8
0
  6
Continuous
100
AcDbLine
 10
111.9519427958078
 20
102.5132404399614
 30
0.0
 11
112.5240626891736
 21
103.8944600458287
 31
0.0
  0
INSERT
  5
4DD5
330
1E
100
AcDbEntity
  8
0
100
AcDbBlockReference
  2
A$C5AC322EB
 10
190.307964941203
 20
80.17328353988899
 30
0.0
 50
270.0
  0
LINE
  5
4DD6
330
1E
100
AcDbEntity
  8
0
100
AcDbLine
 10
253.0264222688047
 20
97.17328353987666
 30
0.0
 11
218.1079649412029
 21
97.17328353988932
 31
0.0
  0
ARC
  5
4DD7
330
1E
100
AcDbEntity
  8
0
100
AcDbCircle
 10
217.7724411217087
 20
93.39161409943148
 30
0.0
 40
1.220011576012179
100
AcDbArc
 50
285.9630221688286
 51
359.0723572120024
  0
LINE
  5
4DD8
330
1E
100
AcDbEntity
  8
0
 48
0.27
100
AcDbLine
 10
207.1079649412029
 20
85.4732835398885
 30
0.0
 11
218.1079649412029
 21
85.47328353989332
 31
0.0
  0
LINE
  5
4DD9
330
1E
100
AcDbEntity
  8
中心線
100
AcDbLine
 10
219.891814737574
 20
89.92186246140409
 30
0.0
 11
214.140177763193
 21
89.92186246140409
 31
0.0
  0
LINE
  5
4DDA
330
1E
100
AcDbEntity
  8
0
100
AcDbLine
 10
218.9922928005612
 20
90.92186246140409
 30
0.0
 11
218.9922928005612
 21
88.92186246140409
 31
0.0
  0
ARC
  5
4DDB
330
1E
100
AcDbEntity
  8
0
100
AcDbCircle
 10
217.7724411217087
 20
88.94161409942119
 30
0.0
 40
1.220011576012179
100
AcDbArc
 50
285.9630221688286
 51
359.0723572120024
  0
ARC
  5
4DDC
330
1E
100
AcDbEntity
  8
0
100
AcDbCircle
 10
217.7724411217087
 20
90.90211082338697
 30
0.0
 40
1.220011576012179
100
AcDbArc
 50
0.9276427879975701
 51
74.03697783117131
  0
LINE
  5
4DDD
330
1E
100
AcDbEntity
  8
中心線
100
AcDbLine
 10
219.891814737574
 20
94.37186246141436
 30
0.0
 11
214.140177763193
 21
94.37186246141436
 31
0.0
  0
ARC
  5
4DDE
330
1E
100
AcDbEntity
  8
0
100
AcDbCircle
 10
217.7724411217087
 20
95.35211082339726
 30
0.0
 40
1.220011576012179
100
AcDbArc
 50
0.9276427879975701
 51
74.03697783117131
  0
LINE
  5
4DDF
330
1E
100
AcDbEntity
  8
0
100
AcDbLine
 10
218.9922928005612
 20
95.37186246141436
 30
0.0
 11
218.9922928005612
 21
93.37186246141436
 31
0.0
  0
LINE
  5
4DE0
330
1E
100
AcDbEntity
  8
0
100
AcDbLine
 10
207.1079649412029
 20
114.4732835398889
 30
0.0
 11
128.507964941203
 21
114.4732835398889
 31
0.0
  0
LINE
  5
4DE1
330
1E
100
AcDbEntity
  8
0
100
AcDbLine
 10
207.1079649412029
 20
115.1732835398889
 30
0.0
 11
128.507964941203
 21
115.1732835398889
 31
0.0
  0
LINE
  5
4DE2
330
1E
100
AcDbEntity
  8
0
100
AcDbLine
 10
207.1079649412029
 20
141.9732835398889
 30
0.0
 11
128.507964941203
 21
141.9732835398889
 31
0.0
  0
LINE
  5
4DE3
330
1E
100
AcDbEntity
  8
0
100
AcDbLine
 10
128.507964941203
 20
143.673283539889
 30
0.0
 11
207.1079649412029
 21
143.6732835398889
 31
0.0
  0
LINE
  5
4DE4
330
1E
100
AcDbEntity
  8
0
100
AcDbLine
 10
207.1079649412029
 20
130.1732835398889
 30
0.0
 11
128.507964941203
 21
130.1732835398889
 31
0.0
  0
LINE
  5
4DE5
330
1E
100
AcDbEntity
  8
0
100
AcDbLine
 10
207.1079649412029
 20
130.873283539889
 30
0.0
 11
128.507964941203
 21
130.873283539889
 31
0.0
  0
LINE
  5
4DE6
330
1E
100
AcDbEntity
  8
中心線
 48
2.0
100
AcDbLine
 10
220.7448382505077
 20
108.673283539889
 30
0.0
 11
115.799507709751
 21
108.673283539889
 31
0.0
  0
LINE
  5
4DE7
330
1E
100
AcDbEntity
  8
0
100
AcDbLine
 10
116.6236370818448
 20
128.4247046183738
 30
0.0
 11
116.6236370818448
 21
126.4247046183738
 31
0.0
  0
ARC
  5
4DE8
330
1E
100
AcDbEntity
  8
0
  6
Continuous
100
AcDbCircle
 10
121.7129049208367
 20
108.6732835398933
 30
0.0
 40
7.96743397963368
100
AcDbArc
 50
163.2213499979121
 51
196.7786500020878
  0
LINE
  5
4DE9
330
1E
100
AcDbEntity
  8
0
  6
Continuous
100
AcDbLine
 10
113.745470941203
 20
105.2232834403004
 30
0.0
 11
113.745470941203
 21
112.1232836394862
 31
0.0
  0
LINE
  5
4DEA
330
1E
100
AcDbEntity
  8
0
  6
Continuous
100
AcDbLine
 10
114.0847234833124
 20
106.3732837390791
 30
0.0
 11
117.5079649412031
 21
106.3732837390791
 31
0.0
  0
LINE
  5
4DEB
330
1E
100
AcDbEntity
  8
0
  6
Continuous
100
AcDbLine
 10
111.2805154193587
 20
104.6732835398933
 30
0.0
 11
113.818093029218
 21
104.6732835398933
 31
0.0
  0
LINE
  5
4DEC
330
1E
100
AcDbEntity
  8
0
  6
Continuous
100
AcDbLine
 10
114.0847234833124
 20
110.9732833407075
 30
0.0
 11
117.5079649412031
 21
110.9732833407075
 31
0.0
  0
LINE
  5
4DED
330
1E
100
AcDbEntity
  8
0
  6
Continuous
100
AcDbLine
 10
114.0847234833124
 20
113.2732835398933
 30
0.0
 11
117.5079649412031
 21
113.2732835398933
 31
0.0
  0
ARC
  5
4DEE
330
1E
100
AcDbEntity
  8
0
  6
Continuous
100
AcDbCircle
 10
115.864480918249
 20
112.1232836394862
 30
0.0
 40
2.119009977045996
100
AcDbArc
 50
147.1327799989379
 51
212.867220001062
  0
LINE
  5
4DEF
330
1E
100
AcDbEntity
  8
0
  6
Continuous
100
AcDbLine
 10
110.1469121187179
 20
112.6732835398933
 30
0.0
 11
113.818093029218
 21
112.6732835398933
 31
0.0
  0
LINE
  5
4DF0
330
1E
100
AcDbEntity
  8
中心線
100
AcDbLine
 10
115.7241151448319
 20
122.9718624614143
 30
0.0
 11
121.4757521192129
 21
122.9718624614143
 31
0.0
  0
LINE
  5
4DF1
330
1E
100
AcDbEntity
  8
中心線
100
AcDbLine
 10
115.7241151448319
 20
127.4247046183738
 30
0.0
 11
121.4757521192129
 21
127.4247046183738
 31
0.0
  0
ARC
  5
4DF2
330
1E
100
AcDbEntity
  8
0
100
AcDbCircle
 10
117.8434887606973
 20
121.9916140994315
 30
0.0
 40
1.220011576012179
100
AcDbArc
 50
180.9276427879975
 51
254.0369778311712
  0
ARC
  5
4DF3
330
1E
100
AcDbEntity
  8
0
100
AcDbCircle
 10
117.8434887606973
 20
123.9521108233972
 30
0.0
 40
1.220011576012179
100
AcDbArc
 50
105.9630221688286
 51
179.0723572120024
  0
LINE
  5
4DF4
330
1E
100
AcDbEntity
  8
0
100
AcDbLine
 10
116.6236370818448
 20
123.9718624614143
 30
0.0
 11
116.6236370818448
 21
121.9718624614143
 31
0.0
  0
ARC
  5
4DF5
330
1E
100
AcDbEntity
  8
0
100
AcDbCircle
 10
117.8434887606973
 20
126.444456256391
 30
0.0
 40
1.220011576012179
100
AcDbArc
 50
180.9276427879975
 51
254.0369778311712
  0
LINE
  5
4DF6
330
1E
100
AcDbEntity
  8
0
 48
0.27
100
AcDbLine
 10
117.5079649412031
 20
131.8732835398933
 30
0.0
 11
128.507964941203
 21
131.8732835398884
 31
0.0
  0
ARC
  5
4DF7
330
1E
100
AcDbEntity
  8
0
100
AcDbCircle
 10
117.8434887606973
 20
128.4049529803567
 30
0.0
 40
1.220011576012179
100
AcDbArc
 50
105.9630221688286
 51
179.0723572120024
  0
INSERT
  5
4DF8
330
1E
100
AcDbEntity
  8
0
100
AcDbBlockReference
  2
A$C5AC322EB
 10
145.307964941203
 20
137.1732835398889
 30
0.0
 50
270.0
  0
INSERT
  5
4DF9
330
1E
100
AcDbEntity
  8
0
100
AcDbBlockReference
  2
A$C5AC322EB
 10
190.307964941203
 20
137.1732835398889
 30
0.0
 50
270.0
  0
LINE
  5
4DFA
330
1E
100
AcDbEntity
  8
0
100
AcDbLine
 10
253.0264222688051
 20
120.1732835398884
 30
0.0
 11
218.1079649412028
 21
120.1732835398885
 31
0.0
  0
LINE
  5
4DFB
330
1E
100
AcDbEntity
  8
0
100
AcDbLine
 10
218.9922928005612
 20
128.4247046183738
 30
0.0
 11
218.9922928005612
 21
126.4247046183738
 31
0.0
  0
ARC
  5
4DFC
330
1E
100
AcDbEntity
  8
0
100
AcDbCircle
 10
217.7724411217087
 20
121.9916140994315
 30
0.0
 40
1.220011576012179
100
AcDbArc
 50
285.9630221688286
 51
359.0723572120024
  0
LINE
  5
4DFD
330
1E
100
AcDbEntity
  8
中心線
100
AcDbLine
 10
219.891814737574
 20
122.9718624614143
 30
0.0
 11
214.140177763193
 21
122.9718624614143
 31
0.0
  0
LINE
  5
4DFE
330
1E
100
AcDbEntity
  8
中心線
100
AcDbLine
 10
219.891814737574
 20
127.4247046183738
 30
0.0
 11
214.140177763193
 21
127.4247046183738
 31
0.0
  0
ARC
  5
4DFF
330
1E
100
AcDbEntity
  8
0
100
AcDbCircle
 10
217.7724411217087
 20
123.9521108233972
 30
0.0
 40
1.220011576012179
100
AcDbArc
 50
0.9276427879975701
 51
74.03697783117131
  0
LINE
  5
4E00
330
1E
100
AcDbEntity
  8
0
100
AcDbLine
 10
218.9922928005612
 20
123.9718624614143
 30
0.0
 11
218.9922928005612
 21
121.9718624614143
 31
0.0
  0
ARC
  5
4E01
330
1E
100
AcDbEntity
  8
0
100
AcDbCircle
 10
217.7724411217087
 20
126.444456256391
 30
0.0
 40
1.220011576012179
100
AcDbArc
 50
285.9630221688286
 51
359.0723572120024
  0
CIRCLE
  5
4E02
330
1E
100
AcDbEntity
  8
0
100
AcDbCircle
 10
233.026422268805
 20
108.6732835398889
 30
0.0
 40
3.499999999961232
  0
LINE
  5
4E03
330
1E
100
AcDbEntity
  8
中心線
 48
0.27
100
AcDbLine
 10
239.9056182122452
 20
108.6732835398889
 30
0.0
 11
226.1472263253649
 21
108.6732835398889
 31
0.0
  0
LINE
  5
4E04
330
1E
100
AcDbEntity
  8
0
 48
0.27
100
AcDbLine
 10
218.1079649412028
 20
131.8732835398933
 30
0.0
 11
207.1079649412029
 21
131.8732835398884
 31
0.0
  0
ARC
  5
4E05
330
1E
100
AcDbEntity
  8
0
100
AcDbCircle
 10
217.7724411217087
 20
128.4049529803567
 30
0.0
 40
1.220011576012179
100
AcDbArc
 50
0.9276427879975701
 51
74.03697783117131
  0
ENDSEC
  0
SECTION
  2
OBJECTS
  0
DICTIONARY
  5
C
330
0
100
AcDbDictionary
281
     1
  3
ACAD_COLOR
350
3D97
  3
ACAD_GROUP
350
D
  3
ACAD_LAYOUT
350
19
  3
ACAD_MATERIAL
350
3D96
  3
ACAD_MLINESTYLE
350
16
  3
ACAD_PLOTSETTINGS
350
18
  3
ACAD_PLOTSTYLENAME
350
E
  3
ACDBHEADERROUNDTRIPXREC
350
4E0D
  3
AcDbVariableDictionary
350
3E63
  0
DICTIONARY
  5
43C2
330
2
100
AcDbDictionary
280
     1
281
     1
  3
ACAD_LAYERSTATES
360
43C3
  0
DICTIONARY
  5
3D1E
330
1E
100
AcDbDictionary
280
     1
281
     1
  3
ACAD_LAYOUTSELFREF
360
3D92
  0
DICTIONARY
  5
3D20
330
1A
100
AcDbDictionary
280
     1
281
     1
  3
ACAD_LAYOUTSELFREF
360
3D91
  0
DICTIONARY
  5
3D97
102
{ACAD_REACTORS
330
C
102
}
330
C
100
AcDbDictionary
281
     1
  0
DICTIONARY
  5
D
102
{ACAD_REACTORS
330
C
102
}
330
C
100
AcDbDictionary
281
     1
  3
*A1
350
4143
  3
*A10
350
43B7
  3
*A11
350
43B8
  3
*A12
350
4377
  3
*A13
350
43B9
  3
*A14
350
414E
  3
*A15
350
43BA
  3
*A16
350
4241
  3
*A17
350
43BB
  3
*A18
350
43BC
  3
*A19
350
43BD
  3
*A2
350
437D
  3
*A20
350
43BE
  3
*A21
350
4144
  3
*A22
350
4147
  3
*A23
350
4378
  3
*A24
350
43BF
  3
*A25
350
43C0
  3
*A26
350
43C1
  3
*A27
350
4148
  3
*A28
350
414C
  3
*A29
350
414F
  3
*A3
350
437E
  3
*A30
350
4149
  3
*A31
350
414A
  3
*A32
350
414B
  3
*A33
350
4235
  3
*A34
350
4239
  3
*A35
350
423B
  3
*A36
350
4236
  3
*A37
350
4237
  3
*A38
350
4238
  3
*A39
350
423C
  3
*A4
350
4240
  3
*A40
350
4373
  3
*A41
350
423D
  3
*A42
350
423E
  3
*A43
350
423F
  3
*A44
350
4374
  3
*A45
350
4379
  3
*A46
350
4375
  3
*A47
350
4145
  3
*A48
350
4376
  3
*A49
350
437A
  3
*A5
350
437F
  3
*A50
350
437B
  3
*A51
350
414D
  3
*A52
350
437C
  3
*A6
350
4146
  3
*A7
350
43B5
  3
*A8
350
423A
  3
*A9
350
43B6
  0
DICTIONARY
  5
19
102
{ACAD_REACTORS
330
C
102
}
330
C
100
AcDbDictionary
281
     1
  3
Model
350
21
  3
配置1
350
1D
  0
DICTIONARY
  5
3D96
102
{ACAD_REACTORS
330
C
102
}
330
C
100
AcDbDictionary
281
     1
  0
DICTIONARY
  5
16
102
{ACAD_REACTORS
330
C
102
}
330
C
100
AcDbDictionary
281
     1
  3
Standard
350
17
  0
DICTIONARY
  5
18
102
{ACAD_REACTORS
330
C
102
}
330
C
100
AcDbDictionary
281
     1
  3
LANSRO
350
4150
  0
ACDBDICTIONARYWDFLT
  5
E
102
{ACAD_REACTORS
330
C
102
}
330
C
100
AcDbDictionary
281
     1
  3
Normal
350
F
100
AcDbDictionaryWithDefault
340
F
  0
DICTIONARY
  5
4E0D
102
{ACAD_REACTORS
330
C
102
}
330
C
100
AcDbDictionary
281
     1
  3
CEPSNTYPE
350
4E17
  3
DIMSTYLEDATA
350
4E1B
  3
FINGERPRINTGUID
350
4E18
  3
HYPERLINKBASE
350
4E10
  3
INSUNITS
350
4E16
  3
LAYOUTDICT
350
4E12
  3
LWETCUNION
350
4E15
  3
PLOTSETDICT
350
4E13
  3
PLOTSTYLNAMDICT
350
4E14
  3
PSVPSCALE
350
4E1A
  3
PUCSBASE
350
4E1E
  3
PUCSORGBACK
350
4E24
  3
PUCSORGBOTTOM
350
4E20
  3
PUCSORGFRONT
350
4E23
  3
PUCSORGLEFT
350
4E21
  3
PUCSORGRIGHT
350
4E22
  3
PUCSORGTOP
350
4E1F
  3
PUCSORTHOREF
350
4E1C
  3
PUCSORTHOVIEW
350
4E1D
  3
STYLESHEET
350
4E11
  3
TSTACKALIGN
350
4E0E
  3
TSTACKSIZE
350
4E0F
  3
UCSBASE
350
4E27
  3
UCSORGBACK
350
4E2D
  3
UCSORGBOTTOM
350
4E29
  3
UCSORGFRONT
350
4E2C
  3
UCSORGLEFT
350
4E2A
  3
UCSORGRIGHT
350
4E2B
  3
UCSORGTOP
350
4E28
  3
UCSORTHOREF
350
4E25
  3
UCSORTHOVIEW
350
4E26
  3
VERSIONGUID
350
4E19
  0
DICTIONARY
  5
3E63
102
{ACAD_REACTORS
330
C
102
}
330
C
100
AcDbDictionary
281
     1
  3
DIMASSOC
350
3E64
  3
PROJECTNAME
350
3E65
  0
DICTIONARY
  5
43C3
102
{ACAD_REACTORS
330
43C2
102
}
330
43C2
100
AcDbDictionary
281
     1
  0
XRECORD
  5
3D92
102
{ACAD_REACTORS
330
3D1E
102
}
330
3D1E
100
AcDbXrecord
280
     1
340
1E
  0
XRECORD
  5
3D91
102
{ACAD_REACTORS
330
3D20
102
}
330
3D20
100
AcDbXrecord
280
     1
340
1A
  0
GROUP
  5
4143
102
{ACAD_REACTORS
330
D
102
}
330
D
100
AcDbGroup
300

 70
     1
 71
     1
  0
GROUP
  5
43B7
102
{ACAD_REACTORS
330
D
102
}
330
D
100
AcDbGroup
300

 70
     1
 71
     1
  0
GROUP
  5
43B8
102
{ACAD_REACTORS
330
D
102
}
330
D
100
AcDbGroup
300

 70
     1
 71
     1
  0
GROUP
  5
4377
102
{ACAD_REACTORS
330
D
102
}
330
D
100
AcDbGroup
300

 70
     1
 71
     1
  0
GROUP
  5
43B9
102
{ACAD_REACTORS
330
D
102
}
330
D
100
AcDbGroup
300

 70
     1
 71
     1
  0
GROUP
  5
414E
102
{ACAD_REACTORS
330
D
102
}
330
D
100
AcDbGroup
300

 70
     1
 71
     1
  0
GROUP
  5
43BA
102
{ACAD_REACTORS
330
D
102
}
330
D
100
AcDbGroup
300

 70
     1
 71
     1
  0
GROUP
  5
4241
102
{ACAD_REACTORS
330
D
102
}
330
D
100
AcDbGroup
300

 70
     1
 71
     1
  0
GROUP
  5
43BB
102
{ACAD_REACTORS
330
D
102
}
330
D
100
AcDbGroup
300

 70
     1
 71
     1
  0
GROUP
  5
43BC
102
{ACAD_REACTORS
330
D
102
}
330
D
100
AcDbGroup
300

 70
     1
 71
     1
  0
GROUP
  5
43BD
102
{ACAD_REACTORS
330
D
102
}
330
D
100
AcDbGroup
300

 70
     1
 71
     1
  0
GROUP
  5
437D
102
{ACAD_REACTORS
330
D
102
}
330
D
100
AcDbGroup
300

 70
     1
 71
     1
  0
GROUP
  5
43BE
102
{ACAD_REACTORS
330
D
102
}
330
D
100
AcDbGroup
300

 70
     1
 71
     1
  0
GROUP
  5
4144
102
{ACAD_REACTORS
330
D
102
}
330
D
100
AcDbGroup
300

 70
     1
 71
     1
  0
GROUP
  5
4147
102
{ACAD_REACTORS
330
D
102
}
330
D
100
AcDbGroup
300

 70
     1
 71
     1
  0
GROUP
  5
4378
102
{ACAD_REACTORS
330
D
102
}
330
D
100
AcDbGroup
300

 70
     1
 71
     1
  0
GROUP
  5
43BF
102
{ACAD_REACTORS
330
D
102
}
330
D
100
AcDbGroup
300

 70
     1
 71
     1
  0
GROUP
  5
43C0
102
{ACAD_REACTORS
330
D
102
}
330
D
100
AcDbGroup
300

 70
     1
 71
     1
  0
GROUP
  5
43C1
102
{ACAD_REACTORS
330
D
102
}
330
D
100
AcDbGroup
300

 70
     1
 71
     1
  0
GROUP
  5
4148
102
{ACAD_REACTORS
330
D
102
}
330
D
100
AcDbGroup
300

 70
     1
 71
     1
  0
GROUP
  5
414C
102
{ACAD_REACTORS
330
D
102
}
330
D
100
AcDbGroup
300

 70
     1
 71
     1
  0
GROUP
  5
414F
102
{ACAD_REACTORS
330
D
102
}
330
D
100
AcDbGroup
300

 70
     1
 71
     1
  0
GROUP
  5
437E
102
{ACAD_REACTORS
330
D
102
}
330
D
100
AcDbGroup
300

 70
     1
 71
     1
  0
GROUP
  5
4149
102
{ACAD_REACTORS
330
D
102
}
330
D
100
AcDbGroup
300

 70
     1
 71
     1
  0
GROUP
  5
414A
102
{ACAD_REACTORS
330
D
102
}
330
D
100
AcDbGroup
300

 70
     1
 71
     1
  0
GROUP
  5
414B
102
{ACAD_REACTORS
330
D
102
}
330
D
100
AcDbGroup
300

 70
     1
 71
     1
  0
GROUP
  5
4235
102
{ACAD_REACTORS
330
D
102
}
330
D
100
AcDbGroup
300

 70
     1
 71
     1
  0
GROUP
  5
4239
102
{ACAD_REACTORS
330
D
102
}
330
D
100
AcDbGroup
300

 70
     1
 71
     1
  0
GROUP
  5
423B
102
{ACAD_REACTORS
330
D
102
}
330
D
100
AcDbGroup
300

 70
     1
 71
     1
  0
GROUP
  5
4236
102
{ACAD_REACTORS
330
D
102
}
330
D
100
AcDbGroup
300

 70
     1
 71
     1
  0
GROUP
  5
4237
102
{ACAD_REACTORS
330
D
102
}
330
D
100
AcDbGroup
300

 70
     1
 71
     1
  0
GROUP
  5
4238
102
{ACAD_REACTORS
330
D
102
}
330
D
100
AcDbGroup
300

 70
     1
 71
     1
  0
GROUP
  5
423C
102
{ACAD_REACTORS
330
D
102
}
330
D
100
AcDbGroup
300

 70
     1
 71
     1
  0
GROUP
  5
4240
102
{ACAD_REACTORS
330
D
102
}
330
D
100
AcDbGroup
300

 70
     1
 71
     1
  0
GROUP
  5
4373
102
{ACAD_REACTORS
330
D
102
}
330
D
100
AcDbGroup
300

 70
     1
 71
     1
  0
GROUP
  5
423D
102
{ACAD_REACTORS
330
D
102
}
330
D
100
AcDbGroup
300

 70
     1
 71
     1
  0
GROUP
  5
423E
102
{ACAD_REACTORS
330
D
102
}
330
D
100
AcDbGroup
300

 70
     1
 71
     1
  0
GROUP
  5
423F
102
{ACAD_REACTORS
330
D
102
}
330
D
100
AcDbGroup
300

 70
     1
 71
     1
  0
GROUP
  5
4374
102
{ACAD_REACTORS
330
D
102
}
330
D
100
AcDbGroup
300

 70
     1
 71
     1
  0
GROUP
  5
4379
102
{ACAD_REACTORS
330
D
102
}
330
D
100
AcDbGroup
300

 70
     1
 71
     1
  0
GROUP
  5
4375
102
{ACAD_REACTORS
330
D
102
}
330
D
100
AcDbGroup
300

 70
     1
 71
     1
  0
GROUP
  5
4145
102
{ACAD_REACTORS
330
D
102
}
330
D
100
AcDbGroup
300

 70
     1
 71
     1
  0
GROUP
  5
4376
102
{ACAD_REACTORS
330
D
102
}
330
D
100
AcDbGroup
300

 70
     1
 71
     1
  0
GROUP
  5
437A
102
{ACAD_REACTORS
330
D
102
}
330
D
100
AcDbGroup
300

 70
     1
 71
     1
  0
GROUP
  5
437F
102
{ACAD_REACTORS
330
D
102
}
330
D
100
AcDbGroup
300

 70
     1
 71
     1
  0
GROUP
  5
437B
102
{ACAD_REACTORS
330
D
102
}
330
D
100
AcDbGroup
300

 70
     1
 71
     1
  0
GROUP
  5
414D
102
{ACAD_REACTORS
330
D
102
}
330
D
100
AcDbGroup
300

 70
     1
 71
     1
  0
GROUP
  5
437C
102
{ACAD_REACTORS
330
D
102
}
330
D
100
AcDbGroup
300

 70
     1
 71
     1
  0
GROUP
  5
4146
102
{ACAD_REACTORS
330
D
102
}
330
D
100
AcDbGroup
300

 70
     1
 71
     1
  0
GROUP
  5
43B5
102
{ACAD_REACTORS
330
D
102
}
330
D
100
AcDbGroup
300

 70
     1
 71
     1
  0
GROUP
  5
423A
102
{ACAD_REACTORS
330
D
102
}
330
D
100
AcDbGroup
300

 70
     1
 71
     1
  0
GROUP
  5
43B6
102
{ACAD_REACTORS
330
D
102
}
330
D
100
AcDbGroup
300

 70
     1
 71
     1
  0
LAYOUT
  5
21
102
{ACAD_XDICTIONARY
360
3E61
102
}
102
{ACAD_REACTORS
330
19
102
}
330
19
100
AcDbPlotSettings
  1

  2
HP 2200
  4

  6

 40
0.0
 41
0.0
 42
0.0
 43
0.0
 44
0.0
 45
0.0
 46
0.0
 47
0.0
 48
0.0
 49
0.0
140
0.0
141
0.0
142
1.0
143
1.0
 70
  1712
 72
     0
 73
     0
 74
     0
  7
AAA.ctb
 75
     0
147
1.0
148
0.0
149
0.0
100
AcDbLayout
  1
Model
 70
     1
 71
     0
 10
0.0
 20
0.0
 11
12.0
 21
9.0
 12
0.0
 22
0.0
 32
0.0
 14
0.0
 24
0.0
 34
0.0
 15
0.0
 25
0.0
 35
0.0
146
0.0
 13
0.0
 23
0.0
 33
0.0
 16
1.0
 26
0.0
 36
0.0
 17
0.0
 27
1.0
 37
0.0
 76
     0
330
1E
  0
LAYOUT
  5
1D
102
{ACAD_XDICTIONARY
360
3E5F
102
}
102
{ACAD_REACTORS
330
19
102
}
330
19
100
AcDbPlotSettings
  1

  2
HP 2200
  4

  6

 40
0.0
 41
0.0
 42
0.0
 43
0.0
 44
0.0
 45
0.0
 46
0.0
 47
0.0
 48
0.0
 49
0.0
140
0.0
141
0.0
142
1.0
143
1.0
 70
   688
 72
     0
 73
     0
 74
     5
  7
AAA.ctb
 75
    16
147
1.0
148
0.0
149
0.0
100
AcDbLayout
  1
配置1
 70
     0
 71
     1
 10
0.0
 20
0.0
 11
12.0
 21
9.0
 12
0.0
 22
0.0
 32
0.0
 14
1.000000000000000E+20
 24
1.000000000000000E+20
 34
1.000000000000000E+20
 15
-1.000000000000000E+20
 25
-1.000000000000000E+20
 35
-1.000000000000000E+20
146
0.0
 13
0.0
 23
0.0
 33
0.0
 16
1.0
 26
0.0
 36
0.0
 17
0.0
 27
1.0
 37
0.0
 76
     0
330
1A
  0
MLINESTYLE
  5
17
102
{ACAD_REACTORS
330
16
102
}
330
16
100
AcDbMlineStyle
  2
STANDARD
 70
     0
  3

 62
   256
 51
90.0
 52
90.0
 71
     2
 49
0.5
 62
   256
  6
BYLAYER
 49
-0.5
 62
   256
  6
BYLAYER
  0
PLOTSETTINGS
  5
4150
102
{ACAD_XDICTIONARY
360
4151
102
}
102
{ACAD_REACTORS
330
18
102
}
330
18
100
AcDbPlotSettings
  1
LANSRO
  2
\\1260\HP2200
  4
A4
  6

 40
6.043083190917968
 41
6.762742042541503
 42
7.736419677734375
 43
5.027069091796875
 44
209.9733276367187
 45
296.9683227539062
 46
5.15
 47
0.0
 48
0.0
 49
0.0
140
0.0
141
0.0
142
1.0
143
0.8829829263240881
 70
  1716
 72
     1
 73
     1
 74
     0
  7
AAA.ctb
 75
     0
147
1.132524729739748
148
-132.297014905803
149
-71.78507365635891
  0
ACDBPLACEHOLDER
  5
F
102
{ACAD_REACTORS
330
E
102
}
330
E
  0
XRECORD
  5
4E17
102
{ACAD_REACTORS
330
4E0D
102
}
330
4E0D
100
AcDbXrecord
280
     1
 90
        0
  0
XRECORD
  5
4E1B
102
{ACAD_REACTORS
330
4E0D
102
}
330
4E0D
100
AcDbXrecord
280
     1
1000
DSTYLE
1002
{
1070
   279
 70
     2
1002
}
  0
XRECORD
  5
4E18
102
{ACAD_REACTORS
330
4E0D
102
}
330
4E0D
100
AcDbXrecord
280
     1
  1
{77095E5F-9CE7-11D7-970D-0040F4541FA8}
  0
XRECORD
  5
4E10
102
{ACAD_REACTORS
330
4E0D
102
}
330
4E0D
100
AcDbXrecord
280
     1
  1

  0
XRECORD
  5
4E16
102
{ACAD_REACTORS
330
4E0D
102
}
330
4E0D
100
AcDbXrecord
280
     1
 90
        0
  0
XRECORD
  5
4E12
102
{ACAD_REACTORS
330
4E0D
102
}
330
4E0D
100
AcDbXrecord
280
     1
340
19
  0
XRECORD
  5
4E15
102
{ACAD_REACTORS
330
4E0D
102
}
330
4E0D
100
AcDbXrecord
280
     1
 90
    14877
  0
XRECORD
  5
4E13
102
{ACAD_REACTORS
330
4E0D
102
}
330
4E0D
100
AcDbXrecord
280
     1
340
18
  0
XRECORD
  5
4E14
102
{ACAD_REACTORS
330
4E0D
102
}
330
4E0D
100
AcDbXrecord
280
     1
340
E
  0
XRECORD
  5
4E1A
102
{ACAD_REACTORS
330
4E0D
102
}
330
4E0D
100
AcDbXrecord
280
     1
 40
0.0
  0
XRECORD
  5
4E1E
102
{ACAD_REACTORS
330
4E0D
102
}
330
4E0D
100
AcDbXrecord
280
     1
340
0
  0
XRECORD
  5
4E24
102
{ACAD_REACTORS
330
4E0D
102
}
330
4E0D
100
AcDbXrecord
280
     1
 10
0.0
 20
0.0
 30
0.0
  0
XRECORD
  5
4E20
102
{ACAD_REACTORS
330
4E0D
102
}
330
4E0D
100
AcDbXrecord
280
     1
 10
0.0
 20
0.0
 30
0.0
  0
XRECORD
  5
4E23
102
{ACAD_REACTORS
330
4E0D
102
}
330
4E0D
100
AcDbXrecord
280
     1
 10
0.0
 20
0.0
 30
0.0
  0
XRECORD
  5
4E21
102
{ACAD_REACTORS
330
4E0D
102
}
330
4E0D
100
AcDbXrecord
280
     1
 10
0.0
 20
0.0
 30
0.0
  0
XRECORD
  5
4E22
102
{ACAD_REACTORS
330
4E0D
102
}
330
4E0D
100
AcDbXrecord
280
     1
 10
0.0
 20
0.0
 30
0.0
  0
XRECORD
  5
4E1F
102
{ACAD_REACTORS
330
4E0D
102
}
330
4E0D
100
AcDbXrecord
280
     1
 10
0.0
 20
0.0
 30
0.0
  0
XRECORD
  5
4E1C
102
{ACAD_REACTORS
330
4E0D
102
}
330
4E0D
100
AcDbXrecord
280
     1
340
0
  0
XRECORD
  5
4E1D
102
{ACAD_REACTORS
330
4E0D
102
}
330
4E0D
100
AcDbXrecord
280
     1
 70
     0
  0
XRECORD
  5
4E11
102
{ACAD_REACTORS
330
4E0D
102
}
330
4E0D
100
AcDbXrecord
280
     1
  1

  0
XRECORD
  5
4E0E
102
{ACAD_REACTORS
330
4E0D
102
}
330
4E0D
100
AcDbXrecord
280
     1
 90
        1
  0
XRECORD
  5
4E0F
102
{ACAD_REACTORS
330
4E0D
102
}
330
4E0D
100
AcDbXrecord
280
     1
 90
       70
  0
XRECORD
  5
4E27
102
{ACAD_REACTORS
330
4E0D
102
}
330
4E0D
100
AcDbXrecord
280
     1
340
0
  0
XRECORD
  5
4E2D
102
{ACAD_REACTORS
330
4E0D
102
}
330
4E0D
100
AcDbXrecord
280
     1
 10
0.0
 20
0.0
 30
0.0
  0
XRECORD
  5
4E29
102
{ACAD_REACTORS
330
4E0D
102
}
330
4E0D
100
AcDbXrecord
280
     1
 10
0.0
 20
0.0
 30
0.0
  0
XRECORD
  5
4E2C
102
{ACAD_REACTORS
330
4E0D
102
}
330
4E0D
100
AcDbXrecord
280
     1
 10
0.0
 20
0.0
 30
0.0
  0
XRECORD
  5
4E2A
102
{ACAD_REACTORS
330
4E0D
102
}
330
4E0D
100
AcDbXrecord
280
     1
 10
0.0
 20
0.0
 30
0.0
  0
XRECORD
  5
4E2B
102
{ACAD_REACTORS
330
4E0D
102
}
330
4E0D
100
AcDbXrecord
280
     1
 10
0.0
 20
0.0
 30
0.0
  0
XRECORD
  5
4E28
102
{ACAD_REACTORS
330
4E0D
102
}
330
4E0D
100
AcDbXrecord
280
     1
 10
0.0
 20
0.0
 30
0.0
  0
XRECORD
  5
4E25
102
{ACAD_REACTORS
330
4E0D
102
}
330
4E0D
100
AcDbXrecord
280
     1
340
0
  0
XRECORD
  5
4E26
102
{ACAD_REACTORS
330
4E0D
102
}
330
4E0D
100
AcDbXrecord
280
     1
 70
     0
  0
XRECORD
  5
4E19
102
{ACAD_REACTORS
330
4E0D
102
}
330
4E0D
100
AcDbXrecord
280
     1
  1
{53902050-305C-4E78-95E7-A66AC021515F}
  0
DICTIONARYVAR
  5
3E64
102
{ACAD_REACTORS
330
3E63
102
}
330
3E63
100
DictionaryVariables
280
     0
  1
1
  0
DICTIONARYVAR
  5
3E65
102
{ACAD_REACTORS
330
3E63
102
}
330
3E63
100
DictionaryVariables
280
     0
  1

  0
DICTIONARY
  5
3E61
330
21
100
AcDbDictionary
280
     1
281
     1
  3
ACAD_XREC_ROUNDTRIP
360
3E62
  0
DICTIONARY
  5
3E5F
330
1D
100
AcDbDictionary
280
     1
281
     1
  3
ACAD_XREC_ROUNDTRIP
360
3E60
  0
DICTIONARY
  5
4151
330
4150
100
AcDbDictionary
280
     1
281
     1
  3
ACAD_XREC_ROUNDTRIP
360
4152
  0
XRECORD
  5
3E62
102
{ACAD_REACTORS
330
3E61
102
}
330
3E61
100
AcDbXrecord
280
     1
102
SHADEPLOT
 70
     0
102
SHADEPLOTRESLEVEL
 70
     2
102
SHADEPLOTCUSTOMDPI
 70
   300
  0
XRECORD
  5
3E60
102
{ACAD_REACTORS
330
3E5F
102
}
330
3E5F
100
AcDbXrecord
280
     1
102
SHADEPLOT
 70
     0
102
SHADEPLOTRESLEVEL
 70
     2
102
SHADEPLOTCUSTOMDPI
 70
   300
  0
XRECORD
  5
4152
102
{ACAD_REACTORS
330
4151
102
}
330
4151
100
AcDbXrecord
280
     1
102
SHADEPLOT
 70
     0
102
SHADEPLOTRESLEVEL
 70
     2
102
SHADEPLOTCUSTOMDPI
 70
   300
  0
ENDSEC
  0
EOF
