  0
SECTION
  2
HEADER
  9
$ACADVER
  1
AC1014
  9
$ACADMAINTVER
 70
     9
  9
$DWGCODEPAGE
  3
ANSI_1252
  9
$INSBASE
 10
0.0
 20
0.0
 30
0.0
  9
$EXTMIN
 10
11.12958598947261
 20
7.939011444088196
 30
0.0
  9
$EXTMAX
 10
327.1874885429069
 20
31.96243758033938
 30
0.0
  9
$LIMMIN
 10
0.0
 20
0.0
  9
$LIMMAX
 10
420.0
 20
297.0
  9
$ORTHOMODE
 70
     0
  9
$REGENMODE
 70
     1
  9
$FILLMODE
 70
     1
  9
$QTEXTMODE
 70
     0
  9
$MIRRTEXT
 70
     0
  9
$DRAGMODE
 70
     2
  9
$LTSCALE
 40
0.2
  9
$OSMODE
 70
    37
  9
$ATTMODE
 70
     1
  9
$TEXTSIZE
 40
2.5
  9
$TRACEWID
 40
1.0
  9
$TEXTSTYLE
  7
\M+2ABAC\M+2A6A12
  9
$CLAYER
  8
AM3
  9
$CELTYPE
  6
BYLAYER
  9
$CECOLOR
 62
   256
  9
$CELTSCALE
 40
1.0
  9
$DELOBJ
 70
     1
  9
$DISPSILH
 70
     0
  9
$DIMSCALE
 40
1.0
  9
$DIMASZ
 40
1.0
  9
$DIMEXO
 40
0.7
  9
$DIMDLI
 40
3.75
  9
$DIMRND
 40
0.0
  9
$DIMDLE
 40
0.0
  9
$DIMEXE
 40
0.3
  9
$DIMTP
 40
0.0
  9
$DIMTM
 40
0.0
  9
$DIMTXT
 40
1.199999999999999
  9
$DIMCEN
 40
2.5
  9
$DIMTSZ
 40
0.0
  9
$DIMTOL
 70
     0
  9
$DIMLIM
 70
     0
  9
$DIMTIH
 70
     0
  9
$DIMTOH
 70
     0
  9
$DIMSE1
 70
     0
  9
$DIMSE2
 70
     0
  9
$DIMTAD
 70
     1
  9
$DIMZIN
 70
     8
  9
$DIMBLK
  1

  9
$DIMASO
 70
     1
  9
$DIMSHO
 70
     1
  9
$DIMPOST
  1

  9
$DIMAPOST
  1

  9
$DIMALT
 70
     0
  9
$DIMALTD
 70
     3
  9
$DIMALTF
 40
0.03937007874016
  9
$DIMLFAC
 40
1.0
  9
$DIMTOFL
 70
     1
  9
$DIMTVP
 40
0.0
  9
$DIMTIX
 70
     0
  9
$DIMSOXD
 70
     0
  9
$DIMSAH
 70
     0
  9
$DIMBLK1
  1

  9
$DIMBLK2
  1

  9
$DIMSTYLE
  2
ISO-25
  9
$DIMCLRD
 70
     3
  9
$DIMCLRE
 70
     3
  9
$DIMCLRT
 70
     2
  9
$DIMTFAC
 40
1.0
  9
$DIMGAP
 40
0.5
  9
$DIMJUST
 70
     0
  9
$DIMSD1
 70
     0
  9
$DIMSD2
 70
     0
  9
$DIMTOLJ
 70
     0
  9
$DIMTZIN
 70
     8
  9
$DIMALTZ
 70
     0
  9
$DIMALTTZ
 70
     0
  9
$DIMFIT
 70
     3
  9
$DIMUPT
 70
     0
  9
$DIMUNIT
 70
     2
  9
$DIMDEC
 70
     2
  9
$DIMTDEC
 70
     2
  9
$DIMALTU
 70
     2
  9
$DIMALTTD
 70
     3
  9
$DIMTXSTY
  7
STANDARD
  9
$DIMAUNIT
 70
     0
  9
$LUNITS
 70
     2
  9
$LUPREC
 70
     4
  9
$SKETCHINC
 40
1.0
  9
$FILLETRAD
 40
0.0
  9
$AUNITS
 70
     0
  9
$AUPREC
 70
     0
  9
$MENU
  1
.
  9
$ELEVATION
 40
0.0
  9
$PELEVATION
 40
0.0
  9
$THICKNESS
 40
0.0
  9
$LIMCHECK
 70
     0
  9
$BLIPMODE
 70
     0
  9
$CHAMFERA
 40
0.0
  9
$CHAMFERB
 40
0.0
  9
$CHAMFERC
 40
20.0
  9
$CHAMFERD
 40
0.0
  9
$SKPOLY
 70
     0
  9
$TDCREATE
 40
2452648.158040394
  9
$TDUPDATE
 40
2453060.475095266
  9
$TDINDWG
 40
1.0783441551
  9
$TDUSRTIMER
 40
1.0783440394
  9
$USRTIMER
 70
     1
  9
$ANGBASE
 50
0.0
  9
$ANGDIR
 70
     0
  9
$PDMODE
 70
     0
  9
$PDSIZE
 40
0.0
  9
$PLINEWID
 40
0.0
  9
$COORDS
 70
     0
  9
$SPLFRAME
 70
     0
  9
$SPLINETYPE
 70
     6
  9
$SPLINESEGS
 70
    30
  9
$ATTDIA
 70
     0
  9
$ATTREQ
 70
     1
  9
$HANDLING
 70
-16383
  9
$HANDSEED
  5
22707
  9
$SURFTAB1
 70
     6
  9
$SURFTAB2
 70
     6
  9
$SURFTYPE
 70
     6
  9
$SURFU
 70
     6
  9
$SURFV
 70
     6
  9
$UCSNAME
  2

  9
$UCSORG
 10
0.0
 20
0.0
 30
0.0
  9
$UCSXDIR
 10
1.0
 20
0.0
 30
0.0
  9
$UCSYDIR
 10
0.0
 20
1.0
 30
0.0
  9
$PUCSNAME
  2

  9
$PUCSORG
 10
0.0
 20
0.0
 30
0.0
  9
$PUCSXDIR
 10
1.0
 20
0.0
 30
0.0
  9
$PUCSYDIR
 10
0.0
 20
1.0
 30
0.0
  9
$USERI1
 70
     0
  9
$USERI2
 70
     0
  9
$USERI3
 70
     0
  9
$USERI4
 70
     0
  9
$USERI5
 70
     0
  9
$USERR1
 40
0.0
  9
$USERR2
 40
0.0
  9
$USERR3
 40
0.0
  9
$USERR4
 40
0.0
  9
$USERR5
 40
0.0
  9
$WORLDVIEW
 70
     1
  9
$SHADEDGE
 70
     3
  9
$SHADEDIF
 70
    70
  9
$TILEMODE
 70
     1
  9
$MAXACTVP
 70
    48
  9
$PINSBASE
 10
0.0
 20
0.0
 30
0.0
  9
$PLIMCHECK
 70
     0
  9
$PEXTMIN
 10
1.000000000000000E+20
 20
1.000000000000000E+20
 30
1.000000000000000E+20
  9
$PEXTMAX
 10
-1.000000000000000E+20
 20
-1.000000000000000E+20
 30
-1.000000000000000E+20
  9
$PLIMMIN
 10
0.0
 20
0.0
  9
$PLIMMAX
 10
420.0
 20
297.0
  9
$UNITMODE
 70
     0
  9
$VISRETAIN
 70
     1
  9
$PLINEGEN
 70
     0
  9
$PSLTSCALE
 70
     1
  9
$TREEDEPTH
 70
  3020
  9
$PICKSTYLE
 70
     1
  9
$CMLSTYLE
  2
STANDARD
  9
$CMLJUST
 70
     0
  9
$CMLSCALE
 40
20.0
  9
$PROXYGRAPHICS
 70
     1
  9
$MEASUREMENT
 70
     0
  0
ENDSEC
  0
SECTION
  2
CLASSES
  0
CLASS
  1
ACDBDICTIONARYWDFLT
  2
AcDbDictionaryWithDefault
  3
AutoCAD 2000
 90
        0
280
     0
281
     0
  0
CLASS
  1
ACDBPLACEHOLDER
  2
AcDbPlaceHolder
  3
AutoCAD 2000
 90
        0
280
     0
281
     0
  0
CLASS
  1
LAYOUT
  2
AcDbLayout
  3
AutoCAD 2000
 90
        0
280
     0
281
     0
  0
CLASS
  1
DICTIONARYVAR
  2
AcDbDictionaryVar
  3
AutoCAD 2000
 90
        0
280
     0
281
     0
  0
CLASS
  1
PLOTSETTINGS
  2
AcDbPlotSettings
  3
AutoCAD 2000
 90
        0
280
     0
281
     0
  0
CLASS
  1
LONG_TRANSACTION
  2
AcDbLongTransaction
  3
AutoCAD 2000
 90
        0
280
     0
281
     0
  0
CLASS
  1
LWPOLYLINE
  2
AcDbPolyline
  3
AutoCAD 2000
 90
        0
280
     0
281
     1
  0
CLASS
  1
HATCH
  2
AcDbHatch
  3
AutoCAD 2000
 90
        0
280
     0
281
     1
  0
CLASS
  1
XRECORD
  2
AcDbXrecord
  3
AutoCAD 2000
 90
        0
280
     0
281
     0
  0
CLASS
  1
LONG_TRANSACTION
  2
AcDbLongTransaction
  3
AutoCAD 2000
 90
        0
280
     0
281
     0
  0
CLASS
  1
LWPOLYLINE
  2
AcDbPolyline
  3
AutoCAD 2000
 90
        0
280
     0
281
     1
  0
CLASS
  1
HATCH
  2
AcDbHatch
  3
AutoCAD 2000
 90
        0
280
     0
281
     1
  0
CLASS
  1
XRECORD
  2
AcDbXrecord
  3
AutoCAD 2000
 90
        0
280
     0
281
     0
  0
CLASS
  1
LONG_TRANSACTION
  2
AcDbLongTransaction
  3
AutoCAD 2000
 90
        0
280
     0
281
     0
  0
CLASS
  1
LWPOLYLINE
  2
AcDbPolyline
  3
AutoCAD 2000
 90
        0
280
     0
281
     1
  0
CLASS
  1
HATCH
  2
AcDbHatch
  3
AutoCAD 2000
 90
        0
280
     0
281
     1
  0
CLASS
  1
XRECORD
  2
AcDbXrecord
  3
AutoCAD 2000
 90
        0
280
     0
281
     0
  0
CLASS
  1
LONG_TRANSACTION
  2
AcDbLongTransaction
  3
AutoCAD 2000
 90
        0
280
     0
281
     0
  0
CLASS
  1
LWPOLYLINE
  2
AcDbPolyline
  3
AutoCAD 2000
 90
        0
280
     0
281
     1
  0
CLASS
  1
HATCH
  2
AcDbHatch
  3
AutoCAD 2000
 90
        0
280
     0
281
     1
  0
CLASS
  1
XRECORD
  2
AcDbXrecord
  3
AutoCAD 2000
 90
        0
280
     0
281
     0
  0
CLASS
  1
LONG_TRANSACTION
  2
AcDbLongTransaction
  3
AutoCAD 2000
 90
        0
280
     0
281
     0
  0
CLASS
  1
LWPOLYLINE
  2
AcDbPolyline
  3
AutoCAD 2000
 90
        0
280
     0
281
     1
  0
CLASS
  1
HATCH
  2
AcDbHatch
  3
AutoCAD 2000
 90
        0
280
     0
281
     1
  0
CLASS
  1
XRECORD
  2
AcDbXrecord
  3
AutoCAD 2000
 90
        0
280
     0
281
     0
  0
ENDSEC
  0
SECTION
  2
TABLES
  0
TABLE
  2
VPORT
  5
8
330
0
100
AcDbSymbolTable
 70
     2
  0
VPORT
  5
226E4
330
8
100
AcDbSymbolTableRecord
100
AcDbViewportTableRecord
  2
*ACTIVE
 70
     0
 10
0.0
 20
0.0
 11
1.0
 21
1.0
 12
169.1606149440173
 22
19.94245201889708
 13
0.0
 23
0.0
 14
10.0
 24
10.0
 15
10.0
 25
10.0
 16
0.0
 26
0.0
 36
1.0
 17
0.0
 27
0.0
 37
0.0
 40
185.4581529781854
 41
1.714285714285714
 42
50.0
 43
0.0
 44
0.0
 50
0.0
 51
0.0
 71
     0
 72
 20000
 73
     1
 74
     0
 75
     0
 76
     0
 77
     0
 78
     1
  0
ENDTAB
  0
TABLE
  2
LTYPE
  5
5
330
0
100
AcDbSymbolTable
 70
     3
  0
LTYPE
  5
14
330
5
100
AcDbSymbolTableRecord
100
AcDbLinetypeTableRecord
  2
BYBLOCK
 70
     0
  3

 72
    65
 73
     0
 40
0.0
  0
LTYPE
  5
15
330
5
100
AcDbSymbolTableRecord
100
AcDbLinetypeTableRecord
  2
BYLAYER
 70
     0
  3

 72
    65
 73
     0
 40
0.0
  0
LTYPE
  5
16
330
5
100
AcDbSymbolTableRecord
100
AcDbLinetypeTableRecord
  2
CONTINUOUS
 70
     0
  3
Solid line
 72
    65
 73
     0
 40
0.0
  0
LTYPE
  5
2D
330
5
100
AcDbSymbolTableRecord
100
AcDbLinetypeTableRecord
  2
CENTER2
 70
     0
  3
Center (.5x) ___ _ ___ _ ___ _ ___ _ ___ _ ___
 72
    65
 73
     4
 40
28.57499999999999
 49
19.05
 74
     0
 49
-3.174999999999998
 74
     0
 49
3.174999999999998
 74
     0
 49
-3.174999999999998
 74
     0
  0
LTYPE
  5
2E
330
5
100
AcDbSymbolTableRecord
100
AcDbLinetypeTableRecord
  2
DASHED2
 70
     0
  3
Dashed (.5x) _ _ _ _ _ _ _ _ _ _ _ _ _ _ _ _ _
 72
    65
 73
     2
 40
9.524999999999996
 49
6.349999999999998
 74
     0
 49
-3.174999999999998
 74
     0
  0
ENDTAB
  0
TABLE
  2
LAYER
  5
2
102
{ACAD_XDICTIONARY
360
DDEF
102
}
330
0
100
AcDbSymbolTable
 70
     4
  0
LAYER
  5
10
330
2
100
AcDbSymbolTableRecord
100
AcDbLayerTableRecord
  2
0
 70
     0
 62
     7
  6
CONTINUOUS
  0
LAYER
  5
30
330
2
100
AcDbSymbolTableRecord
100
AcDbLayerTableRecord
  2
AM3
 70
     0
 62
     6
  6
DASHED2
  0
LAYER
  5
34
330
2
100
AcDbSymbolTableRecord
100
AcDbLayerTableRecord
  2
AM7
 70
     0
 62
     4
  6
CENTER2
  0
LAYER
  5
8B8
330
2
100
AcDbSymbolTableRecord
100
AcDbLayerTableRecord
  2
DEFPOINTS
 70
     0
 62
     7
  6
CONTINUOUS
  0
ENDTAB
  0
TABLE
  2
STYLE
  5
3
330
0
100
AcDbSymbolTable
 70
     2
  0
STYLE
  5
11
330
3
100
AcDbSymbolTableRecord
100
AcDbTextStyleTableRecord
  2
STANDARD
 70
     0
 40
0.0
 41
1.0
 50
0.0
 71
     0
 42
2.5
  3
isocp.shx
  4
chineset.shx
  0
STYLE
  5
58
330
3
100
AcDbSymbolTableRecord
100
AcDbTextStyleTableRecord
  2
\M+2ABAC\M+2A6A12
 70
     0
 40
0.0
 41
1.0
 50
0.0
 71
     0
 42
2.5
  3

  4

1001
ACAD
1000
DFKai-SB
1071
    34881
  0
ENDTAB
  0
TABLE
  2
VIEW
  5
6
330
0
100
AcDbSymbolTable
 70
     0
  0
ENDTAB
  0
TABLE
  2
UCS
  5
7
330
0
100
AcDbSymbolTable
 70
     0
  0
ENDTAB
  0
TABLE
  2
APPID
  5
9
330
0
100
AcDbSymbolTable
 70
     3
  0
APPID
  5
12
330
9
100
AcDbSymbolTableRecord
100
AcDbRegAppTableRecord
  2
ACAD
 70
     0
  0
APPID
  5
131A7
330
9
100
AcDbSymbolTableRecord
100
AcDbRegAppTableRecord
  2
CONTENTBLOCKICON
 70
     0
  0
APPID
  5
1B726
330
9
100
AcDbSymbolTableRecord
100
AcDbRegAppTableRecord
  2
TCAD
 70
     0
  0
ENDTAB
  0
TABLE
  2
DIMSTYLE
  5
A
330
0
100
AcDbSymbolTable
 70
     2
  0
DIMSTYLE
105
27
330
A
100
AcDbSymbolTableRecord
100
AcDbDimStyleTableRecord
  2
ISO-25
 70
     0
  3

  4

  5

  6

  7

 40
1.0
 41
1.0
 42
0.7
 43
3.75
 44
0.3
 45
0.0
 46
0.0
 47
0.0
 48
0.0
140
1.199999999999999
141
2.5
142
0.0
143
0.03937007874016
144
1.0
145
0.0
146
1.0
147
0.5
 71
     0
 72
     0
 73
     0
 74
     0
 75
     0
 76
     0
 77
     1
 78
     8
170
     0
171
     3
172
     1
173
     0
174
     0
175
     0
176
     3
177
     3
178
     2
270
     2
271
     2
272
     2
273
     2
274
     3
340
11
275
     0
280
     0
281
     0
282
     0
283
     0
284
     8
285
     0
286
     0
287
     3
288
     0
  0
DIMSTYLE
105
13235
330
A
100
AcDbSymbolTableRecord
100
AcDbDimStyleTableRecord
  2
STANDARD
 70
     0
  3

  4

  5

  6

  7

 40
1.0
 41
0.18
 42
0.0625
 43
0.38
 44
0.18
 45
0.0
 46
0.0
 47
0.0
 48
0.0
140
0.18
141
0.09
142
0.0
143
25.4
144
1.0
145
0.0
146
1.0
147
0.09
 71
     0
 72
     0
 73
     1
 74
     1
 75
     0
 76
     0
 77
     0
 78
     0
170
     0
171
     2
172
     0
173
     0
174
     0
175
     0
176
     0
177
     0
178
     0
270
     2
271
     4
272
     4
273
     2
274
     2
340
11
275
     0
280
     0
281
     0
282
     0
283
     1
284
     0
285
     0
286
     0
287
     3
288
     0
  0
ENDTAB
  0
TABLE
  2
BLOCK_RECORD
  5
1
330
0
100
AcDbSymbolTable
 70
     0
  0
BLOCK_RECORD
  5
1F
102
{ACAD_XDICTIONARY
360
131A3
102
}
330
1
100
AcDbSymbolTableRecord
100
AcDbBlockTableRecord
  2
*MODEL_SPACE
  0
BLOCK_RECORD
  5
1B
102
{ACAD_XDICTIONARY
360
131A1
102
}
330
1
100
AcDbSymbolTableRecord
100
AcDbBlockTableRecord
  2
*PAPER_SPACE
  0
ENDTAB
  0
ENDSEC
  0
SECTION
  2
BLOCKS
  0
BLOCK
  5
20
330
1F
100
AcDbEntity
  8
0
100
AcDbBlockBegin
  2
*MODEL_SPACE
 70
     0
 10
0.0
 20
0.0
 30
0.0
  3
*MODEL_SPACE
  1

  0
ENDBLK
  5
21
330
1F
100
AcDbEntity
  8
0
100
AcDbBlockEnd
  0
BLOCK
  5
1C
330
1B
100
AcDbEntity
 67
     1
  8
0
100
AcDbBlockBegin
  2
*PAPER_SPACE
 70
     0
 10
0.0
 20
0.0
 30
0.0
  3
*PAPER_SPACE
  1

  0
ENDBLK
  5
1D
330
1B
100
AcDbEntity
 67
     1
  8
0
100
AcDbBlockEnd
  0
ENDSEC
  0
SECTION
  2
ENTITIES
  0
TEXT
  5
16C45
330
1F
100
AcDbEntity
  8
0
100
AcDbText
 10
283.0187947431563
 20
11.55867253901078
 30
0.0
 40
13.8518250193501
  1
HGR25T
  7
\M+2ABAC\M+2A6A12
100
AcDbText
  0
LINE
  5
20FE3
330
1F
100
AcDbEntity
  8
AM3
100
AcDbLine
 10
25.12958598947261
 20
24.96243758041885
 30
0.0
 11
22.62958598947261
 21
26.77879390043222
 31
0.0
  0
LINE
  5
20FE4
330
1F
100
AcDbEntity
  8
AM3
100
AcDbLine
 10
25.12958598947261
 20
24.96243758041885
 30
0.0
 11
20.12958598947261
 21
24.96243758041885
 31
0.0
  0
LINE
  5
20FE5
330
1F
100
AcDbEntity
  8
AM3
100
AcDbLine
 10
20.12958598947261
 20
24.96243758041885
 30
0.0
 11
22.62958598947261
 21
26.77879390043222
 31
0.0
  0
LINE
  5
20FE6
330
1F
100
AcDbEntity
  8
AM3
100
AcDbLine
 10
25.62958598947261
 20
21.96243758041885
 30
0.0
 11
19.62958598947261
 21
21.96243758041885
 31
0.0
  0
LINE
  5
20FE7
330
1F
100
AcDbEntity
  8
AM3
100
AcDbLine
 10
25.62958598947261
 20
10.46243758041873
 30
0.0
 11
26.12958598947261
 21
9.96243758041885
 31
0.0
  0
LINE
  5
20FE8
330
1F
100
AcDbEntity
  8
AM3
100
AcDbLine
 10
19.12958598947261
 20
9.96243758041885
 30
0.0
 11
19.62958598947261
 21
10.46243758041873
 31
0.0
  0
LINE
  5
20FE9
330
1F
100
AcDbEntity
  8
AM3
100
AcDbLine
 10
25.62958598947261
 20
10.46243758041873
 30
0.0
 11
19.62958598947261
 21
10.46243758041873
 31
0.0
  0
LINE
  5
20FEA
330
1F
100
AcDbEntity
  8
AM3
100
AcDbLine
 10
19.62958598947261
 20
10.46243758041873
 30
0.0
 11
19.62958598947261
 21
21.96243758041885
 31
0.0
  0
LINE
  5
20FEB
330
1F
100
AcDbEntity
  8
AM3
100
AcDbLine
 10
20.12958598947261
 20
10.46243758041873
 30
0.0
 11
20.12958598947261
 21
24.96243758041885
 31
0.0
  0
LINE
  5
20FEC
330
1F
100
AcDbEntity
  8
AM3
100
AcDbLine
 10
25.62958598947261
 20
10.46243758041873
 30
0.0
 11
25.62958598947261
 21
21.96243758041885
 31
0.0
  0
LINE
  5
20FED
330
1F
100
AcDbEntity
  8
AM3
100
AcDbLine
 10
25.12958598947261
 20
10.46243758041873
 30
0.0
 11
25.12958598947261
 21
24.96243758041885
 31
0.0
  0
LINE
  5
21005
330
1F
100
AcDbEntity
  8
0
 62
     0
100
AcDbLine
 10
32.62958598946272
 20
9.96243758040714
 30
0.0
 11
12.62958598946272
 21
9.962437580430446
 31
0.0
  0
LINE
  5
21006
330
1F
100
AcDbEntity
  8
AM7
100
AcDbLine
 10
22.62958598947045
 20
8.788707011478891
 30
0.0
 11
22.62958598948262
 21
28.25850573636557
 31
0.0
  0
LINE
  5
21009
330
1F
100
AcDbEntity
  8
0
100
AcDbLine
 10
14.12088713719128
 20
31.86243758040825
 30
0.0
 11
31.13828484172734
 21
31.86243758040075
 31
0.0
  0
LINE
  5
2100E
330
1F
100
AcDbEntity
  8
0
100
AcDbLine
 10
30.32958598945413
 20
19.86108656709029
 30
0.0
 11
34.12958598944703
 21
16.06108708050498
 31
0.0
  0
LINE
  5
21018
330
1F
100
AcDbEntity
  8
0
100
AcDbLine
 10
30.3295859894556
 20
23.24257571263263
 30
0.0
 11
30.32958598945413
 21
19.86108656709029
 31
0.0
  0
LINE
  5
2101D
330
1F
100
AcDbEntity
  8
0
100
AcDbLine
 10
34.12958598944703
 20
16.06108708050487
 30
0.0
 11
34.12958598944169
 21
11.46243758040532
 31
0.0
  0
LINE
  5
2101E
330
1F
100
AcDbEntity
  8
0
100
AcDbLine
 10
34.12958598944169
 20
11.46243758040532
 30
0.0
 11
32.62958598943999
 21
9.96243758040714
 31
0.0
  0
ARC
  5
21020
330
1F
100
AcDbEntity
  8
0
100
AcDbCircle
 10
34.07665300395933
 20
31.70491459489949
 30
0.0
 40
2.6
100
AcDbArc
 50
184.1382353078697
 51
265.8617483333271
  0
LINE
  5
21021
330
1F
100
AcDbEntity
  8
0
100
AcDbLine
 10
31.13828484172734
 20
31.86243758040075
 30
0.0
 11
31.48343159836656
 21
31.51729065832523
 31
0.0
  0
LINE
  5
21024
330
1F
100
AcDbEntity
  8
0
100
AcDbLine
 10
33.88902832698147
 20
29.1116932428763
 30
0.0
 11
33.9302087667811
 21
29.07051280307655
 31
0.0
  0
LINE
  5
21025
330
1F
100
AcDbEntity
  8
0
100
AcDbLine
 10
33.9302087667811
 20
29.07051280307655
 30
0.0
 11
33.93020876678019
 21
26.84319735772101
 31
0.0
  0
LINE
  5
21027
330
1F
100
AcDbEntity
  8
0
100
AcDbLine
 10
33.88902832698147
 20
26.80201691792092
 30
0.0
 11
33.9302087667811
 21
26.84319735772067
 31
0.0
  0
LINE
  5
21028
330
1F
100
AcDbEntity
  8
0
100
AcDbLine
 10
30.32958766680735
 20
23.24257501785063
 30
0.0
 11
31.48343159836656
 21
24.39641950247198
 31
0.0
  0
ARC
  5
2102A
330
1F
100
AcDbEntity
  8
0
100
AcDbCircle
 10
34.07665300395933
 20
24.20879556589784
 30
0.0
 40
2.6
100
AcDbArc
 50
94.13825166667288
 51
175.8617646921303
  0
LINE
  5
21034
330
1F
100
AcDbEntity
  8
0
100
AcDbLine
 10
14.92958598945563
 20
23.24257571263933
 30
0.0
 11
14.92958598945404
 21
19.861086567097
 31
0.0
  0
LINE
  5
21035
330
1F
100
AcDbEntity
  8
0
100
AcDbLine
 10
14.92958598945404
 20
19.861086567097
 30
0.0
 11
11.12958598947261
 21
16.06108708052954
 31
0.0
  0
LINE
  5
21038
330
1F
100
AcDbEntity
  8
0
100
AcDbLine
 10
11.12958598947795
 20
11.46243758040532
 30
0.0
 11
12.62958598947966
 21
9.96243758040714
 31
0.0
  0
LINE
  5
2103A
330
1F
100
AcDbEntity
  8
0
100
AcDbLine
 10
11.12958598947261
 20
16.06108708050487
 30
0.0
 11
11.12958598947795
 21
11.46243758040532
 31
0.0
  0
ARC
  5
2103F
330
1F
100
AcDbEntity
  8
0
100
AcDbCircle
 10
11.1825189749718
 20
24.20879556589784
 30
0.0
 40
2.6
100
AcDbArc
 50
4.138235307869726
 51
85.86174833332711
  0
ARC
  5
21042
330
1F
100
AcDbEntity
  8
0
100
AcDbCircle
 10
11.1825189749718
 20
31.70491459489949
 30
0.0
 40
2.6
100
AcDbArc
 50
274.1382516666728
 51
355.8617646921303
  0
LINE
  5
21043
330
1F
100
AcDbEntity
  8
0
100
AcDbLine
 10
11.32896321214991
 20
29.07051280307655
 30
0.0
 11
11.32896321215093
 21
26.84319735772101
 31
0.0
  0
LINE
  5
21048
330
1F
100
AcDbEntity
  8
0
100
AcDbLine
 10
11.37014365194966
 20
26.80201691792092
 30
0.0
 11
11.32896321214991
 21
26.84319735772067
 31
0.0
  0
LINE
  5
2104B
330
1F
100
AcDbEntity
  8
0
100
AcDbLine
 10
11.37014365194966
 20
29.1116932428763
 30
0.0
 11
11.32896321214991
 21
29.07051280307655
 31
0.0
  0
LINE
  5
21050
330
1F
100
AcDbEntity
  8
0
100
AcDbLine
 10
14.92958431212366
 20
23.24257501785063
 30
0.0
 11
13.77574038056445
 21
24.39641950247198
 31
0.0
  0
LINE
  5
21052
330
1F
100
AcDbEntity
  8
0
100
AcDbLine
 10
14.12088713720379
 20
31.86243758040075
 30
0.0
 11
13.77574038056445
 21
31.51729065832523
 31
0.0
  0
LINE
  5
21054
330
1F
100
AcDbEntity
  8
0
100
AcDbLine
 10
250.8086866890346
 20
9.962437580339042
 30
0.0
 11
90.80868668903463
 21
9.962437580339269
 31
0.0
  0
LINE
  5
21055
330
1F
100
AcDbEntity
  8
0
100
AcDbLine
 10
250.8086866890346
 20
11.46243758033927
 30
0.0
 11
90.80868668903463
 21
11.46243758033949
 31
0.0
  0
LINE
  5
21056
330
1F
100
AcDbEntity
  8
0
100
AcDbLine
 10
250.8086866890346
 20
31.9624375803387
 30
0.0
 11
90.80868668903463
 21
31.96243758033938
 31
0.0
  0
LINE
  5
21057
330
1F
100
AcDbEntity
  8
0
100
AcDbLine
 10
250.8086866890347
 20
31.51729065833649
 30
0.0
 11
90.80868668903463
 21
31.51729065833717
 31
0.0
  0
LINE
  5
21058
330
1F
100
AcDbEntity
  8
0
100
AcDbLine
 10
250.8086866890347
 20
29.11169324288767
 30
0.0
 11
90.80868668903457
 21
29.11169324288835
 31
0.0
  0
LINE
  5
21059
330
1F
100
AcDbEntity
  8
0
100
AcDbLine
 10
250.8086866890347
 20
29.07051280308792
 30
0.0
 11
90.80868668903463
 21
29.0705128030886
 31
0.0
  0
LINE
  5
2105A
330
1F
100
AcDbEntity
  8
0
100
AcDbLine
 10
250.8086866890346
 20
26.80201691793263
 30
0.0
 11
90.80868668903463
 21
26.80201691793331
 31
0.0
  0
LINE
  5
2105B
330
1F
100
AcDbEntity
  8
0
100
AcDbLine
 10
250.8086866890346
 20
26.84319735773238
 30
0.0
 11
90.80868668903463
 21
26.84319735773306
 31
0.0
  0
LINE
  5
2105C
330
1F
100
AcDbEntity
  8
0
100
AcDbLine
 10
250.8086866890346
 20
24.39641950248347
 30
0.0
 11
90.80868668903463
 21
24.39641950248403
 31
0.0
  0
LINE
  5
2105D
330
1F
100
AcDbEntity
  8
0
100
AcDbLine
 10
250.8086866890347
 20
23.34257568013743
 30
0.0
 11
90.80868668903457
 21
23.342575680138
 31
0.0
  0
LINE
  5
2105E
330
1F
100
AcDbEntity
  8
0
100
AcDbLine
 10
250.8086866890347
 20
19.76108658045188
 30
0.0
 11
90.80868668903457
 21
19.76108658045245
 31
0.0
  0
LINE
  5
2105F
330
1F
100
AcDbEntity
  8
0
100
AcDbLine
 10
250.8086866890347
 20
16.06108708044462
 30
0.0
 11
90.80868668903457
 21
16.06108708044519
 31
0.0
  0
LINE
  5
21060
330
1F
100
AcDbEntity
  8
0
100
AcDbLine
 10
90.80868668903463
 20
9.962437580339269
 30
0.0
 11
90.80868668903463
 21
31.96243758033938
 31
0.0
  0
LINE
  5
21061
330
1F
100
AcDbEntity
  8
0
100
AcDbLine
 10
250.8086866890346
 20
9.962437580339269
 30
0.0
 11
250.8086866890347
 21
31.96243758033938
 31
0.0
  0
LINE
  5
21062
330
1F
100
AcDbEntity
  8
0
100
AcDbLine
 10
250.8086866890346
 20
9.962437580339269
 30
0.0
 11
250.8086866890347
 21
31.96243758033938
 31
0.0
  0
LINE
  5
21063
330
1F
100
AcDbEntity
  8
AM7
100
AcDbLine
 10
110.8086866890753
 20
8.788707011478891
 30
0.0
 11
110.8086866890874
 21
28.25850573636557
 31
0.0
  0
LINE
  5
21064
330
1F
100
AcDbEntity
  8
AM3
100
AcDbLine
 10
113.8086866890774
 20
10.46243758041873
 30
0.0
 11
114.3086866890774
 21
9.96243758041885
 31
0.0
  0
LINE
  5
21065
330
1F
100
AcDbEntity
  8
AM3
100
AcDbLine
 10
107.3086866890775
 20
9.96243758041885
 30
0.0
 11
107.8086866890774
 21
10.46243758041873
 31
0.0
  0
LINE
  5
21066
330
1F
100
AcDbEntity
  8
AM3
100
AcDbLine
 10
113.8086866890774
 20
21.96243758041885
 30
0.0
 11
107.8086866890774
 21
21.96243758041885
 31
0.0
  0
LINE
  5
21067
330
1F
100
AcDbEntity
  8
AM3
100
AcDbLine
 10
113.8086866890774
 20
10.46243758041873
 30
0.0
 11
107.8086866890774
 21
10.46243758041873
 31
0.0
  0
LINE
  5
21068
330
1F
100
AcDbEntity
  8
AM3
100
AcDbLine
 10
113.3086866890774
 20
24.96243758041885
 30
0.0
 11
110.8086866890774
 21
26.77879390043222
 31
0.0
  0
LINE
  5
21069
330
1F
100
AcDbEntity
  8
AM3
100
AcDbLine
 10
108.3086866890774
 20
24.96243758041885
 30
0.0
 11
110.8086866890774
 21
26.77879390043222
 31
0.0
  0
LINE
  5
2106A
330
1F
100
AcDbEntity
  8
AM3
100
AcDbLine
 10
113.3086866890774
 20
24.96243758041885
 30
0.0
 11
108.3086866890774
 21
24.96243758041885
 31
0.0
  0
LINE
  5
2106B
330
1F
100
AcDbEntity
  8
AM3
100
AcDbLine
 10
107.8086866890774
 20
10.46243758041873
 30
0.0
 11
107.8086866890774
 21
21.96243758041885
 31
0.0
  0
LINE
  5
2106C
330
1F
100
AcDbEntity
  8
AM3
100
AcDbLine
 10
108.3086866890774
 20
10.46243758041873
 30
0.0
 11
108.3086866890774
 21
24.96243758041885
 31
0.0
  0
LINE
  5
2106D
330
1F
100
AcDbEntity
  8
AM3
100
AcDbLine
 10
113.3086866890774
 20
10.46243758041873
 30
0.0
 11
113.3086866890774
 21
24.96243758041885
 31
0.0
  0
LINE
  5
2106E
330
1F
100
AcDbEntity
  8
AM3
100
AcDbLine
 10
113.8086866890774
 20
10.46243758041873
 30
0.0
 11
113.8086866890774
 21
21.96243758041885
 31
0.0
  0
LINE
  5
2106F
330
1F
100
AcDbEntity
  8
AM7
100
AcDbLine
 10
170.8086866890754
 20
8.788707011478891
 30
0.0
 11
170.8086866890875
 21
28.25850573636557
 31
0.0
  0
LINE
  5
21070
330
1F
100
AcDbEntity
  8
AM3
100
AcDbLine
 10
173.8086866890775
 20
10.46243758041873
 30
0.0
 11
174.3086866890775
 21
9.96243758041885
 31
0.0
  0
LINE
  5
21071
330
1F
100
AcDbEntity
  8
AM3
100
AcDbLine
 10
167.3086866890776
 20
9.96243758041885
 30
0.0
 11
167.8086866890775
 21
10.46243758041873
 31
0.0
  0
LINE
  5
21072
330
1F
100
AcDbEntity
  8
AM3
100
AcDbLine
 10
173.8086866890775
 20
21.96243758041885
 30
0.0
 11
167.8086866890775
 21
21.96243758041885
 31
0.0
  0
LINE
  5
21073
330
1F
100
AcDbEntity
  8
AM3
100
AcDbLine
 10
173.8086866890775
 20
10.46243758041873
 30
0.0
 11
167.8086866890775
 21
10.46243758041873
 31
0.0
  0
LINE
  5
21074
330
1F
100
AcDbEntity
  8
AM3
100
AcDbLine
 10
173.3086866890775
 20
24.96243758041885
 30
0.0
 11
170.8086866890775
 21
26.77879390043222
 31
0.0
  0
LINE
  5
21075
330
1F
100
AcDbEntity
  8
AM3
100
AcDbLine
 10
168.3086866890775
 20
24.96243758041885
 30
0.0
 11
170.8086866890775
 21
26.77879390043222
 31
0.0
  0
LINE
  5
21076
330
1F
100
AcDbEntity
  8
AM3
100
AcDbLine
 10
173.3086866890775
 20
24.96243758041885
 30
0.0
 11
168.3086866890775
 21
24.96243758041885
 31
0.0
  0
LINE
  5
21077
330
1F
100
AcDbEntity
  8
AM3
100
AcDbLine
 10
167.8086866890775
 20
10.46243758041873
 30
0.0
 11
167.8086866890775
 21
21.96243758041885
 31
0.0
  0
LINE
  5
21078
330
1F
100
AcDbEntity
  8
AM3
100
AcDbLine
 10
168.3086866890775
 20
10.46243758041873
 30
0.0
 11
168.3086866890775
 21
24.96243758041885
 31
0.0
  0
LINE
  5
21079
330
1F
100
AcDbEntity
  8
AM3
100
AcDbLine
 10
173.3086866890775
 20
10.46243758041873
 30
0.0
 11
173.3086866890775
 21
24.96243758041885
 31
0.0
  0
LINE
  5
2107A
330
1F
100
AcDbEntity
  8
AM3
100
AcDbLine
 10
173.8086866890775
 20
10.46243758041873
 30
0.0
 11
173.8086866890775
 21
21.96243758041885
 31
0.0
  0
LINE
  5
2107B
330
1F
100
AcDbEntity
  8
AM7
100
AcDbLine
 10
230.8086866890754
 20
8.788707011478891
 30
0.0
 11
230.8086866890875
 21
28.25850573636557
 31
0.0
  0
LINE
  5
2107C
330
1F
100
AcDbEntity
  8
AM3
100
AcDbLine
 10
233.8086866890776
 20
10.46243758041873
 30
0.0
 11
234.3086866890776
 21
9.96243758041885
 31
0.0
  0
LINE
  5
2107D
330
1F
100
AcDbEntity
  8
AM3
100
AcDbLine
 10
227.3086866890776
 20
9.96243758041885
 30
0.0
 11
227.8086866890776
 21
10.46243758041873
 31
0.0
  0
LINE
  5
2107E
330
1F
100
AcDbEntity
  8
AM3
100
AcDbLine
 10
233.8086866890776
 20
21.96243758041885
 30
0.0
 11
227.8086866890776
 21
21.96243758041885
 31
0.0
  0
LINE
  5
2107F
330
1F
100
AcDbEntity
  8
AM3
100
AcDbLine
 10
233.8086866890776
 20
10.46243758041873
 30
0.0
 11
227.8086866890776
 21
10.46243758041873
 31
0.0
  0
LINE
  5
21080
330
1F
100
AcDbEntity
  8
AM3
100
AcDbLine
 10
233.3086866890776
 20
24.96243758041885
 30
0.0
 11
230.8086866890775
 21
26.77879390043222
 31
0.0
  0
LINE
  5
21081
330
1F
100
AcDbEntity
  8
AM3
100
AcDbLine
 10
228.3086866890776
 20
24.96243758041885
 30
0.0
 11
230.8086866890775
 21
26.77879390043222
 31
0.0
  0
LINE
  5
21082
330
1F
100
AcDbEntity
  8
AM3
100
AcDbLine
 10
233.3086866890776
 20
24.96243758041885
 30
0.0
 11
228.3086866890776
 21
24.96243758041885
 31
0.0
  0
LINE
  5
21083
330
1F
100
AcDbEntity
  8
AM3
100
AcDbLine
 10
227.8086866890776
 20
10.46243758041873
 30
0.0
 11
227.8086866890776
 21
21.96243758041885
 31
0.0
  0
LINE
  5
21084
330
1F
100
AcDbEntity
  8
AM3
100
AcDbLine
 10
228.3086866890776
 20
10.46243758041873
 30
0.0
 11
228.3086866890776
 21
24.96243758041885
 31
0.0
  0
LINE
  5
21085
330
1F
100
AcDbEntity
  8
AM3
100
AcDbLine
 10
233.3086866890776
 20
10.46243758041873
 30
0.0
 11
233.3086866890776
 21
24.96243758041885
 31
0.0
  0
LINE
  5
21086
330
1F
100
AcDbEntity
  8
AM3
100
AcDbLine
 10
233.8086866890776
 20
10.46243758041873
 30
0.0
 11
233.8086866890776
 21
21.96243758041885
 31
0.0
  0
ENDSEC
  0
SECTION
  2
OBJECTS
  0
DICTIONARY
  5
C
330
0
100
AcDbDictionary
  3
ACAD_COLOR
350
13437
  3
ACAD_GROUP
350
D
  3
ACAD_LAYOUT
350
1A
  3
ACAD_MATERIAL
350
13436
  3
ACAD_MLINESTYLE
350
17
  3
ACAD_PLOTSETTINGS
350
19
  3
ACAD_PLOTSTYLENAME
350
E
  3
ACDBHEADERROUNDTRIPXREC
350
226E5
  3
ACDBVARIABLEDICTIONARY
350
4E
  0
DICTIONARY
  5
DDEF
330
2
100
AcDbDictionary
280
     1
  3
ACAD_LAYERFILTERS
360
E68E
  3
ACAD_LAYERSTATES
360
DDF0
  0
DICTIONARY
  5
131A3
330
1F
100
AcDbDictionary
280
     1
  3
ACAD_LAYOUTSELFREF
360
22706
  0
DICTIONARY
  5
131A1
330
1B
100
AcDbDictionary
280
     1
  3
ACAD_LAYOUTSELFREF
360
22705
  0
DICTIONARY
  5
13437
102
{ACAD_REACTORS
330
C
102
}
330
C
100
AcDbDictionary
  0
DICTIONARY
  5
D
102
{ACAD_REACTORS
330
C
102
}
330
C
100
AcDbDictionary
  3
*A1
350
DDE2
  3
*A10
350
14FD9
  3
*A11
350
14FDA
  3
*A12
350
145E9
  3
*A13
350
14FDB
  3
*A14
350
DDED
  3
*A15
350
14FDC
  3
*A16
350
13CD3
  3
*A17
350
14FDD
  3
*A18
350
14FDE
  3
*A19
350
14FDF
  3
*A2
350
145EF
  3
*A20
350
14FE0
  3
*A21
350
DDE3
  3
*A22
350
DDE6
  3
*A23
350
145EA
  3
*A24
350
14FE1
  3
*A25
350
14FE2
  3
*A26
350
14FE3
  3
*A27
350
167FE
  3
*A28
350
DDEB
  3
*A29
350
DDEE
  3
*A3
350
145F0
  3
*A30
350
167FF
  3
*A31
350
16800
  3
*A32
350
16801
  3
*A33
350
16802
  3
*A34
350
13CCB
  3
*A35
350
13CCD
  3
*A36
350
16803
  3
*A37
350
16804
  3
*A38
350
DDE7
  3
*A39
350
16805
  3
*A4
350
13CD2
  3
*A40
350
145E5
  3
*A41
350
16806
  3
*A42
350
16807
  3
*A43
350
13CC7
  3
*A44
350
16808
  3
*A45
350
145EB
  3
*A46
350
16809
  3
*A47
350
1680A
  3
*A48
350
13CCE
  3
*A49
350
DDE8
  3
*A5
350
145F1
  3
*A50
350
DDE9
  3
*A51
350
DDEA
  3
*A52
350
145E6
  3
*A53
350
13CC8
  3
*A54
350
13CC9
  3
*A55
350
13CCA
  3
*A56
350
145EC
  3
*A57
350
13CCF
  3
*A58
350
13CD0
  3
*A59
350
13CD1
  3
*A6
350
DDE5
  3
*A60
350
145E7
  3
*A61
350
DDE4
  3
*A62
350
145E8
  3
*A63
350
145ED
  3
*A64
350
DDEC
  3
*A65
350
145EE
  3
*A7
350
14FD7
  3
*A8
350
13CCC
  3
*A9
350
14FD8
  0
DICTIONARY
  5
1A
102
{ACAD_REACTORS
330
C
102
}
330
C
100
AcDbDictionary
  0
DICTIONARY
  5
13436
102
{ACAD_REACTORS
330
C
102
}
330
C
100
AcDbDictionary
  0
DICTIONARY
  5
17
102
{ACAD_REACTORS
330
C
102
}
330
C
100
AcDbDictionary
  3
STANDARD
350
18
  0
DICTIONARY
  5
19
102
{ACAD_REACTORS
330
C
102
}
330
C
100
AcDbDictionary
  3
LANSRO
350
1AB
  0
ACDBDICTIONARYWDFLT
  5
E
102
{ACAD_REACTORS
330
C
102
}
330
C
100
AcDbDictionary
281
     1
  3
Normal
350
F
100
AcDbDictionaryWithDefault
340
F
  0
DICTIONARY
  5
226E5
102
{ACAD_REACTORS
330
C
102
}
330
C
100
AcDbDictionary
  3
CEPSNTYPE
350
226EF
  3
FINGERPRINTGUID
350
226F0
  3
HYPERLINKBASE
350
226E8
  3
INSUNITS
350
226EE
  3
LAYOUTDICT
350
226EA
  3
LWETCUNION
350
226ED
  3
PLOTSETDICT
350
226EB
  3
PLOTSTYLNAMDICT
350
226EC
  3
PSVPSCALE
350
226F2
  3
PUCSBASE
350
226F5
  3
PUCSORGBACK
350
226FB
  3
PUCSORGBOTTOM
350
226F7
  3
PUCSORGFRONT
350
226FA
  3
PUCSORGLEFT
350
226F8
  3
PUCSORGRIGHT
350
226F9
  3
PUCSORGTOP
350
226F6
  3
PUCSORTHOREF
350
226F3
  3
PUCSORTHOVIEW
350
226F4
  3
STYLESHEET
350
226E9
  3
TSTACKALIGN
350
226E6
  3
TSTACKSIZE
350
226E7
  3
UCSBASE
350
226FE
  3
UCSORGBACK
350
22704
  3
UCSORGBOTTOM
350
22700
  3
UCSORGFRONT
350
22703
  3
UCSORGLEFT
350
22701
  3
UCSORGRIGHT
350
22702
  3
UCSORGTOP
350
226FF
  3
UCSORTHOREF
350
226FC
  3
UCSORTHOVIEW
350
226FD
  3
VERSIONGUID
350
226F1
  0
DICTIONARY
  5
4E
102
{ACAD_REACTORS
330
C
102
}
330
C
100
AcDbDictionary
  3
DIMASSOC
350
1350B
  3
PROJECTNAME
350
1350C
  3
SORTENTS
350
4F
  0
DICTIONARY
  5
E68E
102
{ACAD_REACTORS
330
DDEF
102
}
330
DDEF
100
AcDbDictionary
280
     1
  0
DICTIONARY
  5
DDF0
102
{ACAD_REACTORS
330
DDEF
102
}
330
DDEF
100
AcDbDictionary
  0
XRECORD
  5
22706
102
{ACAD_REACTORS
330
131A3
102
}
330
131A3
100
AcDbXrecord
340
1F
  0
XRECORD
  5
22705
102
{ACAD_REACTORS
330
131A1
102
}
330
131A1
100
AcDbXrecord
340
1B
  0
GROUP
  5
DDE2
102
{ACAD_REACTORS
330
D
102
}
330
D
100
AcDbGroup
300

 70
     1
 71
     1
  0
GROUP
  5
14FD9
102
{ACAD_REACTORS
330
D
102
}
330
D
100
AcDbGroup
300

 70
     1
 71
     1
  0
GROUP
  5
14FDA
102
{ACAD_REACTORS
330
D
102
}
330
D
100
AcDbGroup
300

 70
     1
 71
     1
  0
GROUP
  5
145E9
102
{ACAD_REACTORS
330
D
102
}
330
D
100
AcDbGroup
300

 70
     1
 71
     1
  0
GROUP
  5
14FDB
102
{ACAD_REACTORS
330
D
102
}
330
D
100
AcDbGroup
300

 70
     1
 71
     1
  0
GROUP
  5
DDED
102
{ACAD_REACTORS
330
D
102
}
330
D
100
AcDbGroup
300

 70
     1
 71
     1
  0
GROUP
  5
14FDC
102
{ACAD_REACTORS
330
D
102
}
330
D
100
AcDbGroup
300

 70
     1
 71
     1
  0
GROUP
  5
13CD3
102
{ACAD_REACTORS
330
D
102
}
330
D
100
AcDbGroup
300

 70
     1
 71
     1
  0
GROUP
  5
14FDD
102
{ACAD_REACTORS
330
D
102
}
330
D
100
AcDbGroup
300

 70
     1
 71
     1
  0
GROUP
  5
14FDE
102
{ACAD_REACTORS
330
D
102
}
330
D
100
AcDbGroup
300

 70
     1
 71
     1
  0
GROUP
  5
14FDF
102
{ACAD_REACTORS
330
D
102
}
330
D
100
AcDbGroup
300

 70
     1
 71
     1
  0
GROUP
  5
145EF
102
{ACAD_REACTORS
330
D
102
}
330
D
100
AcDbGroup
300

 70
     1
 71
     1
  0
GROUP
  5
14FE0
102
{ACAD_REACTORS
330
D
102
}
330
D
100
AcDbGroup
300

 70
     1
 71
     1
  0
GROUP
  5
DDE3
102
{ACAD_REACTORS
330
D
102
}
330
D
100
AcDbGroup
300

 70
     1
 71
     1
  0
GROUP
  5
DDE6
102
{ACAD_REACTORS
330
D
102
}
330
D
100
AcDbGroup
300

 70
     1
 71
     1
  0
GROUP
  5
145EA
102
{ACAD_REACTORS
330
D
102
}
330
D
100
AcDbGroup
300

 70
     1
 71
     1
  0
GROUP
  5
14FE1
102
{ACAD_REACTORS
330
D
102
}
330
D
100
AcDbGroup
300

 70
     1
 71
     1
  0
GROUP
  5
14FE2
102
{ACAD_REACTORS
330
D
102
}
330
D
100
AcDbGroup
300

 70
     1
 71
     1
  0
GROUP
  5
14FE3
102
{ACAD_REACTORS
330
D
102
}
330
D
100
AcDbGroup
300

 70
     1
 71
     1
  0
GROUP
  5
167FE
102
{ACAD_REACTORS
330
D
102
}
330
D
100
AcDbGroup
300

 70
     1
 71
     1
  0
GROUP
  5
DDEB
102
{ACAD_REACTORS
330
D
102
}
330
D
100
AcDbGroup
300

 70
     1
 71
     1
  0
GROUP
  5
DDEE
102
{ACAD_REACTORS
330
D
102
}
330
D
100
AcDbGroup
300

 70
     1
 71
     1
  0
GROUP
  5
145F0
102
{ACAD_REACTORS
330
D
102
}
330
D
100
AcDbGroup
300

 70
     1
 71
     1
  0
GROUP
  5
167FF
102
{ACAD_REACTORS
330
D
102
}
330
D
100
AcDbGroup
300

 70
     1
 71
     1
  0
GROUP
  5
16800
102
{ACAD_REACTORS
330
D
102
}
330
D
100
AcDbGroup
300

 70
     1
 71
     1
  0
GROUP
  5
16801
102
{ACAD_REACTORS
330
D
102
}
330
D
100
AcDbGroup
300

 70
     1
 71
     1
  0
GROUP
  5
16802
102
{ACAD_REACTORS
330
D
102
}
330
D
100
AcDbGroup
300

 70
     1
 71
     1
  0
GROUP
  5
13CCB
102
{ACAD_REACTORS
330
D
102
}
330
D
100
AcDbGroup
300

 70
     1
 71
     1
  0
GROUP
  5
13CCD
102
{ACAD_REACTORS
330
D
102
}
330
D
100
AcDbGroup
300

 70
     1
 71
     1
  0
GROUP
  5
16803
102
{ACAD_REACTORS
330
D
102
}
330
D
100
AcDbGroup
300

 70
     1
 71
     1
  0
GROUP
  5
16804
102
{ACAD_REACTORS
330
D
102
}
330
D
100
AcDbGroup
300

 70
     1
 71
     1
  0
GROUP
  5
DDE7
102
{ACAD_REACTORS
330
D
102
}
330
D
100
AcDbGroup
300

 70
     1
 71
     1
  0
GROUP
  5
16805
102
{ACAD_REACTORS
330
D
102
}
330
D
100
AcDbGroup
300

 70
     1
 71
     1
  0
GROUP
  5
13CD2
102
{ACAD_REACTORS
330
D
102
}
330
D
100
AcDbGroup
300

 70
     1
 71
     1
  0
GROUP
  5
145E5
102
{ACAD_REACTORS
330
D
102
}
330
D
100
AcDbGroup
300

 70
     1
 71
     1
  0
GROUP
  5
16806
102
{ACAD_REACTORS
330
D
102
}
330
D
100
AcDbGroup
300

 70
     1
 71
     1
  0
GROUP
  5
16807
102
{ACAD_REACTORS
330
D
102
}
330
D
100
AcDbGroup
300

 70
     1
 71
     1
  0
GROUP
  5
13CC7
102
{ACAD_REACTORS
330
D
102
}
330
D
100
AcDbGroup
300

 70
     1
 71
     1
  0
GROUP
  5
16808
102
{ACAD_REACTORS
330
D
102
}
330
D
100
AcDbGroup
300

 70
     1
 71
     1
  0
GROUP
  5
145EB
102
{ACAD_REACTORS
330
D
102
}
330
D
100
AcDbGroup
300

 70
     1
 71
     1
  0
GROUP
  5
16809
102
{ACAD_REACTORS
330
D
102
}
330
D
100
AcDbGroup
300

 70
     1
 71
     1
  0
GROUP
  5
1680A
102
{ACAD_REACTORS
330
D
102
}
330
D
100
AcDbGroup
300

 70
     1
 71
     1
  0
GROUP
  5
13CCE
102
{ACAD_REACTORS
330
D
102
}
330
D
100
AcDbGroup
300

 70
     1
 71
     1
  0
GROUP
  5
DDE8
102
{ACAD_REACTORS
330
D
102
}
330
D
100
AcDbGroup
300

 70
     1
 71
     1
  0
GROUP
  5
145F1
102
{ACAD_REACTORS
330
D
102
}
330
D
100
AcDbGroup
300

 70
     1
 71
     1
  0
GROUP
  5
DDE9
102
{ACAD_REACTORS
330
D
102
}
330
D
100
AcDbGroup
300

 70
     1
 71
     1
  0
GROUP
  5
DDEA
102
{ACAD_REACTORS
330
D
102
}
330
D
100
AcDbGroup
300

 70
     1
 71
     1
  0
GROUP
  5
145E6
102
{ACAD_REACTORS
330
D
102
}
330
D
100
AcDbGroup
300

 70
     1
 71
     1
  0
GROUP
  5
13CC8
102
{ACAD_REACTORS
330
D
102
}
330
D
100
AcDbGroup
300

 70
     1
 71
     1
  0
GROUP
  5
13CC9
102
{ACAD_REACTORS
330
D
102
}
330
D
100
AcDbGroup
300

 70
     1
 71
     1
  0
GROUP
  5
13CCA
102
{ACAD_REACTORS
330
D
102
}
330
D
100
AcDbGroup
300

 70
     1
 71
     1
  0
GROUP
  5
145EC
102
{ACAD_REACTORS
330
D
102
}
330
D
100
AcDbGroup
300

 70
     1
 71
     1
  0
GROUP
  5
13CCF
102
{ACAD_REACTORS
330
D
102
}
330
D
100
AcDbGroup
300

 70
     1
 71
     1
  0
GROUP
  5
13CD0
102
{ACAD_REACTORS
330
D
102
}
330
D
100
AcDbGroup
300

 70
     1
 71
     1
  0
GROUP
  5
13CD1
102
{ACAD_REACTORS
330
D
102
}
330
D
100
AcDbGroup
300

 70
     1
 71
     1
  0
GROUP
  5
DDE5
102
{ACAD_REACTORS
330
D
102
}
330
D
100
AcDbGroup
300

 70
     1
 71
     1
  0
GROUP
  5
145E7
102
{ACAD_REACTORS
330
D
102
}
330
D
100
AcDbGroup
300

 70
     1
 71
     1
  0
GROUP
  5
DDE4
102
{ACAD_REACTORS
330
D
102
}
330
D
100
AcDbGroup
300

 70
     1
 71
     1
  0
GROUP
  5
145E8
102
{ACAD_REACTORS
330
D
102
}
330
D
100
AcDbGroup
300

 70
     1
 71
     1
  0
GROUP
  5
145ED
102
{ACAD_REACTORS
330
D
102
}
330
D
100
AcDbGroup
300

 70
     1
 71
     1
  0
GROUP
  5
DDEC
102
{ACAD_REACTORS
330
D
102
}
330
D
100
AcDbGroup
300

 70
     1
 71
     1
  0
GROUP
  5
145EE
102
{ACAD_REACTORS
330
D
102
}
330
D
100
AcDbGroup
300

 70
     1
 71
     1
  0
GROUP
  5
14FD7
102
{ACAD_REACTORS
330
D
102
}
330
D
100
AcDbGroup
300

 70
     1
 71
     1
  0
GROUP
  5
13CCC
102
{ACAD_REACTORS
330
D
102
}
330
D
100
AcDbGroup
300

 70
     1
 71
     1
  0
GROUP
  5
14FD8
102
{ACAD_REACTORS
330
D
102
}
330
D
100
AcDbGroup
300

 70
     1
 71
     1
  0
MLINESTYLE
  5
18
102
{ACAD_REACTORS
330
17
102
}
330
17
100
AcDbMlineStyle
  2
STANDARD
 70
     0
  3

 62
   256
 51
90.0
 52
90.0
 71
     2
 49
0.5
 62
   256
  6
BYLAYER
 49
-0.5
 62
   256
  6
BYLAYER
  0
PLOTSETTINGS
  5
1AB
102
{ACAD_XDICTIONARY
360
13503
102
}
102
{ACAD_REACTORS
330
19
102
}
330
19
100
AcDbPlotSettings
  1
LANSRO
  2
\\1260\HP2200
  4
A4
  6

 40
6.043083190917967
 41
6.762742042541503
 42
7.736419677734375
 43
5.027069091796875
 44
209.9733276367186
 45
296.9683227539062
 46
5.15
 47
0.0
 48
0.0
 49
0.0
140
0.0
141
0.0
142
1.0
143
0.8829829263240881
 70
  1716
 72
     1
 73
     1
 74
     0
  7
AAA.ctb
 75
     0
147
1.132524729739748
148
-132.2970149058029
149
-71.78507365635891
  0
ACDBPLACEHOLDER
  5
F
102
{ACAD_REACTORS
330
E
102
}
330
E
100
AcDbPlaceHolder
280
     0
  0
XRECORD
  5
226EF
102
{ACAD_REACTORS
330
226E5
102
}
330
226E5
100
AcDbXrecord
 90
        0
  0
XRECORD
  5
226F0
102
{ACAD_REACTORS
330
226E5
102
}
330
226E5
100
AcDbXrecord
  1
{39E6D4C8-9137-4BAE-85E5-615910EF8948}
  0
XRECORD
  5
226E8
102
{ACAD_REACTORS
330
226E5
102
}
330
226E5
100
AcDbXrecord
  1

  0
XRECORD
  5
226EE
102
{ACAD_REACTORS
330
226E5
102
}
330
226E5
100
AcDbXrecord
 90
        4
  0
XRECORD
  5
226EA
102
{ACAD_REACTORS
330
226E5
102
}
330
226E5
100
AcDbXrecord
340
1A
  0
XRECORD
  5
226ED
102
{ACAD_REACTORS
330
226E5
102
}
330
226E5
100
AcDbXrecord
 90
    10781
  0
XRECORD
  5
226EB
102
{ACAD_REACTORS
330
226E5
102
}
330
226E5
100
AcDbXrecord
340
19
  0
XRECORD
  5
226EC
102
{ACAD_REACTORS
330
226E5
102
}
330
226E5
100
AcDbXrecord
340
E
  0
XRECORD
  5
226F2
102
{ACAD_REACTORS
330
226E5
102
}
330
226E5
100
AcDbXrecord
 40
0.0
  0
XRECORD
  5
226F5
102
{ACAD_REACTORS
330
226E5
102
}
330
226E5
100
AcDbXrecord
340
0
  0
XRECORD
  5
226FB
102
{ACAD_REACTORS
330
226E5
102
}
330
226E5
100
AcDbXrecord
 10
0.0
 20
0.0
 30
0.0
  0
XRECORD
  5
226F7
102
{ACAD_REACTORS
330
226E5
102
}
330
226E5
100
AcDbXrecord
 10
0.0
 20
0.0
 30
0.0
  0
XRECORD
  5
226FA
102
{ACAD_REACTORS
330
226E5
102
}
330
226E5
100
AcDbXrecord
 10
0.0
 20
0.0
 30
0.0
  0
XRECORD
  5
226F8
102
{ACAD_REACTORS
330
226E5
102
}
330
226E5
100
AcDbXrecord
 10
0.0
 20
0.0
 30
0.0
  0
XRECORD
  5
226F9
102
{ACAD_REACTORS
330
226E5
102
}
330
226E5
100
AcDbXrecord
 10
0.0
 20
0.0
 30
0.0
  0
XRECORD
  5
226F6
102
{ACAD_REACTORS
330
226E5
102
}
330
226E5
100
AcDbXrecord
 10
0.0
 20
0.0
 30
0.0
  0
XRECORD
  5
226F3
102
{ACAD_REACTORS
330
226E5
102
}
330
226E5
100
AcDbXrecord
340
0
  0
XRECORD
  5
226F4
102
{ACAD_REACTORS
330
226E5
102
}
330
226E5
100
AcDbXrecord
 70
     0
  0
XRECORD
  5
226E9
102
{ACAD_REACTORS
330
226E5
102
}
330
226E5
100
AcDbXrecord
  1
AAA.ctb
  0
XRECORD
  5
226E6
102
{ACAD_REACTORS
330
226E5
102
}
330
226E5
100
AcDbXrecord
 90
        1
  0
XRECORD
  5
226E7
102
{ACAD_REACTORS
330
226E5
102
}
330
226E5
100
AcDbXrecord
 90
       70
  0
XRECORD
  5
226FE
102
{ACAD_REACTORS
330
226E5
102
}
330
226E5
100
AcDbXrecord
340
0
  0
XRECORD
  5
22704
102
{ACAD_REACTORS
330
226E5
102
}
330
226E5
100
AcDbXrecord
 10
0.0
 20
0.0
 30
0.0
  0
XRECORD
  5
22700
102
{ACAD_REACTORS
330
226E5
102
}
330
226E5
100
AcDbXrecord
 10
0.0
 20
0.0
 30
0.0
  0
XRECORD
  5
22703
102
{ACAD_REACTORS
330
226E5
102
}
330
226E5
100
AcDbXrecord
 10
0.0
 20
0.0
 30
0.0
  0
XRECORD
  5
22701
102
{ACAD_REACTORS
330
226E5
102
}
330
226E5
100
AcDbXrecord
 10
0.0
 20
0.0
 30
0.0
  0
XRECORD
  5
22702
102
{ACAD_REACTORS
330
226E5
102
}
330
226E5
100
AcDbXrecord
 10
0.0
 20
0.0
 30
0.0
  0
XRECORD
  5
226FF
102
{ACAD_REACTORS
330
226E5
102
}
330
226E5
100
AcDbXrecord
 10
0.0
 20
0.0
 30
0.0
  0
XRECORD
  5
226FC
102
{ACAD_REACTORS
330
226E5
102
}
330
226E5
100
AcDbXrecord
340
0
  0
XRECORD
  5
226FD
102
{ACAD_REACTORS
330
226E5
102
}
330
226E5
100
AcDbXrecord
 70
     1
  0
XRECORD
  5
226F1
102
{ACAD_REACTORS
330
226E5
102
}
330
226E5
100
AcDbXrecord
  1
{B812F919-66B0-11D8-88CD-00A024540C4A}
  0
DICTIONARYVAR
  5
1350B
102
{ACAD_REACTORS
330
4E
102
}
330
4E
100
DictionaryVariables
280
     0
  1
1
  0
DICTIONARYVAR
  5
1350C
102
{ACAD_REACTORS
330
4E
102
}
330
4E
100
DictionaryVariables
280
     0
  1

  0
DICTIONARYVAR
  5
4F
102
{ACAD_REACTORS
330
4E
102
}
330
4E
100
DictionaryVariables
280
     0
  1
96
  0
DICTIONARY
  5
13503
330
1AB
100
AcDbDictionary
280
     1
  3
ACAD_XREC_ROUNDTRIP
360
13504
  0
XRECORD
  5
13504
102
{ACAD_REACTORS
330
13503
102
}
330
13503
100
AcDbXrecord
102
SHADEPLOT
 70
     0
102
SHADEPLOTRESLEVEL
 70
     2
102
SHADEPLOTCUSTOMDPI
 70
   300
  0
ENDSEC
  0
EOF
