  0
SECTION
  2
HEADER
  9
$ACADVER
  1
AC1014
  9
$ACADMAINTVER
 70
     9
  9
$DWGCODEPAGE
  3
ANSI_1252
  9
$INSBASE
 10
0.0
 20
0.0
 30
0.0
  9
$EXTMIN
 10
11.16600887282095
 20
43.12864035515612
 30
0.0
  9
$EXTMAX
 10
285.5821097441594
 20
64.28199654641078
 30
0.0
  9
$LIMMIN
 10
0.0
 20
0.0
  9
$LIMMAX
 10
420.0
 20
297.0
  9
$ORTHOMODE
 70
     0
  9
$REGENMODE
 70
     1
  9
$FILLMODE
 70
     1
  9
$QTEXTMODE
 70
     0
  9
$MIRRTEXT
 70
     0
  9
$DRAGMODE
 70
     2
  9
$LTSCALE
 40
0.2
  9
$OSMODE
 70
    37
  9
$ATTMODE
 70
     1
  9
$TEXTSIZE
 40
2.5
  9
$TRACEWID
 40
1.0
  9
$TEXTSTYLE
  7
\M+2ABAC\M+2A6A12
  9
$CLAYER
  8
AM3
  9
$CELTYPE
  6
BYLAYER
  9
$CECOLOR
 62
   256
  9
$CELTSCALE
 40
1.0
  9
$DELOBJ
 70
     1
  9
$DISPSILH
 70
     0
  9
$DIMSCALE
 40
1.0
  9
$DIMASZ
 40
1.0
  9
$DIMEXO
 40
0.7
  9
$DIMDLI
 40
3.75
  9
$DIMRND
 40
0.0
  9
$DIMDLE
 40
0.0
  9
$DIMEXE
 40
0.3
  9
$DIMTP
 40
0.0
  9
$DIMTM
 40
0.0
  9
$DIMTXT
 40
1.199999999999999
  9
$DIMCEN
 40
2.5
  9
$DIMTSZ
 40
0.0
  9
$DIMTOL
 70
     0
  9
$DIMLIM
 70
     0
  9
$DIMTIH
 70
     0
  9
$DIMTOH
 70
     0
  9
$DIMSE1
 70
     0
  9
$DIMSE2
 70
     0
  9
$DIMTAD
 70
     1
  9
$DIMZIN
 70
     8
  9
$DIMBLK
  1

  9
$DIMASO
 70
     1
  9
$DIMSHO
 70
     1
  9
$DIMPOST
  1

  9
$DIMAPOST
  1

  9
$DIMALT
 70
     0
  9
$DIMALTD
 70
     3
  9
$DIMALTF
 40
0.03937007874016
  9
$DIMLFAC
 40
1.0
  9
$DIMTOFL
 70
     1
  9
$DIMTVP
 40
0.0
  9
$DIMTIX
 70
     0
  9
$DIMSOXD
 70
     0
  9
$DIMSAH
 70
     0
  9
$DIMBLK1
  1

  9
$DIMBLK2
  1

  9
$DIMSTYLE
  2
ISO-25
  9
$DIMCLRD
 70
     3
  9
$DIMCLRE
 70
     3
  9
$DIMCLRT
 70
     2
  9
$DIMTFAC
 40
1.0
  9
$DIMGAP
 40
0.5
  9
$DIMJUST
 70
     0
  9
$DIMSD1
 70
     0
  9
$DIMSD2
 70
     0
  9
$DIMTOLJ
 70
     0
  9
$DIMTZIN
 70
     8
  9
$DIMALTZ
 70
     0
  9
$DIMALTTZ
 70
     0
  9
$DIMFIT
 70
     3
  9
$DIMUPT
 70
     0
  9
$DIMUNIT
 70
     2
  9
$DIMDEC
 70
     2
  9
$DIMTDEC
 70
     2
  9
$DIMALTU
 70
     2
  9
$DIMALTTD
 70
     3
  9
$DIMTXSTY
  7
STANDARD
  9
$DIMAUNIT
 70
     0
  9
$LUNITS
 70
     2
  9
$LUPREC
 70
     4
  9
$SKETCHINC
 40
1.0
  9
$FILLETRAD
 40
0.0
  9
$AUNITS
 70
     0
  9
$AUPREC
 70
     0
  9
$MENU
  1
.
  9
$ELEVATION
 40
0.0
  9
$PELEVATION
 40
0.0
  9
$THICKNESS
 40
0.0
  9
$LIMCHECK
 70
     0
  9
$BLIPMODE
 70
     0
  9
$CHAMFERA
 40
0.0
  9
$CHAMFERB
 40
0.0
  9
$CHAMFERC
 40
20.0
  9
$CHAMFERD
 40
0.0
  9
$SKPOLY
 70
     0
  9
$TDCREATE
 40
2452648.158040394
  9
$TDUPDATE
 40
2453060.476077349
  9
$TDINDWG
 40
0.9406531829
  9
$TDUSRTIMER
 40
0.9406530671
  9
$USRTIMER
 70
     1
  9
$ANGBASE
 50
0.0
  9
$ANGDIR
 70
     0
  9
$PDMODE
 70
     0
  9
$PDSIZE
 40
0.0
  9
$PLINEWID
 40
0.0
  9
$COORDS
 70
     0
  9
$SPLFRAME
 70
     0
  9
$SPLINETYPE
 70
     6
  9
$SPLINESEGS
 70
    30
  9
$ATTDIA
 70
     0
  9
$ATTREQ
 70
     1
  9
$HANDLING
 70
-16383
  9
$HANDSEED
  5
20C17
  9
$SURFTAB1
 70
     6
  9
$SURFTAB2
 70
     6
  9
$SURFTYPE
 70
     6
  9
$SURFU
 70
     6
  9
$SURFV
 70
     6
  9
$UCSNAME
  2

  9
$UCSORG
 10
0.0
 20
0.0
 30
0.0
  9
$UCSXDIR
 10
1.0
 20
0.0
 30
0.0
  9
$UCSYDIR
 10
0.0
 20
1.0
 30
0.0
  9
$PUCSNAME
  2

  9
$PUCSORG
 10
0.0
 20
0.0
 30
0.0
  9
$PUCSXDIR
 10
1.0
 20
0.0
 30
0.0
  9
$PUCSYDIR
 10
0.0
 20
1.0
 30
0.0
  9
$USERI1
 70
     0
  9
$USERI2
 70
     0
  9
$USERI3
 70
     0
  9
$USERI4
 70
     0
  9
$USERI5
 70
     0
  9
$USERR1
 40
0.0
  9
$USERR2
 40
0.0
  9
$USERR3
 40
0.0
  9
$USERR4
 40
0.0
  9
$USERR5
 40
0.0
  9
$WORLDVIEW
 70
     1
  9
$SHADEDGE
 70
     3
  9
$SHADEDIF
 70
    70
  9
$TILEMODE
 70
     1
  9
$MAXACTVP
 70
    48
  9
$PINSBASE
 10
0.0
 20
0.0
 30
0.0
  9
$PLIMCHECK
 70
     0
  9
$PEXTMIN
 10
1.000000000000000E+20
 20
1.000000000000000E+20
 30
1.000000000000000E+20
  9
$PEXTMAX
 10
-1.000000000000000E+20
 20
-1.000000000000000E+20
 30
-1.000000000000000E+20
  9
$PLIMMIN
 10
0.0
 20
0.0
  9
$PLIMMAX
 10
420.0
 20
297.0
  9
$UNITMODE
 70
     0
  9
$VISRETAIN
 70
     1
  9
$PLINEGEN
 70
     0
  9
$PSLTSCALE
 70
     1
  9
$TREEDEPTH
 70
  3020
  9
$PICKSTYLE
 70
     1
  9
$CMLSTYLE
  2
STANDARD
  9
$CMLJUST
 70
     0
  9
$CMLSCALE
 40
20.0
  9
$PROXYGRAPHICS
 70
     1
  9
$MEASUREMENT
 70
     0
  0
ENDSEC
  0
SECTION
  2
CLASSES
  0
CLASS
  1
ACDBDICTIONARYWDFLT
  2
AcDbDictionaryWithDefault
  3
AutoCAD 2000
 90
        0
280
     0
281
     0
  0
CLASS
  1
ACDBPLACEHOLDER
  2
AcDbPlaceHolder
  3
AutoCAD 2000
 90
        0
280
     0
281
     0
  0
CLASS
  1
LAYOUT
  2
AcDbLayout
  3
AutoCAD 2000
 90
        0
280
     0
281
     0
  0
CLASS
  1
DICTIONARYVAR
  2
AcDbDictionaryVar
  3
AutoCAD 2000
 90
        0
280
     0
281
     0
  0
CLASS
  1
PLOTSETTINGS
  2
AcDbPlotSettings
  3
AutoCAD 2000
 90
        0
280
     0
281
     0
  0
CLASS
  1
LONG_TRANSACTION
  2
AcDbLongTransaction
  3
AutoCAD 2000
 90
        0
280
     0
281
     0
  0
CLASS
  1
LWPOLYLINE
  2
AcDbPolyline
  3
AutoCAD 2000
 90
        0
280
     0
281
     1
  0
CLASS
  1
HATCH
  2
AcDbHatch
  3
AutoCAD 2000
 90
        0
280
     0
281
     1
  0
CLASS
  1
XRECORD
  2
AcDbXrecord
  3
AutoCAD 2000
 90
        0
280
     0
281
     0
  0
CLASS
  1
LONG_TRANSACTION
  2
AcDbLongTransaction
  3
AutoCAD 2000
 90
        0
280
     0
281
     0
  0
CLASS
  1
LWPOLYLINE
  2
AcDbPolyline
  3
AutoCAD 2000
 90
        0
280
     0
281
     1
  0
CLASS
  1
HATCH
  2
AcDbHatch
  3
AutoCAD 2000
 90
        0
280
     0
281
     1
  0
CLASS
  1
XRECORD
  2
AcDbXrecord
  3
AutoCAD 2000
 90
        0
280
     0
281
     0
  0
CLASS
  1
LONG_TRANSACTION
  2
AcDbLongTransaction
  3
AutoCAD 2000
 90
        0
280
     0
281
     0
  0
CLASS
  1
LWPOLYLINE
  2
AcDbPolyline
  3
AutoCAD 2000
 90
        0
280
     0
281
     1
  0
CLASS
  1
HATCH
  2
AcDbHatch
  3
AutoCAD 2000
 90
        0
280
     0
281
     1
  0
CLASS
  1
XRECORD
  2
AcDbXrecord
  3
AutoCAD 2000
 90
        0
280
     0
281
     0
  0
CLASS
  1
LONG_TRANSACTION
  2
AcDbLongTransaction
  3
AutoCAD 2000
 90
        0
280
     0
281
     0
  0
CLASS
  1
LWPOLYLINE
  2
AcDbPolyline
  3
AutoCAD 2000
 90
        0
280
     0
281
     1
  0
CLASS
  1
HATCH
  2
AcDbHatch
  3
AutoCAD 2000
 90
        0
280
     0
281
     1
  0
CLASS
  1
XRECORD
  2
AcDbXrecord
  3
AutoCAD 2000
 90
        0
280
     0
281
     0
  0
CLASS
  1
LONG_TRANSACTION
  2
AcDbLongTransaction
  3
AutoCAD 2000
 90
        0
280
     0
281
     0
  0
CLASS
  1
LWPOLYLINE
  2
AcDbPolyline
  3
AutoCAD 2000
 90
        0
280
     0
281
     1
  0
CLASS
  1
HATCH
  2
AcDbHatch
  3
AutoCAD 2000
 90
        0
280
     0
281
     1
  0
CLASS
  1
XRECORD
  2
AcDbXrecord
  3
AutoCAD 2000
 90
        0
280
     0
281
     0
  0
ENDSEC
  0
SECTION
  2
TABLES
  0
TABLE
  2
VPORT
  5
8
330
0
100
AcDbSymbolTable
 70
     2
  0
VPORT
  5
20BF4
330
8
100
AcDbSymbolTableRecord
100
AcDbViewportTableRecord
  2
*ACTIVE
 70
     0
 10
0.0
 20
0.0
 11
1.0
 21
1.0
 12
148.3644113065261
 22
53.7048116773423
 13
0.0
 23
0.0
 14
10.0
 24
10.0
 15
10.0
 25
10.0
 16
0.0
 26
0.0
 36
1.0
 17
0.0
 27
0.0
 37
0.0
 40
160.9916783356474
 41
1.714285714285714
 42
50.0
 43
0.0
 44
0.0
 50
0.0
 51
0.0
 71
     0
 72
 20000
 73
     1
 74
     0
 75
     0
 76
     0
 77
     0
 78
     1
  0
ENDTAB
  0
TABLE
  2
LTYPE
  5
5
330
0
100
AcDbSymbolTable
 70
     3
  0
LTYPE
  5
14
330
5
100
AcDbSymbolTableRecord
100
AcDbLinetypeTableRecord
  2
BYBLOCK
 70
     0
  3

 72
    65
 73
     0
 40
0.0
  0
LTYPE
  5
15
330
5
100
AcDbSymbolTableRecord
100
AcDbLinetypeTableRecord
  2
BYLAYER
 70
     0
  3

 72
    65
 73
     0
 40
0.0
  0
LTYPE
  5
16
330
5
100
AcDbSymbolTableRecord
100
AcDbLinetypeTableRecord
  2
CONTINUOUS
 70
     0
  3
Solid line
 72
    65
 73
     0
 40
0.0
  0
LTYPE
  5
2D
330
5
100
AcDbSymbolTableRecord
100
AcDbLinetypeTableRecord
  2
CENTER2
 70
     0
  3
Center (.5x) ___ _ ___ _ ___ _ ___ _ ___ _ ___
 72
    65
 73
     4
 40
28.57499999999999
 49
19.05
 74
     0
 49
-3.174999999999998
 74
     0
 49
3.174999999999998
 74
     0
 49
-3.174999999999998
 74
     0
  0
LTYPE
  5
2E
330
5
100
AcDbSymbolTableRecord
100
AcDbLinetypeTableRecord
  2
DASHED2
 70
     0
  3
Dashed (.5x) _ _ _ _ _ _ _ _ _ _ _ _ _ _ _ _ _
 72
    65
 73
     2
 40
9.524999999999996
 49
6.349999999999998
 74
     0
 49
-3.174999999999998
 74
     0
  0
ENDTAB
  0
TABLE
  2
LAYER
  5
2
102
{ACAD_XDICTIONARY
360
DDEF
102
}
330
0
100
AcDbSymbolTable
 70
     4
  0
LAYER
  5
10
330
2
100
AcDbSymbolTableRecord
100
AcDbLayerTableRecord
  2
0
 70
     0
 62
     7
  6
CONTINUOUS
  0
LAYER
  5
30
330
2
100
AcDbSymbolTableRecord
100
AcDbLayerTableRecord
  2
AM3
 70
     0
 62
     6
  6
DASHED2
  0
LAYER
  5
34
330
2
100
AcDbSymbolTableRecord
100
AcDbLayerTableRecord
  2
AM7
 70
     0
 62
     4
  6
CENTER2
  0
LAYER
  5
8B8
330
2
100
AcDbSymbolTableRecord
100
AcDbLayerTableRecord
  2
DEFPOINTS
 70
     0
 62
     7
  6
CONTINUOUS
  0
ENDTAB
  0
TABLE
  2
STYLE
  5
3
330
0
100
AcDbSymbolTable
 70
     2
  0
STYLE
  5
11
330
3
100
AcDbSymbolTableRecord
100
AcDbTextStyleTableRecord
  2
STANDARD
 70
     0
 40
0.0
 41
1.0
 50
0.0
 71
     0
 42
2.5
  3
isocp.shx
  4
chineset.shx
  0
STYLE
  5
58
330
3
100
AcDbSymbolTableRecord
100
AcDbTextStyleTableRecord
  2
\M+2ABAC\M+2A6A12
 70
     0
 40
0.0
 41
1.0
 50
0.0
 71
     0
 42
2.5
  3

  4

1001
ACAD
1000
DFKai-SB
1071
    34881
  0
ENDTAB
  0
TABLE
  2
VIEW
  5
6
330
0
100
AcDbSymbolTable
 70
     0
  0
ENDTAB
  0
TABLE
  2
UCS
  5
7
330
0
100
AcDbSymbolTable
 70
     0
  0
ENDTAB
  0
TABLE
  2
APPID
  5
9
330
0
100
AcDbSymbolTable
 70
     3
  0
APPID
  5
12
330
9
100
AcDbSymbolTableRecord
100
AcDbRegAppTableRecord
  2
ACAD
 70
     0
  0
APPID
  5
131A7
330
9
100
AcDbSymbolTableRecord
100
AcDbRegAppTableRecord
  2
CONTENTBLOCKICON
 70
     0
  0
APPID
  5
1B726
330
9
100
AcDbSymbolTableRecord
100
AcDbRegAppTableRecord
  2
TCAD
 70
     0
  0
ENDTAB
  0
TABLE
  2
DIMSTYLE
  5
A
330
0
100
AcDbSymbolTable
 70
     2
  0
DIMSTYLE
105
27
330
A
100
AcDbSymbolTableRecord
100
AcDbDimStyleTableRecord
  2
ISO-25
 70
     0
  3

  4

  5

  6

  7

 40
1.0
 41
1.0
 42
0.7
 43
3.75
 44
0.3
 45
0.0
 46
0.0
 47
0.0
 48
0.0
140
1.199999999999999
141
2.5
142
0.0
143
0.03937007874016
144
1.0
145
0.0
146
1.0
147
0.5
 71
     0
 72
     0
 73
     0
 74
     0
 75
     0
 76
     0
 77
     1
 78
     8
170
     0
171
     3
172
     1
173
     0
174
     0
175
     0
176
     3
177
     3
178
     2
270
     2
271
     2
272
     2
273
     2
274
     3
340
11
275
     0
280
     0
281
     0
282
     0
283
     0
284
     8
285
     0
286
     0
287
     3
288
     0
  0
DIMSTYLE
105
13235
330
A
100
AcDbSymbolTableRecord
100
AcDbDimStyleTableRecord
  2
STANDARD
 70
     0
  3

  4

  5

  6

  7

 40
1.0
 41
0.18
 42
0.0625
 43
0.38
 44
0.18
 45
0.0
 46
0.0
 47
0.0
 48
0.0
140
0.18
141
0.09
142
0.0
143
25.4
144
1.0
145
0.0
146
1.0
147
0.09
 71
     0
 72
     0
 73
     1
 74
     1
 75
     0
 76
     0
 77
     0
 78
     0
170
     0
171
     2
172
     0
173
     0
174
     0
175
     0
176
     0
177
     0
178
     0
270
     2
271
     4
272
     4
273
     2
274
     2
340
11
275
     0
280
     0
281
     0
282
     0
283
     1
284
     0
285
     0
286
     0
287
     3
288
     0
  0
ENDTAB
  0
TABLE
  2
BLOCK_RECORD
  5
1
330
0
100
AcDbSymbolTable
 70
     0
  0
BLOCK_RECORD
  5
1F
102
{ACAD_XDICTIONARY
360
131A3
102
}
330
1
100
AcDbSymbolTableRecord
100
AcDbBlockTableRecord
  2
*MODEL_SPACE
  0
BLOCK_RECORD
  5
1B
102
{ACAD_XDICTIONARY
360
131A1
102
}
330
1
100
AcDbSymbolTableRecord
100
AcDbBlockTableRecord
  2
*PAPER_SPACE
  0
ENDTAB
  0
ENDSEC
  0
SECTION
  2
BLOCKS
  0
BLOCK
  5
20
330
1F
100
AcDbEntity
  8
0
100
AcDbBlockBegin
  2
*MODEL_SPACE
 70
     0
 10
0.0
 20
0.0
 30
0.0
  3
*MODEL_SPACE
  1

  0
ENDBLK
  5
21
330
1F
100
AcDbEntity
  8
0
100
AcDbBlockEnd
  0
BLOCK
  5
1C
330
1B
100
AcDbEntity
 67
     1
  8
0
100
AcDbBlockBegin
  2
*PAPER_SPACE
 70
     0
 10
0.0
 20
0.0
 30
0.0
  3
*PAPER_SPACE
  1

  0
ENDBLK
  5
1D
330
1B
100
AcDbEntity
 67
     1
  8
0
100
AcDbBlockEnd
  0
ENDSEC
  0
SECTION
  2
ENTITIES
  0
TEXT
  5
16C44
330
1F
100
AcDbEntity
  8
0
100
AcDbText
 10
239.4799872132185
 20
47.60507018468206
 30
0.0
 40
13.8518250193501
  1
HGR20R
  7
\M+2ABAC\M+2A6A12
100
AcDbText
  0
LINE
  5
17972
330
1F
100
AcDbEntity
  8
0
100
AcDbLine
 10
11.4063181862524
 20
56.71880110892971
 30
0.0
 11
11.16654147298515
 21
56.95857782219696
 31
0.0
  0
LINE
  5
17974
330
1F
100
AcDbEntity
  8
0
100
AcDbLine
 10
11.4063181862524
 20
58.52911587556412
 30
0.0
 11
11.16654147298515
 21
58.28933916229698
 31
0.0
  0
LINE
  5
17978
330
1F
100
AcDbEntity
  8
0
100
AcDbLine
 10
11.16652787290308
 20
47.62899716227912
 30
0.0
 11
14.61652197290311
 21
51.0789910622791
 31
0.0
  0
LINE
  5
1797F
330
1F
100
AcDbEntity
  8
0
100
AcDbLine
 10
11.16660897290319
 20
44.62901023227914
 30
0.0
 11
12.16667567290312
 21
43.62894484863909
 31
0.0
  0
LINE
  5
17981
330
1F
100
AcDbEntity
  8
0
100
AcDbLine
 10
11.16615307290305
 20
47.62905086227897
 30
0.0
 11
11.16615307290305
 21
44.62929496227912
 31
0.0
  0
LINE
  5
1798E
330
1F
100
AcDbEntity
  8
0
100
AcDbLine
 10
11.16600887282095
 20
56.95923856239687
 30
0.0
 11
11.16600887282095
 21
58.28929496229694
 31
0.0
  0
LINE
  5
179A1
330
1F
100
AcDbEntity
  8
0
100
AcDbLine
 10
27.71656617290318
 20
51.07895906227895
 30
0.0
 11
31.16647307290304
 21
47.62905176227912
 31
0.0
  0
LINE
  5
179A2
330
1F
100
AcDbEntity
  8
AM3
100
AcDbLine
 10
18.16627517290305
 20
52.32929496227905
 30
0.0
 11
18.16627517290305
 21
44.12931734755284
 31
0.0
  0
LINE
  5
179A3
330
1F
100
AcDbEntity
  8
AM3
100
AcDbLine
 10
24.16627517290305
 20
52.32929496227905
 30
0.0
 11
24.16627517290305
 21
44.12931734755284
 31
0.0
  0
LINE
  5
179A6
330
1F
100
AcDbEntity
  8
AM7
100
AcDbLine
 10
21.16622704478481
 20
62.02929496228922
 30
0.0
 11
21.16615307290306
 21
43.12929496227911
 31
0.0
  0
LINE
  5
179A7
330
1F
100
AcDbEntity
  8
0
100
AcDbLine
 10
30.16661747290311
 20
43.62890371287915
 30
0.0
 11
12.16632477290306
 21
43.62929496227912
 31
0.0
  0
LINE
  5
179A8
330
1F
100
AcDbEntity
  8
AM3
100
AcDbLine
 10
18.16621751472155
 20
44.12931734755273
 30
0.0
 11
24.16627517290305
 21
44.12931734755273
 31
0.0
  0
LINE
  5
179A9
330
1F
100
AcDbEntity
  8
AM3
100
AcDbLine
 10
17.66625278762933
 20
43.629294962279
 30
0.0
 11
18.16627517290305
 21
44.12931734755284
 31
0.0
  0
LINE
  5
179AA
330
1F
100
AcDbEntity
  8
AM3
100
AcDbLine
 10
24.666005877163
 20
43.62929496227912
 30
0.0
 11
24.16603775626447
 21
44.12927664916333
 31
0.0
  0
LINE
  5
179AC
330
1F
100
AcDbEntity
  8
0
100
AcDbLine
 10
31.16615307290317
 20
47.62905086227897
 30
0.0
 11
31.16615307290317
 21
44.62929496227912
 31
0.0
  0
LINE
  5
179AD
330
1F
100
AcDbEntity
  8
0
100
AcDbLine
 10
31.16661807290313
 20
44.62890431227902
 30
0.0
 11
30.16661747290311
 21
43.62890371287915
 31
0.0
  0
LINE
  5
179BA
330
1F
100
AcDbEntity
  8
0
100
AcDbLine
 10
13.90600887282096
 20
61.02929496229695
 30
0.0
 11
28.42605307282099
 21
61.02929496229695
 31
0.0
  0
ARC
  5
179BB
330
1F
100
AcDbEntity
  8
0
100
AcDbCircle
 10
11.38634062278515
 20
54.41888787209689
 30
0.0
 40
2.299999999999999
100
AcDbArc
 50
0.4976715064543095
 51
89.5023284935457
  0
LINE
  5
179BC
330
1F
100
AcDbEntity
  8
AM3
100
AcDbLine
 10
16.41627517290305
 20
60.72929496227903
 30
0.0
 11
16.41627517290305
 21
52.62929496227911
 31
0.0
  0
LINE
  5
179BD
330
1F
100
AcDbEntity
  8
AM3
100
AcDbLine
 10
25.91627517290305
 20
60.72929496227903
 30
0.0
 11
25.91627517290305
 21
52.62929496227911
 31
0.0
  0
LINE
  5
179BE
330
1F
100
AcDbEntity
  8
AM3
100
AcDbLine
 10
18.16627517290305
 20
52.32929496227905
 30
0.0
 11
24.16627517290305
 21
52.32929496227905
 31
0.0
  0
LINE
  5
179BF
330
1F
100
AcDbEntity
  8
AM3
100
AcDbLine
 10
16.41627517290305
 20
52.62929496227911
 30
0.0
 11
25.91627517290305
 21
52.62929496227911
 31
0.0
  0
LINE
  5
179C2
330
1F
100
AcDbEntity
  8
0
100
AcDbLine
 10
14.61601087262101
 20
51.07939053569691
 30
0.0
 11
14.61601087262101
 21
53.5092369625969
 31
0.0
  0
LINE
  5
179C5
330
1F
100
AcDbEntity
  8
AM3
100
AcDbLine
 10
18.16627517290305
 20
52.32929496227905
 30
0.0
 11
17.8662751729031
 21
52.62929496227911
 31
0.0
  0
LINE
  5
179C8
330
1F
100
AcDbEntity
  8
0
100
AcDbLine
 10
14.61653661619138
 20
53.50858267899059
 30
0.0
 11
13.68625385961792
 21
54.43886543556414
 31
0.0
  0
LINE
  5
179C9
330
1F
100
AcDbEntity
  8
AM3
100
AcDbLine
 10
24.16615307290305
 20
52.32929496227905
 30
0.0
 11
24.46615307290312
 21
52.62929496227911
 31
0.0
  0
LINE
  5
179CA
330
1F
100
AcDbEntity
  8
AM3
100
AcDbLine
 10
16.41627381623641
 20
60.72929496227903
 30
0.0
 11
25.91627517290305
 21
60.72929496227903
 31
0.0
  0
ARC
  5
179CB
330
1F
100
AcDbEntity
  8
0
100
AcDbCircle
 10
11.38634062278515
 20
60.82902911239694
 30
0.0
 40
2.299999999999999
100
AcDbArc
 50
270.4976715064542
 51
359.5023284935456
  0
LINE
  5
179CD
330
1F
100
AcDbEntity
  8
0
100
AcDbLine
 10
13.90649727298512
 20
61.02929496229695
 30
0.0
 11
13.68625385961792
 21
60.80905154892969
 31
0.0
  0
LINE
  5
179CE
330
1F
100
AcDbEntity
  8
0
100
AcDbLine
 10
13.90649727298512
 20
61.02929496229695
 30
0.0
 11
13.68625385961792
 21
60.80905154892969
 31
0.0
  0
LINE
  5
179D1
330
1F
100
AcDbEntity
  8
AM3
100
AcDbLine
 10
16.41627499114417
 20
60.72929428394582
 30
0.0
 11
16.24306951874098
 21
61.02929496229695
 31
0.0
  0
LINE
  5
179D2
330
1F
100
AcDbEntity
  8
AM3
100
AcDbLine
 10
25.91627535466193
 20
60.72929428394582
 30
0.0
 11
26.08948082706501
 21
61.02929496229695
 31
0.0
  0
ARC
  5
179D4
330
1F
100
AcDbEntity
  8
0
100
AcDbCircle
 10
30.94620972302095
 20
54.41888787209689
 30
0.0
 40
2.299999999999999
100
AcDbArc
 50
90.49767150645429
 51
179.5023284935457
  0
LINE
  5
179DB
330
1F
100
AcDbEntity
  8
0
100
AcDbLine
 10
27.71601087262104
 20
53.5085838623969
 30
0.0
 11
27.71601087262104
 21
51.07944358889688
 31
0.0
  0
LINE
  5
179DE
330
1F
100
AcDbEntity
  8
0
100
AcDbLine
 10
27.71601372961473
 20
53.50858267899059
 30
0.0
 11
28.64629648618819
 21
54.43886543556414
 31
0.0
  0
ARC
  5
179E1
330
1F
100
AcDbEntity
  8
0
100
AcDbCircle
 10
30.94620972302095
 20
60.82902911239694
 30
0.0
 40
2.299999999999999
100
AcDbArc
 50
180.4976715064542
 51
269.5023284935457
  0
LINE
  5
179E4
330
1F
100
AcDbEntity
  8
0
100
AcDbLine
 10
30.9262321595537
 20
56.71880110892971
 30
0.0
 11
31.16600887282095
 21
56.95857782219696
 31
0.0
  0
LINE
  5
179E5
330
1F
100
AcDbEntity
  8
0
100
AcDbLine
 10
30.9262321595537
 20
58.52911587556412
 30
0.0
 11
31.16600887282095
 21
58.28933916229698
 31
0.0
  0
LINE
  5
179E9
330
1F
100
AcDbEntity
  8
0
100
AcDbLine
 10
31.16600887282095
 20
58.28933916229698
 30
0.0
 11
31.16600887282095
 21
56.95858096269694
 31
0.0
  0
LINE
  5
179EA
330
1F
100
AcDbEntity
  8
0
100
AcDbLine
 10
28.42605307282099
 20
61.02929496229695
 30
0.0
 11
28.64629648618819
 21
60.80905154892969
 31
0.0
  0
LINE
  5
179EB
330
1F
100
AcDbEntity
  8
0
100
AcDbLine
 10
28.42605307282099
 20
61.02929496229695
 30
0.0
 11
28.64629648618819
 21
60.80905154892969
 31
0.0
  0
LINE
  5
17A94
330
1F
100
AcDbEntity
  8
0
100
AcDbLine
 10
218.6114144074729
 20
60.8090515489298
 30
0.0
 11
58.61141440747288
 21
60.8090515489298
 31
0.0
  0
LINE
  5
17A95
330
1F
100
AcDbEntity
  8
0
100
AcDbLine
 10
218.6114144074729
 20
61.12890371287881
 30
0.0
 11
58.61141440747291
 21
61.12890371287903
 31
0.0
  0
LINE
  5
17A96
330
1F
100
AcDbEntity
  8
0
100
AcDbLine
 10
218.6114144074729
 20
58.529115875564
 30
0.0
 11
58.61141440747291
 21
58.529115875564
 31
0.0
  0
LINE
  5
17A97
330
1F
100
AcDbEntity
  8
0
100
AcDbLine
 10
218.6114144074729
 20
58.28891196227914
 30
0.0
 11
58.61141440747291
 21
58.28891196227914
 31
0.0
  0
LINE
  5
17A98
330
1F
100
AcDbEntity
  8
0
100
AcDbLine
 10
218.6114144074729
 20
56.71880110892948
 30
0.0
 11
58.61141440747291
 21
56.71880110892948
 31
0.0
  0
LINE
  5
17A99
330
1F
100
AcDbEntity
  8
0
100
AcDbLine
 10
218.6114144074729
 20
56.95887896227907
 30
0.0
 11
58.61141440747288
 21
56.95887896227896
 31
0.0
  0
LINE
  5
17A9A
330
1F
100
AcDbEntity
  8
0
100
AcDbLine
 10
218.6114144074729
 20
54.43886543556402
 30
0.0
 11
58.61141440747291
 21
54.43886543556414
 31
0.0
  0
LINE
  5
17A9B
330
1F
100
AcDbEntity
  8
0
100
AcDbLine
 10
218.6114144074729
 20
53.50891696227927
 30
0.0
 11
58.61141440747291
 21
53.50891696227927
 31
0.0
  0
LINE
  5
17A9C
330
1F
100
AcDbEntity
  8
0
100
AcDbLine
 10
218.6114144074729
 20
51.07895906227873
 30
0.0
 11
58.61141440747291
 21
51.07895906227884
 31
0.0
  0
LINE
  5
17A9D
330
1F
100
AcDbEntity
  8
0
100
AcDbLine
 10
218.6114144074729
 20
44.62929496227912
 30
0.0
 11
58.61141440747292
 21
44.62929496227912
 31
0.0
  0
LINE
  5
17A9E
330
1F
100
AcDbEntity
  8
0
100
AcDbLine
 10
218.6114144074729
 20
47.62905086227897
 30
0.0
 11
58.61141440747292
 21
47.62905086227897
 31
0.0
  0
LINE
  5
17A9F
330
1F
100
AcDbEntity
  8
0
100
AcDbLine
 10
218.6114144074729
 20
43.62890371287881
 30
0.0
 11
58.61141440747292
 21
43.62890371287915
 31
0.0
  0
LINE
  5
17AA1
330
1F
100
AcDbEntity
  8
AM7
100
AcDbLine
 10
78.61141440747303
 20
43.12890371287915
 30
0.0
 11
78.61141440747303
 21
61.72890371287917
 31
0.0
  0
LINE
  5
17AA2
330
1F
100
AcDbEntity
  8
0
100
AcDbLine
 10
58.61141440747292
 20
43.62890371287915
 30
0.0
 11
58.61141440747292
 21
61.12890371287915
 31
0.0
  0
LINE
  5
17AA3
330
1F
100
AcDbEntity
  8
AM3
100
AcDbLine
 10
75.61153455131045
 20
52.32909933070857
 30
0.0
 11
75.61153455131045
 21
44.12912171598236
 31
0.0
  0
LINE
  5
17AA4
330
1F
100
AcDbEntity
  8
AM3
100
AcDbLine
 10
81.61153455131046
 20
52.32909933070857
 30
0.0
 11
81.61153455131046
 21
44.12912171598236
 31
0.0
  0
LINE
  5
17AA5
330
1F
100
AcDbEntity
  8
AM3
100
AcDbLine
 10
75.61147689312907
 20
44.12912171598224
 30
0.0
 11
81.61153455131046
 21
44.12912171598224
 31
0.0
  0
LINE
  5
17AA6
330
1F
100
AcDbEntity
  8
AM3
100
AcDbLine
 10
75.11151216603685
 20
43.62909933070852
 30
0.0
 11
75.61153455131045
 21
44.12912171598236
 31
0.0
  0
LINE
  5
17AA7
330
1F
100
AcDbEntity
  8
AM3
100
AcDbLine
 10
82.11126525557039
 20
43.62909933070864
 30
0.0
 11
81.61129713467198
 21
44.12908101759296
 31
0.0
  0
LINE
  5
17AA8
330
1F
100
AcDbEntity
  8
AM3
100
AcDbLine
 10
73.86153455131045
 20
60.72909933070866
 30
0.0
 11
73.86153455131045
 21
52.62909933070864
 31
0.0
  0
LINE
  5
17AA9
330
1F
100
AcDbEntity
  8
AM3
100
AcDbLine
 10
83.36153455131045
 20
60.72909933070866
 30
0.0
 11
83.36153455131045
 21
52.62909933070864
 31
0.0
  0
LINE
  5
17AAA
330
1F
100
AcDbEntity
  8
AM3
100
AcDbLine
 10
75.61153455131045
 20
52.32909933070857
 30
0.0
 11
81.61153455131046
 21
52.32909933070857
 31
0.0
  0
LINE
  5
17AAB
330
1F
100
AcDbEntity
  8
AM3
100
AcDbLine
 10
73.86153455131045
 20
52.62909933070864
 30
0.0
 11
83.36153455131045
 21
52.62909933070864
 31
0.0
  0
LINE
  5
17AAC
330
1F
100
AcDbEntity
  8
AM3
100
AcDbLine
 10
75.61153455131045
 20
52.32909933070857
 30
0.0
 11
75.31153455131061
 21
52.62909933070864
 31
0.0
  0
LINE
  5
17AAD
330
1F
100
AcDbEntity
  8
AM3
100
AcDbLine
 10
81.61141245131068
 20
52.32909933070857
 30
0.0
 11
81.91141245131063
 21
52.62909933070864
 31
0.0
  0
LINE
  5
17AAE
330
1F
100
AcDbEntity
  8
AM3
100
AcDbLine
 10
73.86153319464392
 20
60.72909933070866
 30
0.0
 11
83.36153455131045
 21
60.72909933070866
 31
0.0
  0
LINE
  5
17AAF
330
1F
100
AcDbEntity
  8
AM3
100
AcDbLine
 10
73.86153436955169
 20
60.72909865237534
 30
0.0
 11
73.63070681024623
 21
61.12890371287915
 31
0.0
  0
LINE
  5
17AB0
330
1F
100
AcDbEntity
  8
AM3
100
AcDbLine
 10
83.36153473306945
 20
60.72909865237534
 30
0.0
 11
83.5923622923749
 21
61.12890371287915
 31
0.0
  0
LINE
  5
17AC0
330
1F
100
AcDbEntity
  8
AM7
100
AcDbLine
 10
198.611414407473
 20
43.12890371287915
 30
0.0
 11
198.611414407473
 21
61.72890371287917
 31
0.0
  0
LINE
  5
17AC1
330
1F
100
AcDbEntity
  8
0
100
AcDbLine
 10
218.6114144074729
 20
43.62890371287915
 30
0.0
 11
218.6114144074729
 21
61.12890371287915
 31
0.0
  0
LINE
  5
17AC2
330
1F
100
AcDbEntity
  8
AM3
100
AcDbLine
 10
201.6115345513105
 20
52.32909933070868
 30
0.0
 11
201.6115345513105
 21
44.12912171598236
 31
0.0
  0
LINE
  5
17AC3
330
1F
100
AcDbEntity
  8
AM3
100
AcDbLine
 10
195.6115345513105
 20
52.32909933070868
 30
0.0
 11
195.6115345513105
 21
44.12912171598236
 31
0.0
  0
LINE
  5
17AC4
330
1F
100
AcDbEntity
  8
AM3
100
AcDbLine
 10
195.611476893129
 20
44.12912171598236
 30
0.0
 11
201.6115345513105
 21
44.12912171598236
 31
0.0
  0
LINE
  5
17AC5
330
1F
100
AcDbEntity
  8
AM3
100
AcDbLine
 10
195.1115121660368
 20
43.62909933070864
 30
0.0
 11
195.6115345513105
 21
44.12912171598236
 31
0.0
  0
LINE
  5
17AC6
330
1F
100
AcDbEntity
  8
AM3
100
AcDbLine
 10
202.1112652555704
 20
43.62909933070864
 30
0.0
 11
201.611297134672
 21
44.12908101759308
 31
0.0
  0
LINE
  5
17AC7
330
1F
100
AcDbEntity
  8
AM3
100
AcDbLine
 10
203.3615345513105
 20
60.72909933070878
 30
0.0
 11
203.3615345513105
 21
52.62909933070864
 31
0.0
  0
LINE
  5
17AC8
330
1F
100
AcDbEntity
  8
AM3
100
AcDbLine
 10
193.8615345513105
 20
60.72909933070878
 30
0.0
 11
193.8615345513105
 21
52.62909933070864
 31
0.0
  0
LINE
  5
17AC9
330
1F
100
AcDbEntity
  8
AM3
100
AcDbLine
 10
193.8615345513105
 20
52.62909933070864
 30
0.0
 11
203.3615345513105
 21
52.62909933070864
 31
0.0
  0
LINE
  5
17ACA
330
1F
100
AcDbEntity
  8
AM3
100
AcDbLine
 10
195.6115345513105
 20
52.32909933070868
 30
0.0
 11
201.6115345513105
 21
52.32909933070868
 31
0.0
  0
LINE
  5
17ACB
330
1F
100
AcDbEntity
  8
AM3
100
AcDbLine
 10
195.6115345513105
 20
52.32909933070868
 30
0.0
 11
195.3115345513106
 21
52.62909933070864
 31
0.0
  0
LINE
  5
17ACC
330
1F
100
AcDbEntity
  8
AM3
100
AcDbLine
 10
201.6114124513105
 20
52.32909933070868
 30
0.0
 11
201.9114124513106
 21
52.62909933070864
 31
0.0
  0
LINE
  5
17ACD
330
1F
100
AcDbEntity
  8
AM3
100
AcDbLine
 10
193.8615331946439
 20
60.72909933070878
 30
0.0
 11
203.3615345513105
 21
60.72909933070878
 31
0.0
  0
LINE
  5
17ACE
330
1F
100
AcDbEntity
  8
AM3
100
AcDbLine
 10
193.8615343695516
 20
60.72909865237534
 30
0.0
 11
193.6307068102463
 21
61.12890371287915
 31
0.0
  0
LINE
  5
17ACF
330
1F
100
AcDbEntity
  8
AM3
100
AcDbLine
 10
203.3615347330695
 20
60.72909865237534
 30
0.0
 11
203.5923622923745
 21
61.12890371287903
 31
0.0
  0
LINE
  5
20BDB
330
1F
100
AcDbEntity
  8
AM7
100
AcDbLine
 10
138.611414406317
 20
43.12864035515612
 30
0.0
 11
138.611414406317
 21
61.72864035515615
 31
0.0
  0
LINE
  5
20BDC
330
1F
100
AcDbEntity
  8
AM3
100
AcDbLine
 10
133.8615345501544
 20
60.72883597298564
 30
0.0
 11
133.8615345501544
 21
52.62883597298562
 31
0.0
  0
LINE
  5
20BDD
330
1F
100
AcDbEntity
  8
AM3
100
AcDbLine
 10
143.3615345501545
 20
60.72883597298564
 30
0.0
 11
143.3615345501545
 21
52.62883597298562
 31
0.0
  0
LINE
  5
20BDE
330
1F
100
AcDbEntity
  8
AM3
100
AcDbLine
 10
135.6114768919731
 20
44.12885835825923
 30
0.0
 11
141.6115345501544
 21
44.12885835825923
 31
0.0
  0
LINE
  5
20BDF
330
1F
100
AcDbEntity
  8
AM3
100
AcDbLine
 10
135.6115345501544
 20
52.32883597298555
 30
0.0
 11
141.6115345501544
 21
52.32883597298555
 31
0.0
  0
LINE
  5
20BE0
330
1F
100
AcDbEntity
  8
AM3
100
AcDbLine
 10
133.8615345501544
 20
52.62883597298562
 30
0.0
 11
143.3615345501545
 21
52.62883597298562
 31
0.0
  0
LINE
  5
20BE1
330
1F
100
AcDbEntity
  8
AM3
100
AcDbLine
 10
135.6115345501544
 20
52.32883597298555
 30
0.0
 11
135.6115345501544
 21
44.12885835825934
 31
0.0
  0
LINE
  5
20BE2
330
1F
100
AcDbEntity
  8
AM3
100
AcDbLine
 10
135.1115121648808
 20
43.62883597298551
 30
0.0
 11
135.6115345501544
 21
44.12885835825934
 31
0.0
  0
LINE
  5
20BE3
330
1F
100
AcDbEntity
  8
AM3
100
AcDbLine
 10
135.6115345501544
 20
52.32883597298555
 30
0.0
 11
135.3115345501546
 21
52.62883597298562
 31
0.0
  0
LINE
  5
20BE4
330
1F
100
AcDbEntity
  8
AM3
100
AcDbLine
 10
141.6115345501544
 20
52.32883597298555
 30
0.0
 11
141.6115345501544
 21
44.12885835825934
 31
0.0
  0
LINE
  5
20BE5
330
1F
100
AcDbEntity
  8
AM3
100
AcDbLine
 10
142.1112652544144
 20
43.62883597298561
 30
0.0
 11
141.611297133516
 21
44.12881765986994
 31
0.0
  0
LINE
  5
20BE6
330
1F
100
AcDbEntity
  8
AM3
100
AcDbLine
 10
141.6114124501547
 20
52.32883597298555
 30
0.0
 11
141.9114124501546
 21
52.62883597298562
 31
0.0
  0
LINE
  5
20BE7
330
1F
100
AcDbEntity
  8
AM3
100
AcDbLine
 10
133.8615331934879
 20
60.72883597298564
 30
0.0
 11
143.3615345501545
 21
60.72883597298564
 31
0.0
  0
LINE
  5
20BE8
330
1F
100
AcDbEntity
  8
AM3
100
AcDbLine
 10
133.8615343683957
 20
60.72883529465232
 30
0.0
 11
133.6307068090902
 21
61.12864035515613
 31
0.0
  0
LINE
  5
20BE9
330
1F
100
AcDbEntity
  8
AM3
100
AcDbLine
 10
143.3615347319134
 20
60.72883529465232
 30
0.0
 11
143.5923622912189
 21
61.12864035515613
 31
0.0
  0
ENDSEC
  0
SECTION
  2
OBJECTS
  0
DICTIONARY
  5
C
330
0
100
AcDbDictionary
  3
ACAD_COLOR
350
13437
  3
ACAD_GROUP
350
D
  3
ACAD_LAYOUT
350
1A
  3
ACAD_MATERIAL
350
13436
  3
ACAD_MLINESTYLE
350
17
  3
ACAD_PLOTSETTINGS
350
19
  3
ACAD_PLOTSTYLENAME
350
E
  3
ACDBHEADERROUNDTRIPXREC
350
20BF5
  3
ACDBVARIABLEDICTIONARY
350
4E
  0
DICTIONARY
  5
DDEF
330
2
100
AcDbDictionary
280
     1
  3
ACAD_LAYERFILTERS
360
E68E
  3
ACAD_LAYERSTATES
360
DDF0
  0
DICTIONARY
  5
131A3
330
1F
100
AcDbDictionary
280
     1
  3
ACAD_LAYOUTSELFREF
360
20C16
  0
DICTIONARY
  5
131A1
330
1B
100
AcDbDictionary
280
     1
  3
ACAD_LAYOUTSELFREF
360
20C15
  0
DICTIONARY
  5
13437
102
{ACAD_REACTORS
330
C
102
}
330
C
100
AcDbDictionary
  0
DICTIONARY
  5
D
102
{ACAD_REACTORS
330
C
102
}
330
C
100
AcDbDictionary
  3
*A1
350
DDE2
  3
*A10
350
145EF
  3
*A11
350
145F0
  3
*A12
350
13CD2
  3
*A13
350
145F1
  3
*A14
350
DDE5
  3
*A15
350
14FD7
  3
*A16
350
13CCC
  3
*A17
350
14FD8
  3
*A18
350
14FD9
  3
*A19
350
14FDA
  3
*A2
350
145E9
  3
*A20
350
14FDB
  3
*A21
350
DDED
  3
*A22
350
14FDC
  3
*A23
350
13CD3
  3
*A24
350
14FDD
  3
*A25
350
14FDE
  3
*A26
350
14FDF
  3
*A27
350
14FE0
  3
*A28
350
DDE3
  3
*A29
350
DDE6
  3
*A3
350
145EA
  3
*A30
350
14FE1
  3
*A31
350
14FE2
  3
*A32
350
14FE3
  3
*A33
350
167FE
  3
*A34
350
DDEB
  3
*A35
350
DDEE
  3
*A36
350
167FF
  3
*A37
350
16800
  3
*A38
350
16801
  3
*A39
350
16802
  3
*A4
350
13CCB
  3
*A40
350
13CCD
  3
*A41
350
16803
  3
*A42
350
16804
  3
*A43
350
DDE7
  3
*A44
350
16805
  3
*A45
350
145E5
  3
*A46
350
16806
  3
*A47
350
16807
  3
*A48
350
13CC7
  3
*A49
350
16808
  3
*A5
350
145EB
  3
*A50
350
16809
  3
*A51
350
1680A
  3
*A52
350
13CCE
  3
*A53
350
DDE8
  3
*A54
350
DDE9
  3
*A55
350
DDEA
  3
*A56
350
145E6
  3
*A57
350
13CC8
  3
*A58
350
13CC9
  3
*A59
350
13CCA
  3
*A6
350
145EC
  3
*A60
350
13CCF
  3
*A61
350
13CD0
  3
*A62
350
13CD1
  3
*A63
350
145E7
  3
*A64
350
DDE4
  3
*A65
350
145E8
  3
*A7
350
145ED
  3
*A8
350
DDEC
  3
*A9
350
145EE
  0
DICTIONARY
  5
1A
102
{ACAD_REACTORS
330
C
102
}
330
C
100
AcDbDictionary
  0
DICTIONARY
  5
13436
102
{ACAD_REACTORS
330
C
102
}
330
C
100
AcDbDictionary
  0
DICTIONARY
  5
17
102
{ACAD_REACTORS
330
C
102
}
330
C
100
AcDbDictionary
  3
STANDARD
350
18
  0
DICTIONARY
  5
19
102
{ACAD_REACTORS
330
C
102
}
330
C
100
AcDbDictionary
  3
LANSRO
350
1AB
  0
ACDBDICTIONARYWDFLT
  5
E
102
{ACAD_REACTORS
330
C
102
}
330
C
100
AcDbDictionary
281
     1
  3
Normal
350
F
100
AcDbDictionaryWithDefault
340
F
  0
DICTIONARY
  5
20BF5
102
{ACAD_REACTORS
330
C
102
}
330
C
100
AcDbDictionary
  3
CEPSNTYPE
350
20BFF
  3
FINGERPRINTGUID
350
20C00
  3
HYPERLINKBASE
350
20BF8
  3
INSUNITS
350
20BFE
  3
LAYOUTDICT
350
20BFA
  3
LWETCUNION
350
20BFD
  3
PLOTSETDICT
350
20BFB
  3
PLOTSTYLNAMDICT
350
20BFC
  3
PSVPSCALE
350
20C02
  3
PUCSBASE
350
20C05
  3
PUCSORGBACK
350
20C0B
  3
PUCSORGBOTTOM
350
20C07
  3
PUCSORGFRONT
350
20C0A
  3
PUCSORGLEFT
350
20C08
  3
PUCSORGRIGHT
350
20C09
  3
PUCSORGTOP
350
20C06
  3
PUCSORTHOREF
350
20C03
  3
PUCSORTHOVIEW
350
20C04
  3
STYLESHEET
350
20BF9
  3
TSTACKALIGN
350
20BF6
  3
TSTACKSIZE
350
20BF7
  3
UCSBASE
350
20C0E
  3
UCSORGBACK
350
20C14
  3
UCSORGBOTTOM
350
20C10
  3
UCSORGFRONT
350
20C13
  3
UCSORGLEFT
350
20C11
  3
UCSORGRIGHT
350
20C12
  3
UCSORGTOP
350
20C0F
  3
UCSORTHOREF
350
20C0C
  3
UCSORTHOVIEW
350
20C0D
  3
VERSIONGUID
350
20C01
  0
DICTIONARY
  5
4E
102
{ACAD_REACTORS
330
C
102
}
330
C
100
AcDbDictionary
  3
DIMASSOC
350
1350B
  3
PROJECTNAME
350
1350C
  3
SORTENTS
350
4F
  0
DICTIONARY
  5
E68E
102
{ACAD_REACTORS
330
DDEF
102
}
330
DDEF
100
AcDbDictionary
280
     1
  0
DICTIONARY
  5
DDF0
102
{ACAD_REACTORS
330
DDEF
102
}
330
DDEF
100
AcDbDictionary
  0
XRECORD
  5
20C16
102
{ACAD_REACTORS
330
131A3
102
}
330
131A3
100
AcDbXrecord
340
1F
  0
XRECORD
  5
20C15
102
{ACAD_REACTORS
330
131A1
102
}
330
131A1
100
AcDbXrecord
340
1B
  0
GROUP
  5
DDE2
102
{ACAD_REACTORS
330
D
102
}
330
D
100
AcDbGroup
300

 70
     1
 71
     1
  0
GROUP
  5
145EF
102
{ACAD_REACTORS
330
D
102
}
330
D
100
AcDbGroup
300

 70
     1
 71
     1
  0
GROUP
  5
145F0
102
{ACAD_REACTORS
330
D
102
}
330
D
100
AcDbGroup
300

 70
     1
 71
     1
  0
GROUP
  5
13CD2
102
{ACAD_REACTORS
330
D
102
}
330
D
100
AcDbGroup
300

 70
     1
 71
     1
  0
GROUP
  5
145F1
102
{ACAD_REACTORS
330
D
102
}
330
D
100
AcDbGroup
300

 70
     1
 71
     1
  0
GROUP
  5
DDE5
102
{ACAD_REACTORS
330
D
102
}
330
D
100
AcDbGroup
300

 70
     1
 71
     1
  0
GROUP
  5
14FD7
102
{ACAD_REACTORS
330
D
102
}
330
D
100
AcDbGroup
300

 70
     1
 71
     1
  0
GROUP
  5
13CCC
102
{ACAD_REACTORS
330
D
102
}
330
D
100
AcDbGroup
300

 70
     1
 71
     1
  0
GROUP
  5
14FD8
102
{ACAD_REACTORS
330
D
102
}
330
D
100
AcDbGroup
300

 70
     1
 71
     1
  0
GROUP
  5
14FD9
102
{ACAD_REACTORS
330
D
102
}
330
D
100
AcDbGroup
300

 70
     1
 71
     1
  0
GROUP
  5
14FDA
102
{ACAD_REACTORS
330
D
102
}
330
D
100
AcDbGroup
300

 70
     1
 71
     1
  0
GROUP
  5
145E9
102
{ACAD_REACTORS
330
D
102
}
330
D
100
AcDbGroup
300

 70
     1
 71
     1
  0
GROUP
  5
14FDB
102
{ACAD_REACTORS
330
D
102
}
330
D
100
AcDbGroup
300

 70
     1
 71
     1
  0
GROUP
  5
DDED
102
{ACAD_REACTORS
330
D
102
}
330
D
100
AcDbGroup
300

 70
     1
 71
     1
  0
GROUP
  5
14FDC
102
{ACAD_REACTORS
330
D
102
}
330
D
100
AcDbGroup
300

 70
     1
 71
     1
  0
GROUP
  5
13CD3
102
{ACAD_REACTORS
330
D
102
}
330
D
100
AcDbGroup
300

 70
     1
 71
     1
  0
GROUP
  5
14FDD
102
{ACAD_REACTORS
330
D
102
}
330
D
100
AcDbGroup
300

 70
     1
 71
     1
  0
GROUP
  5
14FDE
102
{ACAD_REACTORS
330
D
102
}
330
D
100
AcDbGroup
300

 70
     1
 71
     1
  0
GROUP
  5
14FDF
102
{ACAD_REACTORS
330
D
102
}
330
D
100
AcDbGroup
300

 70
     1
 71
     1
  0
GROUP
  5
14FE0
102
{ACAD_REACTORS
330
D
102
}
330
D
100
AcDbGroup
300

 70
     1
 71
     1
  0
GROUP
  5
DDE3
102
{ACAD_REACTORS
330
D
102
}
330
D
100
AcDbGroup
300

 70
     1
 71
     1
  0
GROUP
  5
DDE6
102
{ACAD_REACTORS
330
D
102
}
330
D
100
AcDbGroup
300

 70
     1
 71
     1
  0
GROUP
  5
145EA
102
{ACAD_REACTORS
330
D
102
}
330
D
100
AcDbGroup
300

 70
     1
 71
     1
  0
GROUP
  5
14FE1
102
{ACAD_REACTORS
330
D
102
}
330
D
100
AcDbGroup
300

 70
     1
 71
     1
  0
GROUP
  5
14FE2
102
{ACAD_REACTORS
330
D
102
}
330
D
100
AcDbGroup
300

 70
     1
 71
     1
  0
GROUP
  5
14FE3
102
{ACAD_REACTORS
330
D
102
}
330
D
100
AcDbGroup
300

 70
     1
 71
     1
  0
GROUP
  5
167FE
102
{ACAD_REACTORS
330
D
102
}
330
D
100
AcDbGroup
300

 70
     1
 71
     1
  0
GROUP
  5
DDEB
102
{ACAD_REACTORS
330
D
102
}
330
D
100
AcDbGroup
300

 70
     1
 71
     1
  0
GROUP
  5
DDEE
102
{ACAD_REACTORS
330
D
102
}
330
D
100
AcDbGroup
300

 70
     1
 71
     1
  0
GROUP
  5
167FF
102
{ACAD_REACTORS
330
D
102
}
330
D
100
AcDbGroup
300

 70
     1
 71
     1
  0
GROUP
  5
16800
102
{ACAD_REACTORS
330
D
102
}
330
D
100
AcDbGroup
300

 70
     1
 71
     1
  0
GROUP
  5
16801
102
{ACAD_REACTORS
330
D
102
}
330
D
100
AcDbGroup
300

 70
     1
 71
     1
  0
GROUP
  5
16802
102
{ACAD_REACTORS
330
D
102
}
330
D
100
AcDbGroup
300

 70
     1
 71
     1
  0
GROUP
  5
13CCB
102
{ACAD_REACTORS
330
D
102
}
330
D
100
AcDbGroup
300

 70
     1
 71
     1
  0
GROUP
  5
13CCD
102
{ACAD_REACTORS
330
D
102
}
330
D
100
AcDbGroup
300

 70
     1
 71
     1
  0
GROUP
  5
16803
102
{ACAD_REACTORS
330
D
102
}
330
D
100
AcDbGroup
300

 70
     1
 71
     1
  0
GROUP
  5
16804
102
{ACAD_REACTORS
330
D
102
}
330
D
100
AcDbGroup
300

 70
     1
 71
     1
  0
GROUP
  5
DDE7
102
{ACAD_REACTORS
330
D
102
}
330
D
100
AcDbGroup
300

 70
     1
 71
     1
  0
GROUP
  5
16805
102
{ACAD_REACTORS
330
D
102
}
330
D
100
AcDbGroup
300

 70
     1
 71
     1
  0
GROUP
  5
145E5
102
{ACAD_REACTORS
330
D
102
}
330
D
100
AcDbGroup
300

 70
     1
 71
     1
  0
GROUP
  5
16806
102
{ACAD_REACTORS
330
D
102
}
330
D
100
AcDbGroup
300

 70
     1
 71
     1
  0
GROUP
  5
16807
102
{ACAD_REACTORS
330
D
102
}
330
D
100
AcDbGroup
300

 70
     1
 71
     1
  0
GROUP
  5
13CC7
102
{ACAD_REACTORS
330
D
102
}
330
D
100
AcDbGroup
300

 70
     1
 71
     1
  0
GROUP
  5
16808
102
{ACAD_REACTORS
330
D
102
}
330
D
100
AcDbGroup
300

 70
     1
 71
     1
  0
GROUP
  5
145EB
102
{ACAD_REACTORS
330
D
102
}
330
D
100
AcDbGroup
300

 70
     1
 71
     1
  0
GROUP
  5
16809
102
{ACAD_REACTORS
330
D
102
}
330
D
100
AcDbGroup
300

 70
     1
 71
     1
  0
GROUP
  5
1680A
102
{ACAD_REACTORS
330
D
102
}
330
D
100
AcDbGroup
300

 70
     1
 71
     1
  0
GROUP
  5
13CCE
102
{ACAD_REACTORS
330
D
102
}
330
D
100
AcDbGroup
300

 70
     1
 71
     1
  0
GROUP
  5
DDE8
102
{ACAD_REACTORS
330
D
102
}
330
D
100
AcDbGroup
300

 70
     1
 71
     1
  0
GROUP
  5
DDE9
102
{ACAD_REACTORS
330
D
102
}
330
D
100
AcDbGroup
300

 70
     1
 71
     1
  0
GROUP
  5
DDEA
102
{ACAD_REACTORS
330
D
102
}
330
D
100
AcDbGroup
300

 70
     1
 71
     1
  0
GROUP
  5
145E6
102
{ACAD_REACTORS
330
D
102
}
330
D
100
AcDbGroup
300

 70
     1
 71
     1
  0
GROUP
  5
13CC8
102
{ACAD_REACTORS
330
D
102
}
330
D
100
AcDbGroup
300

 70
     1
 71
     1
  0
GROUP
  5
13CC9
102
{ACAD_REACTORS
330
D
102
}
330
D
100
AcDbGroup
300

 70
     1
 71
     1
  0
GROUP
  5
13CCA
102
{ACAD_REACTORS
330
D
102
}
330
D
100
AcDbGroup
300

 70
     1
 71
     1
  0
GROUP
  5
145EC
102
{ACAD_REACTORS
330
D
102
}
330
D
100
AcDbGroup
300

 70
     1
 71
     1
  0
GROUP
  5
13CCF
102
{ACAD_REACTORS
330
D
102
}
330
D
100
AcDbGroup
300

 70
     1
 71
     1
  0
GROUP
  5
13CD0
102
{ACAD_REACTORS
330
D
102
}
330
D
100
AcDbGroup
300

 70
     1
 71
     1
  0
GROUP
  5
13CD1
102
{ACAD_REACTORS
330
D
102
}
330
D
100
AcDbGroup
300

 70
     1
 71
     1
  0
GROUP
  5
145E7
102
{ACAD_REACTORS
330
D
102
}
330
D
100
AcDbGroup
300

 70
     1
 71
     1
  0
GROUP
  5
DDE4
102
{ACAD_REACTORS
330
D
102
}
330
D
100
AcDbGroup
300

 70
     1
 71
     1
  0
GROUP
  5
145E8
102
{ACAD_REACTORS
330
D
102
}
330
D
100
AcDbGroup
300

 70
     1
 71
     1
  0
GROUP
  5
145ED
102
{ACAD_REACTORS
330
D
102
}
330
D
100
AcDbGroup
300

 70
     1
 71
     1
  0
GROUP
  5
DDEC
102
{ACAD_REACTORS
330
D
102
}
330
D
100
AcDbGroup
300

 70
     1
 71
     1
  0
GROUP
  5
145EE
102
{ACAD_REACTORS
330
D
102
}
330
D
100
AcDbGroup
300

 70
     1
 71
     1
  0
MLINESTYLE
  5
18
102
{ACAD_REACTORS
330
17
102
}
330
17
100
AcDbMlineStyle
  2
STANDARD
 70
     0
  3

 62
   256
 51
90.0
 52
90.0
 71
     2
 49
0.5
 62
   256
  6
BYLAYER
 49
-0.5
 62
   256
  6
BYLAYER
  0
PLOTSETTINGS
  5
1AB
102
{ACAD_XDICTIONARY
360
13503
102
}
102
{ACAD_REACTORS
330
19
102
}
330
19
100
AcDbPlotSettings
  1
LANSRO
  2
\\1260\HP2200
  4
A4
  6

 40
6.043083190917967
 41
6.762742042541503
 42
7.736419677734375
 43
5.027069091796875
 44
209.9733276367186
 45
296.9683227539062
 46
5.15
 47
0.0
 48
0.0
 49
0.0
140
0.0
141
0.0
142
1.0
143
0.8829829263240881
 70
  1716
 72
     1
 73
     1
 74
     0
  7
AAA.ctb
 75
     0
147
1.132524729739748
148
-132.2970149058029
149
-71.78507365635891
  0
ACDBPLACEHOLDER
  5
F
102
{ACAD_REACTORS
330
E
102
}
330
E
100
AcDbPlaceHolder
280
     0
  0
XRECORD
  5
20BFF
102
{ACAD_REACTORS
330
20BF5
102
}
330
20BF5
100
AcDbXrecord
 90
        0
  0
XRECORD
  5
20C00
102
{ACAD_REACTORS
330
20BF5
102
}
330
20BF5
100
AcDbXrecord
  1
{39E6D4C8-9137-4BAE-85E5-615910EF8948}
  0
XRECORD
  5
20BF8
102
{ACAD_REACTORS
330
20BF5
102
}
330
20BF5
100
AcDbXrecord
  1

  0
XRECORD
  5
20BFE
102
{ACAD_REACTORS
330
20BF5
102
}
330
20BF5
100
AcDbXrecord
 90
        4
  0
XRECORD
  5
20BFA
102
{ACAD_REACTORS
330
20BF5
102
}
330
20BF5
100
AcDbXrecord
340
1A
  0
XRECORD
  5
20BFD
102
{ACAD_REACTORS
330
20BF5
102
}
330
20BF5
100
AcDbXrecord
 90
    10781
  0
XRECORD
  5
20BFB
102
{ACAD_REACTORS
330
20BF5
102
}
330
20BF5
100
AcDbXrecord
340
19
  0
XRECORD
  5
20BFC
102
{ACAD_REACTORS
330
20BF5
102
}
330
20BF5
100
AcDbXrecord
340
E
  0
XRECORD
  5
20C02
102
{ACAD_REACTORS
330
20BF5
102
}
330
20BF5
100
AcDbXrecord
 40
0.0
  0
XRECORD
  5
20C05
102
{ACAD_REACTORS
330
20BF5
102
}
330
20BF5
100
AcDbXrecord
340
0
  0
XRECORD
  5
20C0B
102
{ACAD_REACTORS
330
20BF5
102
}
330
20BF5
100
AcDbXrecord
 10
0.0
 20
0.0
 30
0.0
  0
XRECORD
  5
20C07
102
{ACAD_REACTORS
330
20BF5
102
}
330
20BF5
100
AcDbXrecord
 10
0.0
 20
0.0
 30
0.0
  0
XRECORD
  5
20C0A
102
{ACAD_REACTORS
330
20BF5
102
}
330
20BF5
100
AcDbXrecord
 10
0.0
 20
0.0
 30
0.0
  0
XRECORD
  5
20C08
102
{ACAD_REACTORS
330
20BF5
102
}
330
20BF5
100
AcDbXrecord
 10
0.0
 20
0.0
 30
0.0
  0
XRECORD
  5
20C09
102
{ACAD_REACTORS
330
20BF5
102
}
330
20BF5
100
AcDbXrecord
 10
0.0
 20
0.0
 30
0.0
  0
XRECORD
  5
20C06
102
{ACAD_REACTORS
330
20BF5
102
}
330
20BF5
100
AcDbXrecord
 10
0.0
 20
0.0
 30
0.0
  0
XRECORD
  5
20C03
102
{ACAD_REACTORS
330
20BF5
102
}
330
20BF5
100
AcDbXrecord
340
0
  0
XRECORD
  5
20C04
102
{ACAD_REACTORS
330
20BF5
102
}
330
20BF5
100
AcDbXrecord
 70
     0
  0
XRECORD
  5
20BF9
102
{ACAD_REACTORS
330
20BF5
102
}
330
20BF5
100
AcDbXrecord
  1
AAA.ctb
  0
XRECORD
  5
20BF6
102
{ACAD_REACTORS
330
20BF5
102
}
330
20BF5
100
AcDbXrecord
 90
        1
  0
XRECORD
  5
20BF7
102
{ACAD_REACTORS
330
20BF5
102
}
330
20BF5
100
AcDbXrecord
 90
       70
  0
XRECORD
  5
20C0E
102
{ACAD_REACTORS
330
20BF5
102
}
330
20BF5
100
AcDbXrecord
340
0
  0
XRECORD
  5
20C14
102
{ACAD_REACTORS
330
20BF5
102
}
330
20BF5
100
AcDbXrecord
 10
0.0
 20
0.0
 30
0.0
  0
XRECORD
  5
20C10
102
{ACAD_REACTORS
330
20BF5
102
}
330
20BF5
100
AcDbXrecord
 10
0.0
 20
0.0
 30
0.0
  0
XRECORD
  5
20C13
102
{ACAD_REACTORS
330
20BF5
102
}
330
20BF5
100
AcDbXrecord
 10
0.0
 20
0.0
 30
0.0
  0
XRECORD
  5
20C11
102
{ACAD_REACTORS
330
20BF5
102
}
330
20BF5
100
AcDbXrecord
 10
0.0
 20
0.0
 30
0.0
  0
XRECORD
  5
20C12
102
{ACAD_REACTORS
330
20BF5
102
}
330
20BF5
100
AcDbXrecord
 10
0.0
 20
0.0
 30
0.0
  0
XRECORD
  5
20C0F
102
{ACAD_REACTORS
330
20BF5
102
}
330
20BF5
100
AcDbXrecord
 10
0.0
 20
0.0
 30
0.0
  0
XRECORD
  5
20C0C
102
{ACAD_REACTORS
330
20BF5
102
}
330
20BF5
100
AcDbXrecord
340
0
  0
XRECORD
  5
20C0D
102
{ACAD_REACTORS
330
20BF5
102
}
330
20BF5
100
AcDbXrecord
 70
     0
  0
XRECORD
  5
20C01
102
{ACAD_REACTORS
330
20BF5
102
}
330
20BF5
100
AcDbXrecord
  1
{0ED56DEE-66B0-11D8-88CD-00A024540C4A}
  0
DICTIONARYVAR
  5
1350B
102
{ACAD_REACTORS
330
4E
102
}
330
4E
100
DictionaryVariables
280
     0
  1
1
  0
DICTIONARYVAR
  5
1350C
102
{ACAD_REACTORS
330
4E
102
}
330
4E
100
DictionaryVariables
280
     0
  1

  0
DICTIONARYVAR
  5
4F
102
{ACAD_REACTORS
330
4E
102
}
330
4E
100
DictionaryVariables
280
     0
  1
96
  0
DICTIONARY
  5
13503
330
1AB
100
AcDbDictionary
280
     1
  3
ACAD_XREC_ROUNDTRIP
360
13504
  0
XRECORD
  5
13504
102
{ACAD_REACTORS
330
13503
102
}
330
13503
100
AcDbXrecord
102
SHADEPLOT
 70
     0
102
SHADEPLOTRESLEVEL
 70
     2
102
SHADEPLOTCUSTOMDPI
 70
   300
  0
ENDSEC
  0
EOF
