  0
SECTION
  2
HEADER
  9
$ACADVER
  1
AC1014
  9
$ACADMAINTVER
 70
     9
  9
$DWGCODEPAGE
  3
ANSI_1252
  9
$INSBASE
 10
0.0
 20
0.0
 30
0.0
  9
$EXTMIN
 10
11.1862060327486
 20
12.3812075556291
 30
0.0
  9
$EXTMAX
 10
268.7205458307918
 20
32.67779501228041
 30
0.0
  9
$LIMMIN
 10
0.0
 20
0.0
  9
$LIMMAX
 10
420.0
 20
297.0
  9
$ORTHOMODE
 70
     0
  9
$REGENMODE
 70
     1
  9
$FILLMODE
 70
     1
  9
$QTEXTMODE
 70
     0
  9
$MIRRTEXT
 70
     0
  9
$DRAGMODE
 70
     2
  9
$LTSCALE
 40
0.2
  9
$OSMODE
 70
    37
  9
$ATTMODE
 70
     1
  9
$TEXTSIZE
 40
2.5
  9
$TRACEWID
 40
1.0
  9
$TEXTSTYLE
  7
\M+2ABAC\M+2A6A12
  9
$CLAYER
  8
0
  9
$CELTYPE
  6
BYLAYER
  9
$CECOLOR
 62
   256
  9
$CELTSCALE
 40
1.0
  9
$DELOBJ
 70
     1
  9
$DISPSILH
 70
     0
  9
$DIMSCALE
 40
1.0
  9
$DIMASZ
 40
1.0
  9
$DIMEXO
 40
0.7
  9
$DIMDLI
 40
3.75
  9
$DIMRND
 40
0.0
  9
$DIMDLE
 40
0.0
  9
$DIMEXE
 40
0.3
  9
$DIMTP
 40
0.0
  9
$DIMTM
 40
0.0
  9
$DIMTXT
 40
1.199999999999999
  9
$DIMCEN
 40
2.5
  9
$DIMTSZ
 40
0.0
  9
$DIMTOL
 70
     0
  9
$DIMLIM
 70
     0
  9
$DIMTIH
 70
     0
  9
$DIMTOH
 70
     0
  9
$DIMSE1
 70
     0
  9
$DIMSE2
 70
     0
  9
$DIMTAD
 70
     1
  9
$DIMZIN
 70
     8
  9
$DIMBLK
  1

  9
$DIMASO
 70
     1
  9
$DIMSHO
 70
     1
  9
$DIMPOST
  1

  9
$DIMAPOST
  1

  9
$DIMALT
 70
     0
  9
$DIMALTD
 70
     3
  9
$DIMALTF
 40
0.03937007874016
  9
$DIMLFAC
 40
1.0
  9
$DIMTOFL
 70
     1
  9
$DIMTVP
 40
0.0
  9
$DIMTIX
 70
     0
  9
$DIMSOXD
 70
     0
  9
$DIMSAH
 70
     0
  9
$DIMBLK1
  1

  9
$DIMBLK2
  1

  9
$DIMSTYLE
  2
ISO-25
  9
$DIMCLRD
 70
     3
  9
$DIMCLRE
 70
     3
  9
$DIMCLRT
 70
     2
  9
$DIMTFAC
 40
1.0
  9
$DIMGAP
 40
0.5
  9
$DIMJUST
 70
     0
  9
$DIMSD1
 70
     0
  9
$DIMSD2
 70
     0
  9
$DIMTOLJ
 70
     0
  9
$DIMTZIN
 70
     8
  9
$DIMALTZ
 70
     0
  9
$DIMALTTZ
 70
     0
  9
$DIMFIT
 70
     3
  9
$DIMUPT
 70
     0
  9
$DIMUNIT
 70
     2
  9
$DIMDEC
 70
     2
  9
$DIMTDEC
 70
     2
  9
$DIMALTU
 70
     2
  9
$DIMALTTD
 70
     3
  9
$DIMTXSTY
  7
STANDARD
  9
$DIMAUNIT
 70
     0
  9
$LUNITS
 70
     2
  9
$LUPREC
 70
     4
  9
$SKETCHINC
 40
1.0
  9
$FILLETRAD
 40
0.0
  9
$AUNITS
 70
     0
  9
$AUPREC
 70
     0
  9
$MENU
  1
.
  9
$ELEVATION
 40
0.0
  9
$PELEVATION
 40
0.0
  9
$THICKNESS
 40
0.0
  9
$LIMCHECK
 70
     0
  9
$BLIPMODE
 70
     0
  9
$CHAMFERA
 40
0.0
  9
$CHAMFERB
 40
0.0
  9
$CHAMFERC
 40
20.0
  9
$CHAMFERD
 40
0.0
  9
$SKPOLY
 70
     0
  9
$TDCREATE
 40
2452648.158040394
  9
$TDUPDATE
 40
2453060.476183518
  9
$TDINDWG
 40
0.8887928009
  9
$TDUSRTIMER
 40
0.8887926852
  9
$USRTIMER
 70
     1
  9
$ANGBASE
 50
0.0
  9
$ANGDIR
 70
     0
  9
$PDMODE
 70
     0
  9
$PDSIZE
 40
0.0
  9
$PLINEWID
 40
0.0
  9
$COORDS
 70
     0
  9
$SPLFRAME
 70
     0
  9
$SPLINETYPE
 70
     6
  9
$SPLINESEGS
 70
    30
  9
$ATTDIA
 70
     0
  9
$ATTREQ
 70
     1
  9
$HANDLING
 70
-16383
  9
$HANDSEED
  5
177EB
  9
$SURFTAB1
 70
     6
  9
$SURFTAB2
 70
     6
  9
$SURFTYPE
 70
     6
  9
$SURFU
 70
     6
  9
$SURFV
 70
     6
  9
$UCSNAME
  2

  9
$UCSORG
 10
0.0
 20
0.0
 30
0.0
  9
$UCSXDIR
 10
1.0
 20
0.0
 30
0.0
  9
$UCSYDIR
 10
0.0
 20
1.0
 30
0.0
  9
$PUCSNAME
  2

  9
$PUCSORG
 10
0.0
 20
0.0
 30
0.0
  9
$PUCSXDIR
 10
1.0
 20
0.0
 30
0.0
  9
$PUCSYDIR
 10
0.0
 20
1.0
 30
0.0
  9
$USERI1
 70
     0
  9
$USERI2
 70
     0
  9
$USERI3
 70
     0
  9
$USERI4
 70
     0
  9
$USERI5
 70
     0
  9
$USERR1
 40
0.0
  9
$USERR2
 40
0.0
  9
$USERR3
 40
0.0
  9
$USERR4
 40
0.0
  9
$USERR5
 40
0.0
  9
$WORLDVIEW
 70
     1
  9
$SHADEDGE
 70
     3
  9
$SHADEDIF
 70
    70
  9
$TILEMODE
 70
     1
  9
$MAXACTVP
 70
    48
  9
$PINSBASE
 10
0.0
 20
0.0
 30
0.0
  9
$PLIMCHECK
 70
     0
  9
$PEXTMIN
 10
1.000000000000000E+20
 20
1.000000000000000E+20
 30
1.000000000000000E+20
  9
$PEXTMAX
 10
-1.000000000000000E+20
 20
-1.000000000000000E+20
 30
-1.000000000000000E+20
  9
$PLIMMIN
 10
0.0
 20
0.0
  9
$PLIMMAX
 10
420.0
 20
297.0
  9
$UNITMODE
 70
     0
  9
$VISRETAIN
 70
     1
  9
$PLINEGEN
 70
     0
  9
$PSLTSCALE
 70
     1
  9
$TREEDEPTH
 70
  3020
  9
$PICKSTYLE
 70
     1
  9
$CMLSTYLE
  2
STANDARD
  9
$CMLJUST
 70
     0
  9
$CMLSCALE
 40
20.0
  9
$PROXYGRAPHICS
 70
     1
  9
$MEASUREMENT
 70
     0
  0
ENDSEC
  0
SECTION
  2
CLASSES
  0
CLASS
  1
ACDBDICTIONARYWDFLT
  2
AcDbDictionaryWithDefault
  3
AutoCAD 2000
 90
        0
280
     0
281
     0
  0
CLASS
  1
ACDBPLACEHOLDER
  2
AcDbPlaceHolder
  3
AutoCAD 2000
 90
        0
280
     0
281
     0
  0
CLASS
  1
LAYOUT
  2
AcDbLayout
  3
AutoCAD 2000
 90
        0
280
     0
281
     0
  0
CLASS
  1
DICTIONARYVAR
  2
AcDbDictionaryVar
  3
AutoCAD 2000
 90
        0
280
     0
281
     0
  0
CLASS
  1
PLOTSETTINGS
  2
AcDbPlotSettings
  3
AutoCAD 2000
 90
        0
280
     0
281
     0
  0
CLASS
  1
LONG_TRANSACTION
  2
AcDbLongTransaction
  3
AutoCAD 2000
 90
        0
280
     0
281
     0
  0
CLASS
  1
LWPOLYLINE
  2
AcDbPolyline
  3
AutoCAD 2000
 90
        0
280
     0
281
     1
  0
CLASS
  1
HATCH
  2
AcDbHatch
  3
AutoCAD 2000
 90
        0
280
     0
281
     1
  0
CLASS
  1
XRECORD
  2
AcDbXrecord
  3
AutoCAD 2000
 90
        0
280
     0
281
     0
  0
CLASS
  1
LONG_TRANSACTION
  2
AcDbLongTransaction
  3
AutoCAD 2000
 90
        0
280
     0
281
     0
  0
CLASS
  1
LWPOLYLINE
  2
AcDbPolyline
  3
AutoCAD 2000
 90
        0
280
     0
281
     1
  0
CLASS
  1
HATCH
  2
AcDbHatch
  3
AutoCAD 2000
 90
        0
280
     0
281
     1
  0
CLASS
  1
XRECORD
  2
AcDbXrecord
  3
AutoCAD 2000
 90
        0
280
     0
281
     0
  0
CLASS
  1
LONG_TRANSACTION
  2
AcDbLongTransaction
  3
AutoCAD 2000
 90
        0
280
     0
281
     0
  0
CLASS
  1
LWPOLYLINE
  2
AcDbPolyline
  3
AutoCAD 2000
 90
        0
280
     0
281
     1
  0
CLASS
  1
HATCH
  2
AcDbHatch
  3
AutoCAD 2000
 90
        0
280
     0
281
     1
  0
CLASS
  1
XRECORD
  2
AcDbXrecord
  3
AutoCAD 2000
 90
        0
280
     0
281
     0
  0
CLASS
  1
LONG_TRANSACTION
  2
AcDbLongTransaction
  3
AutoCAD 2000
 90
        0
280
     0
281
     0
  0
CLASS
  1
LWPOLYLINE
  2
AcDbPolyline
  3
AutoCAD 2000
 90
        0
280
     0
281
     1
  0
CLASS
  1
HATCH
  2
AcDbHatch
  3
AutoCAD 2000
 90
        0
280
     0
281
     1
  0
CLASS
  1
XRECORD
  2
AcDbXrecord
  3
AutoCAD 2000
 90
        0
280
     0
281
     0
  0
CLASS
  1
LONG_TRANSACTION
  2
AcDbLongTransaction
  3
AutoCAD 2000
 90
        0
280
     0
281
     0
  0
CLASS
  1
LWPOLYLINE
  2
AcDbPolyline
  3
AutoCAD 2000
 90
        0
280
     0
281
     1
  0
CLASS
  1
HATCH
  2
AcDbHatch
  3
AutoCAD 2000
 90
        0
280
     0
281
     1
  0
CLASS
  1
XRECORD
  2
AcDbXrecord
  3
AutoCAD 2000
 90
        0
280
     0
281
     0
  0
ENDSEC
  0
SECTION
  2
TABLES
  0
TABLE
  2
VPORT
  5
8
330
0
100
AcDbSymbolTable
 70
     2
  0
VPORT
  5
177C8
330
8
100
AcDbSymbolTableRecord
100
AcDbViewportTableRecord
  2
*ACTIVE
 70
     0
 10
0.0
 20
0.0
 11
1.0
 21
1.0
 12
139.9530038260308
 22
22.52561242229489
 13
0.0
 23
0.0
 14
10.0
 24
10.0
 15
10.0
 25
10.0
 16
0.0
 26
0.0
 36
1.0
 17
0.0
 27
0.0
 37
0.0
 40
151.0789810561312
 41
1.714285714285714
 42
50.0
 43
0.0
 44
0.0
 50
0.0
 51
0.0
 71
     0
 72
 20000
 73
     1
 74
     0
 75
     0
 76
     0
 77
     0
 78
     1
  0
ENDTAB
  0
TABLE
  2
LTYPE
  5
5
330
0
100
AcDbSymbolTable
 70
     3
  0
LTYPE
  5
14
330
5
100
AcDbSymbolTableRecord
100
AcDbLinetypeTableRecord
  2
BYBLOCK
 70
     0
  3

 72
    65
 73
     0
 40
0.0
  0
LTYPE
  5
15
330
5
100
AcDbSymbolTableRecord
100
AcDbLinetypeTableRecord
  2
BYLAYER
 70
     0
  3

 72
    65
 73
     0
 40
0.0
  0
LTYPE
  5
16
330
5
100
AcDbSymbolTableRecord
100
AcDbLinetypeTableRecord
  2
CONTINUOUS
 70
     0
  3
Solid line
 72
    65
 73
     0
 40
0.0
  0
LTYPE
  5
2D
330
5
100
AcDbSymbolTableRecord
100
AcDbLinetypeTableRecord
  2
CENTER2
 70
     0
  3
Center (.5x) ___ _ ___ _ ___ _ ___ _ ___ _ ___
 72
    65
 73
     4
 40
28.57499999999999
 49
19.05
 74
     0
 49
-3.174999999999998
 74
     0
 49
3.174999999999998
 74
     0
 49
-3.174999999999998
 74
     0
  0
LTYPE
  5
2E
330
5
100
AcDbSymbolTableRecord
100
AcDbLinetypeTableRecord
  2
DASHED2
 70
     0
  3
Dashed (.5x) _ _ _ _ _ _ _ _ _ _ _ _ _ _ _ _ _
 72
    65
 73
     2
 40
9.524999999999996
 49
6.349999999999998
 74
     0
 49
-3.174999999999998
 74
     0
  0
ENDTAB
  0
TABLE
  2
LAYER
  5
2
102
{ACAD_XDICTIONARY
360
DDEF
102
}
330
0
100
AcDbSymbolTable
 70
     4
  0
LAYER
  5
10
330
2
100
AcDbSymbolTableRecord
100
AcDbLayerTableRecord
  2
0
 70
     0
 62
     7
  6
CONTINUOUS
  0
LAYER
  5
30
330
2
100
AcDbSymbolTableRecord
100
AcDbLayerTableRecord
  2
AM3
 70
     0
 62
     6
  6
DASHED2
  0
LAYER
  5
34
330
2
100
AcDbSymbolTableRecord
100
AcDbLayerTableRecord
  2
AM7
 70
     0
 62
     4
  6
CENTER2
  0
LAYER
  5
8B8
330
2
100
AcDbSymbolTableRecord
100
AcDbLayerTableRecord
  2
DEFPOINTS
 70
     0
 62
     7
  6
CONTINUOUS
  0
ENDTAB
  0
TABLE
  2
STYLE
  5
3
330
0
100
AcDbSymbolTable
 70
     2
  0
STYLE
  5
11
330
3
100
AcDbSymbolTableRecord
100
AcDbTextStyleTableRecord
  2
STANDARD
 70
     0
 40
0.0
 41
1.0
 50
0.0
 71
     0
 42
2.5
  3
isocp.shx
  4
chineset.shx
  0
STYLE
  5
58
330
3
100
AcDbSymbolTableRecord
100
AcDbTextStyleTableRecord
  2
\M+2ABAC\M+2A6A12
 70
     0
 40
0.0
 41
1.0
 50
0.0
 71
     0
 42
2.5
  3

  4

1001
ACAD
1000
DFKai-SB
1071
    34881
  0
ENDTAB
  0
TABLE
  2
VIEW
  5
6
330
0
100
AcDbSymbolTable
 70
     0
  0
ENDTAB
  0
TABLE
  2
UCS
  5
7
330
0
100
AcDbSymbolTable
 70
     0
  0
ENDTAB
  0
TABLE
  2
APPID
  5
9
330
0
100
AcDbSymbolTable
 70
     2
  0
APPID
  5
12
330
9
100
AcDbSymbolTableRecord
100
AcDbRegAppTableRecord
  2
ACAD
 70
     0
  0
APPID
  5
131A7
330
9
100
AcDbSymbolTableRecord
100
AcDbRegAppTableRecord
  2
CONTENTBLOCKICON
 70
     0
  0
ENDTAB
  0
TABLE
  2
DIMSTYLE
  5
A
330
0
100
AcDbSymbolTable
 70
     2
  0
DIMSTYLE
105
27
330
A
100
AcDbSymbolTableRecord
100
AcDbDimStyleTableRecord
  2
ISO-25
 70
     0
  3

  4

  5

  6

  7

 40
1.0
 41
1.0
 42
0.7
 43
3.75
 44
0.3
 45
0.0
 46
0.0
 47
0.0
 48
0.0
140
1.199999999999999
141
2.5
142
0.0
143
0.03937007874016
144
1.0
145
0.0
146
1.0
147
0.5
 71
     0
 72
     0
 73
     0
 74
     0
 75
     0
 76
     0
 77
     1
 78
     8
170
     0
171
     3
172
     1
173
     0
174
     0
175
     0
176
     3
177
     3
178
     2
270
     2
271
     2
272
     2
273
     2
274
     3
340
11
275
     0
280
     0
281
     0
282
     0
283
     0
284
     8
285
     0
286
     0
287
     3
288
     0
  0
DIMSTYLE
105
13235
330
A
100
AcDbSymbolTableRecord
100
AcDbDimStyleTableRecord
  2
STANDARD
 70
     0
  3

  4

  5

  6

  7

 40
1.0
 41
0.18
 42
0.0625
 43
0.38
 44
0.18
 45
0.0
 46
0.0
 47
0.0
 48
0.0
140
0.18
141
0.09
142
0.0
143
25.4
144
1.0
145
0.0
146
1.0
147
0.09
 71
     0
 72
     0
 73
     1
 74
     1
 75
     0
 76
     0
 77
     0
 78
     0
170
     0
171
     2
172
     0
173
     0
174
     0
175
     0
176
     0
177
     0
178
     0
270
     2
271
     4
272
     4
273
     2
274
     2
340
11
275
     0
280
     0
281
     0
282
     0
283
     1
284
     0
285
     0
286
     0
287
     3
288
     0
  0
ENDTAB
  0
TABLE
  2
BLOCK_RECORD
  5
1
330
0
100
AcDbSymbolTable
 70
     0
  0
BLOCK_RECORD
  5
1F
102
{ACAD_XDICTIONARY
360
131A3
102
}
330
1
100
AcDbSymbolTableRecord
100
AcDbBlockTableRecord
  2
*MODEL_SPACE
  0
BLOCK_RECORD
  5
1B
102
{ACAD_XDICTIONARY
360
131A1
102
}
330
1
100
AcDbSymbolTableRecord
100
AcDbBlockTableRecord
  2
*PAPER_SPACE
  0
ENDTAB
  0
ENDSEC
  0
SECTION
  2
BLOCKS
  0
BLOCK
  5
20
330
1F
100
AcDbEntity
  8
0
100
AcDbBlockBegin
  2
*MODEL_SPACE
 70
     0
 10
0.0
 20
0.0
 30
0.0
  3
*MODEL_SPACE
  1

  0
ENDBLK
  5
21
330
1F
100
AcDbEntity
  8
0
100
AcDbBlockEnd
  0
BLOCK
  5
1C
330
1B
100
AcDbEntity
 67
     1
  8
0
100
AcDbBlockBegin
  2
*PAPER_SPACE
 70
     0
 10
0.0
 20
0.0
 30
0.0
  3
*PAPER_SPACE
  1

  0
ENDBLK
  5
1D
330
1B
100
AcDbEntity
 67
     1
  8
0
100
AcDbBlockEnd
  0
ENDSEC
  0
SECTION
  2
ENTITIES
  0
LINE
  5
152C5
330
1F
100
AcDbEntity
  8
0
100
AcDbLine
 10
208.8725891481305
 20
15.10481543049616
 30
0.0
 11
48.87258914813106
 21
15.10481543049616
 31
0.0
  0
LINE
  5
152C6
330
1F
100
AcDbEntity
  8
0
100
AcDbLine
 10
208.8725891481305
 20
14.40486426049614
 30
0.0
 11
48.87258914813106
 21
14.40486426049608
 31
0.0
  0
LINE
  5
152D1
330
1F
100
AcDbEntity
  8
0
100
AcDbLine
 10
48.87258914813106
 20
29.40486426049608
 30
0.0
 11
48.87258914813106
 21
14.40486426049608
 31
0.0
  0
LINE
  5
152D2
330
1F
100
AcDbEntity
  8
0
100
AcDbLine
 10
208.8725891481305
 20
29.40486426049608
 30
0.0
 11
48.87258918101429
 21
29.40486426049608
 31
0.0
  0
LINE
  5
152D3
330
1F
100
AcDbEntity
  8
0
100
AcDbLine
 10
208.8725891481305
 20
29.11738233749701
 30
0.0
 11
48.87258915938327
 21
29.11738233749701
 31
0.0
  0
LINE
  5
152D4
330
1F
100
AcDbEntity
  8
0
100
AcDbLine
 10
208.8725891481305
 20
27.7198294462317
 30
0.0
 11
48.87258914813106
 21
27.7198294462317
 31
0.0
  0
LINE
  5
152D5
330
1F
100
AcDbEntity
  8
0
100
AcDbLine
 10
208.8725891481305
 20
26.85431870400248
 30
0.0
 11
48.87258914813106
 21
26.85431870400248
 31
0.0
  0
LINE
  5
152D6
330
1F
100
AcDbEntity
  8
0
100
AcDbLine
 10
208.8725891481305
 20
25.51420930683184
 30
0.0
 11
48.87258914813106
 21
25.51420930683184
 31
0.0
  0
LINE
  5
152D7
330
1F
100
AcDbEntity
  8
0
100
AcDbLine
 10
208.8725891481305
 20
24.61403003170767
 30
0.0
 11
48.87258914813106
 21
24.61403003170755
 31
0.0
  0
LINE
  5
152D8
330
1F
100
AcDbEntity
  8
0
100
AcDbLine
 10
208.8725891481305
 20
23.2511448670665
 30
0.0
 11
48.87258914813106
 21
23.2511448670665
 31
0.0
  0
LINE
  5
152D9
330
1F
100
AcDbEntity
  8
0
100
AcDbLine
 10
208.8725891481305
 20
22.81401352222013
 30
0.0
 11
48.87258914813106
 21
22.81401352222013
 31
0.0
  0
LINE
  5
152DA
330
1F
100
AcDbEntity
  8
0
100
AcDbLine
 10
208.8725891481305
 20
20.80546465079214
 30
0.0
 11
48.87258914813106
 21
20.80513246325705
 31
0.0
  0
LINE
  5
152DB
330
1F
100
AcDbEntity
  8
0
100
AcDbLine
 10
208.8725891481305
 20
18.10460086049607
 30
0.0
 11
48.87258914813106
 21
18.10460086049607
 31
0.0
  0
LINE
  5
15301
330
1F
100
AcDbEntity
  8
0
100
AcDbLine
 10
208.8725891481305
 20
29.40486426049608
 30
0.0
 11
208.8725891481305
 21
14.40486426049608
 31
0.0
  0
LINE
  5
15302
330
1F
100
AcDbEntity
  8
AM3
100
AcDbLine
 10
70.9724937981311
 20
14.90486426049608
 30
0.0
 11
70.9724937981311
 21
24.80486426049606
 31
0.0
  0
LINE
  5
15303
330
1F
100
AcDbEntity
  8
AM3
100
AcDbLine
 10
66.77249379813105
 20
14.90486426049608
 30
0.0
 11
66.77249379813105
 21
24.80486426049606
 31
0.0
  0
LINE
  5
15304
330
1F
100
AcDbEntity
  8
AM3
100
AcDbLine
 10
71.37249379813107
 20
22.40486426049608
 30
0.0
 11
66.37249379813107
 21
22.40486426049608
 31
0.0
  0
LINE
  5
15305
330
1F
100
AcDbEntity
  8
AM3
100
AcDbLine
 10
71.37249379813107
 20
14.90486426049608
 30
0.0
 11
66.37249379813107
 21
14.90486426049608
 31
0.0
  0
LINE
  5
15306
330
1F
100
AcDbEntity
  8
AM3
100
AcDbLine
 10
66.37249379813107
 20
14.90486426049608
 30
0.0
 11
66.37249379813107
 21
22.40486426049608
 31
0.0
  0
LINE
  5
15307
330
1F
100
AcDbEntity
  8
AM3
100
AcDbLine
 10
66.37249379813107
 20
14.90486426049608
 30
0.0
 11
65.87249379813101
 21
14.40486426049608
 31
0.0
  0
LINE
  5
15308
330
1F
100
AcDbEntity
  8
AM3
100
AcDbLine
 10
71.37249379813107
 20
14.90486426049608
 30
0.0
 11
71.37249379813102
 21
22.40486426049608
 31
0.0
  0
LINE
  5
15309
330
1F
100
AcDbEntity
  8
AM3
100
AcDbLine
 10
71.37249379813107
 20
14.90486426049608
 30
0.0
 11
71.87249379813107
 21
14.40486426049608
 31
0.0
  0
LINE
  5
1530A
330
1F
100
AcDbEntity
  8
AM3
100
AcDbLine
 10
70.9724937981311
 20
24.80486426049606
 30
0.0
 11
66.77249379813105
 21
24.80486426049606
 31
0.0
  0
LINE
  5
1530B
330
1F
100
AcDbEntity
  8
AM3
100
AcDbLine
 10
68.87249379813107
 20
26.33060356930736
 30
0.0
 11
70.9724937981311
 21
24.80486426049606
 31
0.0
  0
LINE
  5
1530C
330
1F
100
AcDbEntity
  8
AM3
100
AcDbLine
 10
66.77249379813105
 20
24.80486426049606
 30
0.0
 11
68.87249379813107
 21
26.33060356930736
 31
0.0
  0
LINE
  5
1530D
330
1F
100
AcDbEntity
  8
AM7
100
AcDbLine
 10
68.87258914813106
 20
27.7198294462317
 30
0.0
 11
68.87258914813106
 21
13.21648536049605
 31
0.0
  0
LINE
  5
1530E
330
1F
100
AcDbEntity
  8
AM7
100
AcDbLine
 10
188.872589148131
 20
27.7198294462317
 30
0.0
 11
188.872589148131
 21
13.21648536049605
 31
0.0
  0
LINE
  5
1530F
330
1F
100
AcDbEntity
  8
AM3
100
AcDbLine
 10
186.772493798131
 20
14.90486426049608
 30
0.0
 11
186.772493798131
 21
24.80486426049606
 31
0.0
  0
LINE
  5
15310
330
1F
100
AcDbEntity
  8
AM3
100
AcDbLine
 10
190.9724937981311
 20
14.90486426049608
 30
0.0
 11
190.9724937981311
 21
24.80486426049606
 31
0.0
  0
LINE
  5
15311
330
1F
100
AcDbEntity
  8
AM3
100
AcDbLine
 10
191.372493798131
 20
14.90486426049608
 30
0.0
 11
191.372493798131
 21
22.40486426049608
 31
0.0
  0
LINE
  5
15312
330
1F
100
AcDbEntity
  8
AM3
100
AcDbLine
 10
186.372493798131
 20
14.90486426049608
 30
0.0
 11
186.372493798131
 21
22.40486426049608
 31
0.0
  0
LINE
  5
15313
330
1F
100
AcDbEntity
  8
AM3
100
AcDbLine
 10
191.372493798131
 20
14.90486426049608
 30
0.0
 11
186.372493798131
 21
14.90486426049608
 31
0.0
  0
LINE
  5
15314
330
1F
100
AcDbEntity
  8
AM3
100
AcDbLine
 10
186.372493798131
 20
14.90486426049608
 30
0.0
 11
185.872493798131
 21
14.40486426049608
 31
0.0
  0
LINE
  5
15315
330
1F
100
AcDbEntity
  8
AM3
100
AcDbLine
 10
191.372493798131
 20
14.90486426049608
 30
0.0
 11
191.872493798131
 21
14.40486426049608
 31
0.0
  0
LINE
  5
15316
330
1F
100
AcDbEntity
  8
AM3
100
AcDbLine
 10
191.372493798131
 20
22.40486426049608
 30
0.0
 11
186.372493798131
 21
22.40486426049608
 31
0.0
  0
LINE
  5
15317
330
1F
100
AcDbEntity
  8
AM3
100
AcDbLine
 10
188.872493798131
 20
26.33060356930736
 30
0.0
 11
190.9724937981311
 21
24.80486426049606
 31
0.0
  0
LINE
  5
15318
330
1F
100
AcDbEntity
  8
AM3
100
AcDbLine
 10
190.9724937981311
 20
24.80486426049606
 30
0.0
 11
186.772493798131
 21
24.80486426049606
 31
0.0
  0
LINE
  5
15319
330
1F
100
AcDbEntity
  8
AM3
100
AcDbLine
 10
186.772493798131
 20
24.80486426049606
 30
0.0
 11
188.872493798131
 21
26.33060356930736
 31
0.0
  0
LINE
  5
1531A
330
1F
100
AcDbEntity
  8
AM7
100
AcDbLine
 10
128.872589148131
 20
27.7198294462317
 30
0.0
 11
128.872589148131
 21
13.21648536049605
 31
0.0
  0
LINE
  5
1531B
330
1F
100
AcDbEntity
  8
AM3
100
AcDbLine
 10
126.772493798131
 20
14.90486426049608
 30
0.0
 11
126.772493798131
 21
24.80486426049606
 31
0.0
  0
LINE
  5
1531C
330
1F
100
AcDbEntity
  8
AM3
100
AcDbLine
 10
130.972493798131
 20
14.90486426049608
 30
0.0
 11
130.972493798131
 21
24.80486426049606
 31
0.0
  0
LINE
  5
1531D
330
1F
100
AcDbEntity
  8
AM3
100
AcDbLine
 10
131.372493798131
 20
14.90486426049608
 30
0.0
 11
131.372493798131
 21
22.40486426049608
 31
0.0
  0
LINE
  5
1531E
330
1F
100
AcDbEntity
  8
AM3
100
AcDbLine
 10
126.372493798131
 20
14.90486426049608
 30
0.0
 11
126.372493798131
 21
22.40486426049608
 31
0.0
  0
LINE
  5
1531F
330
1F
100
AcDbEntity
  8
AM3
100
AcDbLine
 10
131.372493798131
 20
14.90486426049608
 30
0.0
 11
126.372493798131
 21
14.90486426049608
 31
0.0
  0
LINE
  5
15320
330
1F
100
AcDbEntity
  8
AM3
100
AcDbLine
 10
126.372493798131
 20
14.90486426049608
 30
0.0
 11
125.872493798131
 21
14.40486426049608
 31
0.0
  0
LINE
  5
15321
330
1F
100
AcDbEntity
  8
AM3
100
AcDbLine
 10
131.372493798131
 20
14.90486426049608
 30
0.0
 11
131.872493798131
 21
14.40486426049608
 31
0.0
  0
LINE
  5
15322
330
1F
100
AcDbEntity
  8
AM3
100
AcDbLine
 10
131.372493798131
 20
22.40486426049608
 30
0.0
 11
126.372493798131
 21
22.40486426049608
 31
0.0
  0
LINE
  5
15323
330
1F
100
AcDbEntity
  8
AM3
100
AcDbLine
 10
128.872493798131
 20
26.33060356930736
 30
0.0
 11
130.972493798131
 21
24.80486426049606
 31
0.0
  0
LINE
  5
15324
330
1F
100
AcDbEntity
  8
AM3
100
AcDbLine
 10
130.972493798131
 20
24.80486426049606
 30
0.0
 11
126.772493798131
 21
24.80486426049606
 31
0.0
  0
LINE
  5
15325
330
1F
100
AcDbEntity
  8
AM3
100
AcDbLine
 10
126.772493798131
 20
24.80486426049606
 30
0.0
 11
128.872493798131
 21
26.33060356930736
 31
0.0
  0
LINE
  5
1698D
330
1F
100
AcDbEntity
  8
AM7
100
AcDbLine
 10
18.68654693274868
 20
30.40486426049608
 30
0.0
 11
18.68654693274868
 21
13.21648536049605
 31
0.0
  0
LINE
  5
169A7
330
1F
100
AcDbEntity
  8
AM3
100
AcDbLine
 10
21.1864515827487
 20
22.40486426049608
 30
0.0
 11
16.1864515827487
 21
22.40486426049608
 31
0.0
  0
LINE
  5
169A8
330
1F
100
AcDbEntity
  8
AM3
100
AcDbLine
 10
20.78645158274872
 20
24.80486426049606
 30
0.0
 11
16.58645158274867
 21
24.80486426049606
 31
0.0
  0
LINE
  5
169A9
330
1F
100
AcDbEntity
  8
AM3
100
AcDbLine
 10
21.1864515827487
 20
14.90486426049608
 30
0.0
 11
16.1864515827487
 21
14.90486426049608
 31
0.0
  0
LINE
  5
169AA
330
1F
100
AcDbEntity
  8
AM3
100
AcDbLine
 10
20.78645158274872
 20
14.90486426049608
 30
0.0
 11
20.78645158274872
 21
24.80486426049606
 31
0.0
  0
LINE
  5
169AB
330
1F
100
AcDbEntity
  8
AM3
100
AcDbLine
 10
21.1864515827487
 20
14.90486426049608
 30
0.0
 11
21.18645158274864
 21
22.40486426049608
 31
0.0
  0
LINE
  5
169AC
330
1F
100
AcDbEntity
  8
AM3
100
AcDbLine
 10
21.1864515827487
 20
14.90486426049608
 30
0.0
 11
21.6864515827487
 21
14.40486426049608
 31
0.0
  0
LINE
  5
169AD
330
1F
100
AcDbEntity
  8
AM3
100
AcDbLine
 10
18.6864515827487
 20
26.33060356930736
 30
0.0
 11
20.78645158274872
 21
24.80486426049606
 31
0.0
  0
LINE
  5
169AE
330
1F
100
AcDbEntity
  8
AM3
100
AcDbLine
 10
16.58645158274867
 20
24.80486426049606
 30
0.0
 11
18.6864515827487
 21
26.33060356930736
 31
0.0
  0
LINE
  5
169AF
330
1F
100
AcDbEntity
  8
AM3
100
AcDbLine
 10
16.58645158274867
 20
14.90486426049608
 30
0.0
 11
16.58645158274867
 21
24.80486426049606
 31
0.0
  0
LINE
  5
169B0
330
1F
100
AcDbEntity
  8
AM3
100
AcDbLine
 10
16.1864515827487
 20
14.90486426049608
 30
0.0
 11
16.1864515827487
 21
22.40486426049608
 31
0.0
  0
LINE
  5
169B1
330
1F
100
AcDbEntity
  8
AM3
100
AcDbLine
 10
16.1864515827487
 20
14.90486426049608
 30
0.0
 11
15.68645158274864
 21
14.40486426049608
 31
0.0
  0
LINE
  5
169B2
330
1F
100
AcDbEntity
  8
0
100
AcDbLine
 10
25.48640503274862
 20
14.40486426049608
 30
0.0
 11
11.88649813274867
 21
14.40486426049608
 31
0.0
  0
LINE
  5
169B3
330
1F
100
AcDbEntity
  8
0
100
AcDbLine
 10
26.18627653274859
 20
15.10473508049608
 30
0.0
 11
25.48624763274892
 21
14.40470647963604
 31
0.0
  0
LINE
  5
169B4
330
1F
100
AcDbEntity
  8
0
100
AcDbLine
 10
26.18654693274868
 20
18.1043033604962
 30
0.0
 11
26.18654693274868
 21
15.10481543049604
 31
0.0
  0
LINE
  5
169B5
330
1F
100
AcDbEntity
  8
0
100
AcDbLine
 10
11.18654693274891
 20
18.10430336056725
 30
0.0
 11
11.18654693274891
 21
15.10481543049604
 31
0.0
  0
LINE
  5
169B6
330
1F
100
AcDbEntity
  8
0
100
AcDbLine
 10
11.1862060327486
 20
15.10453952049607
 30
0.0
 11
11.88621343274871
 21
14.40453249725607
 31
0.0
  0
LINE
  5
169B7
330
1F
100
AcDbEntity
  8
0
100
AcDbLine
 10
13.88674223271334
 20
20.80449866053169
 30
0.0
 11
11.18654693274891
 21
18.10430336056725
 31
0.0
  0
LINE
  5
169B8
330
1F
100
AcDbEntity
  8
0
100
AcDbLine
 10
13.88674223271334
 20
22.81401352223161
 30
0.0
 11
13.88674223271334
 21
20.80449866053169
 31
0.0
  0
LINE
  5
169BA
330
1F
100
AcDbEntity
  8
0
100
AcDbLine
 10
13.88674223271334
 20
22.81401352223161
 30
0.0
 11
13.88674223271334
 21
20.80449866053169
 31
0.0
  0
ARC
  5
169BC
330
1F
100
AcDbEntity
  8
0
100
AcDbCircle
 10
11.86504072921343
 20
23.02946174063186
 30
0.0
 40
1.6
100
AcDbArc
 50
7.964062729119265
 51
82.03594360185558
  0
LINE
  5
169BD
330
1F
100
AcDbEntity
  8
0
100
AcDbLine
 10
13.44960899579399
 20
23.2511448670665
 30
0.0
 11
13.88674066642045
 21
22.81401287345124
 31
0.0
  0
LINE
  5
169BE
330
1F
100
AcDbEntity
  8
0
100
AcDbLine
 10
23.6360031590309
 20
29.40486426049608
 30
0.0
 11
13.73709070646668
 21
29.40486426049608
 31
0.0
  0
LINE
  5
169BF
330
1F
100
AcDbEntity
  8
0
100
AcDbLine
 10
23.63600315901317
 20
29.40486426053161
 30
0.0
 11
13.73709070641314
 21
29.40486426053161
 31
0.0
  0
LINE
  5
169C0
330
1F
100
AcDbEntity
  8
0
100
AcDbLine
 10
23.6360031590309
 20
29.40486426049608
 30
0.0
 11
13.73709070646668
 21
29.40486426049608
 31
0.0
  0
LINE
  5
169C1
330
1F
100
AcDbEntity
  8
0
100
AcDbLine
 10
23.63600315901317
 20
29.40486426053161
 30
0.0
 11
13.73709070641314
 21
29.40486426053161
 31
0.0
  0
LINE
  5
169C3
330
1F
100
AcDbEntity
  8
0
100
AcDbLine
 10
11.18654693271332
 20
25.51420850053193
 30
0.0
 11
12.05205602021328
 21
24.64869775833182
 31
0.0
  0
LINE
  5
169C4
330
1F
100
AcDbEntity
  8
0
100
AcDbLine
 10
11.18654693271332
 20
25.51420850053193
 30
0.0
 11
12.08672368055909
 21
24.61403003170755
 31
0.0
  0
LINE
  5
169CA
330
1F
100
AcDbEntity
  8
0
100
AcDbLine
 10
11.18654693274891
 20
26.85431870400248
 30
0.0
 11
11.18654693274891
 21
25.51420930683184
 31
0.0
  0
LINE
  5
169CB
330
1F
100
AcDbEntity
  8
0
100
AcDbLine
 10
11.18654693271332
 20
26.85431870403158
 30
0.0
 11
11.18654693271332
 21
25.51420930683161
 31
0.0
  0
LINE
  5
169CC
330
1F
100
AcDbEntity
  8
0
100
AcDbLine
 10
11.18654693274891
 20
26.85431870400248
 30
0.0
 11
11.18654693274891
 21
25.51420930683184
 31
0.0
  0
LINE
  5
169CD
330
1F
100
AcDbEntity
  8
0
100
AcDbLine
 10
11.18654693271332
 20
26.85431870403158
 30
0.0
 11
11.18654693271332
 21
25.51420930683161
 31
0.0
  0
ARC
  5
169D1
330
1F
100
AcDbEntity
  8
0
100
AcDbCircle
 10
11.86504072921343
 20
29.33906546393166
 30
0.0
 40
1.6
100
AcDbArc
 50
277.9640563981444
 51
352.0359372708806
  0
LINE
  5
169D2
330
1F
100
AcDbEntity
  8
0
100
AcDbLine
 10
11.18654693271332
 20
26.85431870403158
 30
0.0
 11
12.08672368055909
 21
27.75449717285596
 31
0.0
  0
LINE
  5
169D3
330
1F
100
AcDbEntity
  8
0
100
AcDbLine
 10
11.18654693271332
 20
26.85431870403158
 30
0.0
 11
12.05205602021328
 21
27.7198294462317
 31
0.0
  0
LINE
  5
169D4
330
1F
100
AcDbEntity
  8
0
100
AcDbLine
 10
13.44960899579399
 20
29.11738233749701
 30
0.0
 11
13.73709070641348
 21
29.40486426053161
 31
0.0
  0
LINE
  5
169D5
330
1F
100
AcDbEntity
  8
0
100
AcDbLine
 10
13.48427673921333
 20
29.1520501065317
 30
0.0
 11
13.73709070641348
 21
29.40486426053161
 31
0.0
  0
ARC
  5
169D7
330
1F
100
AcDbEntity
  8
0
100
AcDbCircle
 10
25.50805313621322
 20
29.33906546393166
 30
0.0
 40
1.6
100
AcDbArc
 50
187.9640627291193
 51
262.0359436018556
  0
LINE
  5
169D8
330
1F
100
AcDbEntity
  8
0
100
AcDbLine
 10
23.88881712621332
 20
29.1520501065317
 30
0.0
 11
23.63600315901317
 21
29.40486426053161
 31
0.0
  0
LINE
  5
169DA
330
1F
100
AcDbEntity
  8
0
100
AcDbLine
 10
23.92348486963265
 20
29.11738233749701
 30
0.0
 11
23.63600315901317
 21
29.40486426053161
 31
0.0
  0
LINE
  5
169E0
330
1F
100
AcDbEntity
  8
0
100
AcDbLine
 10
26.18654693271333
 20
25.51420850053193
 30
0.0
 11
25.28637018486756
 21
24.61403003170755
 31
0.0
  0
LINE
  5
169E1
330
1F
100
AcDbEntity
  8
0
100
AcDbLine
 10
26.18654693271333
 20
25.51420850053193
 30
0.0
 11
25.32103784521336
 21
24.64869775833182
 31
0.0
  0
LINE
  5
169E2
330
1F
100
AcDbEntity
  8
0
100
AcDbLine
 10
26.18654693274868
 20
18.1043033604962
 30
0.0
 11
23.48635163271296
 21
20.80449866053169
 31
0.0
  0
LINE
  5
169E5
330
1F
100
AcDbEntity
  8
0
100
AcDbLine
 10
26.18654693274868
 20
18.1043033604962
 30
0.0
 11
23.48635163271296
 21
20.80449866053169
 31
0.0
  0
ARC
  5
169E6
330
1F
100
AcDbEntity
  8
0
100
AcDbCircle
 10
25.50805313621322
 20
23.02946174063186
 30
0.0
 40
1.6
100
AcDbArc
 50
97.96405639814441
 51
172.0359372708807
  0
LINE
  5
169E7
330
1F
100
AcDbEntity
  8
0
100
AcDbLine
 10
23.92348486963265
 20
23.2511448670665
 30
0.0
 11
23.4863531990062
 21
22.81401287345124
 31
0.0
  0
LINE
  5
169F0
330
1F
100
AcDbEntity
  8
0
100
AcDbLine
 10
26.18654693274868
 20
26.85431870400248
 30
0.0
 11
26.18654693274868
 21
25.51420930683184
 31
0.0
  0
LINE
  5
169F1
330
1F
100
AcDbEntity
  8
0
100
AcDbLine
 10
26.18654693271333
 20
25.51420930683161
 30
0.0
 11
26.18654693271333
 21
26.85431870403158
 31
0.0
  0
LINE
  5
169F2
330
1F
100
AcDbEntity
  8
0
100
AcDbLine
 10
26.18654693271333
 20
26.85431870403158
 30
0.0
 11
25.32103784521336
 21
27.7198294462317
 31
0.0
  0
LINE
  5
169F5
330
1F
100
AcDbEntity
  8
0
100
AcDbLine
 10
26.18654693274868
 20
26.85431870400248
 30
0.0
 11
26.18654693274868
 21
25.51420930683184
 31
0.0
  0
LINE
  5
169F6
330
1F
100
AcDbEntity
  8
0
100
AcDbLine
 10
26.18654693271333
 20
25.51420930683161
 30
0.0
 11
26.18654693271333
 21
26.85431870403158
 31
0.0
  0
LINE
  5
169F7
330
1F
100
AcDbEntity
  8
0
100
AcDbLine
 10
26.18654693271333
 20
26.85431870403158
 30
0.0
 11
25.28637018486756
 21
27.75449717285596
 31
0.0
  0
LINE
  5
169F8
330
1F
100
AcDbEntity
  8
0
100
AcDbLine
 10
23.48635163271296
 20
20.80449866053169
 30
0.0
 11
23.48635163271296
 21
22.81401352223161
 31
0.0
  0
LINE
  5
169F9
330
1F
100
AcDbEntity
  8
0
100
AcDbLine
 10
23.48635163271296
 20
20.80449866053169
 30
0.0
 11
23.48635163271296
 21
22.81401352223161
 31
0.0
  0
TEXT
  5
16C45
330
1F
100
AcDbEntity
  8
0
100
AcDbText
 10
227.9331452002006
 20
16.00086865055169
 30
0.0
 40
13.8518250193501
  1
HGR15T
  7
\M+2ABAC\M+2A6A12
100
AcDbText
  0
ENDSEC
  0
SECTION
  2
OBJECTS
  0
DICTIONARY
  5
C
330
0
100
AcDbDictionary
  3
ACAD_COLOR
350
13437
  3
ACAD_GROUP
350
D
  3
ACAD_LAYOUT
350
1A
  3
ACAD_MATERIAL
350
13436
  3
ACAD_MLINESTYLE
350
17
  3
ACAD_PLOTSETTINGS
350
19
  3
ACAD_PLOTSTYLENAME
350
E
  3
ACDBHEADERROUNDTRIPXREC
350
177C9
  3
ACDBVARIABLEDICTIONARY
350
4E
  0
DICTIONARY
  5
DDEF
330
2
100
AcDbDictionary
280
     1
  3
ACAD_LAYERFILTERS
360
E68E
  3
ACAD_LAYERSTATES
360
DDF0
  0
DICTIONARY
  5
131A3
330
1F
100
AcDbDictionary
280
     1
  3
ACAD_LAYOUTSELFREF
360
177EA
  0
DICTIONARY
  5
131A1
330
1B
100
AcDbDictionary
280
     1
  3
ACAD_LAYOUTSELFREF
360
177E9
  0
DICTIONARY
  5
13437
102
{ACAD_REACTORS
330
C
102
}
330
C
100
AcDbDictionary
  0
DICTIONARY
  5
D
102
{ACAD_REACTORS
330
C
102
}
330
C
100
AcDbDictionary
  3
*A1
350
DDE2
  3
*A10
350
145E9
  3
*A11
350
145EA
  3
*A12
350
13CCB
  3
*A13
350
145EB
  3
*A14
350
145EC
  3
*A15
350
145ED
  3
*A16
350
DDEC
  3
*A17
350
145EE
  3
*A18
350
145EF
  3
*A19
350
145F0
  3
*A2
350
13CD2
  3
*A20
350
145F1
  3
*A21
350
DDE5
  3
*A22
350
14FD7
  3
*A23
350
13CCC
  3
*A24
350
14FD8
  3
*A25
350
14FD9
  3
*A26
350
14FDA
  3
*A27
350
14FDB
  3
*A28
350
DDED
  3
*A29
350
14FDC
  3
*A3
350
13CD3
  3
*A30
350
14FDD
  3
*A31
350
14FDE
  3
*A32
350
14FDF
  3
*A33
350
14FE0
  3
*A34
350
DDE3
  3
*A35
350
DDE6
  3
*A36
350
14FE1
  3
*A37
350
14FE2
  3
*A38
350
14FE3
  3
*A39
350
167FE
  3
*A4
350
DDEB
  3
*A40
350
DDEE
  3
*A41
350
167FF
  3
*A42
350
16800
  3
*A43
350
16801
  3
*A44
350
16802
  3
*A45
350
13CCD
  3
*A46
350
16803
  3
*A47
350
16804
  3
*A48
350
DDE7
  3
*A49
350
16805
  3
*A5
350
145E5
  3
*A50
350
16806
  3
*A51
350
16807
  3
*A52
350
13CC7
  3
*A53
350
16808
  3
*A54
350
16809
  3
*A55
350
1680A
  3
*A56
350
13CCE
  3
*A57
350
DDE8
  3
*A58
350
DDE9
  3
*A59
350
DDEA
  3
*A6
350
145E6
  3
*A60
350
13CC8
  3
*A61
350
13CC9
  3
*A62
350
13CCA
  3
*A63
350
13CCF
  3
*A64
350
13CD0
  3
*A65
350
13CD1
  3
*A7
350
145E7
  3
*A8
350
DDE4
  3
*A9
350
145E8
  0
DICTIONARY
  5
1A
102
{ACAD_REACTORS
330
C
102
}
330
C
100
AcDbDictionary
  0
DICTIONARY
  5
13436
102
{ACAD_REACTORS
330
C
102
}
330
C
100
AcDbDictionary
  0
DICTIONARY
  5
17
102
{ACAD_REACTORS
330
C
102
}
330
C
100
AcDbDictionary
  3
STANDARD
350
18
  0
DICTIONARY
  5
19
102
{ACAD_REACTORS
330
C
102
}
330
C
100
AcDbDictionary
  3
LANSRO
350
1AB
  0
ACDBDICTIONARYWDFLT
  5
E
102
{ACAD_REACTORS
330
C
102
}
330
C
100
AcDbDictionary
281
     1
  3
Normal
350
F
100
AcDbDictionaryWithDefault
340
F
  0
DICTIONARY
  5
177C9
102
{ACAD_REACTORS
330
C
102
}
330
C
100
AcDbDictionary
  3
CEPSNTYPE
350
177D3
  3
FINGERPRINTGUID
350
177D4
  3
HYPERLINKBASE
350
177CC
  3
INSUNITS
350
177D2
  3
LAYOUTDICT
350
177CE
  3
LWETCUNION
350
177D1
  3
PLOTSETDICT
350
177CF
  3
PLOTSTYLNAMDICT
350
177D0
  3
PSVPSCALE
350
177D6
  3
PUCSBASE
350
177D9
  3
PUCSORGBACK
350
177DF
  3
PUCSORGBOTTOM
350
177DB
  3
PUCSORGFRONT
350
177DE
  3
PUCSORGLEFT
350
177DC
  3
PUCSORGRIGHT
350
177DD
  3
PUCSORGTOP
350
177DA
  3
PUCSORTHOREF
350
177D7
  3
PUCSORTHOVIEW
350
177D8
  3
STYLESHEET
350
177CD
  3
TSTACKALIGN
350
177CA
  3
TSTACKSIZE
350
177CB
  3
UCSBASE
350
177E2
  3
UCSORGBACK
350
177E8
  3
UCSORGBOTTOM
350
177E4
  3
UCSORGFRONT
350
177E7
  3
UCSORGLEFT
350
177E5
  3
UCSORGRIGHT
350
177E6
  3
UCSORGTOP
350
177E3
  3
UCSORTHOREF
350
177E0
  3
UCSORTHOVIEW
350
177E1
  3
VERSIONGUID
350
177D5
  0
DICTIONARY
  5
4E
102
{ACAD_REACTORS
330
C
102
}
330
C
100
AcDbDictionary
  3
DIMASSOC
350
1350B
  3
PROJECTNAME
350
1350C
  3
SORTENTS
350
4F
  0
DICTIONARY
  5
E68E
102
{ACAD_REACTORS
330
DDEF
102
}
330
DDEF
100
AcDbDictionary
280
     1
  0
DICTIONARY
  5
DDF0
102
{ACAD_REACTORS
330
DDEF
102
}
330
DDEF
100
AcDbDictionary
  0
XRECORD
  5
177EA
102
{ACAD_REACTORS
330
131A3
102
}
330
131A3
100
AcDbXrecord
340
1F
  0
XRECORD
  5
177E9
102
{ACAD_REACTORS
330
131A1
102
}
330
131A1
100
AcDbXrecord
340
1B
  0
GROUP
  5
DDE2
102
{ACAD_REACTORS
330
D
102
}
330
D
100
AcDbGroup
300

 70
     1
 71
     1
  0
GROUP
  5
145E9
102
{ACAD_REACTORS
330
D
102
}
330
D
100
AcDbGroup
300

 70
     1
 71
     1
  0
GROUP
  5
145EA
102
{ACAD_REACTORS
330
D
102
}
330
D
100
AcDbGroup
300

 70
     1
 71
     1
  0
GROUP
  5
13CCB
102
{ACAD_REACTORS
330
D
102
}
330
D
100
AcDbGroup
300

 70
     1
 71
     1
  0
GROUP
  5
145EB
102
{ACAD_REACTORS
330
D
102
}
330
D
100
AcDbGroup
300

 70
     1
 71
     1
  0
GROUP
  5
145EC
102
{ACAD_REACTORS
330
D
102
}
330
D
100
AcDbGroup
300

 70
     1
 71
     1
  0
GROUP
  5
145ED
102
{ACAD_REACTORS
330
D
102
}
330
D
100
AcDbGroup
300

 70
     1
 71
     1
  0
GROUP
  5
DDEC
102
{ACAD_REACTORS
330
D
102
}
330
D
100
AcDbGroup
300

 70
     1
 71
     1
  0
GROUP
  5
145EE
102
{ACAD_REACTORS
330
D
102
}
330
D
100
AcDbGroup
300

 70
     1
 71
     1
  0
GROUP
  5
145EF
102
{ACAD_REACTORS
330
D
102
}
330
D
100
AcDbGroup
300

 70
     1
 71
     1
  0
GROUP
  5
145F0
102
{ACAD_REACTORS
330
D
102
}
330
D
100
AcDbGroup
300

 70
     1
 71
     1
  0
GROUP
  5
13CD2
102
{ACAD_REACTORS
330
D
102
}
330
D
100
AcDbGroup
300

 70
     1
 71
     1
  0
GROUP
  5
145F1
102
{ACAD_REACTORS
330
D
102
}
330
D
100
AcDbGroup
300

 70
     1
 71
     1
  0
GROUP
  5
DDE5
102
{ACAD_REACTORS
330
D
102
}
330
D
100
AcDbGroup
300

 70
     1
 71
     1
  0
GROUP
  5
14FD7
102
{ACAD_REACTORS
330
D
102
}
330
D
100
AcDbGroup
300

 70
     1
 71
     1
  0
GROUP
  5
13CCC
102
{ACAD_REACTORS
330
D
102
}
330
D
100
AcDbGroup
300

 70
     1
 71
     1
  0
GROUP
  5
14FD8
102
{ACAD_REACTORS
330
D
102
}
330
D
100
AcDbGroup
300

 70
     1
 71
     1
  0
GROUP
  5
14FD9
102
{ACAD_REACTORS
330
D
102
}
330
D
100
AcDbGroup
300

 70
     1
 71
     1
  0
GROUP
  5
14FDA
102
{ACAD_REACTORS
330
D
102
}
330
D
100
AcDbGroup
300

 70
     1
 71
     1
  0
GROUP
  5
14FDB
102
{ACAD_REACTORS
330
D
102
}
330
D
100
AcDbGroup
300

 70
     1
 71
     1
  0
GROUP
  5
DDED
102
{ACAD_REACTORS
330
D
102
}
330
D
100
AcDbGroup
300

 70
     1
 71
     1
  0
GROUP
  5
14FDC
102
{ACAD_REACTORS
330
D
102
}
330
D
100
AcDbGroup
300

 70
     1
 71
     1
  0
GROUP
  5
13CD3
102
{ACAD_REACTORS
330
D
102
}
330
D
100
AcDbGroup
300

 70
     1
 71
     1
  0
GROUP
  5
14FDD
102
{ACAD_REACTORS
330
D
102
}
330
D
100
AcDbGroup
300

 70
     1
 71
     1
  0
GROUP
  5
14FDE
102
{ACAD_REACTORS
330
D
102
}
330
D
100
AcDbGroup
300

 70
     1
 71
     1
  0
GROUP
  5
14FDF
102
{ACAD_REACTORS
330
D
102
}
330
D
100
AcDbGroup
300

 70
     1
 71
     1
  0
GROUP
  5
14FE0
102
{ACAD_REACTORS
330
D
102
}
330
D
100
AcDbGroup
300

 70
     1
 71
     1
  0
GROUP
  5
DDE3
102
{ACAD_REACTORS
330
D
102
}
330
D
100
AcDbGroup
300

 70
     1
 71
     1
  0
GROUP
  5
DDE6
102
{ACAD_REACTORS
330
D
102
}
330
D
100
AcDbGroup
300

 70
     1
 71
     1
  0
GROUP
  5
14FE1
102
{ACAD_REACTORS
330
D
102
}
330
D
100
AcDbGroup
300

 70
     1
 71
     1
  0
GROUP
  5
14FE2
102
{ACAD_REACTORS
330
D
102
}
330
D
100
AcDbGroup
300

 70
     1
 71
     1
  0
GROUP
  5
14FE3
102
{ACAD_REACTORS
330
D
102
}
330
D
100
AcDbGroup
300

 70
     1
 71
     1
  0
GROUP
  5
167FE
102
{ACAD_REACTORS
330
D
102
}
330
D
100
AcDbGroup
300

 70
     1
 71
     1
  0
GROUP
  5
DDEB
102
{ACAD_REACTORS
330
D
102
}
330
D
100
AcDbGroup
300

 70
     1
 71
     1
  0
GROUP
  5
DDEE
102
{ACAD_REACTORS
330
D
102
}
330
D
100
AcDbGroup
300

 70
     1
 71
     1
  0
GROUP
  5
167FF
102
{ACAD_REACTORS
330
D
102
}
330
D
100
AcDbGroup
300

 70
     1
 71
     1
  0
GROUP
  5
16800
102
{ACAD_REACTORS
330
D
102
}
330
D
100
AcDbGroup
300

 70
     1
 71
     1
  0
GROUP
  5
16801
102
{ACAD_REACTORS
330
D
102
}
330
D
100
AcDbGroup
300

 70
     1
 71
     1
  0
GROUP
  5
16802
102
{ACAD_REACTORS
330
D
102
}
330
D
100
AcDbGroup
300

 70
     1
 71
     1
  0
GROUP
  5
13CCD
102
{ACAD_REACTORS
330
D
102
}
330
D
100
AcDbGroup
300

 70
     1
 71
     1
  0
GROUP
  5
16803
102
{ACAD_REACTORS
330
D
102
}
330
D
100
AcDbGroup
300

 70
     1
 71
     1
  0
GROUP
  5
16804
102
{ACAD_REACTORS
330
D
102
}
330
D
100
AcDbGroup
300

 70
     1
 71
     1
  0
GROUP
  5
DDE7
102
{ACAD_REACTORS
330
D
102
}
330
D
100
AcDbGroup
300

 70
     1
 71
     1
  0
GROUP
  5
16805
102
{ACAD_REACTORS
330
D
102
}
330
D
100
AcDbGroup
300

 70
     1
 71
     1
  0
GROUP
  5
145E5
102
{ACAD_REACTORS
330
D
102
}
330
D
100
AcDbGroup
300

 70
     1
 71
     1
  0
GROUP
  5
16806
102
{ACAD_REACTORS
330
D
102
}
330
D
100
AcDbGroup
300

 70
     1
 71
     1
  0
GROUP
  5
16807
102
{ACAD_REACTORS
330
D
102
}
330
D
100
AcDbGroup
300

 70
     1
 71
     1
  0
GROUP
  5
13CC7
102
{ACAD_REACTORS
330
D
102
}
330
D
100
AcDbGroup
300

 70
     1
 71
     1
  0
GROUP
  5
16808
102
{ACAD_REACTORS
330
D
102
}
330
D
100
AcDbGroup
300

 70
     1
 71
     1
  0
GROUP
  5
16809
102
{ACAD_REACTORS
330
D
102
}
330
D
100
AcDbGroup
300

 70
     1
 71
     1
  0
GROUP
  5
1680A
102
{ACAD_REACTORS
330
D
102
}
330
D
100
AcDbGroup
300

 70
     1
 71
     1
  0
GROUP
  5
13CCE
102
{ACAD_REACTORS
330
D
102
}
330
D
100
AcDbGroup
300

 70
     1
 71
     1
  0
GROUP
  5
DDE8
102
{ACAD_REACTORS
330
D
102
}
330
D
100
AcDbGroup
300

 70
     1
 71
     1
  0
GROUP
  5
DDE9
102
{ACAD_REACTORS
330
D
102
}
330
D
100
AcDbGroup
300

 70
     1
 71
     1
  0
GROUP
  5
DDEA
102
{ACAD_REACTORS
330
D
102
}
330
D
100
AcDbGroup
300

 70
     1
 71
     1
  0
GROUP
  5
145E6
102
{ACAD_REACTORS
330
D
102
}
330
D
100
AcDbGroup
300

 70
     1
 71
     1
  0
GROUP
  5
13CC8
102
{ACAD_REACTORS
330
D
102
}
330
D
100
AcDbGroup
300

 70
     1
 71
     1
  0
GROUP
  5
13CC9
102
{ACAD_REACTORS
330
D
102
}
330
D
100
AcDbGroup
300

 70
     1
 71
     1
  0
GROUP
  5
13CCA
102
{ACAD_REACTORS
330
D
102
}
330
D
100
AcDbGroup
300

 70
     1
 71
     1
  0
GROUP
  5
13CCF
102
{ACAD_REACTORS
330
D
102
}
330
D
100
AcDbGroup
300

 70
     1
 71
     1
  0
GROUP
  5
13CD0
102
{ACAD_REACTORS
330
D
102
}
330
D
100
AcDbGroup
300

 70
     1
 71
     1
  0
GROUP
  5
13CD1
102
{ACAD_REACTORS
330
D
102
}
330
D
100
AcDbGroup
300

 70
     1
 71
     1
  0
GROUP
  5
145E7
102
{ACAD_REACTORS
330
D
102
}
330
D
100
AcDbGroup
300

 70
     1
 71
     1
  0
GROUP
  5
DDE4
102
{ACAD_REACTORS
330
D
102
}
330
D
100
AcDbGroup
300

 70
     1
 71
     1
  0
GROUP
  5
145E8
102
{ACAD_REACTORS
330
D
102
}
330
D
100
AcDbGroup
300

 70
     1
 71
     1
  0
MLINESTYLE
  5
18
102
{ACAD_REACTORS
330
17
102
}
330
17
100
AcDbMlineStyle
  2
STANDARD
 70
     0
  3

 62
   256
 51
90.0
 52
90.0
 71
     2
 49
0.5
 62
   256
  6
BYLAYER
 49
-0.5
 62
   256
  6
BYLAYER
  0
PLOTSETTINGS
  5
1AB
102
{ACAD_XDICTIONARY
360
13503
102
}
102
{ACAD_REACTORS
330
19
102
}
330
19
100
AcDbPlotSettings
  1
LANSRO
  2
\\1260\HP2200
  4
A4
  6

 40
6.043083190917967
 41
6.762742042541503
 42
7.736419677734375
 43
5.027069091796875
 44
209.9733276367186
 45
296.9683227539062
 46
5.15
 47
0.0
 48
0.0
 49
0.0
140
0.0
141
0.0
142
1.0
143
0.8829829263240881
 70
  1716
 72
     1
 73
     1
 74
     0
  7
AAA.ctb
 75
     0
147
1.132524729739748
148
-132.2970149058029
149
-71.78507365635891
  0
ACDBPLACEHOLDER
  5
F
102
{ACAD_REACTORS
330
E
102
}
330
E
100
AcDbPlaceHolder
280
     0
  0
XRECORD
  5
177D3
102
{ACAD_REACTORS
330
177C9
102
}
330
177C9
100
AcDbXrecord
 90
        0
  0
XRECORD
  5
177D4
102
{ACAD_REACTORS
330
177C9
102
}
330
177C9
100
AcDbXrecord
  1
{39E6D4C8-9137-4BAE-85E5-615910EF8948}
  0
XRECORD
  5
177CC
102
{ACAD_REACTORS
330
177C9
102
}
330
177C9
100
AcDbXrecord
  1

  0
XRECORD
  5
177D2
102
{ACAD_REACTORS
330
177C9
102
}
330
177C9
100
AcDbXrecord
 90
        4
  0
XRECORD
  5
177CE
102
{ACAD_REACTORS
330
177C9
102
}
330
177C9
100
AcDbXrecord
340
1A
  0
XRECORD
  5
177D1
102
{ACAD_REACTORS
330
177C9
102
}
330
177C9
100
AcDbXrecord
 90
    10781
  0
XRECORD
  5
177CF
102
{ACAD_REACTORS
330
177C9
102
}
330
177C9
100
AcDbXrecord
340
19
  0
XRECORD
  5
177D0
102
{ACAD_REACTORS
330
177C9
102
}
330
177C9
100
AcDbXrecord
340
E
  0
XRECORD
  5
177D6
102
{ACAD_REACTORS
330
177C9
102
}
330
177C9
100
AcDbXrecord
 40
0.0
  0
XRECORD
  5
177D9
102
{ACAD_REACTORS
330
177C9
102
}
330
177C9
100
AcDbXrecord
340
0
  0
XRECORD
  5
177DF
102
{ACAD_REACTORS
330
177C9
102
}
330
177C9
100
AcDbXrecord
 10
0.0
 20
0.0
 30
0.0
  0
XRECORD
  5
177DB
102
{ACAD_REACTORS
330
177C9
102
}
330
177C9
100
AcDbXrecord
 10
0.0
 20
0.0
 30
0.0
  0
XRECORD
  5
177DE
102
{ACAD_REACTORS
330
177C9
102
}
330
177C9
100
AcDbXrecord
 10
0.0
 20
0.0
 30
0.0
  0
XRECORD
  5
177DC
102
{ACAD_REACTORS
330
177C9
102
}
330
177C9
100
AcDbXrecord
 10
0.0
 20
0.0
 30
0.0
  0
XRECORD
  5
177DD
102
{ACAD_REACTORS
330
177C9
102
}
330
177C9
100
AcDbXrecord
 10
0.0
 20
0.0
 30
0.0
  0
XRECORD
  5
177DA
102
{ACAD_REACTORS
330
177C9
102
}
330
177C9
100
AcDbXrecord
 10
0.0
 20
0.0
 30
0.0
  0
XRECORD
  5
177D7
102
{ACAD_REACTORS
330
177C9
102
}
330
177C9
100
AcDbXrecord
340
0
  0
XRECORD
  5
177D8
102
{ACAD_REACTORS
330
177C9
102
}
330
177C9
100
AcDbXrecord
 70
     0
  0
XRECORD
  5
177CD
102
{ACAD_REACTORS
330
177C9
102
}
330
177C9
100
AcDbXrecord
  1
AAA.ctb
  0
XRECORD
  5
177CA
102
{ACAD_REACTORS
330
177C9
102
}
330
177C9
100
AcDbXrecord
 90
        1
  0
XRECORD
  5
177CB
102
{ACAD_REACTORS
330
177C9
102
}
330
177C9
100
AcDbXrecord
 90
       70
  0
XRECORD
  5
177E2
102
{ACAD_REACTORS
330
177C9
102
}
330
177C9
100
AcDbXrecord
340
0
  0
XRECORD
  5
177E8
102
{ACAD_REACTORS
330
177C9
102
}
330
177C9
100
AcDbXrecord
 10
0.0
 20
0.0
 30
0.0
  0
XRECORD
  5
177E4
102
{ACAD_REACTORS
330
177C9
102
}
330
177C9
100
AcDbXrecord
 10
0.0
 20
0.0
 30
0.0
  0
XRECORD
  5
177E7
102
{ACAD_REACTORS
330
177C9
102
}
330
177C9
100
AcDbXrecord
 10
0.0
 20
0.0
 30
0.0
  0
XRECORD
  5
177E5
102
{ACAD_REACTORS
330
177C9
102
}
330
177C9
100
AcDbXrecord
 10
0.0
 20
0.0
 30
0.0
  0
XRECORD
  5
177E6
102
{ACAD_REACTORS
330
177C9
102
}
330
177C9
100
AcDbXrecord
 10
0.0
 20
0.0
 30
0.0
  0
XRECORD
  5
177E3
102
{ACAD_REACTORS
330
177C9
102
}
330
177C9
100
AcDbXrecord
 10
0.0
 20
0.0
 30
0.0
  0
XRECORD
  5
177E0
102
{ACAD_REACTORS
330
177C9
102
}
330
177C9
100
AcDbXrecord
340
0
  0
XRECORD
  5
177E1
102
{ACAD_REACTORS
330
177C9
102
}
330
177C9
100
AcDbXrecord
 70
     0
  0
XRECORD
  5
177D5
102
{ACAD_REACTORS
330
177C9
102
}
330
177C9
100
AcDbXrecord
  1
{0ED56DEB-66B0-11D8-88CD-00A024540C4A}
  0
DICTIONARYVAR
  5
1350B
102
{ACAD_REACTORS
330
4E
102
}
330
4E
100
DictionaryVariables
280
     0
  1
1
  0
DICTIONARYVAR
  5
1350C
102
{ACAD_REACTORS
330
4E
102
}
330
4E
100
DictionaryVariables
280
     0
  1

  0
DICTIONARYVAR
  5
4F
102
{ACAD_REACTORS
330
4E
102
}
330
4E
100
DictionaryVariables
280
     0
  1
96
  0
DICTIONARY
  5
13503
330
1AB
100
AcDbDictionary
280
     1
  3
ACAD_XREC_ROUNDTRIP
360
13504
  0
XRECORD
  5
13504
102
{ACAD_REACTORS
330
13503
102
}
330
13503
100
AcDbXrecord
102
SHADEPLOT
 70
     0
102
SHADEPLOTRESLEVEL
 70
     2
102
SHADEPLOTCUSTOMDPI
 70
   300
  0
ENDSEC
  0
EOF
