  0
SECTION
  2
HEADER
  9
$ACADVER
  1
AC1015
  9
$ACADMAINTVER
 70
    20
  9
$DWGCODEPAGE
  3
ANSI_950
  9
$INSBASE
 10
0.0
 20
0.0
 30
0.0
  9
$EXTMIN
 10
-54.46996236006135
 20
-67.11075074314033
 30
-0.0015258207003583
  9
$EXTMAX
 10
397.7012236496603
 20
225.9011748492479
 30
0.0000000349246037
  9
$LIMMIN
 10
-10.0
 20
-15.0
  9
$LIMMAX
 10
120.0
 20
90.0
  9
$ORTHOMODE
 70
     1
  9
$REGENMODE
 70
     0
  9
$FILLMODE
 70
     1
  9
$QTEXTMODE
 70
     0
  9
$MIRRTEXT
 70
     0
  9
$LTSCALE
 40
3.0
  9
$ATTMODE
 70
     1
  9
$TEXTSIZE
 40
3.0
  9
$TRACEWID
 40
1.0
  9
$TEXTSTYLE
  7
STANDARD
  9
$CLAYER
  8
0
  9
$CELTYPE
  6
ByLayer
  9
$CECOLOR
 62
   256
  9
$CELTSCALE
 40
1.0
  9
$DISPSILH
 70
     0
  9
$DIMSCALE
 40
1.0
  9
$DIMASZ
 40
3.0
  9
$DIMEXO
 40
1.0
  9
$DIMDLI
 40
6.0
  9
$DIMRND
 40
0.0
  9
$DIMDLE
 40
0.0
  9
$DIMEXE
 40
1.0
  9
$DIMTP
 40
0.0
  9
$DIMTM
 40
0.0
  9
$DIMTXT
 40
3.0
  9
$DIMCEN
 40
1.5
  9
$DIMTSZ
 40
0.0
  9
$DIMTOL
 70
     0
  9
$DIMLIM
 70
     0
  9
$DIMTIH
 70
     1
  9
$DIMTOH
 70
     1
  9
$DIMSE1
 70
     0
  9
$DIMSE2
 70
     0
  9
$DIMTAD
 70
     0
  9
$DIMZIN
 70
     0
  9
$DIMBLK
  1

  9
$DIMASO
 70
     1
  9
$DIMSHO
 70
     0
  9
$DIMPOST
  1

  9
$DIMAPOST
  1

  9
$DIMALT
 70
     0
  9
$DIMALTD
 70
     2
  9
$DIMALTF
 40
25.4
  9
$DIMLFAC
 40
1.0
  9
$DIMTOFL
 70
     1
  9
$DIMTVP
 40
0.0
  9
$DIMTIX
 70
     0
  9
$DIMSOXD
 70
     0
  9
$DIMSAH
 70
     0
  9
$DIMBLK1
  1

  9
$DIMBLK2
  1

  9
$DIMSTYLE
  2
Standard
  9
$DIMCLRD
 70
     0
  9
$DIMCLRE
 70
     0
  9
$DIMCLRT
 70
     0
  9
$DIMTFAC
 40
1.0
  9
$DIMGAP
 40
0.09
  9
$DIMJUST
 70
     0
  9
$DIMSD1
 70
     0
  9
$DIMSD2
 70
     0
  9
$DIMTOLJ
 70
     1
  9
$DIMTZIN
 70
     0
  9
$DIMALTZ
 70
     0
  9
$DIMALTTZ
 70
     0
  9
$DIMUPT
 70
     0
  9
$DIMDEC
 70
     8
  9
$DIMTDEC
 70
     8
  9
$DIMALTU
 70
     2
  9
$DIMALTTD
 70
     2
  9
$DIMTXSTY
  7
STANDARD
  9
$DIMAUNIT
 70
     0
  9
$DIMADEC
 70
     0
  9
$DIMALTRND
 40
0.0
  9
$DIMAZIN
 70
     0
  9
$DIMDSEP
 70
    46
  9
$DIMATFIT
 70
     3
  9
$DIMFRAC
 70
     0
  9
$DIMLDRBLK
  1

  9
$DIMLUNIT
 70
     2
  9
$DIMLWD
 70
    -2
  9
$DIMLWE
 70
    -2
  9
$DIMTMOVE
 70
     2
  9
$LUNITS
 70
     2
  9
$LUPREC
 70
     4
  9
$SKETCHINC
 40
0.5
  9
$FILLETRAD
 40
0.0
  9
$AUNITS
 70
     0
  9
$AUPREC
 70
     0
  9
$MENU
  1
ACAD
  9
$ELEVATION
 40
0.0
  9
$PELEVATION
 40
0.0
  9
$THICKNESS
 40
0.0
  9
$LIMCHECK
 70
     0
  9
$CHAMFERA
 40
0.0
  9
$CHAMFERB
 40
0.0
  9
$CHAMFERC
 40
0.0
  9
$CHAMFERD
 40
0.0
  9
$SKPOLY
 70
     0
  9
$TDCREATE
 40
2444975.333333334
  9
$TDUCREATE
 40
2444975.000000000
  9
$TDUPDATE
 40
2454358.487784456
  9
$TDUUPDATE
 40
2454358.154451123
  9
$TDINDWG
 40
0.1425140278
  9
$TDUSRTIMER
 40
0.0000000000
  9
$USRTIMER
 70
     0
  9
$ANGBASE
 50
0.0
  9
$ANGDIR
 70
     0
  9
$PDMODE
 70
   171
  9
$PDSIZE
 40
0.001
  9
$PLINEWID
 40
0.0
  9
$SPLFRAME
 70
     0
  9
$SPLINETYPE
 70
     6
  9
$SPLINESEGS
 70
     8
  9
$HANDSEED
  5
6452
  9
$SURFTAB1
 70
     6
  9
$SURFTAB2
 70
     6
  9
$SURFTYPE
 70
     6
  9
$SURFU
 70
     6
  9
$SURFV
 70
     6
  9
$UCSBASE
  2

  9
$UCSNAME
  2

  9
$UCSORG
 10
0.0
 20
0.0
 30
0.0
  9
$UCSXDIR
 10
1.0
 20
0.0
 30
0.0
  9
$UCSYDIR
 10
0.0
 20
1.0
 30
0.0
  9
$UCSORTHOREF
  2

  9
$UCSORTHOVIEW
 70
     0
  9
$UCSORGTOP
 10
0.0
 20
0.0
 30
0.0
  9
$UCSORGBOTTOM
 10
0.0
 20
0.0
 30
0.0
  9
$UCSORGLEFT
 10
0.0
 20
0.0
 30
0.0
  9
$UCSORGRIGHT
 10
0.0
 20
0.0
 30
0.0
  9
$UCSORGFRONT
 10
0.0
 20
0.0
 30
0.0
  9
$UCSORGBACK
 10
0.0
 20
0.0
 30
0.0
  9
$PUCSBASE
  2

  9
$PUCSNAME
  2

  9
$PUCSORG
 10
0.0
 20
0.0
 30
0.0
  9
$PUCSXDIR
 10
1.0
 20
0.0
 30
0.0
  9
$PUCSYDIR
 10
0.0
 20
1.0
 30
0.0
  9
$PUCSORTHOREF
  2

  9
$PUCSORTHOVIEW
 70
     0
  9
$PUCSORGTOP
 10
0.0
 20
0.0
 30
0.0
  9
$PUCSORGBOTTOM
 10
0.0
 20
0.0
 30
0.0
  9
$PUCSORGLEFT
 10
0.0
 20
0.0
 30
0.0
  9
$PUCSORGRIGHT
 10
0.0
 20
0.0
 30
0.0
  9
$PUCSORGFRONT
 10
0.0
 20
0.0
 30
0.0
  9
$PUCSORGBACK
 10
0.0
 20
0.0
 30
0.0
  9
$USERI1
 70
     0
  9
$USERI2
 70
     0
  9
$USERI3
 70
     0
  9
$USERI4
 70
     0
  9
$USERI5
 70
     0
  9
$USERR1
 40
0.0
  9
$USERR2
 40
0.0
  9
$USERR3
 40
0.0
  9
$USERR4
 40
0.0
  9
$USERR5
 40
0.0
  9
$WORLDVIEW
 70
     1
  9
$SHADEDGE
 70
     3
  9
$SHADEDIF
 70
    70
  9
$TILEMODE
 70
     1
  9
$MAXACTVP
 70
    48
  9
$PINSBASE
 10
0.0
 20
0.0
 30
0.0
  9
$PLIMCHECK
 70
     0
  9
$PEXTMIN
 10
1.000000000000000E+20
 20
1.000000000000000E+20
 30
1.000000000000000E+20
  9
$PEXTMAX
 10
-1.000000000000000E+20
 20
-1.000000000000000E+20
 30
-1.000000000000000E+20
  9
$PLIMMIN
 10
0.0
 20
0.0
  9
$PLIMMAX
 10
12.0
 20
9.0
  9
$UNITMODE
 70
     0
  9
$VISRETAIN
 70
     1
  9
$PLINEGEN
 70
     0
  9
$PSLTSCALE
 70
     0
  9
$TREEDEPTH
 70
  3020
  9
$CMLSTYLE
  2
Standard
  9
$CMLJUST
 70
     0
  9
$CMLSCALE
 40
1.0
  9
$PROXYGRAPHICS
 70
     1
  9
$MEASUREMENT
 70
     0
  9
$CELWEIGHT
370
    -1
  9
$ENDCAPS
280
     0
  9
$JOINSTYLE
280
     0
  9
$LWDISPLAY
290
     0
  9
$INSUNITS
 70
     0
  9
$HYPERLINKBASE
  1

  9
$STYLESHEET
  1

  9
$XEDIT
290
     1
  9
$CEPSNTYPE
380
     0
  9
$PSTYLEMODE
290
     1
  9
$FINGERPRINTGUID
  2
{77095E5F-9CE7-11D7-970D-0040F4541FA8}
  9
$VERSIONGUID
  2
{CDEA9EC7-4B00-4DE9-A44E-E903870DEDB6}
  9
$EXTNAMES
290
     1
  9
$PSVPSCALE
 40
0.0
  9
$OLESTARTUP
290
     0
  0
ENDSEC
  0
SECTION
  2
CLASSES
  0
CLASS
  1
ACDBDICTIONARYWDFLT
  2
AcDbDictionaryWithDefault
  3
ObjectDBX Classes
 90
        0
280
     0
281
     0
  0
CLASS
  1
ACDBPLACEHOLDER
  2
AcDbPlaceHolder
  3
ObjectDBX Classes
 90
        0
280
     0
281
     0
  0
CLASS
  1
LAYOUT
  2
AcDbLayout
  3
ObjectDBX Classes
 90
        0
280
     0
281
     0
  0
CLASS
  1
DICTIONARYVAR
  2
AcDbDictionaryVar
  3
ObjectDBX Classes
 90
        0
280
     0
281
     0
  0
CLASS
  1
PLOTSETTINGS
  2
AcDbPlotSettings
  3
ObjectDBX Classes
 90
        0
280
     0
281
     0
  0
CLASS
  1
TABLESTYLE
  2
AcDbTableStyle
  3
ObjectDBX Classes
 90
     4095
280
     0
281
     0
  0
CLASS
  1
MATERIAL
  2
AcDbMaterial
  3
ObjectDBX Classes
 90
     1024
280
     0
281
     0
  0
CLASS
  1
VISUALSTYLE
  2
AcDbVisualStyle
  3
ObjectDBX Classes
 90
     4095
280
     0
281
     0
  0
ENDSEC
  0
SECTION
  2
TABLES
  0
TABLE
  2
VPORT
  5
8
330
0
100
AcDbSymbolTable
 70
     1
  0
VPORT
  5
63D8
330
8
100
AcDbSymbolTableRecord
100
AcDbViewportTableRecord
  2
*Active
 70
     0
 10
0.0
 20
0.0
 11
1.0
 21
1.0
 12
171.6156306447994
 22
79.39521205305379
 13
457.9999999999997
 23
1082.0
 14
10.0
 24
10.0
 15
10.0
 25
10.0
 16
0.0
 26
0.0
 36
1.0
 17
0.0
 27
0.0
 37
0.0
 40
296.2377449567081
 41
1.981617647058823
 42
1.0
 43
0.0
 44
0.0
 50
0.0
 51
0.0
 71
     0
 72
 20000
 73
     1
 74
     1
 75
     0
 76
     0
 77
     0
 78
     0
281
     0
 65
     1
110
0.0
120
0.0
130
0.0
111
1.0
121
0.0
131
0.0
112
0.0
122
1.0
132
0.0
 79
     0
146
0.0
  0
ENDTAB
  0
TABLE
  2
LTYPE
  5
5
330
0
100
AcDbSymbolTable
 70
     6
  0
LTYPE
  5
13
330
5
100
AcDbSymbolTableRecord
100
AcDbLinetypeTableRecord
  2
ByBlock
 70
     0
  3

 72
    65
 73
     0
 40
0.0
  0
LTYPE
  5
14
330
5
100
AcDbSymbolTableRecord
100
AcDbLinetypeTableRecord
  2
ByLayer
 70
     0
  3

 72
    65
 73
     0
 40
0.0
  0
LTYPE
  5
15
330
5
100
AcDbSymbolTableRecord
100
AcDbLinetypeTableRecord
  2
CONTINUOUS
 70
     0
  3
連續線 ________________________
 72
    65
 73
     2
 40
200000.0
 49
200000.0
 74
     0
 49
0.0
 74
     0
  0
LTYPE
  5
225
330
5
100
AcDbSymbolTableRecord
100
AcDbLinetypeTableRecord
  2
BYBLOCK
 70
     0
  3
Solid line
 72
    65
 73
     0
 40
0.0
  0
LTYPE
  5
226
330
5
100
AcDbSymbolTableRecord
100
AcDbLinetypeTableRecord
  2
BYLAYER
 70
     0
  3
Solid line
 72
    65
 73
     0
 40
0.0
  0
LTYPE
  5
413C
330
5
100
AcDbSymbolTableRecord
100
AcDbLinetypeTableRecord
  2
CENTER2
 70
     0
  3
Center (.5x) ___ _ ___ _ ___ _ ___ _ ___ _ ___
 72
    65
 73
     4
 40
28.575
 49
19.05
 74
     0
 49
-3.174999999999999
 74
     0
 49
3.174999999999999
 74
     0
 49
-3.174999999999999
 74
     0
  0
LTYPE
  5
413D
330
5
100
AcDbSymbolTableRecord
100
AcDbLinetypeTableRecord
  2
DASHED2
 70
     0
  3
Dashed (.5x) _ _ _ _ _ _ _ _ _ _ _ _ _ _ _ _ _
 72
    65
 73
     2
 40
9.524999999999998
 49
6.349999999999999
 74
     0
 49
-3.174999999999999
 74
     0
  0
ENDTAB
  0
TABLE
  2
LAYER
  5
2
102
{ACAD_XDICTIONARY
360
43C2
102
}
330
0
100
AcDbSymbolTable
 70
    10
  0
LAYER
  5
10
330
2
100
AcDbSymbolTableRecord
100
AcDbLayerTableRecord
  2
0
 70
     0
 62
     7
  6
CONTINUOUS
370
    -3
390
F
  0
LAYER
  5
413E
330
2
100
AcDbSymbolTableRecord
100
AcDbLayerTableRecord
  2
指線
 70
     0
 62
     3
  6
CONTINUOUS
370
    15
390
F
  0
LAYER
  5
413F
330
2
100
AcDbSymbolTableRecord
100
AcDbLayerTableRecord
  2
中心線
 70
     0
 62
     4
  6
CENTER2
370
    20
390
F
  0
LAYER
  5
4140
330
2
100
AcDbSymbolTableRecord
100
AcDbLayerTableRecord
  2
虛線
 70
     0
 62
     6
  6
DASHED2
290
     0
370
    -3
390
F
  0
LAYER
  5
43B4
330
2
100
AcDbSymbolTableRecord
100
AcDbLayerTableRecord
  2
建構線
 70
     0
 62
     1
  6
CONTINUOUS
370
    -3
390
F
  0
LAYER
  5
5C54
330
2
100
AcDbSymbolTableRecord
100
AcDbLayerTableRecord
  2
AM7
 70
     0
 62
     4
  6
CENTER2
370
    20
390
F
  0
LAYER
  5
5CA7
330
2
100
AcDbSymbolTableRecord
100
AcDbLayerTableRecord
  2
AM3
 70
     0
 62
     6
  6
DASHED2
370
    20
390
F
  0
LAYER
  5
5CA8
330
2
100
AcDbSymbolTableRecord
100
AcDbLayerTableRecord
  2
AM4
 70
     0
 62
     3
  6
CONTINUOUS
370
    15
390
F
  0
LAYER
  5
5CA9
330
2
100
AcDbSymbolTableRecord
100
AcDbLayerTableRecord
  2
AM5
 70
     0
 62
     3
  6
CONTINUOUS
370
    15
390
F
  0
LAYER
  5
5CAA
330
2
100
AcDbSymbolTableRecord
100
AcDbLayerTableRecord
  2
DEFPOINTS
 70
     0
 62
     7
  6
CONTINUOUS
290
     0
370
    -3
390
F
  0
ENDTAB
  0
TABLE
  2
STYLE
  5
3
330
0
100
AcDbSymbolTable
 70
     2
  0
STYLE
  5
11
330
3
100
AcDbSymbolTableRecord
100
AcDbTextStyleTableRecord
  2
STANDARD
 70
     0
 40
0.0
 41
1.0
 50
0.0
 71
     0
 42
3.0
  3

  4

  0
STYLE
  5
5CAB
330
3
100
AcDbSymbolTableRecord
100
AcDbTextStyleTableRecord
  2
型式2
 70
     0
 40
0.0
 41
1.0
 50
0.0
 71
     0
 42
2.5
  3
KAIU.TTF
  4

1001
ACAD
1000
DFKai-SB
1071
    34881
  0
ENDTAB
  0
TABLE
  2
VIEW
  5
6
330
0
100
AcDbSymbolTable
 70
     0
  0
ENDTAB
  0
TABLE
  2
UCS
  5
7
330
0
100
AcDbSymbolTable
 70
     0
  0
ENDTAB
  0
TABLE
  2
APPID
  5
9
330
0
100
AcDbSymbolTable
 70
     5
  0
APPID
  5
12
330
9
100
AcDbSymbolTableRecord
100
AcDbRegAppTableRecord
  2
ACAD
 70
     0
  0
APPID
  5
230
330
9
100
AcDbSymbolTableRecord
100
AcDbRegAppTableRecord
  2
TCAD
 70
     0
  0
APPID
  5
4142
330
9
100
AcDbSymbolTableRecord
100
AcDbRegAppTableRecord
  2
CONTENTBLOCKICON
 70
     0
  0
APPID
  5
5A4E
330
9
100
AcDbSymbolTableRecord
100
AcDbRegAppTableRecord
  2
pntflag
 70
     0
  0
APPID
  5
63FC
330
9
100
AcDbSymbolTableRecord
100
AcDbRegAppTableRecord
  2
ACAD_EXEMPT_FROM_CAD_STANDARDS
 70
     0
  0
ENDTAB
  0
TABLE
  2
DIMSTYLE
  5
A
330
0
100
AcDbSymbolTable
 70
     4
100
AcDbDimStyleTable
 71
     3
340
3C9D
340
5CAD
340
5CAC
  0
DIMSTYLE
105
3C9D
330
A
100
AcDbSymbolTableRecord
100
AcDbDimStyleTableRecord
  2
Standard
 70
     0
271
     8
272
     8
340
11
  0
DIMSTYLE
105
5CAC
330
A
100
AcDbSymbolTableRecord
100
AcDbDimStyleTableRecord
  2
ISO-25
 70
     0
 41
1.5
 42
0.7
 43
3.75
 44
0.3
 73
     0
 74
     0
 77
     1
 78
     8
140
2.299999999999999
141
2.5
143
0.03937007874016
147
0.5
171
     3
172
     1
176
     3
177
     3
178
     2
271
     8
272
     8
274
     3
283
     0
284
     8
340
11
  0
DIMSTYLE
105
5CAD
330
A
100
AcDbSymbolTableRecord
100
AcDbDimStyleTableRecord
  2
複本 ISO-25
 70
     0
 41
2.0
 42
0.7
 43
3.75
 44
0.3
 73
     0
 74
     0
 77
     1
 78
     8
140
3.0
141
2.5
143
0.03937007874016
147
0.5
171
     3
172
     1
176
     3
177
     3
178
     2
271
     8
272
     8
274
     3
283
     0
284
     8
340
11
  0
ENDTAB
  0
TABLE
  2
BLOCK_RECORD
  5
1
330
0
100
AcDbSymbolTable
 70
     3
  0
BLOCK_RECORD
  5
1E
102
{ACAD_XDICTIONARY
360
3D1E
102
}
330
1
100
AcDbSymbolTableRecord
100
AcDbBlockTableRecord
  2
*Model_Space
340
21
  0
BLOCK_RECORD
  5
1A
102
{ACAD_XDICTIONARY
360
3D20
102
}
330
1
100
AcDbSymbolTableRecord
100
AcDbBlockTableRecord
  2
*Paper_Space
340
1D
  0
BLOCK_RECORD
  5
5A4F
330
1
100
AcDbSymbolTableRecord
100
AcDbBlockTableRecord
  2
34320003_l
340
0
  0
BLOCK_RECORD
  5
5B4C
330
1
100
AcDbSymbolTableRecord
100
AcDbBlockTableRecord
  2
34320003_f
340
0
  0
ENDTAB
  0
ENDSEC
  0
SECTION
  2
BLOCKS
  0
BLOCK
  5
254
330
1E
100
AcDbEntity
  8
0
100
AcDbBlockBegin
  2
*Model_Space
 70
     0
 10
0.0
 20
0.0
 30
0.0
  3
*Model_Space
  1

  0
ENDBLK
  5
255
330
1E
100
AcDbEntity
  8
0
100
AcDbBlockEnd
  0
BLOCK
  5
252
330
1A
100
AcDbEntity
 67
     1
  8
0
100
AcDbBlockBegin
  2
*Paper_Space
 70
     0
 10
0.0
 20
0.0
 30
0.0
  3
*Paper_Space
  1

  0
ENDBLK
  5
253
330
1A
100
AcDbEntity
 67
     1
  8
0
100
AcDbBlockEnd
  0
BLOCK
  5
5ACC
330
5A4F
100
AcDbEntity
  8
0
100
AcDbBlockBegin
  2
34320003_l
 70
     0
 10
0.0
 20
0.0
 30
0.0
  3
34320003_l
  1

  0
LINE
  5
5A50
330
5A4F
100
AcDbEntity
  8
中心線
 48
0.27
100
AcDbLine
 10
-15.0718824999999
 20
0.0000241638749829
 30
0.0
 11
0.9981961107982328
 21
0.0
 31
0.0
  0
ARC
  5
5A51
330
5A4F
100
AcDbEntity
  8
0
 48
0.27
100
AcDbCircle
 10
2.292638749999923
 20
-2.499975836124932
 30
0.0
 40
3.69263874999997
100
AcDbArc
 50
137.3885930045003
 51
222.6114069976008
  0
ARC
  5
5A52
330
5A4F
100
AcDbEntity
  8
0
 48
0.27
100
AcDbCircle
 10
2.292639999999948
 20
2.500024163874925
 30
0.0
 40
3.69263999999997
100
AcDbArc
 50
137.3885980021991
 51
222.6114019998989
  0
LWPOLYLINE
  5
5A53
330
5A4F
100
AcDbEntity
  8
0
 48
0.27
100
AcDbPolyline
 90
       31
 70
     0
 43
0.0
 10
-10.56089624999993
 20
0.0000241638749543
 10
-10.60191874999995
 20
0.2628429138749766
 10
-10.65710249999996
 20
0.3947016638749545
 10
-10.73589374999994
 20
0.516925413874958
 10
-10.83523874999994
 20
0.6220666638749606
 10
-10.94960249999994
 20
0.7044079138749737
 10
-11.07200249999992
 20
0.7610091638748884
 10
-11.23779749999994
 20
0.797185413874928
 10
-11.39155874999994
 20
0.7938616638749352
 10
-11.52521374999993
 20
0.7619791638749263
 10
-11.67046999999993
 20
0.6922691638749257
 10
-11.80868249999993
 20
0.5804079138749785
 10
-11.91896999999991
 20
0.4372204138749681
 10
-11.98976249999991
 20
0.2874216638750226
 10
-12.02457624999991
 20
0.1578516638749505
 10
-12.03910249999994
 20
0.0000241638749543
 10
-11.99807999999994
 20
-0.2627945861249969
 10
-11.94289499999993
 20
-0.3946545861250428
 10
-11.86410499999995
 20
-0.5168770861250494
 10
-11.76475999999991
 20
-0.622018336125052
 10
-11.65039624999993
 20
-0.7043595861250651
 10
-11.52799624999994
 20
-0.7609608361250509
 10
-11.36220124999991
 20
-0.7971383361250873
 10
-11.20843999999992
 20
-0.7938133361250266
 10
-11.07478499999993
 20
-0.7619320861250145
 10
-10.92952874999991
 20
-0.6922220861250139
 10
-10.79131624999992
 20
-0.5803595861250699
 10
-10.68102874999995
 20
-0.4371733361250563
 10
-10.61023624999994
 20
-0.2873745861250398
 10
-10.57542124999992
 20
-0.1578033361249709
 10
-10.56089624999993
 20
0.0000241638749543
  0
ARC
  5
5A54
330
5A4F
100
AcDbEntity
  8
0
 48
0.27
100
AcDbCircle
 10
-6.085424999999986
 20
0.0000241638749827
 30
0.0
 40
4.99999999999996
100
AcDbArc
 50
90.0
 51
131.4096219996002
  0
ARC
  5
5A55
330
5A4F
100
AcDbEntity
  8
0
 48
0.27
100
AcDbCircle
 10
-6.085424999999986
 20
0.0000241638749827
 30
0.0
 40
4.99999999999996
100
AcDbArc
 50
228.5903779973003
 51
270.0
  0
LINE
  5
5A56
330
5A4F
100
AcDbEntity
  8
0
 48
0.27
100
AcDbLine
 10
0.0
 20
5.000024163874982
 30
0.0
 11
-6.085424999999986
 21
5.000024163874982
 31
0.0
  0
LINE
  5
5A57
330
5A4F
100
AcDbEntity
  8
0
 48
0.27
100
AcDbLine
 10
-0.4250050000000272
 20
0.0000241638749827
 30
0.0
 11
0.0
 21
0.0
 31
0.0
  0
LINE
  5
5A58
330
5A4F
100
AcDbEntity
  8
0
 48
0.27
100
AcDbLine
 10
-6.085424999999986
 20
-4.999975836125017
 30
0.0
 11
0.0
 21
-4.999975836125017
 31
0.0
  0
LINE
  5
5A59
330
5A4F
100
AcDbEntity
  8
0
 48
0.27
100
AcDbLine
 10
-1.400000000000005
 20
5.000024163874982
 30
0.0
 11
-1.400000000000005
 21
-4.999975836125017
 31
0.0
  0
LINE
  5
5A5A
330
5A4F
100
AcDbEntity
  8
0
 48
0.27
100
AcDbLine
 10
-10.49472124999994
 20
3.750024163874954
 30
0.0
 11
-5.620001250000001
 21
3.750024163874954
 31
0.0
  0
LINE
  5
5A5B
330
5A4F
100
AcDbEntity
  8
0
 48
0.27
100
AcDbLine
 10
-10.80271249999994
 20
-3.172567086124999
 30
0.0
 11
-10.49472124999994
 21
-3.749975836124974
 31
0.0
  0
LINE
  5
5A5C
330
5A4F
100
AcDbEntity
  8
0
 48
0.27
100
AcDbLine
 10
-10.49472124999994
 20
3.750024163874954
 30
0.0
 11
-10.80271249999994
 21
3.172615413874993
 31
0.0
  0
LINE
  5
5A5D
330
5A4F
100
AcDbEntity
  8
0
 48
0.27
100
AcDbLine
 10
-4.493948749999987
 20
0.0000241638749827
 30
0.0
 11
-3.619743749999997
 21
0.0000241638749827
 31
0.0
  0
LINE
  5
5A5E
330
5A4F
100
AcDbEntity
  8
0
 48
0.27
100
AcDbLine
 10
-5.620001250000001
 20
3.750024163874954
 30
0.0
 11
-3.619743749999997
 21
0.0000241638749827
 31
0.0
  0
LINE
  5
5A5F
330
5A4F
100
AcDbEntity
  8
0
 48
0.27
100
AcDbLine
 10
-5.620001250000001
 20
-3.749975836124974
 30
0.0
 11
-10.49472124999994
 21
-3.749975836124974
 31
0.0
  0
LINE
  5
5A60
330
5A4F
100
AcDbEntity
  8
0
 48
0.27
100
AcDbLine
 10
-3.619743749999997
 20
0.0000241638749827
 30
0.0
 11
-5.620001250000001
 21
-3.749975836124974
 31
0.0
  0
LINE
  5
5A61
330
5A4F
100
AcDbEntity
  8
0
 48
0.27
100
AcDbLine
 10
-10.34337249999996
 20
3.161941663874969
 30
0.0
 11
-9.820288749999974
 21
3.464571663874949
 31
0.0
  0
LINE
  5
5A62
330
5A4F
100
AcDbEntity
  8
0
 48
0.27
100
AcDbLine
 10
-10.34337249999996
 20
-3.161894586124944
 30
0.0
 11
-9.820288749999974
 21
-3.464524586124994
 31
0.0
  0
LINE
  5
5A63
330
5A4F
100
AcDbEntity
  8
0
 48
0.27
100
AcDbLine
 10
-9.820288749999974
 20
3.464571663874949
 30
0.0
 11
-9.170363749999964
 21
3.677969163874905
 31
0.0
  0
LINE
  5
5A64
330
5A4F
100
AcDbEntity
  8
0
 48
0.27
100
AcDbLine
 10
-9.820288749999974
 20
-3.464524586124994
 30
0.0
 11
-9.170363749999964
 21
-3.677920836124926
 31
0.0
  0
LINE
  5
5A65
330
5A4F
100
AcDbEntity
  8
0
 48
0.27
100
AcDbLine
 10
-9.170363749999964
 20
3.677969163874905
 30
0.0
 11
-8.494463749999937
 21
3.750024163874954
 31
0.0
  0
LINE
  5
5A66
330
5A4F
100
AcDbEntity
  8
0
 48
0.27
100
AcDbLine
 10
-9.170363749999964
 20
-3.677920836124926
 30
0.0
 11
-8.494463749999937
 21
-3.749975836124974
 31
0.0
  0
LINE
  5
5A67
330
5A4F
100
AcDbEntity
  8
0
 48
0.27
100
AcDbLine
 10
-8.494463749999937
 20
3.750024163874954
 30
0.0
 11
-7.818563749999967
 21
3.677969163874905
 31
0.0
  0
LINE
  5
5A68
330
5A4F
100
AcDbEntity
  8
0
 48
0.27
100
AcDbLine
 10
-8.494463749999937
 20
-3.749975836124974
 30
0.0
 11
-7.818563749999967
 21
-3.677920836124926
 31
0.0
  0
LINE
  5
5A69
330
5A4F
100
AcDbEntity
  8
0
 48
0.27
100
AcDbLine
 10
-7.818563749999967
 20
3.677969163874905
 30
0.0
 11
-7.168638749999985
 21
3.464571663874949
 31
0.0
  0
LINE
  5
5A6A
330
5A4F
100
AcDbEntity
  8
0
 48
0.27
100
AcDbLine
 10
-7.818563749999967
 20
-3.677920836124926
 30
0.0
 11
-7.168638749999985
 21
-3.464524586124994
 31
0.0
  0
LINE
  5
5A6B
330
5A4F
100
AcDbEntity
  8
0
 48
0.27
100
AcDbLine
 10
-7.168638749999985
 20
3.464571663874949
 30
0.0
 11
-6.569663749999975
 21
3.118035413874977
 31
0.0
  0
LINE
  5
5A6C
330
5A4F
100
AcDbEntity
  8
0
 48
0.27
100
AcDbLine
 10
-7.168638749999985
 20
-3.464524586124994
 30
0.0
 11
-6.569663749999975
 21
-3.117987086124998
 31
0.0
  0
LINE
  5
5A6D
330
5A4F
100
AcDbEntity
  8
0
 48
0.27
100
AcDbLine
 10
-6.569663749999975
 20
3.118035413874977
 30
0.0
 11
-6.044658749999967
 21
2.651674163874986
 31
0.0
  0
LINE
  5
5A6E
330
5A4F
100
AcDbEntity
  8
0
 48
0.27
100
AcDbLine
 10
-6.569663749999975
 20
-3.117987086124998
 30
0.0
 11
-6.044658749999967
 21
-2.651627086125031
 31
0.0
  0
LINE
  5
5A6F
330
5A4F
100
AcDbEntity
  8
0
 48
0.27
100
AcDbLine
 10
-6.494206249999976
 20
3.750024163874954
 30
0.0
 11
-4.493948749999987
 21
0.0000241638749827
 31
0.0
  0
LINE
  5
5A70
330
5A4F
100
AcDbEntity
  8
0
 48
0.27
100
AcDbLine
 10
-4.493948749999987
 20
0.0000241638749827
 30
0.0
 11
-6.494206249999976
 21
-3.749975836124974
 31
0.0
  0
LINE
  5
5A71
330
5A4F
100
AcDbEntity
  8
0
 48
0.27
100
AcDbLine
 10
-6.044658749999967
 20
2.651674163874986
 30
0.0
 11
-5.613797499999975
 21
2.083411663874983
 31
0.0
  0
LINE
  5
5A72
330
5A4F
100
AcDbEntity
  8
0
 48
0.27
100
AcDbLine
 10
-5.613797499999975
 20
-2.083364586125028
 30
0.0
 11
-6.044658749999967
 21
-2.651627086125031
 31
0.0
  0
LINE
  5
5A73
330
5A4F
100
AcDbEntity
  8
0
 48
0.27
100
AcDbLine
 10
-5.613797499999975
 20
2.083411663874983
 30
0.0
 11
-5.293638749999985
 21
1.435086663874969
 31
0.0
  0
LINE
  5
5A74
330
5A4F
100
AcDbEntity
  8
0
 48
0.27
100
AcDbLine
 10
-5.293638749999985
 20
-1.435039586124943
 30
0.0
 11
-5.613797499999975
 21
-2.083364586125028
 31
0.0
  0
LINE
  5
5A75
330
5A4F
100
AcDbEntity
  8
0
 48
0.27
100
AcDbLine
 10
-5.293638749999985
 20
1.435086663874969
 30
0.0
 11
-5.096486249999998
 21
0.7316129138750256
 31
0.0
  0
LINE
  5
5A76
330
5A4F
100
AcDbEntity
  8
0
 48
0.27
100
AcDbLine
 10
-5.096486249999998
 20
-0.7315645861250602
 30
0.0
 11
-5.293638749999985
 21
-1.435039586124943
 31
0.0
  0
LINE
  5
5A77
330
5A4F
100
AcDbEntity
  8
0
 48
0.27
100
AcDbLine
 10
-5.096486249999998
 20
0.7316129138750256
 30
0.0
 11
-5.029916249999985
 21
0.0000241638749827
 31
0.0
  0
LINE
  5
5A78
330
5A4F
100
AcDbEntity
  8
0
 48
0.27
100
AcDbLine
 10
-5.029916249999985
 20
0.0000241638749827
 30
0.0
 11
-5.096486249999998
 21
-0.7315645861250602
 31
0.0
  0
LINE
  5
5A79
330
5A4F
100
AcDbEntity
  8
0
 48
0.27
100
AcDbLine
 10
-12.12433499999991
 20
2.050307913874931
 30
0.0
 11
-12.12062124999993
 21
2.048289163874983
 31
0.0
  0
LINE
  5
5A7A
330
5A4F
100
AcDbEntity
  8
0
 48
0.27
100
AcDbLine
 10
-12.12433499999991
 20
-2.050260836124991
 30
0.0
 11
-12.12062124999993
 21
-2.048240836125003
 31
0.0
  0
LINE
  5
5A7B
330
5A4F
100
AcDbEntity
  8
0
 48
0.27
100
AcDbLine
 10
-13.51522249999991
 20
0.6227016638749916
 30
0.0
 11
-13.5718824999999
 21
0.0000241638749827
 31
0.0
  0
LINE
  5
5A7C
330
5A4F
100
AcDbEntity
  8
0
 48
0.27
100
AcDbLine
 10
-13.34741999999993
 20
1.221449163874979
 30
0.0
 11
-13.51522249999991
 21
0.6227016638749916
 31
0.0
  0
LINE
  5
5A7D
330
5A4F
100
AcDbEntity
  8
0
 48
0.27
100
AcDbLine
 10
-13.5718824999999
 20
0.0000241638749827
 30
0.0
 11
-13.51522249999991
 21
-0.622653336125012
 31
0.0
  0
LINE
  5
5A7E
330
5A4F
100
AcDbEntity
  8
0
 48
0.27
100
AcDbLine
 10
-13.07492374999991
 20
1.773259163874982
 30
0.0
 11
-13.34741999999993
 21
1.221449163874979
 31
0.0
  0
LINE
  5
5A7F
330
5A4F
100
AcDbEntity
  8
0
 48
0.27
100
AcDbLine
 10
-13.51522249999991
 20
-0.622653336125012
 30
0.0
 11
-13.34741999999993
 21
-1.221402086125024
 31
0.0
  0
LINE
  5
5A80
330
5A4F
100
AcDbEntity
  8
0
 48
0.27
100
AcDbLine
 10
-12.70820374999991
 20
2.256924163875027
 30
0.0
 11
-13.07492374999991
 21
1.773259163874982
 31
0.0
  0
LINE
  5
5A81
330
5A4F
100
AcDbEntity
  8
0
 48
0.27
100
AcDbLine
 10
-13.34741999999993
 20
-1.221402086125024
 30
0.0
 11
-13.07492374999991
 21
-1.773210836125016
 31
0.0
  0
LINE
  5
5A82
330
5A4F
100
AcDbEntity
  8
0
 48
0.27
100
AcDbLine
 10
-12.70820374999991
 20
2.256924163875027
 30
0.0
 11
-12.26135624999992
 21
2.653857913874972
 31
0.0
  0
LINE
  5
5A83
330
5A4F
100
AcDbEntity
  8
0
 48
0.27
100
AcDbLine
 10
-13.07492374999991
 20
-1.773210836125016
 30
0.0
 11
-12.70820374999991
 21
-2.256875836125047
 31
0.0
  0
LINE
  5
5A84
330
5A4F
100
AcDbEntity
  8
0
 48
0.27
100
AcDbLine
 10
-13.32934374999993
 20
0.4369441638749976
 30
0.0
 11
-13.36910124999993
 21
0.0000241638749827
 31
0.0
  0
LINE
  5
5A85
330
5A4F
100
AcDbEntity
  8
0
 48
0.27
100
AcDbLine
 10
-13.21159999999992
 20
0.8570741638749979
 30
0.0
 11
-13.32934374999993
 21
0.4369441638749976
 31
0.0
  0
LINE
  5
5A86
330
5A4F
100
AcDbEntity
  8
0
 48
0.27
100
AcDbLine
 10
-13.36910124999993
 20
0.0000241638749827
 30
0.0
 11
-13.32934374999993
 21
-0.4368958361250038
 31
0.0
  0
LINE
  5
5A87
330
5A4F
100
AcDbEntity
  8
0
 48
0.27
100
AcDbLine
 10
-13.02039499999992
 20
1.244267913874963
 30
0.0
 11
-13.21159999999992
 21
0.8570741638749979
 31
0.0
  0
LINE
  5
5A88
330
5A4F
100
AcDbEntity
  8
0
 48
0.27
100
AcDbLine
 10
-13.32934374999993
 20
-0.4368958361250038
 30
0.0
 11
-13.21159999999992
 21
-0.8570258361250182
 31
0.0
  0
LINE
  5
5A89
330
5A4F
100
AcDbEntity
  8
0
 48
0.27
100
AcDbLine
 10
-12.26135624999992
 20
2.653857913874972
 30
0.0
 11
-11.75154999999992
 21
2.948806663874947
 31
0.0
  0
LINE
  5
5A8A
330
5A4F
100
AcDbEntity
  8
0
 48
0.27
100
AcDbLine
 10
-12.70820374999991
 20
-2.256875836125047
 30
0.0
 11
-12.26135624999992
 21
-2.653809586125007
 31
0.0
  0
LINE
  5
5A8B
330
5A4F
100
AcDbEntity
  8
0
 48
0.27
100
AcDbLine
 10
-12.7630749999999
 20
1.58364541387499
 30
0.0
 11
-13.02039499999992
 21
1.244267913874963
 31
0.0
  0
LINE
  5
5A8C
330
5A4F
100
AcDbEntity
  8
0
 48
0.27
100
AcDbLine
 10
-13.21159999999992
 20
-0.8570258361250182
 30
0.0
 11
-13.02039499999992
 21
-1.24421958612497
 31
0.0
  0
LINE
  5
5A8D
330
5A4F
100
AcDbEntity
  8
0
 48
0.27
100
AcDbLine
 10
-11.75154999999992
 20
2.948806663874947
 30
0.0
 11
-11.19837874999991
 21
3.130434163874909
 31
0.0
  0
LINE
  5
5A8E
330
5A4F
100
AcDbEntity
  8
0
 48
0.27
100
AcDbLine
 10
-12.26135624999992
 20
-2.653809586125007
 30
0.0
 11
-11.75154999999992
 21
-2.94875833612501
 31
0.0
  0
LINE
  5
5A8F
330
5A4F
100
AcDbEntity
  8
0
 48
0.27
100
AcDbLine
 10
-12.7630749999999
 20
1.58364541387499
 30
0.0
 11
-12.44953124999991
 21
1.862166663874944
 31
0.0
  0
LINE
  5
5A90
330
5A4F
100
AcDbEntity
  8
0
 48
0.27
100
AcDbLine
 10
-13.02039499999992
 20
-1.24421958612497
 30
0.0
 11
-12.7630749999999
 21
-1.583598336124936
 31
0.0
  0
LINE
  5
5A91
330
5A4F
100
AcDbEntity
  8
0
 48
0.27
100
AcDbLine
 10
-11.19837874999991
 20
3.130434163874909
 30
0.0
 11
-10.62309999999993
 21
3.191762913874967
 31
0.0
  0
LINE
  5
5A92
330
5A4F
100
AcDbEntity
  8
0
 48
0.27
100
AcDbLine
 10
-11.75154999999992
 20
-2.94875833612501
 30
0.0
 11
-11.19837874999991
 21
-3.130387086125026
 31
0.0
  0
LINE
  5
5A93
330
5A4F
100
AcDbEntity
  8
0
 48
0.27
100
AcDbLine
 10
-12.44953124999991
 20
1.862166663874944
 30
0.0
 11
-12.09180999999994
 21
2.069125413874914
 31
0.0
  0
LINE
  5
5A94
330
5A4F
100
AcDbEntity
  8
0
 48
0.27
100
AcDbLine
 10
-12.7630749999999
 20
-1.583598336124936
 30
0.0
 11
-12.44953124999991
 21
-1.862118336124964
 31
0.0
  0
LINE
  5
5A95
330
5A4F
100
AcDbEntity
  8
0
 48
0.27
100
AcDbLine
 10
-9.867276249999946
 20
3.096250413874955
 30
0.0
 11
-9.320146249999936
 21
2.916605413874933
 31
0.0
  0
LINE
  5
5A96
330
5A4F
100
AcDbEntity
  8
0
 48
0.27
100
AcDbLine
 10
-12.09180999999994
 20
2.069125413874914
 30
0.0
 11
-11.70366124999994
 21
2.196570413874965
 31
0.0
  0
LINE
  5
5A97
330
5A4F
100
AcDbEntity
  8
0
 48
0.27
100
AcDbLine
 10
-12.44953124999991
 20
-1.862118336124964
 30
0.0
 11
-12.09180999999994
 21
-2.069078336124974
 31
0.0
  0
LINE
  5
5A98
330
5A4F
100
AcDbEntity
  8
0
 48
0.27
100
AcDbLine
 10
-10.04782124999994
 20
3.130434163874909
 30
0.0
 11
-9.867276249999946
 21
3.096250413874955
 31
0.0
  0
LINE
  5
5A99
330
5A4F
100
AcDbEntity
  8
0
 48
0.27
100
AcDbLine
 10
-10.62309999999993
 20
3.191762913874967
 30
0.0
 11
-10.04782124999994
 21
3.130434163874909
 31
0.0
  0
LINE
  5
5A9A
330
5A4F
100
AcDbEntity
  8
0
 48
0.27
100
AcDbLine
 10
-11.19837874999991
 20
-3.130387086125026
 30
0.0
 11
-10.62309999999993
 21
-3.191714586124973
 31
0.0
  0
LINE
  5
5A9B
330
5A4F
100
AcDbEntity
  8
0
 48
0.27
100
AcDbLine
 10
-9.320146249999936
 20
2.916605413874933
 30
0.0
 11
-8.815907499999951
 21
2.624877913874954
 31
0.0
  0
LINE
  5
5A9C
330
5A4F
100
AcDbEntity
  8
0
 48
0.27
100
AcDbLine
 10
-9.867276249999946
 20
-3.096202086124961
 30
0.0
 11
-9.320146249999936
 21
-2.916557086124953
 31
0.0
  0
LINE
  5
5A9D
330
5A4F
100
AcDbEntity
  8
0
 48
0.27
100
AcDbLine
 10
-8.815907499999951
 20
2.624877913874954
 30
0.0
 11
-8.373938749999936
 21
2.232279163874963
 31
0.0
  0
LINE
  5
5A9E
330
5A4F
100
AcDbEntity
  8
0
 48
0.27
100
AcDbLine
 10
-9.320146249999936
 20
-2.916557086124953
 30
0.0
 11
-8.815907499999951
 21
-2.624829586124988
 31
0.0
  0
LINE
  5
5A9F
330
5A4F
100
AcDbEntity
  8
0
 48
0.27
100
AcDbLine
 10
-11.70366124999994
 20
2.196570413874965
 30
0.0
 11
-11.29999874999994
 21
2.239602913874989
 31
0.0
  0
LINE
  5
5AA0
330
5A4F
100
AcDbEntity
  8
0
 48
0.27
100
AcDbLine
 10
-12.09180999999994
 20
-2.069078336124974
 30
0.0
 11
-11.70366124999994
 21
-2.196523336125011
 31
0.0
  0
LINE
  5
5AA1
330
5A4F
100
AcDbEntity
  8
0
 48
0.27
100
AcDbLine
 10
-10.04782124999994
 20
3.130434163874909
 30
0.0
 11
-9.49464999999995
 21
2.948806663874947
 31
0.0
  0
LINE
  5
5AA2
330
5A4F
100
AcDbEntity
  8
0
 48
0.27
100
AcDbLine
 10
-10.04782124999994
 20
-3.130387086125026
 30
0.0
 11
-9.867276249999946
 21
-3.096202086124961
 31
0.0
  0
LINE
  5
5AA3
330
5A4F
100
AcDbEntity
  8
0
 48
0.27
100
AcDbLine
 10
-10.62309999999993
 20
-3.191714586124973
 30
0.0
 11
-10.04782124999994
 21
-3.130387086125026
 31
0.0
  0
LINE
  5
5AA4
330
5A4F
100
AcDbEntity
  8
0
 48
0.27
100
AcDbLine
 10
-8.373938749999936
 20
2.232279163874963
 30
0.0
 11
-8.011224999999939
 21
1.753895413874957
 31
0.0
  0
LINE
  5
5AA5
330
5A4F
100
AcDbEntity
  8
0
 48
0.27
100
AcDbLine
 10
-8.815907499999951
 20
-2.624829586124988
 30
0.0
 11
-8.373938749999936
 21
-2.232230836125026
 31
0.0
  0
LINE
  5
5AA6
330
5A4F
100
AcDbEntity
  8
0
 48
0.27
100
AcDbLine
 10
-11.29999874999994
 20
2.239602913874989
 30
0.0
 11
-10.89633749999994
 21
2.196570413874965
 31
0.0
  0
LINE
  5
5AA7
330
5A4F
100
AcDbEntity
  8
0
 48
0.27
100
AcDbLine
 10
-11.70366124999994
 20
-2.196523336125011
 30
0.0
 11
-11.29999874999994
 21
-2.239555836124978
 31
0.0
  0
LINE
  5
5AA8
330
5A4F
100
AcDbEntity
  8
0
 48
0.27
100
AcDbLine
 10
-9.49464999999995
 20
2.948806663874947
 30
0.0
 11
-8.98484499999995
 21
2.653857913874972
 31
0.0
  0
LINE
  5
5AA9
330
5A4F
100
AcDbEntity
  8
0
 48
0.27
100
AcDbLine
 10
-10.04782124999994
 20
-3.130387086125026
 30
0.0
 11
-9.49464999999995
 21
-2.94875833612501
 31
0.0
  0
LINE
  5
5AAA
330
5A4F
100
AcDbEntity
  8
0
 48
0.27
100
AcDbLine
 10
-8.011224999999939
 20
1.753895413874957
 30
0.0
 11
-7.74170374999997
 21
1.208111663874973
 31
0.0
  0
LINE
  5
5AAB
330
5A4F
100
AcDbEntity
  8
0
 48
0.27
100
AcDbLine
 10
-8.011224999999939
 20
-1.753847086124977
 30
0.0
 11
-8.373938749999936
 21
-2.232230836125026
 31
0.0
  0
LINE
  5
5AAC
330
5A4F
100
AcDbEntity
  8
0
 48
0.27
100
AcDbLine
 10
-7.74170374999997
 20
1.208111663874973
 30
0.0
 11
-7.575733749999969
 21
0.6159016638749933
 31
0.0
  0
LINE
  5
5AAD
330
5A4F
100
AcDbEntity
  8
0
 48
0.27
100
AcDbLine
 10
-7.74170374999997
 20
-1.208063336124993
 30
0.0
 11
-8.011224999999939
 21
-1.753847086124977
 31
0.0
  0
LINE
  5
5AAE
330
5A4F
100
AcDbEntity
  8
0
 48
0.27
100
AcDbLine
 10
-8.98484499999995
 20
2.653857913874972
 30
0.0
 11
-8.537996249999977
 21
2.256924163875027
 31
0.0
  0
LINE
  5
5AAF
330
5A4F
100
AcDbEntity
  8
0
 48
0.27
100
AcDbLine
 10
-9.49464999999995
 20
-2.94875833612501
 30
0.0
 11
-8.98484499999995
 21
-2.653809586125007
 31
0.0
  0
LINE
  5
5AB0
330
5A4F
100
AcDbEntity
  8
0
 48
0.27
100
AcDbLine
 10
-7.575733749999969
 20
0.6159016638749933
 30
0.0
 11
-7.519692499999948
 21
0.0000241638749827
 31
0.0
  0
LINE
  5
5AB1
330
5A4F
100
AcDbEntity
  8
0
 48
0.27
100
AcDbLine
 10
-7.575733749999969
 20
-0.6158533361250278
 30
0.0
 11
-7.74170374999997
 21
-1.208063336124993
 31
0.0
  0
LINE
  5
5AB2
330
5A4F
100
AcDbEntity
  8
0
 48
0.27
100
AcDbLine
 10
-10.89633749999994
 20
2.196570413874965
 30
0.0
 11
-10.50818874999994
 21
2.069125413874914
 31
0.0
  0
LINE
  5
5AB3
330
5A4F
100
AcDbEntity
  8
0
 48
0.27
100
AcDbLine
 10
-11.29999874999994
 20
-2.239555836124978
 30
0.0
 11
-10.89633749999994
 21
-2.196523336125011
 31
0.0
  0
LINE
  5
5AB4
330
5A4F
100
AcDbEntity
  8
0
 48
0.27
100
AcDbLine
 10
-7.519692499999948
 20
0.0000241638749827
 30
0.0
 11
-7.575733749999969
 21
-0.6158533361250278
 31
0.0
  0
LINE
  5
5AB5
330
5A4F
100
AcDbEntity
  8
0
 48
0.27
100
AcDbLine
 10
-8.537996249999977
 20
2.256924163875027
 30
0.0
 11
-8.171277499999973
 21
1.773259163874982
 31
0.0
  0
LINE
  5
5AB6
330
5A4F
100
AcDbEntity
  8
0
 48
0.27
100
AcDbLine
 10
-8.98484499999995
 20
-2.653809586125007
 30
0.0
 11
-8.537996249999977
 21
-2.256875836125047
 31
0.0
  0
LINE
  5
5AB7
330
5A4F
100
AcDbEntity
  8
0
 48
0.27
100
AcDbLine
 10
-10.50818874999994
 20
2.069125413874914
 30
0.0
 11
-10.15046749999993
 21
1.862166663874944
 31
0.0
  0
LINE
  5
5AB8
330
5A4F
100
AcDbEntity
  8
0
 48
0.27
100
AcDbLine
 10
-10.89633749999994
 20
-2.196523336125011
 30
0.0
 11
-10.50818874999994
 21
-2.069078336124974
 31
0.0
  0
LINE
  5
5AB9
330
5A4F
100
AcDbEntity
  8
0
 48
0.27
100
AcDbLine
 10
-8.171277499999973
 20
1.773259163874982
 30
0.0
 11
-7.89878124999997
 21
1.221449163874979
 31
0.0
  0
LINE
  5
5ABA
330
5A4F
100
AcDbEntity
  8
0
 48
0.27
100
AcDbLine
 10
-8.171277499999973
 20
-1.773210836125016
 30
0.0
 11
-8.537996249999977
 21
-2.256875836125047
 31
0.0
  0
LINE
  5
5ABB
330
5A4F
100
AcDbEntity
  8
0
 48
0.27
100
AcDbLine
 10
-7.89878124999997
 20
1.221449163874979
 30
0.0
 11
-7.73097749999998
 21
0.6227016638749916
 31
0.0
  0
LINE
  5
5ABC
330
5A4F
100
AcDbEntity
  8
0
 48
0.27
100
AcDbLine
 10
-7.89878124999997
 20
-1.221402086125024
 30
0.0
 11
-8.171277499999973
 21
-1.773210836125016
 31
0.0
  0
LINE
  5
5ABD
330
5A4F
100
AcDbEntity
  8
0
 48
0.27
100
AcDbLine
 10
-10.15046749999993
 20
1.862166663874944
 30
0.0
 11
-9.83692374999994
 21
1.58364541387499
 31
0.0
  0
LINE
  5
5ABE
330
5A4F
100
AcDbEntity
  8
0
 48
0.27
100
AcDbLine
 10
-10.50818874999994
 20
-2.069078336124974
 30
0.0
 11
-10.15046749999993
 21
-1.862118336124964
 31
0.0
  0
LINE
  5
5ABF
330
5A4F
100
AcDbEntity
  8
0
 48
0.27
100
AcDbLine
 10
-7.73097749999998
 20
0.6227016638749916
 30
0.0
 11
-7.674317499999972
 21
0.0000241638749827
 31
0.0
  0
LINE
  5
5AC0
330
5A4F
100
AcDbEntity
  8
0
 48
0.27
100
AcDbLine
 10
-7.73097749999998
 20
-0.622653336125012
 30
0.0
 11
-7.89878124999997
 21
-1.221402086125024
 31
0.0
  0
LINE
  5
5AC1
330
5A4F
100
AcDbEntity
  8
0
 48
0.27
100
AcDbLine
 10
-7.674317499999972
 20
0.0000241638749827
 30
0.0
 11
-7.73097749999998
 21
-0.622653336125012
 31
0.0
  0
LINE
  5
5AC2
330
5A4F
100
AcDbEntity
  8
0
 48
0.27
100
AcDbLine
 10
-9.83692374999994
 20
1.58364541387499
 30
0.0
 11
-9.579603749999975
 21
1.244267913874963
 31
0.0
  0
LINE
  5
5AC3
330
5A4F
100
AcDbEntity
  8
0
 48
0.27
100
AcDbLine
 10
-10.15046749999993
 20
-1.862118336124964
 30
0.0
 11
-9.83692374999994
 21
-1.583598336124936
 31
0.0
  0
LINE
  5
5AC4
330
5A4F
100
AcDbEntity
  8
0
 48
0.27
100
AcDbLine
 10
-9.579603749999975
 20
1.244267913874963
 30
0.0
 11
-9.38839874999995
 21
0.8570741638749979
 31
0.0
  0
LINE
  5
5AC5
330
5A4F
100
AcDbEntity
  8
0
 48
0.27
100
AcDbLine
 10
-9.579603749999975
 20
-1.24421958612497
 30
0.0
 11
-9.83692374999994
 21
-1.583598336124936
 31
0.0
  0
LINE
  5
5AC6
330
5A4F
100
AcDbEntity
  8
0
 48
0.27
100
AcDbLine
 10
-9.38839874999995
 20
0.8570741638749979
 30
0.0
 11
-9.270654999999948
 21
0.4369441638749976
 31
0.0
  0
LINE
  5
5AC7
330
5A4F
100
AcDbEntity
  8
0
 48
0.27
100
AcDbLine
 10
-9.38839874999995
 20
-0.8570258361250182
 30
0.0
 11
-9.579603749999975
 21
-1.24421958612497
 31
0.0
  0
LINE
  5
5AC8
330
5A4F
100
AcDbEntity
  8
0
 48
0.27
100
AcDbLine
 10
-9.270654999999948
 20
0.4369441638749976
 30
0.0
 11
-9.230897499999954
 21
0.0000241638749827
 31
0.0
  0
LINE
  5
5AC9
330
5A4F
100
AcDbEntity
  8
0
 48
0.27
100
AcDbLine
 10
-9.270654999999948
 20
-0.4368958361250038
 30
0.0
 11
-9.38839874999995
 21
-0.8570258361250182
 31
0.0
  0
LINE
  5
5ACA
330
5A4F
100
AcDbEntity
  8
0
 48
0.27
100
AcDbLine
 10
-9.230897499999954
 20
0.0000241638749827
 30
0.0
 11
-9.270654999999948
 21
-0.4368958361250038
 31
0.0
  0
POINT
  5
5ACB
330
5A4F
100
AcDbEntity
  8
0
100
AcDbPoint
 10
-13.5718824999999
 20
0.0000241638749827
 30
0.0
1001
pntflag
1000
endpoint
  0
ENDBLK
  5
5ACD
330
5A4F
100
AcDbEntity
  8
0
100
AcDbBlockEnd
  0
BLOCK
  5
5BC9
330
5B4C
100
AcDbEntity
  8
0
100
AcDbBlockBegin
  2
34320003_f
 70
     0
 10
0.0
 20
0.0
 30
0.0
  3
34320003_f
  1

  0
ARC
  5
5B4D
330
5B4C
100
AcDbEntity
  8
0
 48
0.27
100
AcDbCircle
 10
0.0
 20
0.0
 30
0.0
 40
6.562501095937681
100
AcDbArc
 50
30.24329777399997
 51
329.7566907593
  0
LWPOLYLINE
  5
5B4E
330
5B4C
100
AcDbEntity
  8
0
 48
0.27
100
AcDbPolyline
 90
       17
 70
     0
 43
0.0
 10
11.18961152779011
 20
-0.0000000000000089
 10
11.23154691154337
 20
-0.2712965984315565
 10
11.27266065490934
 20
-0.3499269040627835
 10
11.31837357979336
 20
-0.3868539561046227
 10
11.36084503363612
 20
-0.3864698560404587
 10
11.40646109850401
 20
-0.3487144837353197
 10
11.44564098129707
 20
-0.2740019993833567
 10
11.48237431330654
 20
-0.111410746355609
 10
11.48858337534345
 20
-0.0000000000000089
 10
11.44664966159051
 20
0.2712949284312283
 10
11.40553424822419
 20
0.3499252340625086
 10
11.35982132334017
 20
0.38685228610433
 10
11.31735153949772
 20
0.3864681859151638
 10
11.27173380462955
 20
0.3487128136100248
 10
11.23255559183677
 20
0.274000329258044
 10
11.19582058982703
 20
0.1114090763552985
 10
11.18961152779011
 20
-0.0000000000000089
  0
ARC
  5
5B4F
330
5B4C
100
AcDbEntity
  8
0
 48
0.27
100
AcDbCircle
 10
0.0
 20
0.0
 30
0.0
 40
5.0
100
AcDbArc
 50
48.59037799889993
 51
311.4096220032
  0
LINE
  5
5B50
330
5B4C
100
AcDbEntity
  8
0
 48
0.27
100
AcDbLine
 10
3.608440316359516
 20
3.749999582499912
 30
0.0
 11
2.886751251087457
 21
4.999999999999986
 31
0.0
  0
LINE
  5
5B51
330
5B4C
100
AcDbEntity
  8
0
 48
0.27
100
AcDbLine
 10
-2.886751251087466
 20
4.999999999999986
 30
0.0
 11
2.886751251087457
 21
4.999999999999986
 31
0.0
  0
LINE
  5
5B52
330
5B4C
100
AcDbEntity
  8
0
 48
0.27
100
AcDbLine
 10
-2.886751251087466
 20
4.999999999999986
 30
0.0
 11
-5.773502502174914
 21
0.0
 31
0.0
  0
LINE
  5
5B53
330
5B4C
100
AcDbEntity
  8
0
 48
0.27
100
AcDbLine
 10
-5.773502502174914
 20
0.0
 30
0.0
 11
-2.886751251087466
 21
-5.000001670000297
 31
0.0
  0
LINE
  5
5B54
330
5B4C
100
AcDbEntity
  8
0
 48
0.27
100
AcDbLine
 10
2.886752921087732
 20
-5.000001670000297
 30
0.0
 11
-2.886751251087466
 21
-5.000001670000297
 31
0.0
  0
LINE
  5
5B55
330
5B4C
100
AcDbEntity
  8
0
 48
0.27
100
AcDbLine
 10
3.608440316359516
 20
-3.750001252500222
 30
0.0
 11
2.886752921087732
 21
-5.000001670000297
 31
0.0
  0
LINE
  5
5B56
330
5B4C
100
AcDbEntity
  8
0
 48
0.27
100
AcDbLine
 10
1.62688280043943
 20
-3.750001252500222
 30
0.0
 11
5.394469158626328
 21
-3.750001252500222
 31
0.0
  0
LINE
  5
5B57
330
5B4C
100
AcDbEntity
  8
0
 48
0.27
100
AcDbLine
 10
5.47309278425649
 20
3.394140836446515
 30
0.0
 11
5.394469158626328
 21
3.749999582499912
 31
0.0
  0
LINE
  5
5B58
330
5B4C
100
AcDbEntity
  8
0
 48
0.27
100
AcDbLine
 10
5.394469158626328
 20
-3.750001252500222
 30
0.0
 11
5.47309278425649
 21
-3.394142506446808
 31
0.0
  0
LINE
  5
5B59
330
5B4C
100
AcDbEntity
  8
0
 48
0.27
100
AcDbLine
 10
1.62688280043943
 20
3.749999582499912
 30
0.0
 11
5.394469158626328
 21
3.749999582499912
 31
0.0
  0
LINE
  5
5B5A
330
5B4C
100
AcDbEntity
  8
0
 48
0.27
100
AcDbLine
 10
4.845902369765692
 20
-3.677945738966942
 30
0.0
 11
7.348161045517884
 21
-2.545677019878069
 31
0.0
  0
LINE
  5
5B5B
330
5B4C
100
AcDbEntity
  8
0
 48
0.27
100
AcDbLine
 10
12.17967970063148
 20
-0.43692057246576
 30
0.0
 11
12.19614757600664
 21
0.0
 31
0.0
  0
LINE
  5
5B5C
330
5B4C
100
AcDbEntity
  8
0
 48
0.27
100
AcDbLine
 10
12.13090900473682
 20
-0.8570509593775284
 30
0.0
 11
12.17967970063148
 21
-0.43692057246576
 31
0.0
  0
LINE
  5
5B5D
330
5B4C
100
AcDbEntity
  8
0
 48
0.27
100
AcDbLine
 10
12.19614757600664
 20
0.0
 30
0.0
 11
12.17967970063148
 21
0.4369205724657334
 31
0.0
  0
LINE
  5
5B5E
330
5B4C
100
AcDbEntity
  8
0
 48
0.27
100
AcDbLine
 10
4.565935128511164
 20
-3.750001252500222
 30
0.0
 11
4.845902369765692
 21
-3.677945738966942
 31
0.0
  0
LINE
  5
5B5F
330
5B4C
100
AcDbEntity
  8
0
 48
0.27
100
AcDbLine
 10
4.565935128511164
 20
3.749999582499912
 30
0.0
 11
4.845902369765692
 21
3.677944068966648
 31
0.0
  0
LINE
  5
5B60
330
5B4C
100
AcDbEntity
  8
0
 48
0.27
100
AcDbLine
 10
4.845902369765692
 20
3.677944068966648
 30
0.0
 11
7.348161045517884
 21
2.545675349877776
 31
0.0
  0
LINE
  5
5B61
330
5B4C
100
AcDbEntity
  8
0
 48
0.27
100
AcDbLine
 10
12.05170922888544
 20
-1.244243925663751
 30
0.0
 11
12.13090900473682
 21
-0.8570509593775284
 31
0.0
  0
LINE
  5
5B62
330
5B4C
100
AcDbEntity
  8
0
 48
0.27
100
AcDbLine
 10
12.17967970063148
 20
0.4369205724657334
 30
0.0
 11
12.13090900473682
 21
0.8570492893772179
 31
0.0
  0
LINE
  5
5B63
330
5B4C
100
AcDbEntity
  8
0
 48
0.27
100
AcDbLine
 10
11.94512311408554
 20
-1.583623106215071
 30
0.0
 11
12.05170922888544
 21
-1.244243925663751
 31
0.0
  0
LINE
  5
5B64
330
5B4C
100
AcDbEntity
  8
0
 48
0.27
100
AcDbLine
 10
10.99592987469526
 20
-2.047886597622064
 30
0.0
 11
10.99830294546657
 21
-2.046725947303249
 31
0.0
  0
LINE
  5
5B65
330
5B4C
100
AcDbEntity
  8
0
 48
0.27
100
AcDbLine
 10
12.13090900473682
 20
0.8570492893772179
 30
0.0
 11
12.05170922888544
 21
1.244243925663733
 31
0.0
  0
LINE
  5
5B66
330
5B4C
100
AcDbEntity
  8
0
 48
0.27
100
AcDbLine
 10
4.285967887256634
 20
-3.677945738966942
 30
0.0
 11
4.565935128511164
 21
-3.750001252500222
 31
0.0
  0
LINE
  5
5B67
330
5B4C
100
AcDbEntity
  8
0
 48
0.27
100
AcDbLine
 10
4.285967887256634
 20
3.677944068966648
 30
0.0
 11
4.565935128511164
 21
3.749999582499912
 31
0.0
  0
LINE
  5
5B68
330
5B4C
100
AcDbEntity
  8
0
 48
0.27
100
AcDbLine
 10
11.81524884177156
 20
-1.862144127103073
 30
0.0
 11
11.94512311408554
 21
-1.583623106215071
 31
0.0
  0
LINE
  5
5B69
330
5B4C
100
AcDbEntity
  8
0
 48
0.27
100
AcDbLine
 10
12.05170922888544
 20
1.244243925663733
 30
0.0
 11
11.94512311408554
 21
1.583621436214761
 31
0.0
  0
LINE
  5
5B6A
330
5B4C
100
AcDbEntity
  8
0
 48
0.27
100
AcDbLine
 10
7.348161045517884
 20
-2.545677019878069
 30
0.0
 11
7.649564413727228
 21
-2.422673129836395
 31
0.0
  0
LINE
  5
5B6B
330
5B4C
100
AcDbEntity
  8
0
 48
0.27
100
AcDbLine
 10
7.348161045517884
 20
2.545675349877776
 30
0.0
 11
7.649564413727228
 21
2.422673129836395
 31
0.0
  0
LINE
  5
5B6C
330
5B4C
100
AcDbEntity
  8
0
 48
0.27
100
AcDbLine
 10
11.66707637352675
 20
-2.069102284540088
 30
0.0
 11
11.81524884177156
 21
-1.862144127103073
 31
0.0
  0
LINE
  5
5B6D
330
5B4C
100
AcDbEntity
  8
0
 48
0.27
100
AcDbLine
 10
11.94512311408554
 20
1.583621436214761
 30
0.0
 11
11.81524884177156
 21
1.862142457102798
 31
0.0
  0
LINE
  5
5B6E
330
5B4C
100
AcDbEntity
  8
0
 48
0.27
100
AcDbLine
 10
4.016760459423984
 20
-3.464549729454819
 30
0.0
 11
4.285967887256634
 21
-3.677945738966942
 31
0.0
  0
LINE
  5
5B6F
330
5B4C
100
AcDbEntity
  8
0
 48
0.27
100
AcDbLine
 10
4.016760459423984
 20
3.464548059454518
 30
0.0
 11
4.285967887256634
 21
3.677944068966648
 31
0.0
  0
LINE
  5
5B70
330
5B4C
100
AcDbEntity
  8
0
 48
0.27
100
AcDbLine
 10
7.649564413727228
 20
-2.422673129836395
 30
0.0
 11
7.918219071342568
 21
-2.434082573491797
 31
0.0
  0
LINE
  5
5B71
330
5B4C
100
AcDbEntity
  8
0
 48
0.27
100
AcDbLine
 10
7.649564413727228
 20
2.422673129836395
 30
0.0
 11
7.918219071342568
 21
2.434080903491487
 31
0.0
  0
LINE
  5
5B72
330
5B4C
100
AcDbEntity
  8
0
 48
0.27
100
AcDbLine
 10
9.943206621515521
 20
-3.130411010528642
 30
0.0
 11
11.50630041105215
 21
-2.196548376073592
 31
0.0
  0
LINE
  5
5B73
330
5B4C
100
AcDbEntity
  8
0
 48
0.27
100
AcDbLine
 10
11.50630041105215
 20
-2.196548376073592
 30
0.0
 11
11.66707637352675
 21
-2.069102284540088
 31
0.0
  0
LINE
  5
5B74
330
5B4C
100
AcDbEntity
  8
0
 48
0.27
100
AcDbLine
 10
11.81524884177156
 20
1.862142457102798
 30
0.0
 11
11.66707637352675
 21
2.069100614539778
 31
0.0
  0
LINE
  5
5B75
330
5B4C
100
AcDbEntity
  8
0
 48
0.27
100
AcDbLine
 10
0.7983487703242398
 20
0.0
 30
0.0
 11
1.62688280043943
 21
3.749999582499912
 31
0.0
  0
LINE
  5
5B76
330
5B4C
100
AcDbEntity
  8
0
 48
0.27
100
AcDbLine
 10
0.7983487703242398
 20
0.0
 30
0.0
 11
2.908867068280799
 21
0.0
 31
0.0
  0
LINE
  5
5B77
330
5B4C
100
AcDbEntity
  8
0
 48
0.27
100
AcDbLine
 10
1.62688280043943
 20
-3.750001252500222
 30
0.0
 11
0.7983487703242398
 21
0.0
 31
0.0
  0
LINE
  5
5B78
330
5B4C
100
AcDbEntity
  8
0
 48
0.27
100
AcDbLine
 10
4.016760459423984
 20
-3.464549729454819
 30
0.0
 11
3.768656828615689
 21
-3.118012926458168
 31
0.0
  0
LINE
  5
5B79
330
5B4C
100
AcDbEntity
  8
0
 48
0.27
100
AcDbLine
 10
3.768656828615689
 20
3.118011256457857
 30
0.0
 11
4.016760459423984
 21
3.464548059454518
 31
0.0
  0
LINE
  5
5B7A
330
5B4C
100
AcDbEntity
  8
0
 48
0.27
100
AcDbLine
 10
9.704919253846496
 20
-3.19174011052062
 30
0.0
 11
9.943206621515521
 21
-3.130411010528642
 31
0.0
  0
LINE
  5
5B7B
330
5B4C
100
AcDbEntity
  8
0
 48
0.27
100
AcDbLine
 10
9.253878826772735
 20
-3.156885529199896
 30
0.0
 11
9.704919253846496
 21
-3.19174011052062
 31
0.0
  0
LINE
  5
5B7C
330
5B4C
100
AcDbEntity
  8
0
 48
0.27
100
AcDbLine
 10
7.918219071342568
 20
-2.434082573491797
 30
0.0
 11
8.610653067104051
 21
-2.890603942355873
 31
0.0
  0
LINE
  5
5B7D
330
5B4C
100
AcDbEntity
  8
0
 48
0.27
100
AcDbLine
 10
11.33909828650441
 20
-2.239580950135039
 30
0.0
 11
11.50630041105215
 21
-2.196548376073592
 31
0.0
  0
LINE
  5
5B7E
330
5B4C
100
AcDbEntity
  8
0
 48
0.27
100
AcDbLine
 10
9.943206621515521
 20
3.130411010528614
 30
0.0
 11
11.50630041105215
 21
2.196546706073299
 31
0.0
  0
LINE
  5
5B7F
330
5B4C
100
AcDbEntity
  8
0
 48
0.27
100
AcDbLine
 10
11.50630041105215
 20
2.196546706073299
 30
0.0
 11
11.66707637352675
 21
2.069100614539778
 31
0.0
  0
LINE
  5
5B80
330
5B4C
100
AcDbEntity
  8
0
 48
0.27
100
AcDbLine
 10
9.704919253846496
 20
3.19173844052031
 30
0.0
 11
9.943206621515521
 21
3.130411010528614
 31
0.0
  0
LINE
  5
5B81
330
5B4C
100
AcDbEntity
  8
0
 48
0.27
100
AcDbLine
 10
9.253878826772735
 20
3.156885529074876
 30
0.0
 11
9.704919253846496
 21
3.19173844052031
 31
0.0
  0
LINE
  5
5B82
330
5B4C
100
AcDbEntity
  8
0
 48
0.27
100
AcDbLine
 10
7.679674523630631
 20
-2.253453644576775
 30
0.0
 11
7.854775750622538
 21
-2.392254069881414
 31
0.0
  0
LINE
  5
5B83
330
5B4C
100
AcDbEntity
  8
0
 48
0.27
100
AcDbLine
 10
8.610653067104051
 20
-2.890603942355873
 30
0.0
 11
9.018193319913264
 21
-3.09622776932004
 31
0.0
  0
LINE
  5
5B84
330
5B4C
100
AcDbEntity
  8
0
 48
0.27
100
AcDbLine
 10
9.018193319913264
 20
-3.09622776932004
 30
0.0
 11
9.253878826772735
 21
-3.156885529199896
 31
0.0
  0
LINE
  5
5B85
330
5B4C
100
AcDbEntity
  8
0
 48
0.27
100
AcDbLine
 10
7.918219071342568
 20
2.434080903491487
 30
0.0
 11
8.610653067104051
 21
2.890602272355562
 31
0.0
  0
LINE
  5
5B86
330
5B4C
100
AcDbEntity
  8
0
 48
0.27
100
AcDbLine
 10
7.679674523630631
 20
2.253451974576465
 30
0.0
 11
7.854775750622538
 21
2.392252399881148
 31
0.0
  0
LINE
  5
5B87
330
5B4C
100
AcDbEntity
  8
0
 48
0.27
100
AcDbLine
 10
3.768656828615689
 20
-3.118012926458168
 30
0.0
 11
3.551192697674164
 21
-2.651651914450884
 31
0.0
  0
LINE
  5
5B88
330
5B4C
100
AcDbEntity
  8
0
 48
0.27
100
AcDbLine
 10
3.551192697674164
 20
2.651650244450574
 30
0.0
 11
3.768656828615689
 21
3.118011256457857
 31
0.0
  0
LINE
  5
5B89
330
5B4C
100
AcDbEntity
  8
0
 48
0.27
100
AcDbLine
 10
9.466630216177213
 20
-3.130411010528642
 30
0.0
 11
9.704919253846496
 21
-3.19174011052062
 31
0.0
  0
LINE
  5
5B8A
330
5B4C
100
AcDbEntity
  8
0
 48
0.27
100
AcDbLine
 10
9.018193319913264
 20
3.096226099319756
 30
0.0
 11
9.253878826772735
 21
3.156885529074876
 31
0.0
  0
LINE
  5
5B8B
330
5B4C
100
AcDbEntity
  8
0
 48
0.27
100
AcDbLine
 10
8.610653067104051
 20
2.890602272355562
 30
0.0
 11
9.018193319913264
 21
3.096226099319756
 31
0.0
  0
LINE
  5
5B8C
330
5B4C
100
AcDbEntity
  8
0
 48
0.27
100
AcDbLine
 10
3.737401098395999
 20
-3.750001252500222
 30
0.0
 11
2.908867068280799
 21
0.0
 31
0.0
  0
LINE
  5
5B8D
330
5B4C
100
AcDbEntity
  8
0
 48
0.27
100
AcDbLine
 10
2.908867068280799
 20
0.0
 30
0.0
 11
3.737401098395999
 21
3.749999582499912
 31
0.0
  0
LINE
  5
5B8E
330
5B4C
100
AcDbEntity
  8
0
 48
0.27
100
AcDbLine
 10
7.679674523630631
 20
-2.253453644576775
 30
0.0
 11
7.518299030930933
 21
-2.028055341185253
 31
0.0
  0
LINE
  5
5B8F
330
5B4C
100
AcDbEntity
  8
0
 48
0.27
100
AcDbLine
 10
11.17189616208164
 20
-2.196548376073592
 30
0.0
 11
11.33909828650441
 21
-2.239580950135039
 31
0.0
  0
LINE
  5
5B90
330
5B4C
100
AcDbEntity
  8
0
 48
0.27
100
AcDbLine
 10
11.33909828650441
 20
2.239579280134729
 30
0.0
 11
11.50630041105215
 21
2.196546706073299
 31
0.0
  0
LINE
  5
5B91
330
5B4C
100
AcDbEntity
  8
0
 48
0.27
100
AcDbLine
 10
9.466630216177213
 20
3.130411010528614
 30
0.0
 11
9.704919253846496
 21
3.19173844052031
 31
0.0
  0
LINE
  5
5B92
330
5B4C
100
AcDbEntity
  8
0
 48
0.27
100
AcDbLine
 10
8.399074018145352
 20
2.722887457597185
 30
0.0
 11
8.610653067104051
 21
2.890602272355562
 31
0.0
  0
LINE
  5
5B93
330
5B4C
100
AcDbEntity
  8
0
 48
0.27
100
AcDbLine
 10
7.518299030930933
 20
2.028053671184961
 30
0.0
 11
7.679674523630631
 21
2.253451974576465
 31
0.0
  0
LINE
  5
5B94
330
5B4C
100
AcDbEntity
  8
0
 48
0.27
100
AcDbLine
 10
3.551192697674164
 20
-2.651651914450884
 30
0.0
 11
3.372723079494751
 21
-2.08338913917602
 31
0.0
  0
LINE
  5
5B95
330
5B4C
100
AcDbEntity
  8
0
 48
0.27
100
AcDbLine
 10
3.372723079494751
 20
2.083387469175692
 30
0.0
 11
3.551192697674164
 21
2.651650244450574
 31
0.0
  0
LINE
  5
5B96
330
5B4C
100
AcDbEntity
  8
0
 48
0.27
100
AcDbLine
 10
7.518299030930933
 20
-2.028055341185253
 30
0.0
 11
7.376853324934503
 21
-1.724719782278202
 31
0.0
  0
LINE
  5
5B97
330
5B4C
100
AcDbEntity
  8
0
 48
0.27
100
AcDbLine
 10
9.237499461412408
 20
-2.948783421321848
 30
0.0
 11
9.466630216177213
 21
-3.130411010528642
 31
0.0
  0
LINE
  5
5B98
330
5B4C
100
AcDbEntity
  8
0
 48
0.27
100
AcDbLine
 10
7.376853324934503
 20
1.724718112277909
 30
0.0
 11
7.518299030930933
 21
2.028053671184961
 31
0.0
  0
LINE
  5
5B99
330
5B4C
100
AcDbEntity
  8
0
 48
0.27
100
AcDbLine
 10
11.01111852960676
 20
-2.069102284540088
 30
0.0
 11
11.17189616208164
 21
-2.196548376073592
 31
0.0
  0
LINE
  5
5B9A
330
5B4C
100
AcDbEntity
  8
0
 48
0.27
100
AcDbLine
 10
9.237499461412408
 20
2.948781751321537
 30
0.0
 11
9.466630216177213
 21
3.130411010528614
 31
0.0
  0
LINE
  5
5B9B
330
5B4C
100
AcDbEntity
  8
0
 48
0.27
100
AcDbLine
 10
11.17189616208164
 20
2.196546706073299
 30
0.0
 11
11.33909828650441
 21
2.239579280134729
 31
0.0
  0
LINE
  5
5B9C
330
5B4C
100
AcDbEntity
  8
0
 48
0.27
100
AcDbLine
 10
7.376853324934503
 20
-1.724719782278202
 30
0.0
 11
7.260771587048854
 21
-1.355103571802298
 31
0.0
  0
LINE
  5
5B9D
330
5B4C
100
AcDbEntity
  8
0
 48
0.27
100
AcDbLine
 10
3.372723079494751
 20
-2.08338913917602
 30
0.0
 11
3.240110006348364
 21
-1.435063197780547
 31
0.0
  0
LINE
  5
5B9E
330
5B4C
100
AcDbEntity
  8
0
 48
0.27
100
AcDbLine
 10
3.240110006348364
 20
1.435063197780521
 30
0.0
 11
3.372723079494751
 21
2.083387469175692
 31
0.0
  0
LINE
  5
5B9F
330
5B4C
100
AcDbEntity
  8
0
 48
0.27
100
AcDbLine
 10
7.260771587048854
 20
1.355101901801988
 30
0.0
 11
7.376853324934503
 21
1.724718112277909
 31
0.0
  0
LINE
  5
5BA0
330
5B4C
100
AcDbEntity
  8
0
 48
0.27
100
AcDbLine
 10
9.237499461412408
 20
-2.948783421321848
 30
0.0
 11
9.02633123264729
 21
-2.653834605190386
 31
0.0
  0
LINE
  5
5BA1
330
5B4C
100
AcDbEntity
  8
0
 48
0.27
100
AcDbLine
 10
7.260771587048854
 20
-1.355103571802298
 30
0.0
 11
7.17451605889417
 21
-0.933411734254752
 31
0.0
  0
LINE
  5
5BA2
330
5B4C
100
AcDbEntity
  8
0
 48
0.27
100
AcDbLine
 10
3.240110006348364
 20
-1.435063197780547
 30
0.0
 11
3.158446979710636
 21
-0.7315888285503362
 31
0.0
  0
LINE
  5
5BA3
330
5B4C
100
AcDbEntity
  8
0
 48
0.27
100
AcDbLine
 10
3.158446979710636
 20
0.7315888284253252
 30
0.0
 11
3.240110006348364
 21
1.435063197780521
 31
0.0
  0
LINE
  5
5BA4
330
5B4C
100
AcDbEntity
  8
0
 48
0.27
100
AcDbLine
 10
11.01111852960676
 20
2.069100614539778
 30
0.0
 11
11.17189616208164
 21
2.196546706073299
 31
0.0
  0
LINE
  5
5BA5
330
5B4C
100
AcDbEntity
  8
0
 48
0.27
100
AcDbLine
 10
11.01111852960676
 20
-2.069102284540088
 30
0.0
 11
10.86294606136201
 21
-1.862144127103073
 31
0.0
  0
LINE
  5
5BA6
330
5B4C
100
AcDbEntity
  8
0
 48
0.27
100
AcDbLine
 10
9.02633123264729
 20
2.653832935190075
 30
0.0
 11
9.237499461412408
 21
2.948781751321537
 31
0.0
  0
LINE
  5
5BA7
330
5B4C
100
AcDbEntity
  8
0
 48
0.27
100
AcDbLine
 10
7.17451605889417
 20
0.9334100642544592
 30
0.0
 11
7.260771587048854
 21
1.355101901801988
 31
0.0
  0
LINE
  5
5BA8
330
5B4C
100
AcDbEntity
  8
0
 48
0.27
100
AcDbLine
 10
7.17451605889417
 20
-0.933411734254752
 30
0.0
 11
7.121398351648519
 21
-0.4758499550919679
 31
0.0
  0
LINE
  5
5BA9
330
5B4C
100
AcDbEntity
  8
0
 48
0.27
100
AcDbLine
 10
3.158446979710636
 20
-0.7315888285503362
 30
0.0
 11
3.130871930730615
 21
0.0
 31
0.0
  0
LINE
  5
5BAA
330
5B4C
100
AcDbEntity
  8
0
 48
0.27
100
AcDbLine
 10
3.130871930730615
 20
0.0
 30
0.0
 11
3.158446979710636
 21
0.7315888284253252
 31
0.0
  0
LINE
  5
5BAB
330
5B4C
100
AcDbEntity
  8
0
 48
0.27
100
AcDbLine
 10
7.121398351648519
 20
0.4758482850916396
 30
0.0
 11
7.17451605889417
 21
0.9334100642544592
 31
0.0
  0
LINE
  5
5BAC
330
5B4C
100
AcDbEntity
  8
0
 48
0.27
100
AcDbLine
 10
7.121398351648519
 20
-0.4758499550919679
 30
0.0
 11
7.103464215778523
 21
0.0
 31
0.0
  0
LINE
  5
5BAD
330
5B4C
100
AcDbEntity
  8
0
 48
0.27
100
AcDbLine
 10
7.103464215778523
 20
0.0
 30
0.0
 11
7.121398351648519
 21
0.4758482850916396
 31
0.0
  0
LINE
  5
5BAE
330
5B4C
100
AcDbEntity
  8
0
 48
0.27
100
AcDbLine
 10
9.02633123264729
 20
-2.653834605190386
 30
0.0
 11
8.841240062237087
 21
-2.2569005257774
 31
0.0
  0
LINE
  5
5BAF
330
5B4C
100
AcDbEntity
  8
0
 48
0.27
100
AcDbLine
 10
10.86294606136201
 20
1.862142457102798
 30
0.0
 11
11.01111852960676
 21
2.069100614539778
 31
0.0
  0
LINE
  5
5BB0
330
5B4C
100
AcDbEntity
  8
0
 48
0.27
100
AcDbLine
 10
10.86294606136201
 20
-1.862144127103073
 30
0.0
 11
10.73307178904795
 21
-1.583623106215071
 31
0.0
  0
LINE
  5
5BB1
330
5B4C
100
AcDbEntity
  8
0
 48
0.27
100
AcDbLine
 10
8.841240062237087
 20
2.256900525777382
 30
0.0
 11
9.02633123264729
 21
2.653832935190075
 31
0.0
  0
LINE
  5
5BB2
330
5B4C
100
AcDbEntity
  8
0
 48
0.27
100
AcDbLine
 10
10.73307178904795
 20
1.583621436214761
 30
0.0
 11
10.86294606136201
 21
1.862142457102798
 31
0.0
  0
LINE
  5
5BB3
330
5B4C
100
AcDbEntity
  8
0
 48
0.27
100
AcDbLine
 10
8.841240062237087
 20
-2.2569005257774
 30
0.0
 11
8.689340152744804
 21
-1.773236638130532
 31
0.0
  0
LINE
  5
5BB4
330
5B4C
100
AcDbEntity
  8
0
 48
0.27
100
AcDbLine
 10
10.73307178904795
 20
-1.583623106215071
 30
0.0
 11
10.62648734424835
 21
-1.244243925663751
 31
0.0
  0
LINE
  5
5BB5
330
5B4C
100
AcDbEntity
  8
0
 48
0.27
100
AcDbLine
 10
8.689340152744804
 20
1.773234968005228
 30
0.0
 11
8.841240062237087
 21
2.256900525777382
 31
0.0
  0
LINE
  5
5BB6
330
5B4C
100
AcDbEntity
  8
0
 48
0.27
100
AcDbLine
 10
10.62648734424835
 20
1.244243925663733
 30
0.0
 11
10.73307178904795
 21
1.583621436214761
 31
0.0
  0
LINE
  5
5BB7
330
5B4C
100
AcDbEntity
  8
0
 48
0.27
100
AcDbLine
 10
8.689340152744804
 20
-1.773236638130532
 30
0.0
 11
8.5764681558952
 21
-1.221426708228281
 31
0.0
  0
LINE
  5
5BB8
330
5B4C
100
AcDbEntity
  8
0
 48
0.27
100
AcDbLine
 10
10.62648734424835
 20
-1.244243925663751
 30
0.0
 11
10.54728756839703
 21
-0.8570509593775284
 31
0.0
  0
LINE
  5
5BB9
330
5B4C
100
AcDbEntity
  8
0
 48
0.27
100
AcDbLine
 10
8.5764681558952
 20
1.22142503822797
 30
0.0
 11
8.689340152744804
 21
1.773234968005228
 31
0.0
  0
LINE
  5
5BBA
330
5B4C
100
AcDbEntity
  8
0
 48
0.27
100
AcDbLine
 10
10.54728756839703
 20
0.8570492893772179
 30
0.0
 11
10.62648734424835
 21
1.244243925663733
 31
0.0
  0
LINE
  5
5BBB
330
5B4C
100
AcDbEntity
  8
0
 48
0.27
100
AcDbLine
 10
8.5764681558952
 20
-1.221426708228281
 30
0.0
 11
8.506962733287759
 21
-0.6226780729872436
 31
0.0
  0
LINE
  5
5BBC
330
5B4C
100
AcDbEntity
  8
0
 48
0.27
100
AcDbLine
 10
10.54728756839703
 20
-0.8570509593775284
 30
0.0
 11
10.49851520250201
 21
-0.43692057246576
 31
0.0
  0
LINE
  5
5BBD
330
5B4C
100
AcDbEntity
  8
0
 48
0.27
100
AcDbLine
 10
8.506962733287759
 20
0.6226764029869597
 30
0.0
 11
8.5764681558952
 21
1.22142503822797
 31
0.0
  0
LINE
  5
5BBE
330
5B4C
100
AcDbEntity
  8
0
 48
0.27
100
AcDbLine
 10
10.49851520250201
 20
0.4369205724657334
 30
0.0
 11
10.54728756839703
 21
0.8570492893772179
 31
0.0
  0
LINE
  5
5BBF
330
5B4C
100
AcDbEntity
  8
0
 48
0.27
100
AcDbLine
 10
8.506962733287759
 20
-0.6226780729872436
 30
0.0
 11
8.483492545618222
 21
0.0
 31
0.0
  0
LINE
  5
5BC0
330
5B4C
100
AcDbEntity
  8
0
 48
0.27
100
AcDbLine
 10
10.49851520250201
 20
-0.43692057246576
 30
0.0
 11
10.48204732712691
 21
0.0
 31
0.0
  0
LINE
  5
5BC1
330
5B4C
100
AcDbEntity
  8
0
 48
0.27
100
AcDbLine
 10
10.48204732712691
 20
0.0
 30
0.0
 11
10.49851520250201
 21
0.4369205724657334
 31
0.0
  0
LINE
  5
5BC2
330
5B4C
100
AcDbEntity
  8
0
 48
0.27
100
AcDbLine
 10
8.483492545618222
 20
0.0
 30
0.0
 11
8.506962733287759
 21
0.6226764029869597
 31
0.0
  0
LINE
  5
5BC3
330
5B4C
100
AcDbEntity
  8
0
 48
0.27
100
AcDbLine
 10
7.854775750622538
 20
-2.392254069881414
 30
0.0
 11
7.918219071342568
 21
-2.434082573491797
 31
0.0
  0
LINE
  5
5BC4
330
5B4C
100
AcDbEntity
  8
0
 48
0.27
100
AcDbLine
 10
7.589122084133379
 20
-2.420106338907762
 30
0.0
 11
7.649564413727228
 21
-2.422673129836395
 31
0.0
  0
LINE
  5
5BC5
330
5B4C
100
AcDbEntity
  8
0
 48
0.27
100
AcDbLine
 10
7.854775750622538
 20
2.392252399881148
 30
0.0
 11
7.918219071342568
 21
2.434080903491487
 31
0.0
  0
LINE
  5
5BC6
330
5B4C
100
AcDbEntity
  8
中心線
 48
0.27
100
AcDbLine
 10
-0.0000000000000012
 20
-8.062501095937681
 30
0.0
 11
0.0000000000000001
 21
8.062501095937681
 31
0.0
  0
LINE
  5
5BC7
330
5B4C
100
AcDbEntity
  8
中心線
 48
0.27
100
AcDbLine
 10
13.69614757600664
 20
0.0
 30
0.0
 11
-8.062501095937681
 21
0.000000000000001
 31
0.0
  0
POINT
  5
5BC8
330
5B4C
100
AcDbEntity
  8
0
100
AcDbPoint
 10
12.19614757600664
 20
0.0000000000000001
 30
0.0
1001
pntflag
1000
endpoint
  0
ENDBLK
  5
5BCA
330
5B4C
100
AcDbEntity
  8
0
100
AcDbBlockEnd
  0
ENDSEC
  0
SECTION
  2
ENTITIES
  0
MTEXT
  5
413A
330
1E
100
AcDbEntity
  8
0
100
AcDbMText
 10
-50.19409552350566
 20
-28.70796974578122
 30
0.0
 40
7.800000159341863
 41
100.6095
 71
     1
 72
     5
  1
\A1;{\fTimes New Roman|b0|i0|c0|p18;HG\fTimes New Roman|b0|i0|c238|p18;L\fTimes New Roman|b0|i0|c0|p18;55CA\PC : 11670 kgf\PC\fProxy 1|b0|i0|c0|p2;\H0.7x;\S^ 0;\fTimes New Roman|b0|i0|c0|p18;\H1.429x;: 23230 kgf}
 73
     1
 44
1.0
1001
ACAD
1000
MTEXTBEGIN
1070
    73
1070
     1
1070
    44
1040
1.0
1070
    74
1070
     0
1000
MTEXTEND
  0
LINE
  5
587E
330
1E
100
AcDbEntity
  8
0
 48
0.27
100
AcDbLine
 10
397.6874242696035
 20
-13.00000000000119
 30
0.0
 11
97.68742426960352
 21
-13.00000000000119
 31
0.0
  0
LINE
  5
587F
330
1E
100
AcDbEntity
  8
0
 48
0.27
100
AcDbLine
 10
397.6874242696035
 20
6.999999999998861
 30
0.0
 11
343.7342135766298
 21
6.999999999998868
 31
0.0
  0
LINE
  5
5880
330
1E
100
AcDbEntity
  8
0
 48
0.27
100
AcDbLine
 10
397.6874242696035
 20
12.99999999999877
 30
0.0
 11
344.1684042977481
 21
12.99999999999881
 31
0.0
  0
LINE
  5
5881
330
1E
100
AcDbEntity
  8
0
 48
0.27
100
AcDbLine
 10
397.6874242696034
 20
14.48812884919633
 30
0.0
 11
344.2357924966671
 21
14.48812884919636
 31
0.0
  0
LINE
  5
5882
330
1E
100
AcDbEntity
  8
0
 48
0.27
100
AcDbLine
 10
397.6874242696034
 20
18.3658446945517
 30
0.0
 11
344.031475543375
 21
18.3658446945517
 31
0.0
  0
LINE
  5
5883
330
1E
100
AcDbEntity
  8
0
 48
0.27
100
AcDbLine
 10
397.6874242696034
 20
20.8000055497295
 30
0.0
 11
343.7342135766298
 21
20.80000554972947
 31
0.0
  0
LINE
  5
5884
330
1E
100
AcDbEntity
  8
0
 48
0.27
100
AcDbLine
 10
397.6874242696034
 20
23.69997899999885
 30
0.0
 11
343.7342135766298
 21
23.69997899999885
 31
0.0
  0
LINE
  5
5885
330
1E
100
AcDbEntity
  8
0
 48
0.27
100
AcDbLine
 10
397.6874242696034
 20
26.13295083718503
 30
0.0
 11
343.7342135766298
 21
26.13295083718504
 31
0.0
  0
LINE
  5
5886
330
1E
100
AcDbEntity
  8
0
 48
0.27
100
AcDbLine
 10
397.6874242696034
 20
30.01203528846023
 30
0.0
 11
343.7342135766298
 21
30.01203528846021
 31
0.0
  0
LINE
  5
5887
330
1E
100
AcDbEntity
  8
0
 48
0.27
100
AcDbLine
 10
397.6874242696035
 20
-10.69999240399647
 30
0.0
 11
167.9134385163338
 21
-10.69999240399646
 31
0.0
  0
LINE
  5
5888
330
1E
100
AcDbEntity
  8
0
 48
0.27
100
AcDbLine
 10
397.6874242696035
 20
-0.8000010400012715
 30
0.0
 11
168.5349518463071
 21
-0.800001040001165
 31
0.0
  0
LINE
  5
5889
330
1E
100
AcDbEntity
  8
0
 48
0.27
100
AcDbLine
 10
397.6874242696034
 20
30.99999999999888
 30
0.0
 11
343.7342135766298
 21
30.99999999999882
 31
0.0
  0
LINE
  5
588A
330
1E
100
AcDbEntity
  8
中心線
 48
0.27
100
AcDbLine
 10
247.6874242696035
 20
-14.85132957383529
 30
0.0
 11
247.6874242696035
 21
1.403427213015282
 31
0.0
  0
LINE
  5
5899
330
1E
100
AcDbEntity
  8
中心線
 48
0.27
100
AcDbLine
 10
367.6874242696035
 20
-14.85132957383529
 30
0.0
 11
367.6874242696035
 21
33.46054206325358
 31
0.0
  0
LINE
  5
589A
330
1E
100
AcDbEntity
  8
中心線
 48
0.27
100
AcDbLine
 10
127.6874242696035
 20
-14.85132957383529
 30
0.0
 11
127.6874242696035
 21
33.46054206325358
 31
0.0
  0
LINE
  5
589B
330
1E
100
AcDbEntity
  8
0
 48
0.27
100
AcDbLine
 10
397.6874242696035
 20
-13.00000000000119
 30
0.0
 11
397.6874242696034
 21
30.99999999999893
 31
0.0
  0
LINE
  5
589C
330
1E
100
AcDbEntity
  8
0
 48
0.27
100
AcDbLine
 10
97.68742426960352
 20
-13.00000000000119
 30
0.0
 11
97.68742426960352
 21
30.99999999999865
 31
0.0
  0
LINE
  5
589D
330
1E
100
AcDbEntity
  8
0
 48
0.27
100
AcDbLine
 10
139.1874242696037
 20
10.99999999999887
 30
0.0
 11
139.1874242696037
 21
30.59999999999884
 31
0.0
  0
LINE
  5
589E
330
1E
100
AcDbEntity
  8
0
 48
0.27
100
AcDbLine
 10
116.1874242696037
 20
10.99999999999887
 30
0.0
 11
116.1874242696037
 21
30.59999999999884
 31
0.0
  0
LINE
  5
589F
330
1E
100
AcDbEntity
  8
0
 48
0.27
100
AcDbLine
 10
135.6874242696037
 20
10.49999999999887
 30
0.0
 11
119.6874242696037
 21
10.49999999999887
 31
0.0
  0
LINE
  5
58A0
330
1E
100
AcDbEntity
  8
0
 48
0.27
100
AcDbLine
 10
139.1874242696037
 20
10.99999999999887
 30
0.0
 11
116.1874242696037
 21
10.99999999999887
 31
0.0
  0
LINE
  5
58A1
330
1E
100
AcDbEntity
  8
0
 48
0.27
100
AcDbLine
 10
119.6874242696037
 20
-12.50000000000107
 30
0.0
 11
119.6874242696037
 21
10.49999999999887
 31
0.0
  0
LINE
  5
58A2
330
1E
100
AcDbEntity
  8
0
 48
0.27
100
AcDbLine
 10
119.1874242696037
 20
10.99999999999887
 30
0.0
 11
119.6874242696037
 21
10.49999999999887
 31
0.0
  0
LINE
  5
58A3
330
1E
100
AcDbEntity
  8
0
 48
0.27
100
AcDbLine
 10
135.6874242696037
 20
-12.50000000000107
 30
0.0
 11
135.6874242696037
 21
10.49999999999887
 31
0.0
  0
LINE
  5
58A4
330
1E
100
AcDbEntity
  8
0
 48
0.27
100
AcDbLine
 10
135.6874242696037
 20
10.49999999999887
 30
0.0
 11
136.1874242696037
 21
10.99999999999887
 31
0.0
  0
LINE
  5
58A5
330
1E
100
AcDbEntity
  8
0
 48
0.27
100
AcDbLine
 10
139.1874242696037
 20
30.59999999999884
 30
0.0
 11
116.1874242696037
 21
30.59999999999884
 31
0.0
  0
LINE
  5
58A6
330
1E
100
AcDbEntity
  8
0
 48
0.27
100
AcDbLine
 10
139.1874242696037
 20
30.59999999999884
 30
0.0
 11
139.4183643772794
 21
30.9999999999987
 31
0.0
  0
LINE
  5
58A7
330
1E
100
AcDbEntity
  8
0
 48
0.27
100
AcDbLine
 10
115.956484161928
 20
30.99999999999865
 30
0.0
 11
116.1874242696037
 21
30.59999999999884
 31
0.0
  0
LINE
  5
58A8
330
1E
100
AcDbEntity
  8
0
 48
0.27
100
AcDbLine
 10
119.6874242696037
 20
-12.50000000000107
 30
0.0
 11
135.6874242696037
 21
-12.50000000000107
 31
0.0
  0
LINE
  5
58A9
330
1E
100
AcDbEntity
  8
0
 48
0.27
100
AcDbLine
 10
136.1874242696037
 20
-13.00000000000119
 30
0.0
 11
135.6874242696037
 21
-12.50000000000107
 31
0.0
  0
LINE
  5
58AA
330
1E
100
AcDbEntity
  8
0
 48
0.27
100
AcDbLine
 10
119.1874242696035
 20
-13.00000000000113
 30
0.0
 11
119.6874242696037
 21
-12.50000000000107
 31
0.0
  0
LINE
  5
58AB
330
1E
100
AcDbEntity
  8
建構線
 48
0.27
100
AcDbLine
 10
167.7350828838998
 20
30.9999999999987
 30
0.0
 11
166.5893650331106
 21
27.92319954727908
 31
0.0
  0
LINE
  5
58AC
330
1E
100
AcDbEntity
  8
建構線
 48
0.27
100
AcDbLine
 10
166.5893650331106
 20
27.92319954727908
 30
0.0
 11
169.312472494621
 21
21.84083115612289
 31
0.0
  0
LINE
  5
58AD
330
1E
100
AcDbEntity
  8
建構線
 48
0.27
100
AcDbLine
 10
169.312472494621
 20
21.84083115612289
 30
0.0
 11
166.7495474288613
 21
11.43678006527814
 31
0.0
  0
LINE
  5
58AE
330
1E
100
AcDbEntity
  8
建構線
 48
0.27
100
AcDbLine
 10
166.7495474288613
 20
11.43678006527814
 30
0.0
 11
170.1133869985301
 21
3.433663421324252
 31
0.0
  0
LINE
  5
58AF
330
1E
100
AcDbEntity
  8
建構線
 48
0.27
100
AcDbLine
 10
170.1133869985301
 20
3.433663421324252
 30
0.0
 11
167.0699130620813
 21
-4.729514790695235
 31
0.0
  0
LINE
  5
58B0
330
1E
100
AcDbEntity
  8
建構線
 48
0.27
100
AcDbLine
 10
167.0699130620813
 20
-4.729514790695235
 30
0.0
 11
168.2383898984278
 21
-13.00000000000119
 31
0.0
  0
LINE
  5
58B1
330
1E
100
AcDbEntity
  8
虛線
 48
0.27
100
AcDbLine
 10
255.6874242696038
 20
-12.50000000000107
 30
0.0
 11
255.6874242696038
 21
-0.0021141776695064
 31
0.0
  0
LINE
  5
58B2
330
1E
100
AcDbEntity
  8
虛線
 48
0.27
100
AcDbLine
 10
239.6874242696037
 20
-12.50000000000107
 30
0.0
 11
239.6874242696037
 21
-0.0021141776695064
 31
0.0
  0
LINE
  5
58BC
330
1E
100
AcDbEntity
  8
虛線
 48
0.27
100
AcDbLine
 10
239.6874242696037
 20
-12.50000000000107
 30
0.0
 11
255.6874242696038
 21
-12.50000000000107
 31
0.0
  0
LINE
  5
58BD
330
1E
100
AcDbEntity
  8
虛線
 48
0.27
100
AcDbLine
 10
256.1874242696037
 20
-13.00000000000119
 30
0.0
 11
255.6874242696038
 21
-12.50000000000107
 31
0.0
  0
LINE
  5
58BE
330
1E
100
AcDbEntity
  8
虛線
 48
0.27
100
AcDbLine
 10
239.1874242696035
 20
-13.00000000000113
 30
0.0
 11
239.6874242696037
 21
-12.50000000000107
 31
0.0
  0
LINE
  5
58BF
330
1E
100
AcDbEntity
  8
虛線
 48
0.27
100
AcDbLine
 10
375.6874242696036
 20
-12.50000000000107
 30
0.0
 11
375.6874242696036
 21
10.49999999999887
 31
0.0
  0
LINE
  5
58C0
330
1E
100
AcDbEntity
  8
虛線
 48
0.27
100
AcDbLine
 10
359.6874242696036
 20
-12.50000000000107
 30
0.0
 11
359.6874242696036
 21
10.49999999999887
 31
0.0
  0
LINE
  5
58C1
330
1E
100
AcDbEntity
  8
虛線
 48
0.27
100
AcDbLine
 10
356.1874242696037
 20
10.99999999999887
 30
0.0
 11
356.1874242696037
 21
30.59999999999884
 31
0.0
  0
LINE
  5
58C2
330
1E
100
AcDbEntity
  8
虛線
 48
0.27
100
AcDbLine
 10
379.1874242696037
 20
10.99999999999887
 30
0.0
 11
379.1874242696037
 21
30.59999999999884
 31
0.0
  0
LINE
  5
58C3
330
1E
100
AcDbEntity
  8
虛線
 48
0.27
100
AcDbLine
 10
379.1874242696037
 20
10.99999999999887
 30
0.0
 11
356.1874242696037
 21
10.99999999999887
 31
0.0
  0
LINE
  5
58C4
330
1E
100
AcDbEntity
  8
虛線
 48
0.27
100
AcDbLine
 10
375.6874242696036
 20
10.49999999999887
 30
0.0
 11
359.6874242696036
 21
10.49999999999887
 31
0.0
  0
LINE
  5
58C5
330
1E
100
AcDbEntity
  8
虛線
 48
0.27
100
AcDbLine
 10
359.1874242696036
 20
10.99999999999887
 30
0.0
 11
359.6874242696036
 21
10.49999999999887
 31
0.0
  0
LINE
  5
58C6
330
1E
100
AcDbEntity
  8
虛線
 48
0.27
100
AcDbLine
 10
375.6874242696036
 20
10.49999999999887
 30
0.0
 11
376.1874242696036
 21
10.99999999999887
 31
0.0
  0
LINE
  5
58C7
330
1E
100
AcDbEntity
  8
虛線
 48
0.27
100
AcDbLine
 10
379.1874242696037
 20
30.59999999999884
 30
0.0
 11
356.1874242696037
 21
30.59999999999884
 31
0.0
  0
LINE
  5
58C8
330
1E
100
AcDbEntity
  8
虛線
 48
0.27
100
AcDbLine
 10
379.1874242696037
 20
30.59999999999884
 30
0.0
 11
379.4183643772793
 21
30.9999999999987
 31
0.0
  0
LINE
  5
58C9
330
1E
100
AcDbEntity
  8
虛線
 48
0.27
100
AcDbLine
 10
355.9564841619279
 20
30.99999999999865
 30
0.0
 11
356.1874242696037
 21
30.59999999999884
 31
0.0
  0
LINE
  5
58CA
330
1E
100
AcDbEntity
  8
虛線
 48
0.27
100
AcDbLine
 10
359.6874242696036
 20
-12.50000000000107
 30
0.0
 11
375.6874242696036
 21
-12.50000000000107
 31
0.0
  0
LINE
  5
58CB
330
1E
100
AcDbEntity
  8
虛線
 48
0.27
100
AcDbLine
 10
376.1874242696036
 20
-13.00000000000119
 30
0.0
 11
375.6874242696036
 21
-12.50000000000107
 31
0.0
  0
LINE
  5
58CC
330
1E
100
AcDbEntity
  8
虛線
 48
0.27
100
AcDbLine
 10
359.1874242696036
 20
-13.00000000000113
 30
0.0
 11
359.6874242696036
 21
-12.50000000000107
 31
0.0
  0
LINE
  5
58E6
330
1E
100
AcDbEntity
  8
0
 48
0.27
100
AcDbLine
 10
178.0342135766301
 20
30.01203528846016
 30
0.0
 11
167.3671913604312
 21
30.01203528846016
 31
0.0
  0
LINE
  5
58E7
330
1E
100
AcDbEntity
  8
0
 48
0.27
100
AcDbLine
 10
178.0342135766301
 20
30.99999999999873
 30
0.0
 11
97.68742426960352
 21
30.99999999999865
 31
0.0
  0
LINE
  5
58E8
330
1E
100
AcDbEntity
  8
0
 48
0.27
100
AcDbLine
 10
178.0342135766301
 20
26.13295083718505
 30
0.0
 11
167.3908685440628
 21
26.13295083718505
 31
0.0
  0
LINE
  5
58E9
330
1E
100
AcDbEntity
  8
0
 48
0.27
100
AcDbLine
 10
178.0342135766301
 20
23.69997899999886
 30
0.0
 11
168.4801224888123
 21
23.69997899999886
 31
0.0
  0
LINE
  5
58EA
330
1E
100
AcDbEntity
  8
0
 48
0.27
100
AcDbLine
 10
178.0342135766301
 20
20.80000554972943
 30
0.0
 11
169.0560764030968
 21
20.80000554972942
 31
0.0
  0
LINE
  5
58EB
330
1E
100
AcDbEntity
  8
0
 48
0.27
100
AcDbLine
 10
177.736951609885
 20
18.36584469455171
 30
0.0
 11
168.4564472956124
 21
18.36584469455171
 31
0.0
  0
LINE
  5
58EC
330
1E
100
AcDbEntity
  8
0
 48
0.27
100
AcDbLine
 10
177.532634656593
 20
14.48812884919641
 30
0.0
 11
167.5012140839358
 21
14.48812884919642
 31
0.0
  0
LINE
  5
58ED
330
1E
100
AcDbEntity
  8
0
 48
0.27
100
AcDbLine
 10
177.6000228555119
 20
12.99999999999886
 30
0.0
 11
167.134629693357
 21
12.99999999999887
 31
0.0
  0
LINE
  5
58EE
330
1E
100
AcDbEntity
  8
0
 48
0.27
100
AcDbLine
 10
178.0342135766301
 20
6.999999999998875
 30
0.0
 11
168.6143979626567
 21
6.999999999998875
 31
0.0
  0
LINE
  5
58EF
330
1E
100
AcDbEntity
  8
虛線
 48
0.27
100
AcDbLine
 10
-15.95616508546231
 20
30.60211417766926
 30
0.0
 11
7.043834914537683
 21
30.60211417766923
 31
0.0
  0
LINE
  5
58F0
330
1E
100
AcDbEntity
  8
虛線
 48
0.27
100
AcDbLine
 10
-15.95616508546237
 20
11.00211417766929
 30
0.0
 11
7.043834914537626
 21
11.00211417766926
 31
0.0
  0
LINE
  5
58F1
330
1E
100
AcDbEntity
  8
0
 48
0.27
100
AcDbLine
 10
-15.25405108556543
 20
-12.00000000000053
 30
0.0
 11
-14.25405003200422
 21
-13.00000000000154
 31
0.0
  0
LINE
  5
58F2
330
1E
100
AcDbEntity
  8
0
 48
0.27
100
AcDbLine
 10
15.03194678622299
 20
30.96775740108408
 30
0.0
 11
-23.94097001927708
 21
30.96775740108414
 31
0.0
  0
SPLINE
  5
58F3
330
1E
100
AcDbEntity
  8
0
 48
0.27
100
AcDbSpline
210
0.0
220
0.0
230
1.0
 70
     8
 71
     3
 72
    14
 73
    10
 74
     8
 42
0.0000000001
 43
0.0000000001
 44
0.0000000001
 40
0.0
 40
0.0
 40
0.0
 40
0.0
 40
1.00337480073276
 40
2.010676408934169
 40
3.010409172923154
 40
4.019215736320203
 40
5.018979127688075
 40
6.025582519230532
 40
7.028797203493661
 40
7.028797203493661
 40
7.028797203493661
 40
7.028797203493661
 10
-29.1379612786771
 20
18.73150760978414
 30
0.0
 10
-28.80493416421789
 20
18.68976125873944
 30
0.0
 10
-28.13757660043458
 20
18.60610517813689
 30
0.0
 10
-27.19752533396789
 20
18.22507767346297
 30
0.0
 10
-26.35061132197691
 20
17.67369405489874
 30
0.0
 10
-25.6357313841178
 20
16.958692723257
 30
0.0
 10
-25.08461597509879
 20
16.11186867297368
 30
0.0
 10
-24.7038023605065
 20
15.17204749973265
 30
0.0
 10
-24.62018960464915
 20
14.50497428544893
 30
0.0
 10
-24.57845371547711
 20
14.17200004658415
 30
0.0
 11
-29.1379612786771
 21
18.73150760978414
 31
0.0
 11
-28.14871385917701
 21
18.56372640178419
 31
0.0
 11
-27.21105890827704
 21
18.19567786838414
 31
0.0
 11
-26.37464925197702
 21
17.64806077018401
 31
0.0
 11
-25.66137600367694
 21
16.93466609988403
 31
0.0
 11
-25.11388714947708
 21
16.09813588928413
 31
0.0
 11
-24.74619186327715
 21
15.1610923660841
 31
0.0
 11
-24.57845371547711
 21
14.17200004658415
 31
0.0
  0
SPLINE
  5
58F4
330
1E
100
AcDbEntity
  8
0
 48
0.27
100
AcDbSpline
210
0.0
220
0.0
230
1.0
 70
     8
 71
     3
 72
    14
 73
    10
 74
     8
 42
0.0000000001
 43
0.0000000001
 44
0.0000000001
 40
0.0
 40
0.0
 40
0.0
 40
0.0
 40
1.00337480073276
 40
2.010676408934169
 40
3.01040917306153
 40
4.019215736458418
 40
5.018979127771629
 40
6.025582519221103
 40
7.028797203484325
 40
7.028797203484325
 40
7.028797203484325
 40
7.028797203484325
 10
-24.57845371547711
 20
30.32889937098416
 30
0.0
 10
-24.62020006652245
 20
29.99587225652547
 30
0.0
 10
-24.70385614712626
 20
29.32851469274322
 30
0.0
 10
-25.08488365180812
 20
28.38846342622536
 30
0.0
 10
-25.63626727044562
 20
27.54154941423227
 30
0.0
 10
-26.35126860206951
 20
26.82666947630649
 30
0.0
 10
-27.19809265239922
 20
26.27555406745138
 30
0.0
 10
-28.13791382554999
 20
25.89474045278954
 30
0.0
 10
-28.80498703980916
 20
25.81112769694951
 30
0.0
 10
-29.1379612786771
 20
25.76939180778417
 30
0.0
 11
-24.57845371547711
 21
30.32889937098416
 31
0.0
 11
-24.74623492347706
 21
29.33965195148406
 31
0.0
 11
-25.1142834568771
 21
28.40199700058409
 31
0.0
 11
-25.66190055517706
 21
27.56558734418403
 31
0.0
 11
-26.37529522547704
 21
26.85231409588418
 31
0.0
 11
-27.21182543607694
 21
26.30482524178414
 31
0.0
 11
-28.14886895917704
 21
25.93712995558409
 31
0.0
 11
-29.1379612786771
 21
25.76939180778417
 31
0.0
  0
LINE
  5
58F5
330
1E
100
AcDbEntity
  8
0
 48
0.27
100
AcDbLine
 10
-23.4218193088771
 20
6.986908111584092
 30
0.0
 11
-30.9561650854626
 21
-0.54743766510917
 31
0.0
  0
LINE
  5
58F6
330
1E
100
AcDbEntity
  8
0
 48
0.27
100
AcDbLine
 10
-30.95616508546255
 20
-10.9978772223674
 30
0.0
 11
-30.9561650854626
 21
-0.54743766510917
 31
0.0
  0
LINE
  5
58F7
330
1E
100
AcDbEntity
  8
0
 48
0.27
100
AcDbLine
 10
-30.95616508546255
 20
-10.9978772223674
 30
0.0
 11
-28.95403560764514
 21
-13.00000000000172
 31
0.0
  0
LINE
  5
58F9
330
1E
100
AcDbEntity
  8
0
 48
0.27
100
AcDbLine
 10
-22.45827890011185
 20
-12.0000000000013
 30
0.0
 11
-23.45827747084658
 21
-13.00000000000165
 31
0.0
  0
LINE
  5
58FB
330
1E
100
AcDbEntity
  8
虛線
 48
0.27
100
AcDbLine
 10
-15.95616508546237
 20
11.00211417766929
 30
0.0
 11
-15.95616508546231
 21
30.60211417766926
 31
0.0
  0
LINE
  5
58FC
330
1E
100
AcDbEntity
  8
0
 48
0.27
100
AcDbLine
 10
-23.4218193088771
 20
6.986908111584092
 30
0.0
 11
-23.4218193088771
 21
13.0139913059841
 31
0.0
  0
LINE
  5
58FD
330
1E
100
AcDbEntity
  8
0
 48
0.27
100
AcDbLine
 10
-23.4218193088771
 20
13.0139913059841
 30
0.0
 11
-24.57943041327695
 21
14.1716024104841
 31
0.0
  0
LINE
  5
58FE
330
1E
100
AcDbEntity
  8
0
 48
0.27
100
AcDbLine
 10
-30.9218193088771
 20
20.5139913059841
 30
0.0
 11
-29.13835891487707
 21
18.73053091198407
 31
0.0
  0
LINE
  5
58FF
330
1E
100
AcDbEntity
  8
0
 48
0.27
100
AcDbLine
 10
-29.13835891487707
 20
25.77036850558401
 30
0.0
 11
-30.9218193088771
 21
23.98690811158409
 31
0.0
  0
LINE
  5
5900
330
1E
100
AcDbEntity
  8
0
 48
0.27
100
AcDbLine
 10
-30.9218193088771
 20
23.98690811158409
 30
0.0
 11
-30.9218193088771
 21
20.5139913059841
 31
0.0
  0
LINE
  5
5901
330
1E
100
AcDbEntity
  8
0
 48
0.27
100
AcDbLine
 10
-23.94097001927708
 20
30.96775740108414
 30
0.0
 11
-24.57943041327695
 21
30.32929700708409
 31
0.0
  0
LINE
  5
5902
330
1E
100
AcDbEntity
  8
虛線
 48
0.27
100
AcDbLine
 10
-15.95616508546231
 20
30.60211417766926
 30
0.0
 11
-16.1672692989282
 21
30.96775740108411
 31
0.0
  0
SPLINE
  5
5903
330
1E
100
AcDbEntity
  8
0
 48
0.27
100
AcDbSpline
210
0.0
220
0.0
230
1.0
 70
     8
 71
     3
 72
    14
 73
    10
 74
     8
 42
0.0000000001
 43
0.0000000001
 44
0.0000000001
 40
0.0
 40
0.0
 40
0.0
 40
0.0
 40
1.003374800732536
 40
2.010676408934132
 40
3.010409173061274
 40
4.019215736458484
 40
5.018979127771695
 40
6.025582519220916
 40
7.028797203484381
 40
7.028797203484381
 40
7.028797203484381
 40
7.028797203484381
 10
15.66943048242291
 20
14.1720000465841
 30
0.0
 10
15.71117683346823
 20
14.50502716104272
 30
0.0
 10
15.79483291407205
 20
15.17238472482495
 30
0.0
 10
16.17586041875417
 20
16.1124359913426
 30
0.0
 10
16.72724403739148
 20
16.95935000333593
 30
0.0
 10
17.44224536901547
 20
17.67422994126166
 30
0.0
 10
18.28906941934516
 20
18.22534535011685
 30
0.0
 10
19.22889059249596
 20
18.60615896477861
 30
0.0
 10
19.89596380675511
 20
18.6897717206187
 30
0.0
 10
20.22893804562313
 20
18.73150760978408
 30
0.0
 11
15.66943048242291
 21
14.1720000465841
 31
0.0
 11
15.83721169042286
 21
15.16124746608396
 31
0.0
 11
16.20526022382313
 21
16.09890241698404
 31
0.0
 11
16.75287732212285
 21
16.93531207338399
 31
0.0
 11
17.46627199242306
 21
17.64858532168407
 31
0.0
 11
18.30280220302296
 21
18.19607417578411
 31
0.0
 11
19.23984572612283
 21
18.56376946198404
 31
0.0
 11
20.22893804562313
 21
18.73150760978408
 31
0.0
  0
SPLINE
  5
5904
330
1E
100
AcDbEntity
  8
0
 48
0.27
100
AcDbSpline
210
0.0
220
0.0
230
1.0
 70
     8
 71
     3
 72
    14
 73
    10
 74
     8
 42
0.0000000001
 43
0.0000000001
 44
0.0000000001
 40
0.0
 40
0.0
 40
0.0
 40
0.0
 40
1.003374800732984
 40
2.010676408934182
 40
3.010409172977842
 40
4.019215736304143
 40
5.018979127672206
 40
6.025582519214641
 40
7.028797203477883
 40
7.028797203477883
 40
7.028797203477883
 40
7.028797203477883
 10
20.22893804562313
 20
25.76939180778411
 30
0.0
 10
19.89591093116555
 20
25.81113815883121
 30
0.0
 10
19.2285533673857
 20
25.89479423943857
 30
0.0
 10
18.28850210087601
 20
26.27582174408306
 30
0.0
 10
17.44158808899052
 20
26.8272053627871
 30
0.0
 10
16.72670815102681
 20
27.54220669430464
 30
0.0
 10
16.17559274205139
 20
28.38903074460159
 30
0.0
 10
15.79477912745058
 20
29.32885191783373
 30
0.0
 10
15.71116637159438
 20
29.99592513211868
 30
0.0
 10
15.66943048242291
 20
30.3288993709841
 30
0.0
 11
20.22893804562313
 21
25.76939180778411
 31
0.0
 11
19.23969062612281
 21
25.93717301578406
 31
0.0
 11
18.30203567522307
 21
26.30522154918411
 31
0.0
 11
17.46562601892305
 21
26.85283864748406
 31
0.0
 11
16.75235277062296
 21
27.56623331768399
 31
0.0
 11
16.20486391642311
 21
28.40276352828412
 31
0.0
 11
15.83716863022295
 21
29.33980705148404
 31
0.0
 11
15.66943048242291
 21
30.3288993709841
 31
0.0
  0
LINE
  5
5905
330
1E
100
AcDbEntity
  8
中心線
 48
0.27
100
AcDbLine
 10
-4.456165085462366
 20
32.96775740108411
 30
0.0
 11
-4.45616508546243
 21
-14.99788582233065
 31
0.0
  0
LINE
  5
5906
330
1E
100
AcDbEntity
  8
虛線
 48
0.27
100
AcDbLine
 10
-12.45616508546243
 20
-12.49788582233068
 30
0.0
 11
-12.45616508546237
 21
10.50211417766929
 31
0.0
  0
LINE
  5
5907
330
1E
100
AcDbEntity
  8
虛線
 48
0.27
100
AcDbLine
 10
3.543834914537569
 20
-12.4978858223307
 30
0.0
 11
3.543834914537626
 21
10.50211417766926
 31
0.0
  0
LINE
  5
5908
330
1E
100
AcDbEntity
  8
0
 48
0.27
100
AcDbLine
 10
14.51279607582313
 20
6.986908111584035
 30
0.0
 11
22.04383491453762
 21
-0.5441307272384446
 31
0.0
  0
LINE
  5
590A
330
1E
100
AcDbEntity
  8
虛線
 48
0.27
100
AcDbLine
 10
3.543834914537569
 20
-12.4978858223307
 30
0.0
 11
-12.45616508546243
 21
-12.49788582233068
 31
0.0
  0
LINE
  5
590C
330
1E
100
AcDbEntity
  8
虛線
 48
0.27
100
AcDbLine
 10
-12.95616508546243
 20
-12.99788582233076
 30
0.0
 11
-12.45616508546243
 21
-12.49788582233068
 31
0.0
  0
LINE
  5
590E
330
1E
100
AcDbEntity
  8
虛線
 48
0.27
100
AcDbLine
 10
4.043834914537683
 20
-12.99788582233076
 30
0.0
 11
3.543834914537569
 21
-12.4978858223307
 31
0.0
  0
LINE
  5
590F
330
1E
100
AcDbEntity
  8
0
 48
0.27
100
AcDbLine
 10
6.341720914642774
 20
-11.99999999999823
 30
0.0
 11
5.341719861079937
 21
-13.00000000000131
 31
0.0
  0
LINE
  5
5910
330
1E
100
AcDbEntity
  8
0
 48
0.27
100
AcDbLine
 10
13.5459487291831
 20
-11.99999999999747
 30
0.0
 11
14.54594729992098
 21
-13.0000000000012
 31
0.0
  0
LINE
  5
5911
330
1E
100
AcDbEntity
  8
0
 48
0.27
100
AcDbLine
 10
22.04383491453762
 20
-0.5441307272384446
 30
0.0
 11
22.04383491453757
 21
-10.99787722236785
 31
0.0
  0
LINE
  5
5912
330
1E
100
AcDbEntity
  8
0
 48
0.27
100
AcDbLine
 10
22.04383491453757
 20
-10.99787722236785
 30
0.0
 11
20.0417054367208
 21
-13.00000000000113
 31
0.0
  0
LINE
  5
5913
330
1E
100
AcDbEntity
  8
虛線
 48
0.27
100
AcDbLine
 10
7.043834914537626
 20
11.00211417766926
 30
0.0
 11
7.043834914537683
 21
30.60211417766923
 31
0.0
  0
LINE
  5
5914
330
1E
100
AcDbEntity
  8
0
 48
0.27
100
AcDbLine
 10
14.51279607582313
 20
13.01399130598404
 30
0.0
 11
15.67040718022298
 21
14.17160241048405
 31
0.0
  0
LINE
  5
5915
330
1E
100
AcDbEntity
  8
虛線
 48
0.27
100
AcDbLine
 10
-12.45616508546237
 20
10.50211417766929
 30
0.0
 11
3.543834914537626
 21
10.50211417766926
 31
0.0
  0
LINE
  5
5916
330
1E
100
AcDbEntity
  8
虛線
 48
0.27
100
AcDbLine
 10
-12.45616508546237
 20
10.50211417766929
 30
0.0
 11
-12.95616508546237
 21
11.00211417766929
 31
0.0
  0
LINE
  5
5917
330
1E
100
AcDbEntity
  8
0
 48
0.27
100
AcDbLine
 10
14.51279607582313
 20
13.01399130598404
 30
0.0
 11
14.51279607582313
 21
6.986908111584035
 31
0.0
  0
LINE
  5
5918
330
1E
100
AcDbEntity
  8
虛線
 48
0.27
100
AcDbLine
 10
4.043834914537626
 20
11.00211417766926
 30
0.0
 11
3.543834914537626
 21
10.50211417766926
 31
0.0
  0
LINE
  5
5919
330
1E
100
AcDbEntity
  8
0
 48
0.27
100
AcDbLine
 10
22.01279607582313
 20
23.98690811158401
 30
0.0
 11
20.2293356818231
 21
25.77036850558395
 31
0.0
  0
LINE
  5
591A
330
1E
100
AcDbEntity
  8
0
 48
0.27
100
AcDbLine
 10
22.01279607582313
 20
20.51399130598401
 30
0.0
 11
22.01279607582313
 21
23.98690811158401
 31
0.0
  0
LINE
  5
591B
330
1E
100
AcDbEntity
  8
0
 48
0.27
100
AcDbLine
 10
20.2293356818231
 20
18.73053091198401
 30
0.0
 11
22.01279607582313
 21
20.51399130598401
 31
0.0
  0
LINE
  5
591C
330
1E
100
AcDbEntity
  8
0
 48
0.27
100
AcDbLine
 10
15.67040718022298
 20
30.32929700708403
 30
0.0
 11
15.03194678622299
 21
30.96775740108408
 31
0.0
  0
LINE
  5
591D
330
1E
100
AcDbEntity
  8
虛線
 48
0.27
100
AcDbLine
 10
7.254939128003513
 20
30.96775740108408
 30
0.0
 11
7.043834914537683
 21
30.60211417766923
 31
0.0
  0
LINE
  5
591E
330
1E
100
AcDbEntity
  8
0
 48
0.27
100
AcDbLine
 10
-14.45616508546232
 20
57.00000000000104
 30
0.0
 11
-15.45616508546232
 21
56.00000000000098
 31
0.0
  0
LINE
  5
591F
330
1E
100
AcDbEntity
  8
0
 48
0.27
100
AcDbLine
 10
-25.15573094737693
 20
33.90044970878402
 30
0.0
 11
16.24670771432306
 21
33.90044970878396
 31
0.0
  0
LINE
  5
5920
330
1E
100
AcDbEntity
  8
0
 48
0.27
100
AcDbLine
 10
15.03194678622299
 20
30.96775740108408
 30
0.0
 11
-23.94097001927708
 21
30.96775740108414
 31
0.0
  0
LINE
  5
5921
330
1E
100
AcDbEntity
  8
0
 48
0.27
100
AcDbLine
 10
-24.63796399447688
 20
32.65044970878402
 30
0.0
 11
15.72894076142302
 21
32.65044970878396
 31
0.0
  0
LINE
  5
5922
330
1E
100
AcDbEntity
  8
0
 48
0.27
100
AcDbLine
 10
-49.95451161657706
 20
55.4999999999999
 30
0.0
 11
41.04548838342316
 21
55.49999999999979
 31
0.0
  0
SPLINE
  5
5923
330
1E
100
AcDbEntity
  8
0
 48
0.27
100
AcDbSpline
210
0.0
220
0.0
230
1.0
 70
     8
 71
     3
 72
    14
 73
    10
 74
     8
 42
0.0000000001
 43
0.0000000001
 44
0.0000000001
 40
0.0
 40
0.0
 40
0.0
 40
0.0
 40
1.00337480073276
 40
2.010676408934169
 40
3.010409172923154
 40
4.019215736320203
 40
5.018979127688075
 40
6.025582519230532
 40
7.028797203493661
 40
7.028797203493661
 40
7.028797203493661
 40
7.028797203493661
 10
-29.1379612786771
 20
18.73150760978414
 30
0.0
 10
-28.80493416421789
 20
18.68976125873944
 30
0.0
 10
-28.13757660043458
 20
18.60610517813689
 30
0.0
 10
-27.19752533396789
 20
18.22507767346297
 30
0.0
 10
-26.35061132197691
 20
17.67369405489874
 30
0.0
 10
-25.6357313841178
 20
16.958692723257
 30
0.0
 10
-25.08461597509879
 20
16.11186867297368
 30
0.0
 10
-24.7038023605065
 20
15.17204749973265
 30
0.0
 10
-24.62018960464915
 20
14.50497428544893
 30
0.0
 10
-24.57845371547711
 20
14.17200004658415
 30
0.0
 11
-29.1379612786771
 21
18.73150760978414
 31
0.0
 11
-28.14871385917701
 21
18.56372640178419
 31
0.0
 11
-27.21105890827704
 21
18.19567786838414
 31
0.0
 11
-26.37464925197702
 21
17.64806077018401
 31
0.0
 11
-25.66137600367694
 21
16.93466609988403
 31
0.0
 11
-25.11388714947708
 21
16.09813588928413
 31
0.0
 11
-24.74619186327715
 21
15.1610923660841
 31
0.0
 11
-24.57845371547711
 21
14.17200004658415
 31
0.0
  0
SPLINE
  5
5924
330
1E
100
AcDbEntity
  8
0
 48
0.27
100
AcDbSpline
210
0.0
220
0.0
230
1.0
 70
     8
 71
     3
 72
    14
 73
    10
 74
     8
 42
0.0000000001
 43
0.0000000001
 44
0.0000000001
 40
0.0
 40
0.0
 40
0.0
 40
0.0
 40
1.00337480073276
 40
2.010676408934169
 40
3.01040917306153
 40
4.019215736458418
 40
5.018979127771629
 40
6.025582519221103
 40
7.028797203484325
 40
7.028797203484325
 40
7.028797203484325
 40
7.028797203484325
 10
-24.57845371547711
 20
30.32889937098416
 30
0.0
 10
-24.62020006652245
 20
29.99587225652547
 30
0.0
 10
-24.70385614712626
 20
29.32851469274322
 30
0.0
 10
-25.08488365180812
 20
28.38846342622536
 30
0.0
 10
-25.63626727044562
 20
27.54154941423227
 30
0.0
 10
-26.35126860206951
 20
26.82666947630649
 30
0.0
 10
-27.19809265239922
 20
26.27555406745138
 30
0.0
 10
-28.13791382554999
 20
25.89474045278954
 30
0.0
 10
-28.80498703980916
 20
25.81112769694951
 30
0.0
 10
-29.1379612786771
 20
25.76939180778417
 30
0.0
 11
-24.57845371547711
 21
30.32889937098416
 31
0.0
 11
-24.74623492347706
 21
29.33965195148406
 31
0.0
 11
-25.1142834568771
 21
28.40199700058409
 31
0.0
 11
-25.66190055517706
 21
27.56558734418403
 31
0.0
 11
-26.37529522547704
 21
26.85231409588418
 31
0.0
 11
-27.21182543607694
 21
26.30482524178414
 31
0.0
 11
-28.14886895917704
 21
25.93712995558409
 31
0.0
 11
-29.1379612786771
 21
25.76939180778417
 31
0.0
  0
LINE
  5
5925
330
1E
100
AcDbEntity
  8
虛線
 48
0.27
100
AcDbLine
 10
-47.95616508546231
 20
55.40000000000095
 30
0.0
 11
-47.95616508546231
 21
39.00000000000093
 31
0.0
  0
LINE
  5
5926
330
1E
100
AcDbEntity
  8
虛線
 48
0.27
100
AcDbLine
 10
-35.95616508546232
 20
55.40000000000092
 30
0.0
 11
-35.95616508546232
 21
39.00000000000085
 31
0.0
  0
LINE
  5
5927
330
1E
100
AcDbEntity
  8
虛線
 48
0.27
100
AcDbLine
 10
-47.10615908546219
 20
55.40000000000095
 30
0.0
 11
-47.10615908546219
 21
33.74999700000091
 31
0.0
  0
LINE
  5
5928
330
1E
100
AcDbEntity
  8
虛線
 48
0.27
100
AcDbLine
 10
-36.80615608546237
 20
55.40000000000093
 30
0.0
 11
-36.80615608546237
 21
33.74999700000088
 31
0.0
  0
ARC
  5
5929
330
1E
100
AcDbEntity
  8
0
 48
0.27
100
AcDbCircle
 10
-49.95451161657706
 20
52.4999999999999
 30
0.0
 40
3.0
100
AcDbArc
 50
90.0
 51
180.0
  0
LINE
  5
592A
330
1E
100
AcDbEntity
  8
0
 48
0.27
100
AcDbLine
 10
-54.45616508546186
 20
55.0000000000011
 30
0.0
 11
-54.45616508546232
 21
39.50000000000117
 31
0.0
  0
LINE
  5
592B
330
1E
100
AcDbEntity
  8
中心線
 48
0.27
100
AcDbLine
 10
-41.95616508546232
 20
59.00000000000098
 30
0.0
 11
-41.95616508546232
 21
29.46597600000093
 31
0.0
  0
LINE
  5
592C
330
1E
100
AcDbEntity
  8
0
 48
0.27
100
AcDbLine
 10
-53.45616508546233
 20
38.50000000000104
 30
0.0
 11
-53.45616508546237
 21
2.000000000000975
 31
0.0
  0
LINE
  5
592D
330
1E
100
AcDbEntity
  8
0
 48
0.27
100
AcDbLine
 10
-52.95451161657712
 20
2.9999999999999
 30
0.0
 11
-52.95451161657706
 21
52.4999999999999
 31
0.0
  0
LINE
  5
592E
330
1E
100
AcDbEntity
  8
0
 48
0.27
100
AcDbLine
 10
-23.4218193088771
 20
6.986908111584092
 30
0.0
 11
-30.40827771157712
 21
0.0004497087841546
 31
0.0
  0
LINE
  5
592F
330
1E
100
AcDbEntity
  8
0
 48
0.27
100
AcDbLine
 10
-32.78796399447703
 20
0.0004497087841546
 30
0.0
 11
-25.10451161657698
 21
7.683902086684078
 31
0.0
  0
LINE
  5
5930
330
1E
100
AcDbEntity
  8
0
 48
0.27
100
AcDbLine
 10
-34.55573094737707
 20
0.0004497087841546
 30
0.0
 11
-26.35451161657698
 21
8.201669039684055
 31
0.0
  0
LINE
  5
5931
330
1E
100
AcDbEntity
  8
0
 48
0.27
100
AcDbLine
 10
-51.45405090779428
 20
0.0000000000009752
 30
0.0
 11
-30.40872742036029
 21
0.0000000000009752
 31
0.0
  0
LINE
  5
5933
330
1E
100
AcDbEntity
  8
0
 48
0.27
100
AcDbLine
 10
-51.45616508546237
 20
0.0000000000009752
 30
0.0
 11
-53.45616508546237
 21
2.000000000000975
 31
0.0
  0
LINE
  5
5934
330
1E
100
AcDbEntity
  8
0
 48
0.27
100
AcDbLine
 10
-49.95451161657712
 20
0.000449708784183
 30
0.0
 11
-52.95451161657712
 21
3.000449708784181
 31
0.0
  0
LINE
  5
5935
330
1E
100
AcDbEntity
  8
0
 48
0.27
100
AcDbLine
 10
-43.39716694128094
 20
0.000449708784183
 30
0.0
 11
-43.39742658076789
 21
0.0000000000009752
 31
0.0
  0
ARC
  5
5936
330
1E
100
AcDbEntity
  8
0
 48
0.27
100
AcDbCircle
 10
-29.45951161657695
 20
30.65044970878402
 30
0.0
 40
3.209999999999999
100
AcDbArc
 50
263.4284998715998
 51
6.571500128400106
  0
ARC
  5
5937
330
1E
100
AcDbEntity
  8
0
 48
0.27
100
AcDbCircle
 10
-29.45951161657695
 20
30.65044970878402
 30
0.0
 40
1.959999999999999
100
AcDbArc
 50
255.407896095731
 51
14.59210390236058
  0
ARC
  5
5938
330
1E
100
AcDbEntity
  8
0
 48
0.27
100
AcDbCircle
 10
-49.45451161657712
 20
15.50044970878418
 30
0.0
 40
4.0
100
AcDbArc
 50
270.0
 51
90.0
  0
LINE
  5
5939
330
1E
100
AcDbEntity
  8
0
 48
0.27
100
AcDbLine
 10
-52.95451161657712
 20
11.50044970878418
 30
0.0
 11
-49.45451161657712
 21
11.50044970878418
 31
0.0
  0
LINE
  5
593A
330
1E
100
AcDbEntity
  8
0
 48
0.27
100
AcDbLine
 10
-52.95451161657712
 20
19.50044970878418
 30
0.0
 11
-49.45451161657712
 21
19.50044970878418
 31
0.0
  0
LINE
  5
593B
330
1E
100
AcDbEntity
  8
0
 48
0.27
100
AcDbLine
 10
-29.13835891487707
 20
18.73053091198407
 30
0.0
 11
-29.82687369847696
 21
17.03935941288413
 31
0.0
  0
LINE
  5
593C
330
1E
100
AcDbEntity
  8
0
 48
0.27
100
AcDbLine
 10
-30.4328275501303
 20
15.87754631143733
 30
0.0
 11
-33.85451161657698
 21
19.29923037788402
 31
0.0
  0
LINE
  5
593D
330
1E
100
AcDbEntity
  8
0
 48
0.27
100
AcDbLine
 10
-29.82687369847696
 20
17.03935941288413
 30
0.0
 11
-32.60451161657698
 21
19.81699733088411
 31
0.0
  0
ARC
  5
593E
330
1E
100
AcDbEntity
  8
0
 48
0.27
100
AcDbCircle
 10
-29.45951161657701
 20
13.85044970878406
 30
0.0
 40
3.209999999999999
100
AcDbArc
 50
353.4284998715999
 51
96.57150012840013
  0
ARC
  5
593F
330
1E
100
AcDbEntity
  8
0
 48
0.27
100
AcDbCircle
 10
-29.45951161657701
 20
13.85044970878406
 30
0.0
 40
1.959999999999999
100
AcDbArc
 50
345.4078960973163
 51
104.5921039042721
  0
LINE
  5
5940
330
1E
100
AcDbEntity
  8
0
 48
0.27
100
AcDbLine
 10
-29.82687369847696
 20
17.03935941288413
 30
0.0
 11
-30.19076353945792
 21
15.74368805037992
 31
0.0
  0
ARC
  5
5941
330
1E
100
AcDbEntity
  8
0
 48
0.27
100
AcDbCircle
 10
-30.07927415953708
 20
16.23109970203055
 30
0.0
 40
0.5
100
AcDbArc
 50
225.0
 51
284.5921039042722
  0
LINE
  5
5942
330
1E
100
AcDbEntity
  8
0
 48
0.27
100
AcDbLine
 10
-23.4218193088771
 20
13.0139913059841
 30
0.0
 11
-26.35451161657698
 21
11.79923037788402
 31
0.0
  0
LINE
  5
5943
330
1E
100
AcDbEntity
  8
0
 48
0.27
100
AcDbLine
 10
-23.4218193088771
 20
6.986908111584092
 30
0.0
 11
-23.4218193088771
 21
13.0139913059841
 31
0.0
  0
LINE
  5
5944
330
1E
100
AcDbEntity
  8
0
 48
0.27
100
AcDbLine
 10
-25.10451161657698
 20
12.31699733088411
 30
0.0
 11
-26.27060191247693
 21
13.48308762678406
 31
0.0
  0
LINE
  5
5945
330
1E
100
AcDbEntity
  8
0
 48
0.27
100
AcDbLine
 10
-26.35451161657698
 20
11.79923037788402
 30
0.0
 11
-27.43241501392032
 21
12.87713377531046
 31
0.0
  0
LINE
  5
5946
330
1E
100
AcDbEntity
  8
0
 48
0.27
100
AcDbLine
 10
-23.4218193088771
 20
6.986908111584092
 30
0.0
 11
-26.35451161657698
 21
8.201669039684055
 31
0.0
  0
LINE
  5
5947
330
1E
100
AcDbEntity
  8
0
 48
0.27
100
AcDbLine
 10
-25.10451161657698
 20
7.683902086684078
 30
0.0
 11
-25.10451161657698
 21
12.31699733088411
 31
0.0
  0
LINE
  5
5948
330
1E
100
AcDbEntity
  8
0
 48
0.27
100
AcDbLine
 10
-26.35451161657698
 20
8.201669039684055
 30
0.0
 11
-26.35451161657698
 21
11.79923037788402
 31
0.0
  0
LINE
  5
5949
330
1E
100
AcDbEntity
  8
0
 48
0.27
100
AcDbLine
 10
-24.57943041327695
 20
14.1716024104841
 30
0.0
 11
-26.27060191247693
 21
13.48308762678406
 31
0.0
  0
LINE
  5
594A
330
1E
100
AcDbEntity
  8
0
 48
0.27
100
AcDbLine
 10
-23.4218193088771
 20
13.0139913059841
 30
0.0
 11
-24.57943041327695
 21
14.1716024104841
 31
0.0
  0
ARC
  5
594B
330
1E
100
AcDbEntity
  8
0
 48
0.27
100
AcDbCircle
 10
-27.07886162331334
 20
13.23068716589004
 30
0.0
 40
0.5
100
AcDbArc
 50
165.4078960973163
 51
224.9999999977937
  0
LINE
  5
594C
330
1E
100
AcDbEntity
  8
0
 48
0.27
100
AcDbLine
 10
-26.27060191247693
 20
13.48308762678406
 30
0.0
 11
-27.56627327494397
 21
13.11919778588132
 31
0.0
  0
LINE
  5
594D
330
1E
100
AcDbEntity
  8
0
 48
0.27
100
AcDbLine
 10
-29.13835891487707
 20
25.77036850558401
 30
0.0
 11
-29.82687369847696
 21
27.46154000468417
 31
0.0
  0
LINE
  5
594E
330
1E
100
AcDbEntity
  8
0
 48
0.27
100
AcDbLine
 10
-30.9218193088771
 20
20.5139913059841
 30
0.0
 11
-29.13835891487707
 21
18.73053091198407
 31
0.0
  0
LINE
  5
594F
330
1E
100
AcDbEntity
  8
0
 48
0.27
100
AcDbLine
 10
-29.13835891487707
 20
25.77036850558401
 30
0.0
 11
-30.9218193088771
 21
23.98690811158409
 31
0.0
  0
LINE
  5
5950
330
1E
100
AcDbEntity
  8
0
 48
0.27
100
AcDbLine
 10
-30.9218193088771
 20
23.98690811158409
 30
0.0
 11
-33.85451161657698
 21
25.20166903968406
 31
0.0
  0
LINE
  5
5951
330
1E
100
AcDbEntity
  8
0
 48
0.27
100
AcDbLine
 10
-32.60451161657698
 20
19.81699733088411
 30
0.0
 11
-32.60451161657698
 21
24.68390208668408
 31
0.0
  0
LINE
  5
5952
330
1E
100
AcDbEntity
  8
0
 48
0.27
100
AcDbLine
 10
-33.85451161657698
 20
19.29923037788402
 30
0.0
 11
-33.85451161657698
 21
25.20166903968406
 31
0.0
  0
LINE
  5
5953
330
1E
100
AcDbEntity
  8
0
 48
0.27
100
AcDbLine
 10
-30.9218193088771
 20
20.5139913059841
 30
0.0
 11
-33.85451161657698
 21
19.29923037788402
 31
0.0
  0
LINE
  5
5954
330
1E
100
AcDbEntity
  8
0
 48
0.27
100
AcDbLine
 10
-30.9218193088771
 20
23.98690811158409
 30
0.0
 11
-30.9218193088771
 21
20.5139913059841
 31
0.0
  0
LINE
  5
5955
330
1E
100
AcDbEntity
  8
0
 48
0.27
100
AcDbLine
 10
-33.85451161657698
 20
25.20166903968406
 30
0.0
 11
-30.43282755013019
 21
28.62335310613097
 31
0.0
  0
LINE
  5
5956
330
1E
100
AcDbEntity
  8
0
 48
0.27
100
AcDbLine
 10
-29.82687369847696
 20
27.46154000468417
 30
0.0
 11
-30.19076353945792
 21
28.75721136718838
 31
0.0
  0
ARC
  5
5957
330
1E
100
AcDbEntity
  8
0
 48
0.27
100
AcDbCircle
 10
-30.07927415953697
 20
28.26979971553775
 30
0.0
 40
0.5
100
AcDbArc
 50
75.40789609573103
 51
135.0
  0
LINE
  5
5958
330
1E
100
AcDbEntity
  8
0
 48
0.27
100
AcDbLine
 10
-32.60451161657698
 20
24.68390208668408
 30
0.0
 11
-29.82687369847696
 21
27.46154000468417
 31
0.0
  0
LINE
  5
5959
330
1E
100
AcDbEntity
  8
虛線
 48
0.27
100
AcDbLine
 10
-47.95405090779422
 20
39.00000000000093
 30
0.0
 11
-35.95405090779423
 21
39.00000000000085
 31
0.0
  0
LINE
  5
595A
330
1E
100
AcDbEntity
  8
虛線
 48
0.27
100
AcDbLine
 10
-47.1040449077941
 20
33.74999700000091
 30
0.0
 11
-36.80404190779427
 21
33.74999700000088
 31
0.0
  0
LINE
  5
595B
330
1E
100
AcDbEntity
  8
虛線
 48
0.27
100
AcDbLine
 10
-47.10405290779408
 20
33.74998200000095
 30
0.0
 11
-41.95405090779423
 21
30.77661600000101
 31
0.0
  0
LINE
  5
595C
330
1E
100
AcDbEntity
  8
0
 48
0.27
100
AcDbLine
 10
-54.45616508546232
 20
39.50000000000117
 30
0.0
 11
-53.45616508546232
 21
38.50000000000103
 31
0.0
  0
LINE
  5
595D
330
1E
100
AcDbEntity
  8
虛線
 48
0.27
100
AcDbLine
 10
-36.80404190779427
 20
33.74999700000088
 30
0.0
 11
-41.95404690779423
 21
30.77663900000095
 31
0.0
  0
LINE
  5
595E
330
1E
100
AcDbEntity
  8
0
 48
0.27
100
AcDbLine
 10
-26.27060191247688
 20
31.01781179078402
 30
0.0
 11
-24.63796399447688
 21
32.65044970878402
 31
0.0
  0
LINE
  5
595F
330
1E
100
AcDbEntity
  8
0
 48
0.27
100
AcDbLine
 10
-24.57943041327695
 20
30.32929700708409
 30
0.0
 11
-26.27060191247688
 21
31.01781179078402
 31
0.0
  0
LINE
  5
5960
330
1E
100
AcDbEntity
  8
0
 48
0.27
100
AcDbLine
 10
-23.94097001927708
 20
30.96775740108414
 30
0.0
 11
-25.15573094737693
 21
33.90044970878402
 31
0.0
  0
LINE
  5
5961
330
1E
100
AcDbEntity
  8
0
 48
0.27
100
AcDbLine
 10
-23.94097001927708
 20
30.96775740108414
 30
0.0
 11
-24.57943041327695
 21
30.32929700708409
 31
0.0
  0
ARC
  5
5962
330
1E
100
AcDbEntity
  8
0
 48
0.27
100
AcDbCircle
 10
-27.07886162330999
 20
31.27021225166462
 30
0.0
 40
0.5
100
AcDbArc
 50
134.9999999999966
 51
194.5921039023606
  0
LINE
  5
5963
330
1E
100
AcDbEntity
  8
0
 48
0.27
100
AcDbLine
 10
-27.43241501390321
 20
31.62376564225784
 30
0.0
 11
-25.15573094737693
 21
33.90044970878402
 31
0.0
  0
LINE
  5
5964
330
1E
100
AcDbEntity
  8
0
 48
0.27
100
AcDbLine
 10
-26.27060191247688
 20
31.01781179078402
 30
0.0
 11
-27.56627327493788
 21
31.38170163168517
 31
0.0
  0
LINE
  5
5965
330
1E
100
AcDbEntity
  8
虛線
 48
0.27
100
AcDbLine
 10
-35.95616508546232
 20
55.40000000000093
 30
0.0
 11
-47.95616508546231
 21
55.40000000000095
 31
0.0
  0
LINE
  5
5966
330
1E
100
AcDbEntity
  8
0
 48
0.27
100
AcDbLine
 10
-29.95616508546164
 20
57.00000000000066
 30
0.0
 11
-52.45616508546186
 21
57.00000000000109
 31
0.0
  0
LINE
  5
5967
330
1E
100
AcDbEntity
  8
0
 48
0.27
100
AcDbLine
 10
-52.45616508546186
 20
57.00000000000109
 30
0.0
 11
-54.45616508546186
 21
55.0000000000011
 31
0.0
  0
LINE
  5
5968
330
1E
100
AcDbEntity
  8
虛線
 48
0.27
100
AcDbLine
 10
-49.55616508546222
 20
57.00000000000104
 30
0.0
 11
-47.95616508546231
 21
55.40000000000095
 31
0.0
  0
LINE
  5
5969
330
1E
100
AcDbEntity
  8
0
 48
0.27
100
AcDbLine
 10
-29.95616508546164
 20
57.00000000000066
 30
0.0
 11
-28.95616508546233
 21
56.000000000001
 31
0.0
  0
LINE
  5
596A
330
1E
100
AcDbEntity
  8
虛線
 48
0.27
100
AcDbLine
 10
-35.95616508546232
 20
55.40000000000093
 30
0.0
 11
-34.35616508546287
 21
57.00000000000073
 31
0.0
  0
LINE
  5
596B
330
1E
100
AcDbEntity
  8
0
 48
0.27
100
AcDbLine
 10
-28.95616508546233
 20
56.000000000001
 30
0.0
 11
-15.45616508546232
 21
56.00000000000098
 31
0.0
  0
SPLINE
  5
596C
330
1E
100
AcDbEntity
  8
0
 48
0.27
100
AcDbSpline
210
0.0
220
0.0
230
1.0
 70
     8
 71
     3
 72
    14
 73
    10
 74
     8
 42
0.0000000001
 43
0.0000000001
 44
0.0000000001
 40
0.0
 40
0.0
 40
0.0
 40
0.0
 40
1.003374800732536
 40
2.010676408934132
 40
3.010409173061274
 40
4.019215736458484
 40
5.018979127771695
 40
6.025582519220916
 40
7.028797203484381
 40
7.028797203484381
 40
7.028797203484381
 40
7.028797203484381
 10
15.66943048242291
 20
14.1720000465841
 30
0.0
 10
15.71117683346823
 20
14.50502716104272
 30
0.0
 10
15.79483291407205
 20
15.17238472482495
 30
0.0
 10
16.17586041875417
 20
16.1124359913426
 30
0.0
 10
16.72724403739148
 20
16.95935000333593
 30
0.0
 10
17.44224536901547
 20
17.67422994126166
 30
0.0
 10
18.28906941934516
 20
18.22534535011685
 30
0.0
 10
19.22889059249596
 20
18.60615896477861
 30
0.0
 10
19.89596380675511
 20
18.6897717206187
 30
0.0
 10
20.22893804562313
 20
18.73150760978408
 30
0.0
 11
15.66943048242291
 21
14.1720000465841
 31
0.0
 11
15.83721169042286
 21
15.16124746608396
 31
0.0
 11
16.20526022382313
 21
16.09890241698404
 31
0.0
 11
16.75287732212285
 21
16.93531207338399
 31
0.0
 11
17.46627199242306
 21
17.64858532168407
 31
0.0
 11
18.30280220302296
 21
18.19607417578411
 31
0.0
 11
19.23984572612283
 21
18.56376946198404
 31
0.0
 11
20.22893804562313
 21
18.73150760978408
 31
0.0
  0
SPLINE
  5
596D
330
1E
100
AcDbEntity
  8
0
 48
0.27
100
AcDbSpline
210
0.0
220
0.0
230
1.0
 70
     8
 71
     3
 72
    14
 73
    10
 74
     8
 42
0.0000000001
 43
0.0000000001
 44
0.0000000001
 40
0.0
 40
0.0
 40
0.0
 40
0.0
 40
1.003374800732984
 40
2.010676408934182
 40
3.010409172977842
 40
4.019215736304143
 40
5.018979127672206
 40
6.025582519214641
 40
7.028797203477883
 40
7.028797203477883
 40
7.028797203477883
 40
7.028797203477883
 10
20.22893804562313
 20
25.76939180778411
 30
0.0
 10
19.89591093116555
 20
25.81113815883121
 30
0.0
 10
19.2285533673857
 20
25.89479423943857
 30
0.0
 10
18.28850210087601
 20
26.27582174408306
 30
0.0
 10
17.44158808899052
 20
26.8272053627871
 30
0.0
 10
16.72670815102681
 20
27.54220669430464
 30
0.0
 10
16.17559274205139
 20
28.38903074460159
 30
0.0
 10
15.79477912745058
 20
29.32885191783373
 30
0.0
 10
15.71116637159438
 20
29.99592513211868
 30
0.0
 10
15.66943048242291
 20
30.3288993709841
 30
0.0
 11
20.22893804562313
 21
25.76939180778411
 31
0.0
 11
19.23969062612281
 21
25.93717301578406
 31
0.0
 11
18.30203567522307
 21
26.30522154918411
 31
0.0
 11
17.46562601892305
 21
26.85283864748406
 31
0.0
 11
16.75235277062296
 21
27.56623331768399
 31
0.0
 11
16.20486391642311
 21
28.40276352828412
 31
0.0
 11
15.83716863022295
 21
29.33980705148404
 31
0.0
 11
15.66943048242291
 21
30.3288993709841
 31
0.0
  0
LINE
  5
596E
330
1E
100
AcDbEntity
  8
虛線
 48
0.27
100
AcDbLine
 10
27.91883491453813
 20
55.40000000000073
 30
0.0
 11
27.91883491453813
 21
33.74999700000087
 31
0.0
  0
LINE
  5
596F
330
1E
100
AcDbEntity
  8
虛線
 48
0.27
100
AcDbLine
 10
27.04383491453813
 20
55.40000000000084
 30
0.0
 11
27.04383491453813
 21
39.00000000000083
 31
0.0
  0
LINE
  5
5970
330
1E
100
AcDbEntity
  8
虛線
 48
0.27
100
AcDbLine
 10
38.16883491453813
 20
55.40000000000073
 30
0.0
 11
38.16883491453813
 21
33.74999700000087
 31
0.0
  0
LINE
  5
5971
330
1E
100
AcDbEntity
  8
虛線
 48
0.27
100
AcDbLine
 10
39.04383491453813
 20
55.40000000000084
 30
0.0
 11
39.04383491453767
 21
39.00000000000078
 31
0.0
  0
ARC
  5
5972
330
1E
100
AcDbEntity
  8
0
 48
0.27
100
AcDbCircle
 10
41.04548838342316
 20
52.49999999999978
 30
0.0
 40
3.0
100
AcDbArc
 50
0.0
 51
90.0
  0
LINE
  5
5973
330
1E
100
AcDbEntity
  8
0
 48
0.27
100
AcDbLine
 10
45.54383491453767
 20
55.05000000000085
 30
0.0
 11
45.54383491453767
 21
27.00000000000095
 31
0.0
  0
LINE
  5
5974
330
1E
100
AcDbEntity
  8
中心線
 48
0.27
100
AcDbLine
 10
33.04383491453813
 20
59.00000000000087
 30
0.0
 11
33.04383491453813
 21
29.46597600000082
 31
0.0
  0
LINE
  5
5975
330
1E
100
AcDbEntity
  8
中心線
 48
0.27
100
AcDbLine
 10
-4.456165085462316
 20
72.16669543875521
 30
0.0
 11
-4.456165085462373
 21
28.96775740108411
 31
0.0
  0
LINE
  5
5976
330
1E
100
AcDbEntity
  8
0
 48
0.27
100
AcDbLine
 10
14.51279607582313
 20
6.986908111584035
 30
0.0
 11
21.49925447852291
 21
0.0004497087840694
 31
0.0
  0
LINE
  5
5977
330
1E
100
AcDbEntity
  8
0
 48
0.27
100
AcDbLine
 10
23.87894076142305
 20
0.0004497087840694
 30
0.0
 11
16.19548838342297
 21
7.683902086684021
 31
0.0
  0
LINE
  5
5978
330
1E
100
AcDbEntity
  8
0
 48
0.27
100
AcDbLine
 10
17.44548838342297
 20
8.201669039683999
 30
0.0
 11
25.64670771432287
 21
0.0004497087840694
 31
0.0
  0
LINE
  5
5979
330
1E
100
AcDbEntity
  8
0
 48
0.27
100
AcDbLine
 10
44.54383491453765
 20
26.00000000000093
 30
0.0
 11
44.54383491453762
 21
2.000000000000833
 31
0.0
  0
LINE
  5
597A
330
1E
100
AcDbEntity
  8
0
 48
0.27
100
AcDbLine
 10
44.04548838342316
 20
52.49999999999976
 30
0.0
 11
44.0454883834231
 21
2.999999999999758
 31
0.0
  0
LINE
  5
597C
330
1E
100
AcDbEntity
  8
0
 48
0.27
100
AcDbLine
 10
44.54383491453762
 20
2.000000000000833
 30
0.0
 11
42.54383491453761
 21
0.0000000000008331
 31
0.0
  0
LINE
  5
597D
330
1E
100
AcDbEntity
  8
0
 48
0.27
100
AcDbLine
 10
44.0454883834231
 20
3.000449708784039
 30
0.0
 11
41.0454883834231
 21
0.0004497087840694
 31
0.0
  0
LINE
  5
597E
330
1E
100
AcDbEntity
  8
0
 48
0.27
100
AcDbLine
 10
21.49970418730608
 20
0.0000000000009077
 30
0.0
 11
42.54594909220571
 21
0.0000000000008331
 31
0.0
  0
LINE
  5
597F
330
1E
100
AcDbEntity
  8
0
 48
0.27
100
AcDbLine
 10
34.48876812348152
 20
0.0004497087840694
 30
0.0
 11
34.48902770953322
 21
0.0000000000008615
 31
0.0
  0
LINE
  5
5980
330
1E
100
AcDbEntity
  8
0
 48
0.27
100
AcDbLine
 10
45.54383491453767
 20
27.00000000000095
 30
0.0
 11
44.54383491453767
 21
26.00000000000095
 31
0.0
  0
ARC
  5
5981
330
1E
100
AcDbEntity
  8
0
 48
0.27
100
AcDbCircle
 10
20.55048838342305
 20
30.65044970878396
 30
0.0
 40
3.209999999999999
100
AcDbArc
 50
173.4284998715999
 51
276.5715001284001
  0
ARC
  5
5982
330
1E
100
AcDbEntity
  8
0
 48
0.27
100
AcDbCircle
 10
20.55048838342305
 20
30.65044970878396
 30
0.0
 40
1.959999999999999
100
AcDbArc
 50
165.4078960957312
 51
284.5921039060625
  0
LINE
  5
5983
330
1E
100
AcDbEntity
  8
0
 48
0.27
100
AcDbLine
 10
14.51279607582313
 20
13.01399130598404
 30
0.0
 11
15.67040718022298
 21
14.17160241048405
 31
0.0
  0
LINE
  5
5984
330
1E
100
AcDbEntity
  8
0
 48
0.27
100
AcDbLine
 10
14.51279607582313
 20
6.986908111584035
 30
0.0
 11
17.44548838342297
 21
8.201669039683999
 31
0.0
  0
LINE
  5
5985
330
1E
100
AcDbEntity
  8
0
 48
0.27
100
AcDbLine
 10
14.51279607582313
 20
13.01399130598404
 30
0.0
 11
17.44548838342297
 21
11.79923037788396
 31
0.0
  0
LINE
  5
5986
330
1E
100
AcDbEntity
  8
0
 48
0.27
100
AcDbLine
 10
14.51279607582313
 20
13.01399130598404
 30
0.0
 11
14.51279607582313
 21
6.986908111584035
 31
0.0
  0
LINE
  5
5987
330
1E
100
AcDbEntity
  8
0
 48
0.27
100
AcDbLine
 10
20.2293356818231
 20
18.73053091198401
 30
0.0
 11
20.91785046542299
 21
17.03935941288407
 31
0.0
  0
LINE
  5
5988
330
1E
100
AcDbEntity
  8
0
 48
0.27
100
AcDbLine
 10
24.94548838342297
 20
19.29923037788394
 30
0.0
 11
21.52380431705541
 21
15.87754631142247
 31
0.0
  0
LINE
  5
5989
330
1E
100
AcDbEntity
  8
0
 48
0.27
100
AcDbLine
 10
23.69548838342297
 20
19.81699733088403
 30
0.0
 11
20.91785046542299
 21
17.03935941288407
 31
0.0
  0
ARC
  5
598A
330
1E
100
AcDbEntity
  8
0
 48
0.27
100
AcDbCircle
 10
40.5454883834231
 20
15.50044970878406
 30
0.0
 40
4.0
100
AcDbArc
 50
90.0
 51
270.0
  0
LINE
  5
598B
330
1E
100
AcDbEntity
  8
0
 48
0.27
100
AcDbLine
 10
18.52339178076994
 20
12.87713377523093
 30
0.0
 11
17.44548838342297
 21
11.79923037788396
 31
0.0
  0
LINE
  5
598C
330
1E
100
AcDbEntity
  8
0
 48
0.27
100
AcDbLine
 10
17.36157867942296
 20
13.483087626784
 30
0.0
 11
16.19548838342297
 21
12.31699733088406
 31
0.0
  0
LINE
  5
598D
330
1E
100
AcDbEntity
  8
0
 48
0.27
100
AcDbLine
 10
17.44548838342297
 20
11.79923037788396
 30
0.0
 11
17.44548838342297
 21
8.201669039683999
 31
0.0
  0
LINE
  5
598E
330
1E
100
AcDbEntity
  8
0
 48
0.27
100
AcDbLine
 10
16.19548838342297
 20
12.31699733088406
 30
0.0
 11
16.19548838342297
 21
7.683902086684021
 31
0.0
  0
LINE
  5
598F
330
1E
100
AcDbEntity
  8
0
 48
0.27
100
AcDbLine
 10
17.36157867942296
 20
13.483087626784
 30
0.0
 11
18.65725004182644
 21
13.11919778589911
 31
0.0
  0
ARC
  5
5990
330
1E
100
AcDbEntity
  8
0
 48
0.27
100
AcDbCircle
 10
20.55048838342299
 20
13.850449708784
 30
0.0
 40
1.959999999999999
100
AcDbArc
 50
75.40789609393745
 51
194.5921039042687
  0
ARC
  5
5991
330
1E
100
AcDbEntity
  8
0
 48
0.27
100
AcDbCircle
 10
18.16983839017661
 20
13.23068716582415
 30
0.0
 40
0.5
100
AcDbArc
 50
314.9999999999954
 51
14.59210390426881
  0
LINE
  5
5992
330
1E
100
AcDbEntity
  8
0
 48
0.27
100
AcDbLine
 10
20.91785046542299
 20
17.03935941288407
 30
0.0
 11
21.28174030640736
 21
15.74368805036687
 31
0.0
  0
ARC
  5
5993
330
1E
100
AcDbEntity
  8
0
 48
0.27
100
AcDbCircle
 10
21.1702509264573
 20
16.23109970201106
 30
0.0
 40
0.5
100
AcDbArc
 50
255.4078960939374
 51
315.0000000007877
  0
ARC
  5
5994
330
1E
100
AcDbEntity
  8
0
 48
0.27
100
AcDbCircle
 10
20.55048838342299
 20
13.850449708784
 30
0.0
 40
3.209999999999999
100
AcDbArc
 50
83.42849987159985
 51
186.5715001284001
  0
LINE
  5
5995
330
1E
100
AcDbEntity
  8
0
 48
0.27
100
AcDbLine
 10
15.67040718022298
 20
14.17160241048405
 30
0.0
 11
17.36157867942296
 21
13.483087626784
 31
0.0
  0
LINE
  5
5996
330
1E
100
AcDbEntity
  8
0
 48
0.27
100
AcDbLine
 10
44.0454883834231
 20
11.50044970878404
 30
0.0
 11
40.5454883834231
 21
11.50044970878407
 31
0.0
  0
LINE
  5
5997
330
1E
100
AcDbEntity
  8
0
 48
0.27
100
AcDbLine
 10
24.94548838342297
 20
25.20166903968397
 30
0.0
 11
24.94548838342297
 21
19.29923037788394
 31
0.0
  0
LINE
  5
5998
330
1E
100
AcDbEntity
  8
0
 48
0.27
100
AcDbLine
 10
23.69548838342297
 20
24.68390208668399
 30
0.0
 11
23.69548838342297
 21
19.81699733088403
 31
0.0
  0
LINE
  5
5999
330
1E
100
AcDbEntity
  8
0
 48
0.27
100
AcDbLine
 10
22.01279607582313
 20
23.98690811158401
 30
0.0
 11
20.2293356818231
 21
25.77036850558395
 31
0.0
  0
LINE
  5
599A
330
1E
100
AcDbEntity
  8
0
 48
0.27
100
AcDbLine
 10
22.01279607582313
 20
23.98690811158401
 30
0.0
 11
24.94548838342297
 21
25.20166903968397
 31
0.0
  0
LINE
  5
599B
330
1E
100
AcDbEntity
  8
0
 48
0.27
100
AcDbLine
 10
22.01279607582313
 20
20.51399130598401
 30
0.0
 11
24.94548838342297
 21
19.29923037788394
 31
0.0
  0
LINE
  5
599C
330
1E
100
AcDbEntity
  8
0
 48
0.27
100
AcDbLine
 10
22.01279607582313
 20
20.51399130598401
 30
0.0
 11
22.01279607582313
 21
23.98690811158401
 31
0.0
  0
LINE
  5
599D
330
1E
100
AcDbEntity
  8
0
 48
0.27
100
AcDbLine
 10
20.2293356818231
 20
18.73053091198401
 30
0.0
 11
22.01279607582313
 21
20.51399130598401
 31
0.0
  0
LINE
  5
599E
330
1E
100
AcDbEntity
  8
0
 48
0.27
100
AcDbLine
 10
20.91785046542299
 20
27.46154000468412
 30
0.0
 11
23.69548838342297
 21
24.68390208668399
 31
0.0
  0
LINE
  5
599F
330
1E
100
AcDbEntity
  8
0
 48
0.27
100
AcDbLine
 10
21.52380431705552
 20
28.62335310614544
 30
0.0
 11
24.94548838342297
 21
25.20166903968397
 31
0.0
  0
LINE
  5
59A0
330
1E
100
AcDbEntity
  8
0
 48
0.27
100
AcDbLine
 10
20.91785046542299
 20
27.46154000468412
 30
0.0
 11
21.28174030640736
 21
28.75721136720103
 31
0.0
  0
LINE
  5
59A1
330
1E
100
AcDbEntity
  8
0
 48
0.27
100
AcDbLine
 10
20.2293356818231
 20
25.77036850558395
 30
0.0
 11
20.91785046542299
 21
27.46154000468412
 31
0.0
  0
ARC
  5
59A2
330
1E
100
AcDbEntity
  8
0
 48
0.27
100
AcDbCircle
 10
21.1702509264573
 20
28.26979971555702
 30
0.0
 40
0.5
100
AcDbArc
 50
44.99999999921232
 51
104.5921039060625
  0
LINE
  5
59A3
330
1E
100
AcDbEntity
  8
0
 48
0.27
100
AcDbLine
 10
44.0454883834231
 20
19.50044970878404
 30
0.0
 11
40.5454883834231
 21
19.50044970878407
 31
0.0
  0
LINE
  5
59A4
330
1E
100
AcDbEntity
  8
0
 48
0.27
100
AcDbLine
 10
15.03194678622299
 20
30.96775740108408
 30
0.0
 11
16.24670771432306
 21
33.90044970878396
 31
0.0
  0
LINE
  5
59A5
330
1E
100
AcDbEntity
  8
0
 48
0.27
100
AcDbLine
 10
15.67040718022298
 20
30.32929700708403
 30
0.0
 11
15.03194678622299
 21
30.96775740108408
 31
0.0
  0
LINE
  5
59A8
330
1E
100
AcDbEntity
  8
虛線
 48
0.27
100
AcDbLine
 10
38.17094909220623
 20
33.74999700000087
 30
0.0
 11
33.04594909220623
 21
30.67058632748451
 31
0.0
  0
LINE
  5
59A9
330
1E
100
AcDbEntity
  8
虛線
 48
0.27
100
AcDbLine
 10
27.92094909220623
 20
33.74999700000075
 30
0.0
 11
33.04594909220623
 21
30.67058632748451
 31
0.0
  0
LINE
  5
59AA
330
1E
100
AcDbEntity
  8
0
 48
0.27
100
AcDbLine
 10
17.36157867942302
 20
31.01781179078396
 30
0.0
 11
18.6572500418265
 21
31.38170163166897
 31
0.0
  0
ARC
  5
59AB
330
1E
100
AcDbEntity
  8
0
 48
0.27
100
AcDbCircle
 10
18.16983839017666
 20
31.27021225174392
 30
0.0
 40
0.5
100
AcDbArc
 50
345.4078960957308
 51
44.99999999999994
  0
LINE
  5
59AC
330
1E
100
AcDbEntity
  8
0
 48
0.27
100
AcDbLine
 10
16.24670771432306
 20
33.90044970878396
 30
0.0
 11
18.52339178077
 21
31.62376564233726
 31
0.0
  0
LINE
  5
59AD
330
1E
100
AcDbEntity
  8
0
 48
0.27
100
AcDbLine
 10
15.72894076142302
 20
32.65044970878396
 30
0.0
 11
17.36157867942302
 21
31.01781179078396
 31
0.0
  0
LINE
  5
59AE
330
1E
100
AcDbEntity
  8
0
 48
0.27
100
AcDbLine
 10
15.67040718022298
 20
30.32929700708403
 30
0.0
 11
17.36157867942302
 21
31.01781179078396
 31
0.0
  0
LINE
  5
59AF
330
1E
100
AcDbEntity
  8
虛線
 48
0.27
100
AcDbLine
 10
39.04594909220577
 20
39.00000000000078
 30
0.0
 11
27.04594909220623
 21
39.00000000000083
 31
0.0
  0
LINE
  5
59B0
330
1E
100
AcDbEntity
  8
虛線
 48
0.27
100
AcDbLine
 10
38.17094909220623
 20
33.74999700000087
 30
0.0
 11
27.92094909220623
 21
33.74999700000087
 31
0.0
  0
LINE
  5
59B3
330
1E
100
AcDbEntity
  8
0
 48
0.27
100
AcDbLine
 10
45.54383491453767
 20
55.05000000000085
 30
0.0
 11
43.59383491453763
 21
57.00000000000095
 31
0.0
  0
LINE
  5
59B4
330
1E
100
AcDbEntity
  8
0
 48
0.27
100
AcDbLine
 10
6.543834914537676
 20
56.00000000000095
 30
0.0
 11
20.04383491453768
 21
56.00000000000095
 31
0.0
  0
LINE
  5
59B5
330
1E
100
AcDbEntity
  8
0
 48
0.27
100
AcDbLine
 10
5.543834914537676
 20
57.00000000000106
 30
0.0
 11
-14.45616508546232
 21
57.00000000000104
 31
0.0
  0
LINE
  5
59B6
330
1E
100
AcDbEntity
  8
0
 48
0.27
100
AcDbLine
 10
6.543834914537676
 20
56.00000000000095
 30
0.0
 11
5.543834914537676
 21
57.00000000000106
 31
0.0
  0
LINE
  5
59B7
330
1E
100
AcDbEntity
  8
虛線
 48
0.27
100
AcDbLine
 10
27.04383491453813
 20
55.40000000000084
 30
0.0
 11
39.04383491453813
 21
55.40000000000084
 31
0.0
  0
LINE
  5
59B8
330
1E
100
AcDbEntity
  8
0
 48
0.27
100
AcDbLine
 10
43.59383491453763
 20
57.00000000000095
 30
0.0
 11
21.04383491453813
 21
57.00000000000101
 31
0.0
  0
LINE
  5
59B9
330
1E
100
AcDbEntity
  8
0
 48
0.27
100
AcDbLine
 10
21.04383491453813
 20
57.00000000000101
 30
0.0
 11
20.04383491453768
 21
56.00000000000095
 31
0.0
  0
LINE
  5
59BA
330
1E
100
AcDbEntity
  8
虛線
 48
0.27
100
AcDbLine
 10
27.04383491453813
 20
55.40000000000084
 30
0.0
 11
25.443834914538
 21
57.00000000000098
 31
0.0
  0
LINE
  5
59BB
330
1E
100
AcDbEntity
  8
虛線
 48
0.27
100
AcDbLine
 10
40.64383491453781
 20
57.00000000000098
 30
0.0
 11
39.04383491453813
 21
55.40000000000084
 31
0.0
  0
CIRCLE
  5
59C8
330
1E
100
AcDbEntity
  8
指線
 48
0.27
100
AcDbCircle
 10
40.5454883834231
 20
15.50044970878406
 30
0.0
 40
4.0
  0
CIRCLE
  5
59C9
330
1E
100
AcDbEntity
  8
指線
 48
0.27
100
AcDbCircle
 10
40.54548838342287
 20
15.50044970878406
 30
0.0
 40
4.0
  0
LINE
  5
59CA
330
1E
100
AcDbEntity
  8
指線
 48
0.27
100
AcDbLine
 10
39.74657843461134
 20
14.70129088697145
 30
0.0
 11
36.62796071280528
 21
14.70088444151944
 31
0.0
  0
LINE
  5
59CB
330
1E
100
AcDbEntity
  8
指線
 48
0.27
100
AcDbLine
 10
39.74633124117499
 20
16.29936118489105
 30
0.0
 11
36.62771351936893
 21
16.2989547394394
 31
0.0
  0
ARC
  5
59CC
330
1E
100
AcDbEntity
  8
指線
 48
0.27
100
AcDbCircle
 10
40.54548838342265
 20
15.50044970878406
 30
0.0
 40
2.397105012956624
100
AcDbArc
 50
109.4623212432051
 51
160.5189998916724
  0
ARC
  5
59CD
330
1E
100
AcDbEntity
  8
指線
 48
0.27
100
AcDbCircle
 10
40.5454883834231
 20
15.50044970878406
 30
0.0
 40
2.397105012956624
100
AcDbArc
 50
19.48100010832753
 51
70.53767875679482
  0
LINE
  5
59CE
330
1E
100
AcDbEntity
  8
指線
 48
0.27
100
AcDbLine
 10
39.74610525330326
 20
17.76033872471732
 30
0.0
 11
39.74633124117499
 21
16.29936118489105
 31
0.0
  0
LINE
  5
59CF
330
1E
100
AcDbEntity
  8
指線
 48
0.27
100
AcDbLine
 10
41.34417234468216
 20
17.76058607041567
 30
0.0
 11
41.34439833223415
 21
16.29960853059702
 31
0.0
  0
ARC
  5
59D0
330
1E
100
AcDbEntity
  8
指線
 48
0.27
100
AcDbCircle
 10
40.54548838342265
 20
15.50044970878406
 30
0.0
 40
2.397105012956624
100
AcDbArc
 50
289.4623212432144
 51
340.5208129039534
  0
LINE
  5
59D1
330
1E
100
AcDbEntity
  8
指線
 48
0.27
100
AcDbLine
 10
41.34464552567084
 20
14.70153823267707
 30
0.0
 11
44.45685860893129
 21
14.70209618357354
 31
0.0
  0
LINE
  5
59D2
330
1E
100
AcDbEntity
  8
指線
 48
0.27
100
AcDbLine
 10
41.34439833223415
 20
16.29960853059702
 30
0.0
 11
44.45661141549459
 21
16.3001664814935
 31
0.0
  0
ARC
  5
59D3
330
1E
100
AcDbEntity
  8
指線
 48
0.27
100
AcDbCircle
 10
40.5454883834231
 20
15.50044970878406
 30
0.0
 40
2.397105012956624
100
AcDbArc
 50
199.4791870960466
 51
250.5376787567856
  0
LINE
  5
59D4
330
1E
100
AcDbEntity
  8
指線
 48
0.27
100
AcDbLine
 10
39.74657843461134
 20
14.70129088697145
 30
0.0
 11
39.74680442216369
 21
13.24031334715245
 31
0.0
  0
LINE
  5
59D5
330
1E
100
AcDbEntity
  8
指線
 48
0.27
100
AcDbLine
 10
41.34464552567084
 20
14.70153823267707
 30
0.0
 11
41.34487151354259
 21
13.24056069285116
 31
0.0
  0
CIRCLE
  5
59D6
330
1E
100
AcDbEntity
  8
指線
 48
0.27
100
AcDbCircle
 10
-49.4545116165769
 20
15.50044970878418
 30
0.0
 40
4.0
  0
CIRCLE
  5
59D7
330
1E
100
AcDbEntity
  8
指線
 48
0.27
100
AcDbCircle
 10
-49.45451161657712
 20
15.50044970878418
 30
0.0
 40
4.0
  0
LINE
  5
59D8
330
1E
100
AcDbEntity
  8
指線
 48
0.27
100
AcDbLine
 10
-50.25342156538866
 20
14.70129088697157
 30
0.0
 11
-53.37203928719472
 21
14.70088444151955
 31
0.0
  0
LINE
  5
59D9
330
1E
100
AcDbEntity
  8
指線
 48
0.27
100
AcDbLine
 10
-50.253668758825
 20
16.29936118489116
 30
0.0
 11
-53.37228648063106
 21
16.29895473943951
 31
0.0
  0
ARC
  5
59DA
330
1E
100
AcDbEntity
  8
指線
 48
0.27
100
AcDbCircle
 10
-49.45451161657735
 20
15.50044970878418
 30
0.0
 40
2.397105012956624
100
AcDbArc
 50
109.4623212432051
 51
160.5189998916724
  0
ARC
  5
59DB
330
1E
100
AcDbEntity
  8
指線
 48
0.27
100
AcDbCircle
 10
-49.4545116165769
 20
15.50044970878418
 30
0.0
 40
2.397105012956624
100
AcDbArc
 50
19.48100010832753
 51
70.53767875679482
  0
LINE
  5
59DC
330
1E
100
AcDbEntity
  8
指線
 48
0.27
100
AcDbLine
 10
-50.25389474669674
 20
17.76033872471743
 30
0.0
 11
-50.253668758825
 21
16.29936118489116
 31
0.0
  0
LINE
  5
59DD
330
1E
100
AcDbEntity
  8
指線
 48
0.27
100
AcDbLine
 10
-48.65582765531783
 20
17.76058607041578
 30
0.0
 11
-48.65560166776585
 21
16.29960853059714
 31
0.0
  0
ARC
  5
59DE
330
1E
100
AcDbEntity
  8
指線
 48
0.27
100
AcDbCircle
 10
-49.45451161657735
 20
15.50044970878418
 30
0.0
 40
2.397105012956624
100
AcDbArc
 50
289.4623212432144
 51
340.5208129039534
  0
LINE
  5
59DF
330
1E
100
AcDbEntity
  8
指線
 48
0.27
100
AcDbLine
 10
-48.65535447432915
 20
14.70153823267718
 30
0.0
 11
-45.5431413910687
 21
14.70209618357366
 31
0.0
  0
LINE
  5
59E0
330
1E
100
AcDbEntity
  8
指線
 48
0.27
100
AcDbLine
 10
-48.65560166776585
 20
16.29960853059714
 30
0.0
 11
-45.54338858450541
 21
16.30016648149361
 31
0.0
  0
ARC
  5
59E1
330
1E
100
AcDbEntity
  8
指線
 48
0.27
100
AcDbCircle
 10
-49.4545116165769
 20
15.50044970878418
 30
0.0
 40
2.397105012956624
100
AcDbArc
 50
199.4791870960466
 51
250.5376787567856
  0
LINE
  5
59E2
330
1E
100
AcDbEntity
  8
指線
 48
0.27
100
AcDbLine
 10
-50.25342156538866
 20
14.70129088697157
 30
0.0
 11
-50.25319557783632
 21
13.24031334715256
 31
0.0
  0
LINE
  5
59E3
330
1E
100
AcDbEntity
  8
指線
 48
0.27
100
AcDbLine
 10
-48.65535447432915
 20
14.70153823267718
 30
0.0
 11
-48.65512848645741
 21
13.24056069285127
 31
0.0
  0
LINE
  5
59F1
330
1E
100
AcDbEntity
  8
0
 48
0.27
100
AcDbLine
 10
202.03421357663
 20
0.0
 30
0.0
 11
319.73421357663
 21
0.0
 31
0.0
  0
LINE
  5
59F3
330
1E
100
AcDbEntity
  8
0
 48
0.27
100
AcDbLine
 10
338.73421357663
 20
3.000000000000056
 30
0.0
 11
183.0342135766301
 21
3.000000000000056
 31
0.0
  0
LINE
  5
59F4
330
1E
100
AcDbEntity
  8
0
 48
0.27
100
AcDbLine
 10
202.03421357663
 20
55.04999999999992
 30
0.0
 11
319.7342135766299
 21
55.0499999999999
 31
0.0
  0
LINE
  5
59F5
330
1E
100
AcDbEntity
  8
0
 48
0.27
100
AcDbLine
 10
202.03421357663
 20
57.0000000000001
 30
0.0
 11
202.0342135766301
 21
0.0
 31
0.0
  0
LINE
  5
59F6
330
1E
100
AcDbEntity
  8
0
 48
0.27
100
AcDbLine
 10
202.0342135766301
 20
0.0
 30
0.0
 11
202.0342135766301
 21
55.5
 31
0.0
  0
LINE
  5
59F7
330
1E
100
AcDbEntity
  8
0
 48
0.27
100
AcDbLine
 10
183.0342135766301
 20
0.0
 30
0.0
 11
183.0342135766301
 21
55.5
 31
0.0
  0
LINE
  5
59F8
330
1E
100
AcDbEntity
  8
0
 48
0.27
100
AcDbLine
 10
202.0342135766301
 20
0.0
 30
0.0
 11
183.0342135766301
 21
0.0
 31
0.0
  0
CIRCLE
  5
59F9
330
1E
100
AcDbEntity
  8
0
 48
0.27
100
AcDbCircle
 10
191.0342135766301
 20
38.0
 30
0.0
 40
4.549999999999999
  0
CIRCLE
  5
59FA
330
1E
100
AcDbEntity
  8
0
 48
0.27
100
AcDbCircle
 10
191.0342135766301
 20
38.0
 30
0.0
 40
4.25
  0
CIRCLE
  5
59FB
330
1E
100
AcDbEntity
  8
0
 48
0.27
100
AcDbCircle
 10
191.0342135766301
 20
38.0
 30
0.0
 40
3.9375
  0
LINE
  5
59FC
330
1E
100
AcDbEntity
  8
中心線
 48
0.27
100
AcDbLine
 10
191.0342135766301
 20
33.13534057181858
 30
0.0
 11
191.0342135766301
 21
42.86465942818142
 31
0.0
  0
LINE
  5
59FD
330
1E
100
AcDbEntity
  8
中心線
 48
0.27
100
AcDbLine
 10
186.1695541484487
 20
38.0
 30
0.0
 11
195.8988730048115
 21
38.0
 31
0.0
  0
CIRCLE
  5
59FE
330
1E
100
AcDbEntity
  8
0
 48
0.27
100
AcDbCircle
 10
191.0342135766301
 20
38.0
 30
0.0
 40
0.75
  0
LINE
  5
59FF
330
1E
100
AcDbEntity
  8
0
 48
0.27
100
AcDbLine
 10
202.0342135766301
 20
52.5
 30
0.0
 11
183.0342135766301
 21
52.5
 31
0.0
  0
LINE
  5
5A00
330
1E
100
AcDbEntity
  8
0
 48
0.27
100
AcDbLine
 10
202.0342135766301
 20
55.5
 30
0.0
 11
183.0342135766301
 21
55.5
 31
0.0
  0
LINE
  5
5A09
330
1E
100
AcDbEntity
  8
中心線
 48
0.27
100
AcDbLine
 10
223.38421357663
 20
59.00000000000023
 30
0.0
 11
223.38421357663
 21
29.46597600000018
 31
0.0
  0
LINE
  5
5A0A
330
1E
100
AcDbEntity
  8
中心線
 48
0.27
100
AcDbLine
 10
298.3842135766299
 20
59.00000000000023
 30
0.0
 11
298.3842135766299
 21
29.46597600000016
 31
0.0
  0
LINE
  5
5A0B
330
1E
100
AcDbEntity
  8
0
 48
0.27
100
AcDbLine
 10
319.7342135766299
 20
57.0000000000001
 30
0.0
 11
319.73421357663
 21
0.0
 31
0.0
  0
LINE
  5
5A0C
330
1E
100
AcDbEntity
  8
0
 48
0.27
100
AcDbLine
 10
338.73421357663
 20
55.5
 30
0.0
 11
338.73421357663
 21
0.0
 31
0.0
  0
LINE
  5
5A0D
330
1E
100
AcDbEntity
  8
0
 48
0.27
100
AcDbLine
 10
319.73421357663
 20
55.5
 30
0.0
 11
319.73421357663
 21
0.0
 31
0.0
  0
CIRCLE
  5
5A0E
330
1E
100
AcDbEntity
  8
0
 48
0.27
100
AcDbCircle
 10
330.73421357663
 20
38.0
 30
0.0
 40
0.75
  0
LINE
  5
5A0F
330
1E
100
AcDbEntity
  8
中心線
 48
0.27
100
AcDbLine
 10
325.8695541484486
 20
38.0
 30
0.0
 11
335.5988730048114
 21
38.0
 31
0.0
  0
CIRCLE
  5
5A10
330
1E
100
AcDbEntity
  8
0
 48
0.27
100
AcDbCircle
 10
330.73421357663
 20
38.0
 30
0.0
 40
4.549999999999999
  0
CIRCLE
  5
5A11
330
1E
100
AcDbEntity
  8
0
 48
0.27
100
AcDbCircle
 10
330.73421357663
 20
38.0
 30
0.0
 40
4.25
  0
CIRCLE
  5
5A12
330
1E
100
AcDbEntity
  8
0
 48
0.27
100
AcDbCircle
 10
330.73421357663
 20
38.0
 30
0.0
 40
3.9375
  0
LINE
  5
5A13
330
1E
100
AcDbEntity
  8
0
 48
0.27
100
AcDbLine
 10
319.73421357663
 20
0.0
 30
0.0
 11
338.73421357663
 21
0.0
 31
0.0
  0
LINE
  5
5A14
330
1E
100
AcDbEntity
  8
0
 48
0.27
100
AcDbLine
 10
319.73421357663
 20
52.5
 30
0.0
 11
338.73421357663
 21
52.5
 31
0.0
  0
LINE
  5
5A1D
330
1E
100
AcDbEntity
  8
中心線
 48
0.27
100
AcDbLine
 10
330.73421357663
 20
33.13534057181858
 30
0.0
 11
330.73421357663
 21
42.86465942818142
 31
0.0
  0
LINE
  5
5A1E
330
1E
100
AcDbEntity
  8
0
 48
0.27
100
AcDbLine
 10
319.73421357663
 20
55.5
 30
0.0
 11
338.73421357663
 21
55.5
 31
0.0
  0
LINE
  5
5A25
330
1E
100
AcDbEntity
  8
0
100
AcDbLine
 10
178.0342135766301
 20
0.0
 30
0.0
 11
178.0342135766301
 21
12.19012896766588
 31
0.0
  0
LINE
  5
5A26
330
1E
100
AcDbEntity
  8
0
100
AcDbLine
 10
180.83421357663
 20
0.0
 30
0.0
 11
180.83421357663
 21
55.50000000000006
 31
0.0
  0
LINE
  5
5A27
330
1E
100
AcDbEntity
  8
0
100
AcDbLine
 10
183.0342135766301
 20
3.000000000000056
 30
0.0
 11
180.83421357663
 21
3.000000000000056
 31
0.0
  0
LINE
  5
5A28
330
1E
100
AcDbEntity
  8
0
100
AcDbLine
 10
178.0342135766301
 20
0.0
 30
0.0
 11
183.0342135766301
 21
0.0
 31
0.0
  0
LINE
  5
5A29
330
1E
100
AcDbEntity
  8
0
100
AcDbLine
 10
178.0342135766301
 20
27.51226790750008
 30
0.0
 11
178.0342135766301
 21
32.64999999999992
 31
0.0
  0
LINE
  5
5A2A
330
1E
100
AcDbEntity
  8
中心線
100
AcDbLine
 10
175.8280066825816
 20
15.5
 30
0.0
 11
188.177860184522
 21
15.50000000000006
 31
0.0
  0
LINE
  5
5A2D
330
1E
100
AcDbEntity
  8
0
100
AcDbLine
 10
177.5342135766301
 20
17.48520720059311
 30
0.0
 11
177.5342135766301
 21
13.51479279940698
 31
0.0
  0
LINE
  5
5A30
330
1E
100
AcDbEntity
  8
0
100
AcDbLine
 10
178.0342135766301
 20
32.64999999999992
 30
0.0
 11
180.83421357663
 21
33.89999999999992
 31
0.0
  0
LINE
  5
5A31
330
1E
100
AcDbEntity
  8
0
100
AcDbLine
 10
183.0342135766301
 20
55.50000000000006
 30
0.0
 11
180.83421357663
 21
55.50000000000006
 31
0.0
  0
LINE
  5
5A38
330
1E
100
AcDbEntity
  8
0
100
AcDbLine
 10
343.7342135766298
 20
0.0
 30
0.0
 11
343.7342135766297
 21
12.19012896766564
 31
0.0
  0
LINE
  5
5A39
330
1E
100
AcDbEntity
  8
0
100
AcDbLine
 10
340.9342135766298
 20
0.0
 30
0.0
 11
340.9342135766298
 21
55.50000000000006
 31
0.0
  0
LINE
  5
5A3A
330
1E
100
AcDbEntity
  8
0
100
AcDbLine
 10
338.7342135766298
 20
3.000000000000056
 30
0.0
 11
340.9342135766298
 21
3.000000000000056
 31
0.0
  0
LINE
  5
5A3B
330
1E
100
AcDbEntity
  8
0
100
AcDbLine
 10
343.7342135766298
 20
0.0
 30
0.0
 11
338.7342135766298
 21
0.0
 31
0.0
  0
LINE
  5
5A3C
330
1E
100
AcDbEntity
  8
0
100
AcDbLine
 10
343.7342135766298
 20
27.51226790750008
 30
0.0
 11
343.7342135766298
 21
32.64999999999992
 31
0.0
  0
LINE
  5
5A43
330
1E
100
AcDbEntity
  8
0
100
AcDbLine
 10
343.7342135766298
 20
32.64999999999992
 30
0.0
 11
340.9342135766298
 21
33.89999999999992
 31
0.0
  0
LINE
  5
5A44
330
1E
100
AcDbEntity
  8
0
100
AcDbLine
 10
338.7342135766298
 20
55.50000000000006
 30
0.0
 11
340.9342135766298
 21
55.50000000000006
 31
0.0
  0
LINE
  5
5ACF
330
1E
100
AcDbEntity
  8
中心線
 48
0.27
100
AcDbLine
 10
163.0492862107715
 20
45.00047613027004
 30
0.0
 11
181.8309947760223
 21
45.00045196639518
 31
0.0
  0
LWPOLYLINE
  5
5AD2
330
1E
100
AcDbEntity
  8
0
 48
0.27
100
AcDbPolyline
 90
       31
 70
     0
 43
0.0
 10
167.6451998266301
 20
45.00047387265813
 10
167.6041773266301
 20
45.26329262265815
 10
167.5489935766301
 20
45.39515137265813
 10
167.4702023266301
 20
45.51737512265813
 10
167.3708573266301
 20
45.62251637265814
 10
167.2564935766301
 20
45.70485762265815
 10
167.1340935766301
 20
45.76145887265806
 10
166.9682985766301
 20
45.7976351226581
 10
166.8145373266301
 20
45.79431137265811
 10
166.6808823266301
 20
45.7624288726581
 10
166.5356260766301
 20
45.6927188726581
 10
166.3974135766301
 20
45.58085762265815
 10
166.2871260766301
 20
45.43767012265814
 10
166.2163335766301
 20
45.2878713726582
 10
166.1815198266301
 20
45.15830137265813
 10
166.1669935766301
 20
45.00047387265813
 10
166.2080160766301
 20
44.73765512265818
 10
166.2632010766301
 20
44.60579512265813
 10
166.3419910766301
 20
44.48357262265813
 10
166.4413360766301
 20
44.37843137265812
 10
166.5556998266301
 20
44.29609012265811
 10
166.6780998266301
 20
44.23948887265813
 10
166.8438948266301
 20
44.20331137265809
 10
166.9976560766301
 20
44.20663637265815
 10
167.1313110766301
 20
44.23851762265816
 10
167.2765673266301
 20
44.30822762265816
 10
167.4147798266301
 20
44.42009012265811
 10
167.5250673266301
 20
44.56327637265812
 10
167.5958598266301
 20
44.71307512265814
 10
167.6306748266301
 20
44.84264637265821
 10
167.6451998266301
 20
45.00047387265813
  0
ARC
  5
5AD3
330
1E
100
AcDbEntity
  8
0
 48
0.27
100
AcDbCircle
 10
172.12067107663
 20
45.00047387265816
 30
0.0
 40
4.99999999999996
100
AcDbArc
 50
90.0
 51
131.4096219996006
  0
ARC
  5
5AD4
330
1E
100
AcDbEntity
  8
0
 48
0.27
100
AcDbCircle
 10
172.12067107663
 20
45.00047387265816
 30
0.0
 40
4.99999999999996
100
AcDbArc
 50
228.5903779973005
 51
270.0
  0
LINE
  5
5AD5
330
1E
100
AcDbEntity
  8
0
 48
0.27
100
AcDbLine
 10
180.83421357663
 20
50.00047387265815
 30
0.0
 11
172.12067107663
 21
50.00047387265816
 31
0.0
  0
LINE
  5
5AD7
330
1E
100
AcDbEntity
  8
0
 48
0.27
100
AcDbLine
 10
172.12067107663
 20
40.00047387265816
 30
0.0
 11
180.8342135766301
 21
40.00047387265816
 31
0.0
  0
LINE
  5
5AD9
330
1E
100
AcDbEntity
  8
0
 48
0.27
100
AcDbLine
 10
167.7113748266301
 20
48.75047387265813
 30
0.0
 11
172.58609482663
 21
48.75047387265813
 31
0.0
  0
LINE
  5
5ADA
330
1E
100
AcDbEntity
  8
0
 48
0.27
100
AcDbLine
 10
167.4033835766301
 20
41.82788262265818
 30
0.0
 11
167.7113748266301
 21
41.2504738726582
 31
0.0
  0
LINE
  5
5ADB
330
1E
100
AcDbEntity
  8
0
 48
0.27
100
AcDbLine
 10
167.7113748266301
 20
48.75047387265813
 30
0.0
 11
167.4033835766301
 21
48.17306512265817
 31
0.0
  0
LINE
  5
5ADC
330
1E
100
AcDbEntity
  8
0
 48
0.27
100
AcDbLine
 10
173.71214732663
 20
45.00047387265816
 30
0.0
 11
174.58635232663
 21
45.00047387265816
 31
0.0
  0
LINE
  5
5ADD
330
1E
100
AcDbEntity
  8
0
 48
0.27
100
AcDbLine
 10
172.58609482663
 20
48.75047387265813
 30
0.0
 11
174.58635232663
 21
45.00047387265816
 31
0.0
  0
LINE
  5
5ADE
330
1E
100
AcDbEntity
  8
0
 48
0.27
100
AcDbLine
 10
172.58609482663
 20
41.2504738726582
 30
0.0
 11
167.7113748266301
 21
41.2504738726582
 31
0.0
  0
LINE
  5
5ADF
330
1E
100
AcDbEntity
  8
0
 48
0.27
100
AcDbLine
 10
174.58635232663
 20
45.00047387265816
 30
0.0
 11
172.58609482663
 21
41.2504738726582
 31
0.0
  0
LINE
  5
5AE0
330
1E
100
AcDbEntity
  8
0
 48
0.27
100
AcDbLine
 10
167.8627235766301
 20
48.16239137265815
 30
0.0
 11
168.38580732663
 21
48.46502137265813
 31
0.0
  0
LINE
  5
5AE1
330
1E
100
AcDbEntity
  8
0
 48
0.27
100
AcDbLine
 10
167.8627235766301
 20
41.83855512265823
 30
0.0
 11
168.38580732663
 21
41.53592512265818
 31
0.0
  0
LINE
  5
5AE2
330
1E
100
AcDbEntity
  8
0
 48
0.27
100
AcDbLine
 10
168.38580732663
 20
48.46502137265813
 30
0.0
 11
169.03573232663
 21
48.67841887265808
 31
0.0
  0
LINE
  5
5AE3
330
1E
100
AcDbEntity
  8
0
 48
0.27
100
AcDbLine
 10
168.38580732663
 20
41.53592512265818
 30
0.0
 11
169.03573232663
 21
41.32252887265825
 31
0.0
  0
LINE
  5
5AE4
330
1E
100
AcDbEntity
  8
0
 48
0.27
100
AcDbLine
 10
169.03573232663
 20
48.67841887265808
 30
0.0
 11
169.7116323266301
 21
48.75047387265813
 31
0.0
  0
LINE
  5
5AE5
330
1E
100
AcDbEntity
  8
0
 48
0.27
100
AcDbLine
 10
169.03573232663
 20
41.32252887265825
 30
0.0
 11
169.7116323266301
 21
41.2504738726582
 31
0.0
  0
LINE
  5
5AE6
330
1E
100
AcDbEntity
  8
0
 48
0.27
100
AcDbLine
 10
169.7116323266301
 20
48.75047387265813
 30
0.0
 11
170.3875323266301
 21
48.67841887265808
 31
0.0
  0
LINE
  5
5AE7
330
1E
100
AcDbEntity
  8
0
 48
0.27
100
AcDbLine
 10
169.7116323266301
 20
41.2504738726582
 30
0.0
 11
170.3875323266301
 21
41.32252887265825
 31
0.0
  0
LINE
  5
5AE8
330
1E
100
AcDbEntity
  8
0
 48
0.27
100
AcDbLine
 10
170.3875323266301
 20
48.67841887265808
 30
0.0
 11
171.03745732663
 21
48.46502137265813
 31
0.0
  0
LINE
  5
5AE9
330
1E
100
AcDbEntity
  8
0
 48
0.27
100
AcDbLine
 10
170.3875323266301
 20
41.32252887265825
 30
0.0
 11
171.03745732663
 21
41.53592512265818
 31
0.0
  0
LINE
  5
5AEA
330
1E
100
AcDbEntity
  8
0
 48
0.27
100
AcDbLine
 10
171.03745732663
 20
48.46502137265813
 30
0.0
 11
171.6364323266301
 21
48.11848512265815
 31
0.0
  0
LINE
  5
5AEB
330
1E
100
AcDbEntity
  8
0
 48
0.27
100
AcDbLine
 10
171.03745732663
 20
41.53592512265818
 30
0.0
 11
171.6364323266301
 21
41.88246262265818
 31
0.0
  0
LINE
  5
5AEC
330
1E
100
AcDbEntity
  8
0
 48
0.27
100
AcDbLine
 10
171.6364323266301
 20
48.11848512265815
 30
0.0
 11
172.1614373266301
 21
47.65212387265816
 31
0.0
  0
LINE
  5
5AED
330
1E
100
AcDbEntity
  8
0
 48
0.27
100
AcDbLine
 10
171.6364323266301
 20
41.88246262265818
 30
0.0
 11
172.1614373266301
 21
42.34882262265815
 31
0.0
  0
LINE
  5
5AEE
330
1E
100
AcDbEntity
  8
0
 48
0.27
100
AcDbLine
 10
171.71188982663
 20
48.75047387265813
 30
0.0
 11
173.71214732663
 21
45.00047387265816
 31
0.0
  0
LINE
  5
5AEF
330
1E
100
AcDbEntity
  8
0
 48
0.27
100
AcDbLine
 10
173.71214732663
 20
45.00047387265816
 30
0.0
 11
171.71188982663
 21
41.2504738726582
 31
0.0
  0
LINE
  5
5AF0
330
1E
100
AcDbEntity
  8
0
 48
0.27
100
AcDbLine
 10
172.1614373266301
 20
47.65212387265816
 30
0.0
 11
172.5922985766301
 21
47.08386137265816
 31
0.0
  0
LINE
  5
5AF1
330
1E
100
AcDbEntity
  8
0
 48
0.27
100
AcDbLine
 10
172.5922985766301
 20
42.91708512265815
 30
0.0
 11
172.1614373266301
 21
42.34882262265815
 31
0.0
  0
LINE
  5
5AF2
330
1E
100
AcDbEntity
  8
0
 48
0.27
100
AcDbLine
 10
172.5922985766301
 20
47.08386137265816
 30
0.0
 11
172.91245732663
 21
46.43553637265815
 31
0.0
  0
LINE
  5
5AF3
330
1E
100
AcDbEntity
  8
0
 48
0.27
100
AcDbLine
 10
172.91245732663
 20
43.56541012265823
 30
0.0
 11
172.5922985766301
 21
42.91708512265815
 31
0.0
  0
LINE
  5
5AF4
330
1E
100
AcDbEntity
  8
0
 48
0.27
100
AcDbLine
 10
172.91245732663
 20
46.43553637265815
 30
0.0
 11
173.10960982663
 21
45.7320626226582
 31
0.0
  0
LINE
  5
5AF5
330
1E
100
AcDbEntity
  8
0
 48
0.27
100
AcDbLine
 10
173.10960982663
 20
44.26888512265811
 30
0.0
 11
172.91245732663
 21
43.56541012265823
 31
0.0
  0
LINE
  5
5AF6
330
1E
100
AcDbEntity
  8
0
 48
0.27
100
AcDbLine
 10
173.10960982663
 20
45.7320626226582
 30
0.0
 11
173.17617982663
 21
45.00047387265816
 31
0.0
  0
LINE
  5
5AF7
330
1E
100
AcDbEntity
  8
0
 48
0.27
100
AcDbLine
 10
173.17617982663
 20
45.00047387265816
 30
0.0
 11
173.10960982663
 21
44.26888512265811
 31
0.0
  0
LINE
  5
5AF8
330
1E
100
AcDbEntity
  8
0
 48
0.27
100
AcDbLine
 10
166.0817610766301
 20
47.05075762265811
 30
0.0
 11
166.0854748266301
 21
47.04873887265816
 31
0.0
  0
LINE
  5
5AF9
330
1E
100
AcDbEntity
  8
0
 48
0.27
100
AcDbLine
 10
166.0817610766301
 20
42.95018887265818
 30
0.0
 11
166.0854748266301
 21
42.95220887265817
 31
0.0
  0
LINE
  5
5AFA
330
1E
100
AcDbEntity
  8
0
 48
0.27
100
AcDbLine
 10
164.6908735766301
 20
45.62315137265817
 30
0.0
 11
164.6342135766301
 21
45.00047387265816
 31
0.0
  0
LINE
  5
5AFB
330
1E
100
AcDbEntity
  8
0
 48
0.27
100
AcDbLine
 10
164.8586760766301
 20
46.22189887265816
 30
0.0
 11
164.6908735766301
 21
45.62315137265817
 31
0.0
  0
LINE
  5
5AFC
330
1E
100
AcDbEntity
  8
0
 48
0.27
100
AcDbLine
 10
164.6342135766301
 20
45.00047387265816
 30
0.0
 11
164.6908735766301
 21
44.37779637265816
 31
0.0
  0
LINE
  5
5AFD
330
1E
100
AcDbEntity
  8
0
 48
0.27
100
AcDbLine
 10
165.1311723266301
 20
46.77370887265816
 30
0.0
 11
164.8586760766301
 21
46.22189887265816
 31
0.0
  0
LINE
  5
5AFE
330
1E
100
AcDbEntity
  8
0
 48
0.27
100
AcDbLine
 10
164.6908735766301
 20
44.37779637265816
 30
0.0
 11
164.8586760766301
 21
43.77904762265815
 31
0.0
  0
LINE
  5
5AFF
330
1E
100
AcDbEntity
  8
0
 48
0.27
100
AcDbLine
 10
165.4978923266301
 20
47.2573738726582
 30
0.0
 11
165.1311723266301
 21
46.77370887265816
 31
0.0
  0
LINE
  5
5B00
330
1E
100
AcDbEntity
  8
0
 48
0.27
100
AcDbLine
 10
164.8586760766301
 20
43.77904762265815
 30
0.0
 11
165.1311723266301
 21
43.22723887265816
 31
0.0
  0
LINE
  5
5B01
330
1E
100
AcDbEntity
  8
0
 48
0.27
100
AcDbLine
 10
165.4978923266301
 20
47.2573738726582
 30
0.0
 11
165.9447398266301
 21
47.65430762265815
 31
0.0
  0
LINE
  5
5B02
330
1E
100
AcDbEntity
  8
0
 48
0.27
100
AcDbLine
 10
165.1311723266301
 20
43.22723887265816
 30
0.0
 11
165.4978923266301
 21
42.74357387265813
 31
0.0
  0
LINE
  5
5B03
330
1E
100
AcDbEntity
  8
0
 48
0.27
100
AcDbLine
 10
164.8767523266301
 20
45.43739387265818
 30
0.0
 11
164.8369948266301
 21
45.00047387265816
 31
0.0
  0
LINE
  5
5B04
330
1E
100
AcDbEntity
  8
0
 48
0.27
100
AcDbLine
 10
164.9944960766301
 20
45.85752387265817
 30
0.0
 11
164.8767523266301
 21
45.43739387265818
 31
0.0
  0
LINE
  5
5B05
330
1E
100
AcDbEntity
  8
0
 48
0.27
100
AcDbLine
 10
164.8369948266301
 20
45.00047387265816
 30
0.0
 11
164.8767523266301
 21
44.56355387265817
 31
0.0
  0
LINE
  5
5B06
330
1E
100
AcDbEntity
  8
0
 48
0.27
100
AcDbLine
 10
165.1857010766301
 20
46.24471762265814
 30
0.0
 11
164.9944960766301
 21
45.85752387265817
 31
0.0
  0
LINE
  5
5B07
330
1E
100
AcDbEntity
  8
0
 48
0.27
100
AcDbLine
 10
164.8767523266301
 20
44.56355387265817
 30
0.0
 11
164.9944960766301
 21
44.14342387265816
 31
0.0
  0
LINE
  5
5B08
330
1E
100
AcDbEntity
  8
0
 48
0.27
100
AcDbLine
 10
165.9447398266301
 20
47.65430762265815
 30
0.0
 11
166.4545460766301
 21
47.94925637265812
 31
0.0
  0
LINE
  5
5B09
330
1E
100
AcDbEntity
  8
0
 48
0.27
100
AcDbLine
 10
165.4978923266301
 20
42.74357387265813
 30
0.0
 11
165.9447398266301
 21
42.34664012265817
 31
0.0
  0
LINE
  5
5B0A
330
1E
100
AcDbEntity
  8
0
 48
0.27
100
AcDbLine
 10
165.4430210766301
 20
46.58409512265817
 30
0.0
 11
165.1857010766301
 21
46.24471762265814
 31
0.0
  0
LINE
  5
5B0B
330
1E
100
AcDbEntity
  8
0
 48
0.27
100
AcDbLine
 10
164.9944960766301
 20
44.14342387265816
 30
0.0
 11
165.1857010766301
 21
43.75623012265821
 31
0.0
  0
LINE
  5
5B0C
330
1E
100
AcDbEntity
  8
0
 48
0.27
100
AcDbLine
 10
166.4545460766301
 20
47.94925637265812
 30
0.0
 11
167.0077173266301
 21
48.13088387265809
 31
0.0
  0
LINE
  5
5B0D
330
1E
100
AcDbEntity
  8
0
 48
0.27
100
AcDbLine
 10
165.9447398266301
 20
42.34664012265817
 30
0.0
 11
166.4545460766301
 21
42.05169137265817
 31
0.0
  0
LINE
  5
5B0E
330
1E
100
AcDbEntity
  8
0
 48
0.27
100
AcDbLine
 10
165.4430210766301
 20
46.58409512265817
 30
0.0
 11
165.7565648266301
 21
46.86261637265812
 31
0.0
  0
LINE
  5
5B0F
330
1E
100
AcDbEntity
  8
0
 48
0.27
100
AcDbLine
 10
165.1857010766301
 20
43.75623012265821
 30
0.0
 11
165.4430210766301
 21
43.41685137265824
 31
0.0
  0
LINE
  5
5B10
330
1E
100
AcDbEntity
  8
0
 48
0.27
100
AcDbLine
 10
167.0077173266301
 20
48.13088387265809
 30
0.0
 11
167.5829960766301
 21
48.19221262265815
 31
0.0
  0
LINE
  5
5B11
330
1E
100
AcDbEntity
  8
0
 48
0.27
100
AcDbLine
 10
166.4545460766301
 20
42.05169137265817
 30
0.0
 11
167.0077173266301
 21
41.87006262265815
 31
0.0
  0
LINE
  5
5B12
330
1E
100
AcDbEntity
  8
0
 48
0.27
100
AcDbLine
 10
165.7565648266301
 20
46.86261637265812
 30
0.0
 11
166.1142860766301
 21
47.06957512265809
 31
0.0
  0
LINE
  5
5B13
330
1E
100
AcDbEntity
  8
0
 48
0.27
100
AcDbLine
 10
165.4430210766301
 20
43.41685137265824
 30
0.0
 11
165.7565648266301
 21
43.13833137265821
 31
0.0
  0
LINE
  5
5B14
330
1E
100
AcDbEntity
  8
0
 48
0.27
100
AcDbLine
 10
168.3388198266301
 20
48.09670012265813
 30
0.0
 11
168.8859498266301
 21
47.91705512265811
 31
0.0
  0
LINE
  5
5B15
330
1E
100
AcDbEntity
  8
0
 48
0.27
100
AcDbLine
 10
166.1142860766301
 20
47.06957512265809
 30
0.0
 11
166.5024348266301
 21
47.19702012265814
 31
0.0
  0
LINE
  5
5B16
330
1E
100
AcDbEntity
  8
0
 48
0.27
100
AcDbLine
 10
165.7565648266301
 20
43.13833137265821
 30
0.0
 11
166.1142860766301
 21
42.9313713726582
 31
0.0
  0
LINE
  5
5B17
330
1E
100
AcDbEntity
  8
0
 48
0.27
100
AcDbLine
 10
168.1582748266301
 20
48.13088387265809
 30
0.0
 11
168.3388198266301
 21
48.09670012265813
 31
0.0
  0
LINE
  5
5B18
330
1E
100
AcDbEntity
  8
0
 48
0.27
100
AcDbLine
 10
167.5829960766301
 20
48.19221262265815
 30
0.0
 11
168.1582748266301
 21
48.13088387265809
 31
0.0
  0
LINE
  5
5B19
330
1E
100
AcDbEntity
  8
0
 48
0.27
100
AcDbLine
 10
167.0077173266301
 20
41.87006262265815
 30
0.0
 11
167.5829960766301
 21
41.8087351226582
 31
0.0
  0
LINE
  5
5B1A
330
1E
100
AcDbEntity
  8
0
 48
0.27
100
AcDbLine
 10
168.8859498266301
 20
47.91705512265811
 30
0.0
 11
169.3901885766301
 21
47.62532762265813
 31
0.0
  0
LINE
  5
5B1B
330
1E
100
AcDbEntity
  8
0
 48
0.27
100
AcDbLine
 10
168.3388198266301
 20
41.90424762265822
 30
0.0
 11
168.8859498266301
 21
42.08389262265822
 31
0.0
  0
LINE
  5
5B1C
330
1E
100
AcDbEntity
  8
0
 48
0.27
100
AcDbLine
 10
169.3901885766301
 20
47.62532762265813
 30
0.0
 11
169.8321573266301
 21
47.23272887265814
 31
0.0
  0
LINE
  5
5B1D
330
1E
100
AcDbEntity
  8
0
 48
0.27
100
AcDbLine
 10
168.8859498266301
 20
42.08389262265822
 30
0.0
 11
169.3901885766301
 21
42.37562012265819
 31
0.0
  0
LINE
  5
5B1E
330
1E
100
AcDbEntity
  8
0
 48
0.27
100
AcDbLine
 10
166.5024348266301
 20
47.19702012265814
 30
0.0
 11
166.9060973266301
 21
47.24005262265817
 31
0.0
  0
LINE
  5
5B1F
330
1E
100
AcDbEntity
  8
0
 48
0.27
100
AcDbLine
 10
166.1142860766301
 20
42.9313713726582
 30
0.0
 11
166.5024348266301
 21
42.80392637265816
 31
0.0
  0
LINE
  5
5B20
330
1E
100
AcDbEntity
  8
0
 48
0.27
100
AcDbLine
 10
168.1582748266301
 20
48.13088387265809
 30
0.0
 11
168.7114460766301
 21
47.94925637265812
 31
0.0
  0
LINE
  5
5B21
330
1E
100
AcDbEntity
  8
0
 48
0.27
100
AcDbLine
 10
168.1582748266301
 20
41.87006262265815
 30
0.0
 11
168.3388198266301
 21
41.90424762265822
 31
0.0
  0
LINE
  5
5B22
330
1E
100
AcDbEntity
  8
0
 48
0.27
100
AcDbLine
 10
167.5829960766301
 20
41.8087351226582
 30
0.0
 11
168.1582748266301
 21
41.87006262265815
 31
0.0
  0
LINE
  5
5B23
330
1E
100
AcDbEntity
  8
0
 48
0.27
100
AcDbLine
 10
169.8321573266301
 20
47.23272887265814
 30
0.0
 11
170.1948710766301
 21
46.75434512265813
 31
0.0
  0
LINE
  5
5B24
330
1E
100
AcDbEntity
  8
0
 48
0.27
100
AcDbLine
 10
169.3901885766301
 20
42.37562012265819
 30
0.0
 11
169.8321573266301
 21
42.76821887265815
 31
0.0
  0
LINE
  5
5B25
330
1E
100
AcDbEntity
  8
0
 48
0.27
100
AcDbLine
 10
166.9060973266301
 20
47.24005262265817
 30
0.0
 11
167.3097585766301
 21
47.19702012265814
 31
0.0
  0
LINE
  5
5B26
330
1E
100
AcDbEntity
  8
0
 48
0.27
100
AcDbLine
 10
166.5024348266301
 20
42.80392637265816
 30
0.0
 11
166.9060973266301
 21
42.7608938726582
 31
0.0
  0
LINE
  5
5B27
330
1E
100
AcDbEntity
  8
0
 48
0.27
100
AcDbLine
 10
168.7114460766301
 20
47.94925637265812
 30
0.0
 11
169.2212510766301
 21
47.65430762265815
 31
0.0
  0
LINE
  5
5B28
330
1E
100
AcDbEntity
  8
0
 48
0.27
100
AcDbLine
 10
168.1582748266301
 20
41.87006262265815
 30
0.0
 11
168.7114460766301
 21
42.05169137265817
 31
0.0
  0
LINE
  5
5B29
330
1E
100
AcDbEntity
  8
0
 48
0.27
100
AcDbLine
 10
170.1948710766301
 20
46.75434512265813
 30
0.0
 11
170.4643923266301
 21
46.20856137265815
 31
0.0
  0
LINE
  5
5B2A
330
1E
100
AcDbEntity
  8
0
 48
0.27
100
AcDbLine
 10
170.1948710766301
 20
43.2466026226582
 30
0.0
 11
169.8321573266301
 21
42.76821887265815
 31
0.0
  0
LINE
  5
5B2B
330
1E
100
AcDbEntity
  8
0
 48
0.27
100
AcDbLine
 10
170.4643923266301
 20
46.20856137265815
 30
0.0
 11
170.63036232663
 21
45.61635137265817
 31
0.0
  0
LINE
  5
5B2C
330
1E
100
AcDbEntity
  8
0
 48
0.27
100
AcDbLine
 10
170.4643923266301
 20
43.79238637265818
 30
0.0
 11
170.1948710766301
 21
43.2466026226582
 31
0.0
  0
LINE
  5
5B2D
330
1E
100
AcDbEntity
  8
0
 48
0.27
100
AcDbLine
 10
169.2212510766301
 20
47.65430762265815
 30
0.0
 11
169.66809982663
 21
47.2573738726582
 31
0.0
  0
LINE
  5
5B2E
330
1E
100
AcDbEntity
  8
0
 48
0.27
100
AcDbLine
 10
168.7114460766301
 20
42.05169137265817
 30
0.0
 11
169.2212510766301
 21
42.34664012265817
 31
0.0
  0
LINE
  5
5B2F
330
1E
100
AcDbEntity
  8
0
 48
0.27
100
AcDbLine
 10
170.63036232663
 20
45.61635137265817
 30
0.0
 11
170.6864035766301
 21
45.00047387265816
 31
0.0
  0
LINE
  5
5B30
330
1E
100
AcDbEntity
  8
0
 48
0.27
100
AcDbLine
 10
170.63036232663
 20
44.38459637265815
 30
0.0
 11
170.4643923266301
 21
43.79238637265818
 31
0.0
  0
LINE
  5
5B31
330
1E
100
AcDbEntity
  8
0
 48
0.27
100
AcDbLine
 10
167.3097585766301
 20
47.19702012265814
 30
0.0
 11
167.6979073266301
 21
47.06957512265809
 31
0.0
  0
LINE
  5
5B32
330
1E
100
AcDbEntity
  8
0
 48
0.27
100
AcDbLine
 10
166.9060973266301
 20
42.7608938726582
 30
0.0
 11
167.3097585766301
 21
42.80392637265816
 31
0.0
  0
LINE
  5
5B33
330
1E
100
AcDbEntity
  8
0
 48
0.27
100
AcDbLine
 10
170.6864035766301
 20
45.00047387265816
 30
0.0
 11
170.63036232663
 21
44.38459637265815
 31
0.0
  0
LINE
  5
5B34
330
1E
100
AcDbEntity
  8
0
 48
0.27
100
AcDbLine
 10
169.66809982663
 20
47.2573738726582
 30
0.0
 11
170.03481857663
 21
46.77370887265816
 31
0.0
  0
LINE
  5
5B35
330
1E
100
AcDbEntity
  8
0
 48
0.27
100
AcDbLine
 10
169.2212510766301
 20
42.34664012265817
 30
0.0
 11
169.66809982663
 21
42.74357387265813
 31
0.0
  0
LINE
  5
5B36
330
1E
100
AcDbEntity
  8
0
 48
0.27
100
AcDbLine
 10
167.6979073266301
 20
47.06957512265809
 30
0.0
 11
168.0556285766301
 21
46.86261637265812
 31
0.0
  0
LINE
  5
5B37
330
1E
100
AcDbEntity
  8
0
 48
0.27
100
AcDbLine
 10
167.3097585766301
 20
42.80392637265816
 30
0.0
 11
167.6979073266301
 21
42.9313713726582
 31
0.0
  0
LINE
  5
5B38
330
1E
100
AcDbEntity
  8
0
 48
0.27
100
AcDbLine
 10
170.03481857663
 20
46.77370887265816
 30
0.0
 11
170.3073148266301
 21
46.22189887265816
 31
0.0
  0
LINE
  5
5B39
330
1E
100
AcDbEntity
  8
0
 48
0.27
100
AcDbLine
 10
170.03481857663
 20
43.22723887265816
 30
0.0
 11
169.66809982663
 21
42.74357387265813
 31
0.0
  0
LINE
  5
5B3A
330
1E
100
AcDbEntity
  8
0
 48
0.27
100
AcDbLine
 10
170.3073148266301
 20
46.22189887265816
 30
0.0
 11
170.47511857663
 21
45.62315137265817
 31
0.0
  0
LINE
  5
5B3B
330
1E
100
AcDbEntity
  8
0
 48
0.27
100
AcDbLine
 10
170.3073148266301
 20
43.77904762265815
 30
0.0
 11
170.03481857663
 21
43.22723887265816
 31
0.0
  0
LINE
  5
5B3C
330
1E
100
AcDbEntity
  8
0
 48
0.27
100
AcDbLine
 10
168.0556285766301
 20
46.86261637265812
 30
0.0
 11
168.3691723266301
 21
46.58409512265817
 31
0.0
  0
LINE
  5
5B3D
330
1E
100
AcDbEntity
  8
0
 48
0.27
100
AcDbLine
 10
167.6979073266301
 20
42.9313713726582
 30
0.0
 11
168.0556285766301
 21
43.13833137265821
 31
0.0
  0
LINE
  5
5B3E
330
1E
100
AcDbEntity
  8
0
 48
0.27
100
AcDbLine
 10
170.47511857663
 20
45.62315137265817
 30
0.0
 11
170.5317785766301
 21
45.00047387265816
 31
0.0
  0
LINE
  5
5B3F
330
1E
100
AcDbEntity
  8
0
 48
0.27
100
AcDbLine
 10
170.47511857663
 20
44.37779637265816
 30
0.0
 11
170.3073148266301
 21
43.77904762265815
 31
0.0
  0
LINE
  5
5B40
330
1E
100
AcDbEntity
  8
0
 48
0.27
100
AcDbLine
 10
170.5317785766301
 20
45.00047387265816
 30
0.0
 11
170.47511857663
 21
44.37779637265816
 31
0.0
  0
LINE
  5
5B41
330
1E
100
AcDbEntity
  8
0
 48
0.27
100
AcDbLine
 10
168.3691723266301
 20
46.58409512265817
 30
0.0
 11
168.62649232663
 21
46.24471762265814
 31
0.0
  0
LINE
  5
5B42
330
1E
100
AcDbEntity
  8
0
 48
0.27
100
AcDbLine
 10
168.0556285766301
 20
43.13833137265821
 30
0.0
 11
168.3691723266301
 21
43.41685137265824
 31
0.0
  0
LINE
  5
5B43
330
1E
100
AcDbEntity
  8
0
 48
0.27
100
AcDbLine
 10
168.62649232663
 20
46.24471762265814
 30
0.0
 11
168.81769732663
 21
45.85752387265817
 31
0.0
  0
LINE
  5
5B44
330
1E
100
AcDbEntity
  8
0
 48
0.27
100
AcDbLine
 10
168.62649232663
 20
43.75623012265821
 30
0.0
 11
168.3691723266301
 21
43.41685137265824
 31
0.0
  0
LINE
  5
5B45
330
1E
100
AcDbEntity
  8
0
 48
0.27
100
AcDbLine
 10
168.81769732663
 20
45.85752387265817
 30
0.0
 11
168.9354410766301
 21
45.43739387265818
 31
0.0
  0
LINE
  5
5B46
330
1E
100
AcDbEntity
  8
0
 48
0.27
100
AcDbLine
 10
168.81769732663
 20
44.14342387265816
 30
0.0
 11
168.62649232663
 21
43.75623012265821
 31
0.0
  0
LINE
  5
5B47
330
1E
100
AcDbEntity
  8
0
 48
0.27
100
AcDbLine
 10
168.9354410766301
 20
45.43739387265818
 30
0.0
 11
168.97519857663
 21
45.00047387265816
 31
0.0
  0
LINE
  5
5B48
330
1E
100
AcDbEntity
  8
0
 48
0.27
100
AcDbLine
 10
168.9354410766301
 20
44.56355387265817
 30
0.0
 11
168.81769732663
 21
44.14342387265816
 31
0.0
  0
LINE
  5
5B49
330
1E
100
AcDbEntity
  8
0
 48
0.27
100
AcDbLine
 10
168.97519857663
 20
45.00047387265816
 30
0.0
 11
168.9354410766301
 21
44.56355387265817
 31
0.0
  0
ARC
  5
5B4B
330
1E
100
AcDbEntity
  8
0
 48
0.27
100
AcDbCircle
 10
180.4987348266299
 20
42.50047387265825
 30
0.0
 40
3.69263874999997
100
AcDbArc
 50
137.3889352727305
 51
222.6114069976012
  0
ARC
  5
5BCC
330
1E
100
AcDbEntity
  8
0
 48
0.27
100
AcDbCircle
 10
-4.454511616577065
 20
45.00000000000103
 30
0.0
 40
6.562501095937681
100
AcDbArc
 50
30.24329777399994
 51
329.7566907592999
  0
LWPOLYLINE
  5
5BCD
330
1E
100
AcDbEntity
  8
0
 48
0.27
100
AcDbPolyline
 90
       17
 70
     0
 43
0.0
 10
6.735099911213051
 20
45.00000000000102
 10
6.777035294966303
 20
44.72870340156947
 10
6.818149038332277
 20
44.65007309593825
 10
6.863861963216301
 20
44.61314604389641
 10
6.906333417059055
 20
44.61353014396057
 10
6.951949481926952
 20
44.65128551626571
 10
6.991129364720011
 20
44.72599800061767
 10
7.027862696729474
 20
44.88858925364541
 10
7.034071758766387
 20
45.00000000000102
 10
6.992138045013449
 20
45.27129492843226
 10
6.951022631647127
 20
45.34992523406354
 10
6.905309706763103
 20
45.38685228610535
 10
6.862839922920661
 20
45.38646818591619
 10
6.817222188052488
 20
45.34871281361105
 10
6.778043975259706
 20
45.27400032925907
 10
6.741308973249966
 20
45.11140907635633
 10
6.735099911213051
 20
45.00000000000102
  0
ARC
  5
5BCE
330
1E
100
AcDbEntity
  8
0
 48
0.27
100
AcDbCircle
 10
-4.454511616577065
 20
45.00000000000103
 30
0.0
 40
5.0
100
AcDbArc
 50
48.59037799889986
 51
311.4096220031998
  0
LINE
  5
5BCF
330
1E
100
AcDbEntity
  8
0
 48
0.27
100
AcDbLine
 10
-0.8460713002175488
 20
48.74999958250094
 30
0.0
 11
-1.567760365489608
 21
50.00000000000102
 31
0.0
  0
LINE
  5
5BD0
330
1E
100
AcDbEntity
  8
0
 48
0.27
100
AcDbLine
 10
-7.341262867664532
 20
50.00000000000102
 30
0.0
 11
-1.567760365489608
 21
50.00000000000102
 31
0.0
  0
LINE
  5
5BD1
330
1E
100
AcDbEntity
  8
0
 48
0.27
100
AcDbLine
 10
-7.341262867664532
 20
50.00000000000102
 30
0.0
 11
-10.22801411875198
 21
45.00000000000103
 31
0.0
  0
LINE
  5
5BD2
330
1E
100
AcDbEntity
  8
0
 48
0.27
100
AcDbLine
 10
-10.22801411875198
 20
45.00000000000103
 30
0.0
 11
-7.341262867664532
 21
39.99999833000074
 31
0.0
  0
LINE
  5
5BD3
330
1E
100
AcDbEntity
  8
0
 48
0.27
100
AcDbLine
 10
-1.567758695489331
 20
39.99999833000074
 30
0.0
 11
-7.341262867664532
 21
39.99999833000074
 31
0.0
  0
LINE
  5
5BD4
330
1E
100
AcDbEntity
  8
0
 48
0.27
100
AcDbLine
 10
-0.8460713002175488
 20
41.2499987475008
 30
0.0
 11
-1.567758695489331
 21
39.99999833000074
 31
0.0
  0
LINE
  5
5BD5
330
1E
100
AcDbEntity
  8
0
 48
0.27
100
AcDbLine
 10
-2.827628816137632
 20
41.2499987475008
 30
0.0
 11
0.9399575420492638
 21
41.2499987475008
 31
0.0
  0
LINE
  5
5BD6
330
1E
100
AcDbEntity
  8
0
 48
0.27
100
AcDbLine
 10
1.018581167679425
 20
48.39414083644754
 30
0.0
 11
0.9399575420492638
 21
48.74999958250094
 31
0.0
  0
LINE
  5
5BD7
330
1E
100
AcDbEntity
  8
0
 48
0.27
100
AcDbLine
 10
0.9399575420492638
 20
41.2499987475008
 30
0.0
 11
1.018581167679425
 21
41.60585749355422
 31
0.0
  0
LINE
  5
5BD8
330
1E
100
AcDbEntity
  8
0
 48
0.27
100
AcDbLine
 10
-2.827628816137632
 20
48.74999958250094
 30
0.0
 11
0.9399575420492638
 21
48.74999958250094
 31
0.0
  0
LINE
  5
5BD9
330
1E
100
AcDbEntity
  8
0
 48
0.27
100
AcDbLine
 10
0.3913907531886274
 20
41.32205426103409
 30
0.0
 11
2.893649428940818
 21
42.45432298012295
 31
0.0
  0
LINE
  5
5BDA
330
1E
100
AcDbEntity
  8
0
 48
0.27
100
AcDbLine
 10
7.725168084054409
 20
44.56307942753527
 30
0.0
 11
7.741635959429579
 21
45.00000000000103
 31
0.0
  0
LINE
  5
5BDB
330
1E
100
AcDbEntity
  8
0
 48
0.27
100
AcDbLine
 10
7.676397388159752
 20
44.1429490406235
 30
0.0
 11
7.725168084054409
 21
44.56307942753527
 31
0.0
  0
LINE
  5
5BDC
330
1E
100
AcDbEntity
  8
0
 48
0.27
100
AcDbLine
 10
7.741635959429579
 20
45.00000000000103
 30
0.0
 11
7.725168084054409
 21
45.43692057246675
 31
0.0
  0
LINE
  5
5BDD
330
1E
100
AcDbEntity
  8
0
 48
0.27
100
AcDbLine
 10
0.1114235119340989
 20
41.2499987475008
 30
0.0
 11
0.3913907531886274
 21
41.32205426103409
 31
0.0
  0
LINE
  5
5BDE
330
1E
100
AcDbEntity
  8
0
 48
0.27
100
AcDbLine
 10
0.1114235119340989
 20
48.74999958250094
 30
0.0
 11
0.3913907531886274
 21
48.67794406896767
 31
0.0
  0
LINE
  5
5BDF
330
1E
100
AcDbEntity
  8
0
 48
0.27
100
AcDbLine
 10
0.3913907531886274
 20
48.67794406896767
 30
0.0
 11
2.893649428940818
 21
47.5456753498788
 31
0.0
  0
LINE
  5
5BE0
330
1E
100
AcDbEntity
  8
0
 48
0.27
100
AcDbLine
 10
7.597197612308377
 20
43.75575607433727
 30
0.0
 11
7.676397388159752
 21
44.1429490406235
 31
0.0
  0
LINE
  5
5BE1
330
1E
100
AcDbEntity
  8
0
 48
0.27
100
AcDbLine
 10
7.725168084054409
 20
45.43692057246675
 30
0.0
 11
7.676397388159752
 21
45.85704928937825
 31
0.0
  0
LINE
  5
5BE2
330
1E
100
AcDbEntity
  8
0
 48
0.27
100
AcDbLine
 10
7.490611497508478
 20
43.41637689378596
 30
0.0
 11
7.597197612308377
 21
43.75575607433727
 31
0.0
  0
LINE
  5
5BE3
330
1E
100
AcDbEntity
  8
0
 48
0.27
100
AcDbLine
 10
6.541418258118191
 20
42.95211340237896
 30
0.0
 11
6.543791328889511
 21
42.95327405269778
 31
0.0
  0
LINE
  5
5BE4
330
1E
100
AcDbEntity
  8
0
 48
0.27
100
AcDbLine
 10
7.676397388159752
 20
45.85704928937825
 30
0.0
 11
7.597197612308377
 21
46.24424392566476
 31
0.0
  0
LINE
  5
5BE5
330
1E
100
AcDbEntity
  8
0
 48
0.27
100
AcDbLine
 10
-0.1685437293204295
 20
41.32205426103409
 30
0.0
 11
0.1114235119340989
 21
41.2499987475008
 31
0.0
  0
LINE
  5
5BE6
330
1E
100
AcDbEntity
  8
0
 48
0.27
100
AcDbLine
 10
-0.1685437293204295
 20
48.67794406896767
 30
0.0
 11
0.1114235119340989
 21
48.74999958250094
 31
0.0
  0
LINE
  5
5BE7
330
1E
100
AcDbEntity
  8
0
 48
0.27
100
AcDbLine
 10
7.360737225194494
 20
43.13785587289795
 30
0.0
 11
7.490611497508478
 21
43.41637689378596
 31
0.0
  0
LINE
  5
5BE8
330
1E
100
AcDbEntity
  8
0
 48
0.27
100
AcDbLine
 10
7.597197612308377
 20
46.24424392566476
 30
0.0
 11
7.490611497508478
 21
46.58362143621579
 31
0.0
  0
LINE
  5
5BE9
330
1E
100
AcDbEntity
  8
0
 48
0.27
100
AcDbLine
 10
2.893649428940818
 20
42.45432298012295
 30
0.0
 11
3.195052797150161
 21
42.57732687016463
 31
0.0
  0
LINE
  5
5BEA
330
1E
100
AcDbEntity
  8
0
 48
0.27
100
AcDbLine
 10
2.893649428940818
 20
47.5456753498788
 30
0.0
 11
3.195052797150161
 21
47.42267312983742
 31
0.0
  0
LINE
  5
5BEB
330
1E
100
AcDbEntity
  8
0
 48
0.27
100
AcDbLine
 10
7.212564756949689
 20
42.93089771546094
 30
0.0
 11
7.360737225194494
 21
43.13785587289795
 31
0.0
  0
LINE
  5
5BEC
330
1E
100
AcDbEntity
  8
0
 48
0.27
100
AcDbLine
 10
7.490611497508478
 20
46.58362143621579
 30
0.0
 11
7.360737225194494
 21
46.86214245710383
 31
0.0
  0
LINE
  5
5BED
330
1E
100
AcDbEntity
  8
0
 48
0.27
100
AcDbLine
 10
-0.4377511571530804
 20
41.53545027054621
 30
0.0
 11
-0.1685437293204295
 21
41.32205426103409
 31
0.0
  0
LINE
  5
5BEE
330
1E
100
AcDbEntity
  8
0
 48
0.27
100
AcDbLine
 10
-0.4377511571530804
 20
48.46454805945555
 30
0.0
 11
-0.1685437293204295
 21
48.67794406896767
 31
0.0
  0
LINE
  5
5BEF
330
1E
100
AcDbEntity
  8
0
 48
0.27
100
AcDbLine
 10
3.195052797150161
 20
42.57732687016463
 30
0.0
 11
3.463707454765504
 21
42.56591742650923
 31
0.0
  0
LINE
  5
5BF0
330
1E
100
AcDbEntity
  8
0
 48
0.27
100
AcDbLine
 10
3.195052797150161
 20
47.42267312983742
 30
0.0
 11
3.463707454765504
 21
47.43408090349251
 31
0.0
  0
LINE
  5
5BF1
330
1E
100
AcDbEntity
  8
0
 48
0.27
100
AcDbLine
 10
5.488695004938456
 20
41.86958898947239
 30
0.0
 11
7.051788794475086
 21
42.80345162392744
 31
0.0
  0
LINE
  5
5BF2
330
1E
100
AcDbEntity
  8
0
 48
0.27
100
AcDbLine
 10
7.051788794475086
 20
42.80345162392744
 30
0.0
 11
7.212564756949689
 21
42.93089771546094
 31
0.0
  0
LINE
  5
5BF3
330
1E
100
AcDbEntity
  8
0
 48
0.27
100
AcDbLine
 10
7.360737225194494
 20
46.86214245710383
 30
0.0
 11
7.212564756949689
 21
47.0691006145408
 31
0.0
  0
LINE
  5
5BF4
330
1E
100
AcDbEntity
  8
0
 48
0.27
100
AcDbLine
 10
-3.656162846252826
 20
45.00000000000103
 30
0.0
 11
-2.827628816137632
 21
48.74999958250094
 31
0.0
  0
LINE
  5
5BF5
330
1E
100
AcDbEntity
  8
0
 48
0.27
100
AcDbLine
 10
-3.656162846252826
 20
45.00000000000103
 30
0.0
 11
-1.545644548296266
 21
45.00000000000103
 31
0.0
  0
LINE
  5
5BF6
330
1E
100
AcDbEntity
  8
0
 48
0.27
100
AcDbLine
 10
-2.827628816137632
 20
41.2499987475008
 30
0.0
 11
-3.656162846252826
 21
45.00000000000103
 31
0.0
  0
LINE
  5
5BF7
330
1E
100
AcDbEntity
  8
0
 48
0.27
100
AcDbLine
 10
-0.4377511571530804
 20
41.53545027054621
 30
0.0
 11
-0.6858547879613753
 21
41.88198707354286
 31
0.0
  0
LINE
  5
5BF8
330
1E
100
AcDbEntity
  8
0
 48
0.27
100
AcDbLine
 10
-0.6858547879613753
 20
48.11801125645889
 30
0.0
 11
-0.4377511571530804
 21
48.46454805945555
 31
0.0
  0
LINE
  5
5BF9
330
1E
100
AcDbEntity
  8
0
 48
0.27
100
AcDbLine
 10
5.250407637269432
 20
41.80825988948041
 30
0.0
 11
5.488695004938456
 21
41.86958898947239
 31
0.0
  0
LINE
  5
5BFA
330
1E
100
AcDbEntity
  8
0
 48
0.27
100
AcDbLine
 10
4.799367210195669
 20
41.84311447080113
 30
0.0
 11
5.250407637269432
 21
41.80825988948041
 31
0.0
  0
LINE
  5
5BFB
330
1E
100
AcDbEntity
  8
0
 48
0.27
100
AcDbLine
 10
3.463707454765504
 20
42.56591742650923
 30
0.0
 11
4.156141450526988
 21
42.10939605764515
 31
0.0
  0
LINE
  5
5BFC
330
1E
100
AcDbEntity
  8
0
 48
0.27
100
AcDbLine
 10
6.884586669927347
 20
42.76041904986599
 30
0.0
 11
7.051788794475086
 21
42.80345162392744
 31
0.0
  0
LINE
  5
5BFD
330
1E
100
AcDbEntity
  8
0
 48
0.27
100
AcDbLine
 10
5.488695004938456
 20
48.13041101052965
 30
0.0
 11
7.051788794475086
 21
47.19654670607432
 31
0.0
  0
LINE
  5
5BFE
330
1E
100
AcDbEntity
  8
0
 48
0.27
100
AcDbLine
 10
7.051788794475086
 20
47.19654670607432
 30
0.0
 11
7.212564756949689
 21
47.0691006145408
 31
0.0
  0
LINE
  5
5BFF
330
1E
100
AcDbEntity
  8
0
 48
0.27
100
AcDbLine
 10
5.250407637269432
 20
48.19173844052134
 30
0.0
 11
5.488695004938456
 21
48.13041101052965
 31
0.0
  0
LINE
  5
5C00
330
1E
100
AcDbEntity
  8
0
 48
0.27
100
AcDbLine
 10
4.799367210195669
 20
48.15688552907591
 30
0.0
 11
5.250407637269432
 21
48.19173844052134
 31
0.0
  0
LINE
  5
5C01
330
1E
100
AcDbEntity
  8
0
 48
0.27
100
AcDbLine
 10
3.225162907053565
 20
42.74654635542425
 30
0.0
 11
3.400264134045471
 21
42.60774593011961
 31
0.0
  0
LINE
  5
5C02
330
1E
100
AcDbEntity
  8
0
 48
0.27
100
AcDbLine
 10
4.156141450526988
 20
42.10939605764515
 30
0.0
 11
4.5636817033362
 21
41.90377223068099
 31
0.0
  0
LINE
  5
5C03
330
1E
100
AcDbEntity
  8
0
 48
0.27
100
AcDbLine
 10
4.5636817033362
 20
41.90377223068099
 30
0.0
 11
4.799367210195669
 21
41.84311447080113
 31
0.0
  0
LINE
  5
5C04
330
1E
100
AcDbEntity
  8
0
 48
0.27
100
AcDbLine
 10
3.463707454765504
 20
47.43408090349251
 30
0.0
 11
4.156141450526988
 21
47.89060227235659
 31
0.0
  0
LINE
  5
5C05
330
1E
100
AcDbEntity
  8
0
 48
0.27
100
AcDbLine
 10
3.225162907053565
 20
47.25345197457749
 30
0.0
 11
3.400264134045471
 21
47.39225239988217
 31
0.0
  0
LINE
  5
5C06
330
1E
100
AcDbEntity
  8
0
 48
0.27
100
AcDbLine
 10
-0.6858547879613753
 20
41.88198707354286
 30
0.0
 11
-0.9033189189029009
 21
42.34834808555014
 31
0.0
  0
LINE
  5
5C07
330
1E
100
AcDbEntity
  8
0
 48
0.27
100
AcDbLine
 10
-0.9033189189029009
 20
47.6516502444516
 30
0.0
 11
-0.6858547879613753
 21
48.11801125645889
 31
0.0
  0
LINE
  5
5C08
330
1E
100
AcDbEntity
  8
0
 48
0.27
100
AcDbLine
 10
5.01211859960015
 20
41.86958898947239
 30
0.0
 11
5.250407637269432
 21
41.80825988948041
 31
0.0
  0
LINE
  5
5C09
330
1E
100
AcDbEntity
  8
0
 48
0.27
100
AcDbLine
 10
4.5636817033362
 20
48.09622609932079
 30
0.0
 11
4.799367210195669
 21
48.15688552907591
 31
0.0
  0
LINE
  5
5C0A
330
1E
100
AcDbEntity
  8
0
 48
0.27
100
AcDbLine
 10
4.156141450526988
 20
47.89060227235659
 30
0.0
 11
4.5636817033362
 21
48.09622609932079
 31
0.0
  0
LINE
  5
5C0B
330
1E
100
AcDbEntity
  8
0
 48
0.27
100
AcDbLine
 10
-0.717110518181066
 20
41.2499987475008
 30
0.0
 11
-1.545644548296266
 21
45.00000000000103
 31
0.0
  0
LINE
  5
5C0C
330
1E
100
AcDbEntity
  8
0
 48
0.27
100
AcDbLine
 10
-1.545644548296266
 20
45.00000000000103
 30
0.0
 11
-0.717110518181066
 21
48.74999958250094
 31
0.0
  0
LINE
  5
5C0D
330
1E
100
AcDbEntity
  8
0
 48
0.27
100
AcDbLine
 10
3.225162907053565
 20
42.74654635542425
 30
0.0
 11
3.063787414353868
 21
42.97194465881577
 31
0.0
  0
LINE
  5
5C0E
330
1E
100
AcDbEntity
  8
0
 48
0.27
100
AcDbLine
 10
6.717384545504575
 20
42.80345162392744
 30
0.0
 11
6.884586669927347
 21
42.76041904986599
 31
0.0
  0
LINE
  5
5C0F
330
1E
100
AcDbEntity
  8
0
 48
0.27
100
AcDbLine
 10
6.884586669927347
 20
47.23957928013575
 30
0.0
 11
7.051788794475086
 21
47.19654670607432
 31
0.0
  0
LINE
  5
5C10
330
1E
100
AcDbEntity
  8
0
 48
0.27
100
AcDbLine
 10
5.01211859960015
 20
48.13041101052965
 30
0.0
 11
5.250407637269432
 21
48.19173844052134
 31
0.0
  0
LINE
  5
5C11
330
1E
100
AcDbEntity
  8
0
 48
0.27
100
AcDbLine
 10
3.944562401568287
 20
47.72288745759822
 30
0.0
 11
4.156141450526988
 21
47.89060227235659
 31
0.0
  0
LINE
  5
5C12
330
1E
100
AcDbEntity
  8
0
 48
0.27
100
AcDbLine
 10
3.063787414353868
 20
47.02805367118599
 30
0.0
 11
3.225162907053565
 21
47.25345197457749
 31
0.0
  0
LINE
  5
5C13
330
1E
100
AcDbEntity
  8
0
 48
0.27
100
AcDbLine
 10
-0.9033189189029009
 20
42.34834808555014
 30
0.0
 11
-1.081788537082314
 21
42.91661086082501
 31
0.0
  0
LINE
  5
5C14
330
1E
100
AcDbEntity
  8
0
 48
0.27
100
AcDbLine
 10
-1.081788537082314
 20
47.08338746917672
 30
0.0
 11
-0.9033189189029009
 21
47.6516502444516
 31
0.0
  0
LINE
  5
5C15
330
1E
100
AcDbEntity
  8
0
 48
0.27
100
AcDbLine
 10
3.063787414353868
 20
42.97194465881577
 30
0.0
 11
2.922341708357439
 21
43.27528021772283
 31
0.0
  0
LINE
  5
5C16
330
1E
100
AcDbEntity
  8
0
 48
0.27
100
AcDbLine
 10
4.782987844835343
 20
42.05121657867918
 30
0.0
 11
5.01211859960015
 21
41.86958898947239
 31
0.0
  0
LINE
  5
5C17
330
1E
100
AcDbEntity
  8
0
 48
0.27
100
AcDbLine
 10
2.922341708357439
 20
46.72471811227894
 30
0.0
 11
3.063787414353868
 21
47.02805367118599
 31
0.0
  0
LINE
  5
5C18
330
1E
100
AcDbEntity
  8
0
 48
0.27
100
AcDbLine
 10
6.556606913029703
 20
42.93089771546094
 30
0.0
 11
6.717384545504575
 21
42.80345162392744
 31
0.0
  0
LINE
  5
5C19
330
1E
100
AcDbEntity
  8
0
 48
0.27
100
AcDbLine
 10
4.782987844835343
 20
47.94878175132256
 30
0.0
 11
5.01211859960015
 21
48.13041101052965
 31
0.0
  0
LINE
  5
5C1A
330
1E
100
AcDbEntity
  8
0
 48
0.27
100
AcDbLine
 10
6.717384545504575
 20
47.19654670607432
 30
0.0
 11
6.884586669927347
 21
47.23957928013575
 31
0.0
  0
LINE
  5
5C1B
330
1E
100
AcDbEntity
  8
0
 48
0.27
100
AcDbLine
 10
2.922341708357439
 20
43.27528021772283
 30
0.0
 11
2.806259970471788
 21
43.64489642819873
 31
0.0
  0
LINE
  5
5C1C
330
1E
100
AcDbEntity
  8
0
 48
0.27
100
AcDbLine
 10
-1.081788537082314
 20
42.91661086082501
 30
0.0
 11
-1.214401610228698
 21
43.56493680222047
 31
0.0
  0
LINE
  5
5C1D
330
1E
100
AcDbEntity
  8
0
 48
0.27
100
AcDbLine
 10
-1.214401610228698
 20
46.43506319778155
 30
0.0
 11
-1.081788537082314
 21
47.08338746917672
 31
0.0
  0
LINE
  5
5C1E
330
1E
100
AcDbEntity
  8
0
 48
0.27
100
AcDbLine
 10
2.806259970471788
 20
46.35510190180301
 30
0.0
 11
2.922341708357439
 21
46.72471811227894
 31
0.0
  0
LINE
  5
5C1F
330
1E
100
AcDbEntity
  8
0
 48
0.27
100
AcDbLine
 10
4.782987844835343
 20
42.05121657867918
 30
0.0
 11
4.571819616070225
 21
42.34616539481065
 31
0.0
  0
LINE
  5
5C20
330
1E
100
AcDbEntity
  8
0
 48
0.27
100
AcDbLine
 10
2.806259970471788
 20
43.64489642819873
 30
0.0
 11
2.720004442317105
 21
44.06658826574627
 31
0.0
  0
LINE
  5
5C21
330
1E
100
AcDbEntity
  8
0
 48
0.27
100
AcDbLine
 10
-1.214401610228698
 20
43.56493680222047
 30
0.0
 11
-1.296064636866429
 21
44.26841117145069
 31
0.0
  0
LINE
  5
5C22
330
1E
100
AcDbEntity
  8
0
 48
0.27
100
AcDbLine
 10
-1.296064636866429
 20
45.73158882842635
 30
0.0
 11
-1.214401610228698
 21
46.43506319778155
 31
0.0
  0
LINE
  5
5C23
330
1E
100
AcDbEntity
  8
0
 48
0.27
100
AcDbLine
 10
6.556606913029703
 20
47.0691006145408
 30
0.0
 11
6.717384545504575
 21
47.19654670607432
 31
0.0
  0
LINE
  5
5C24
330
1E
100
AcDbEntity
  8
0
 48
0.27
100
AcDbLine
 10
6.556606913029703
 20
42.93089771546094
 30
0.0
 11
6.408434444784948
 21
43.13785587289795
 31
0.0
  0
LINE
  5
5C25
330
1E
100
AcDbEntity
  8
0
 48
0.27
100
AcDbLine
 10
4.571819616070225
 20
47.6538329351911
 30
0.0
 11
4.782987844835343
 21
47.94878175132256
 31
0.0
  0
LINE
  5
5C26
330
1E
100
AcDbEntity
  8
0
 48
0.27
100
AcDbLine
 10
2.720004442317105
 20
45.93341006425549
 30
0.0
 11
2.806259970471788
 21
46.35510190180301
 31
0.0
  0
LINE
  5
5C27
330
1E
100
AcDbEntity
  8
0
 48
0.27
100
AcDbLine
 10
2.720004442317105
 20
44.06658826574627
 30
0.0
 11
2.666886735071454
 21
44.52415004490906
 31
0.0
  0
LINE
  5
5C28
330
1E
100
AcDbEntity
  8
0
 48
0.27
100
AcDbLine
 10
-1.296064636866429
 20
44.26841117145069
 30
0.0
 11
-1.323639685846451
 21
45.00000000000103
 31
0.0
  0
LINE
  5
5C29
330
1E
100
AcDbEntity
  8
0
 48
0.27
100
AcDbLine
 10
-1.323639685846451
 20
45.00000000000103
 30
0.0
 11
-1.296064636866429
 21
45.73158882842635
 31
0.0
  0
LINE
  5
5C2A
330
1E
100
AcDbEntity
  8
0
 48
0.27
100
AcDbLine
 10
2.666886735071454
 20
45.47584828509267
 30
0.0
 11
2.720004442317105
 21
45.93341006425549
 31
0.0
  0
LINE
  5
5C2B
330
1E
100
AcDbEntity
  8
0
 48
0.27
100
AcDbLine
 10
2.666886735071454
 20
44.52415004490906
 30
0.0
 11
2.648952599201457
 21
45.00000000000103
 31
0.0
  0
LINE
  5
5C2C
330
1E
100
AcDbEntity
  8
0
 48
0.27
100
AcDbLine
 10
2.648952599201457
 20
45.00000000000103
 30
0.0
 11
2.666886735071454
 21
45.47584828509267
 31
0.0
  0
LINE
  5
5C2D
330
1E
100
AcDbEntity
  8
0
 48
0.27
100
AcDbLine
 10
4.571819616070225
 20
42.34616539481065
 30
0.0
 11
4.386728445660022
 21
42.74309947422362
 31
0.0
  0
LINE
  5
5C2E
330
1E
100
AcDbEntity
  8
0
 48
0.27
100
AcDbLine
 10
6.408434444784948
 20
46.86214245710383
 30
0.0
 11
6.556606913029703
 21
47.0691006145408
 31
0.0
  0
LINE
  5
5C2F
330
1E
100
AcDbEntity
  8
0
 48
0.27
100
AcDbLine
 10
6.408434444784948
 20
43.13785587289795
 30
0.0
 11
6.278560172470889
 21
43.41637689378596
 31
0.0
  0
LINE
  5
5C30
330
1E
100
AcDbEntity
  8
0
 48
0.27
100
AcDbLine
 10
4.386728445660022
 20
47.25690052577841
 30
0.0
 11
4.571819616070225
 21
47.6538329351911
 31
0.0
  0
LINE
  5
5C31
330
1E
100
AcDbEntity
  8
0
 48
0.27
100
AcDbLine
 10
6.278560172470889
 20
46.58362143621579
 30
0.0
 11
6.408434444784948
 21
46.86214245710383
 31
0.0
  0
LINE
  5
5C32
330
1E
100
AcDbEntity
  8
0
 48
0.27
100
AcDbLine
 10
4.386728445660022
 20
42.74309947422362
 30
0.0
 11
4.234828536167739
 21
43.2267633618705
 31
0.0
  0
LINE
  5
5C33
330
1E
100
AcDbEntity
  8
0
 48
0.27
100
AcDbLine
 10
6.278560172470889
 20
43.41637689378596
 30
0.0
 11
6.171975727671288
 21
43.75575607433727
 31
0.0
  0
LINE
  5
5C34
330
1E
100
AcDbEntity
  8
0
 48
0.27
100
AcDbLine
 10
4.234828536167739
 20
46.77323496800625
 30
0.0
 11
4.386728445660022
 21
47.25690052577841
 31
0.0
  0
LINE
  5
5C35
330
1E
100
AcDbEntity
  8
0
 48
0.27
100
AcDbLine
 10
6.171975727671288
 20
46.24424392566476
 30
0.0
 11
6.278560172470889
 21
46.58362143621579
 31
0.0
  0
LINE
  5
5C36
330
1E
100
AcDbEntity
  8
0
 48
0.27
100
AcDbLine
 10
4.234828536167739
 20
43.2267633618705
 30
0.0
 11
4.121956539318134
 21
43.77857329177275
 31
0.0
  0
LINE
  5
5C37
330
1E
100
AcDbEntity
  8
0
 48
0.27
100
AcDbLine
 10
6.171975727671288
 20
43.75575607433727
 30
0.0
 11
6.092775951819962
 21
44.1429490406235
 31
0.0
  0
LINE
  5
5C38
330
1E
100
AcDbEntity
  8
0
 48
0.27
100
AcDbLine
 10
4.121956539318134
 20
46.221425038229
 30
0.0
 11
4.234828536167739
 21
46.77323496800625
 31
0.0
  0
LINE
  5
5C39
330
1E
100
AcDbEntity
  8
0
 48
0.27
100
AcDbLine
 10
6.092775951819962
 20
45.85704928937825
 30
0.0
 11
6.171975727671288
 21
46.24424392566476
 31
0.0
  0
LINE
  5
5C3A
330
1E
100
AcDbEntity
  8
0
 48
0.27
100
AcDbLine
 10
4.121956539318134
 20
43.77857329177275
 30
0.0
 11
4.052451116710692
 21
44.37732192701378
 31
0.0
  0
LINE
  5
5C3B
330
1E
100
AcDbEntity
  8
0
 48
0.27
100
AcDbLine
 10
6.092775951819962
 20
44.1429490406235
 30
0.0
 11
6.04400358592494
 21
44.56307942753527
 31
0.0
  0
LINE
  5
5C3C
330
1E
100
AcDbEntity
  8
0
 48
0.27
100
AcDbLine
 10
4.052451116710692
 20
45.62267640298799
 30
0.0
 11
4.121956539318134
 21
46.221425038229
 31
0.0
  0
LINE
  5
5C3D
330
1E
100
AcDbEntity
  8
0
 48
0.27
100
AcDbLine
 10
6.04400358592494
 20
45.43692057246675
 30
0.0
 11
6.092775951819962
 21
45.85704928937825
 31
0.0
  0
LINE
  5
5C3E
330
1E
100
AcDbEntity
  8
0
 48
0.27
100
AcDbLine
 10
4.052451116710692
 20
44.37732192701378
 30
0.0
 11
4.028980929041157
 21
45.00000000000103
 31
0.0
  0
LINE
  5
5C3F
330
1E
100
AcDbEntity
  8
0
 48
0.27
100
AcDbLine
 10
6.04400358592494
 20
44.56307942753527
 30
0.0
 11
6.027535710549845
 21
45.00000000000103
 31
0.0
  0
LINE
  5
5C40
330
1E
100
AcDbEntity
  8
0
 48
0.27
100
AcDbLine
 10
6.027535710549845
 20
45.00000000000103
 30
0.0
 11
6.04400358592494
 21
45.43692057246675
 31
0.0
  0
LINE
  5
5C41
330
1E
100
AcDbEntity
  8
0
 48
0.27
100
AcDbLine
 10
4.028980929041157
 20
45.00000000000103
 30
0.0
 11
4.052451116710692
 21
45.62267640298799
 31
0.0
  0
LINE
  5
5C42
330
1E
100
AcDbEntity
  8
0
 48
0.27
100
AcDbLine
 10
3.400264134045471
 20
42.60774593011961
 30
0.0
 11
3.463707454765504
 21
42.56591742650923
 31
0.0
  0
LINE
  5
5C43
330
1E
100
AcDbEntity
  8
0
 48
0.27
100
AcDbLine
 10
3.134610467556314
 20
42.57989366109327
 30
0.0
 11
3.195052797150161
 21
42.57732687016463
 31
0.0
  0
LINE
  5
5C44
330
1E
100
AcDbEntity
  8
0
 48
0.27
100
AcDbLine
 10
3.400264134045471
 20
47.39225239988217
 30
0.0
 11
3.463707454765504
 21
47.43408090349251
 31
0.0
  0
LINE
  5
5C46
330
1E
100
AcDbEntity
  8
中心線
 48
0.27
100
AcDbLine
 10
9.241635959429579
 20
45.00000000000103
 30
0.0
 11
-12.51701271251475
 21
45.00000000000103
 31
0.0
  0
POINT
  5
5C47
330
1E
100
AcDbEntity
  8
0
100
AcDbPoint
 10
7.741635959429579
 20
45.00000000000103
 30
0.0
1001
pntflag
1000
endpoint
  0
LINE
  5
5C7B
330
1E
100
AcDbEntity
  8
0
  6
Continuous
100
AcDbLine
 10
178.3675469099636
 20
164.9623771968266
 30
0.0
 11
178.3675469099636
 21
174.1623774624076
 31
0.0
  0
ARC
  5
5C7C
330
1E
100
AcDbEntity
  8
0
  6
Continuous
100
AcDbCircle
 10
188.9907922161418
 20
169.562377329617
 30
0.0
 40
10.62324530617824
100
AcDbArc
 50
163.2213499979119
 51
196.7786500020881
  0
ARC
  5
5C7D
330
1E
100
AcDbEntity
  8
0
  6
Continuous
100
AcDbCircle
 10
167.2676357286951
 20
164.8662394045283
 30
0.0
 40
2.472178306553662
100
AcDbArc
 50
34.63277999893668
 51
100.3672200010637
  0
ARC
  5
5C7E
330
1E
100
AcDbEntity
  8
0
  6
Continuous
100
AcDbCircle
 10
173.5694684799834
 20
169.562377329617
 30
0.0
 40
5.333333333333332
100
AcDbArc
 50
90.0
 51
210.8352048940846
  0
LINE
  5
5C7F
330
1E
100
AcDbEntity
  8
0
  6
Continuous
100
AcDbLine
 10
175.0809395475044
 20
164.2290439962837
 30
0.0
 11
178.4643763606503
 21
164.2290439962837
 31
0.0
  0
ARC
  5
5C80
330
1E
100
AcDbEntity
  8
0
  6
Continuous
100
AcDbCircle
 10
174.7048661801053
 20
161.7856376850601
 30
0.0
 40
2.472178306553662
100
AcDbArc
 50
34.63277999893668
 51
100.3672200010637
  0
ARC
  5
5C81
330
1E
100
AcDbEntity
  8
0
  6
Continuous
100
AcDbCircle
 10
175.5933737172909
 20
158.5648314228307
 30
0.0
 40
2.746231479756806
100
AcDbArc
 50
89.1520988349392
 51
159.1520988349398
  0
ARC
  5
5C82
330
1E
100
AcDbEntity
  8
0
  6
Continuous
100
AcDbCircle
 10
175.5312917513684
 20
163.7808055074953
 30
0.0
 40
2.472178306553662
100
AcDbArc
 50
214.6327799989367
 51
280.3672200010637
  0
LINE
  5
5C83
330
1E
100
AcDbEntity
  8
0
  6
Continuous
100
AcDbLine
 10
168.2136974084656
 20
167.1502343426717
 30
0.0
 11
175.6509278598758
 21
164.0696326232033
 31
0.0
  0
LINE
  5
5C84
330
1E
100
AcDbEntity
  8
0
  6
Continuous
100
AcDbLine
 10
167.1479996201877
 20
164.5774122888203
 30
0.0
 11
174.5852300715979
 21
161.496810569352
 31
0.0
  0
LINE
  5
5C85
330
1E
100
AcDbEntity
  8
0
  6
Continuous
100
AcDbLine
 10
167.1141132100852
 20
161.9913572716671
 30
0.0
 11
172.780574342821
 21
159.644232219828
 31
0.0
  0
ARC
  5
5C86
330
1E
100
AcDbEntity
  8
0
  6
Continuous
100
AcDbCircle
 10
168.6925898782841
 20
158.7445253484366
 30
0.0
 40
3.813798694049016
100
AcDbArc
 50
118.5864858262623
 51
163.5864858262639
  0
LINE
  5
5C87
330
1E
100
AcDbEntity
  8
0
  6
Continuous
100
AcDbLine
 10
165.0342135766302
 20
159.8221817474003
 30
0.0
 11
172.7174467550315
 21
156.6396823620316
 31
0.0
  0
LINE
  5
5C88
330
1E
100
AcDbEntity
  8
0
  6
Continuous
100
AcDbLine
 10
165.0342135766302
 20
155.7795204642191
 30
0.0
 11
165.0342135766302
 21
159.8221817474003
 31
0.0
  0
ARC
  5
5C89
330
1E
100
AcDbEntity
  8
0
  6
Continuous
100
AcDbCircle
 10
169.3685659165035
 20
158.4645269055669
 30
0.0
 40
3.813798694049015
100
AcDbArc
 50
331.4135141737377
 51
16.41351417373966
  0
ARC
  5
5C8A
330
1E
100
AcDbEntity
  8
0
  6
Continuous
100
AcDbCircle
 10
164.3619120751053
 20
163.2170551602972
 30
0.0
 40
2.746231479756806
100
AcDbArc
 50
335.8479011650612
 51
45.84790116506002
  0
ARC
  5
5C8B
330
1E
100
AcDbEntity
  8
0
  6
Continuous
100
AcDbCircle
 10
168.0940612999582
 20
166.8614072269636
 30
0.0
 40
2.472178306553662
100
AcDbArc
 50
214.6327799989367
 51
280.3672200010637
  0
LINE
  5
5C8C
330
1E
100
AcDbEntity
  8
0
  6
Continuous
100
AcDbLine
 10
166.0599254032107
 20
165.4565124094539
 30
0.0
 11
166.8226950945649
 21
167.2980013432884
 31
0.0
  0
ARC
  5
5C8D
330
1E
100
AcDbEntity
  8
0
  6
Continuous
100
AcDbCircle
 10
168.3751401546242
 20
157.0221594391159
 30
0.0
 40
9.295339642905963
100
AcDbArc
 50
50.72134999791018
 51
84.27865000208941
  0
LINE
  5
5C8E
330
1E
100
AcDbEntity
  8
0
  6
Continuous
100
AcDbLine
 10
168.539002363477
 20
164.429645110345
 30
0.0
 11
169.3017720548312
 21
166.2711340441794
 31
0.0
  0
ARC
  5
5C8F
330
1E
100
AcDbEntity
  8
0
  6
Continuous
100
AcDbCircle
 10
174.4237873254394
 20
171.6248854729077
 30
0.0
 40
9.295339642905963
100
AcDbArc
 50
230.7213499979124
 51
264.2786500020894
  0
LINE
  5
5C90
330
1E
100
AcDbEntity
  8
0
  6
Continuous
100
AcDbLine
 10
173.4971554252323
 20
162.3759108678443
 30
0.0
 11
174.2599251165864
 21
164.2173998016787
 31
0.0
  0
LINE
  5
5C91
330
1E
100
AcDbEntity
  8
0
  6
Continuous
100
AcDbLine
 10
175.9761760494366
 20
161.3489865297079
 30
0.0
 11
176.7390025739243
 21
163.1906126708642
 31
0.0
  0
ARC
  5
5C92
330
1E
100
AcDbEntity
  8
0
  6
Continuous
100
AcDbCircle
 10
181.1928935460249
 20
164.9623771968266
 30
0.0
 40
2.825346636061327
100
AcDbArc
 50
147.1327799989379
 51
212.8672200010621
  0
LINE
  5
5C93
330
1E
100
AcDbEntity
  8
0
  6
Continuous
100
AcDbLine
 10
178.8198836327761
 20
163.4290439962837
 30
0.0
 11
180.83421357663
 21
163.4290439962837
 31
0.0
  0
LINE
  5
5C94
330
1E
100
AcDbEntity
  8
0
  6
Continuous
100
AcDbLine
 10
178.8198836327761
 20
166.4957109285315
 30
0.0
 11
180.83421357663
 21
166.4957109285315
 31
0.0
  0
LINE
  5
5C95
330
1E
100
AcDbEntity
  8
0
  6
Continuous
100
AcDbLine
 10
173.5694684799834
 20
174.8957106629504
 30
0.0
 11
178.4643763606503
 21
174.8957106629504
 31
0.0
  0
ARC
  5
5C96
330
1E
100
AcDbEntity
  8
0
  6
Continuous
100
AcDbCircle
 10
181.1928935460249
 20
174.1623774624076
 30
0.0
 40
2.825346636061327
100
AcDbArc
 50
147.1327799989379
 51
212.8672200010621
  0
LINE
  5
5C97
330
1E
100
AcDbEntity
  8
0
  6
Continuous
100
AcDbLine
 10
178.8198836327761
 20
172.6290437307025
 30
0.0
 11
180.83421357663
 21
172.6290437307025
 31
0.0
  0
LINE
  5
5C98
330
1E
100
AcDbEntity
  8
0
  6
Continuous
100
AcDbLine
 10
178.8198836327761
 20
175.6957106629505
 30
0.0
 11
180.83421357663
 21
175.6957106629505
 31
0.0
  0
LINE
  5
5C99
330
1E
100
AcDbEntity
  8
0
  6
Continuous
100
AcDbLine
 10
165.0342135766302
 20
155.7795204642191
 30
0.0
 11
169.8588535476538
 21
153.7810891546539
 31
0.0
  0
LINE
  5
5C9A
330
1E
100
AcDbEntity
  8
0
  6
Continuous
100
AcDbLine
 10
169.8588535476538
 20
153.7810891546539
 30
0.0
 11
172.7174467550315
 21
156.6396823620316
 31
0.0
  0
CIRCLE
  5
5D83
330
1E
100
AcDbEntity
  8
0
100
AcDbCircle
 10
223.3842135766299
 20
132.062377329617
 30
0.0
 40
5.099999999999999
  0
LINE
  5
5D84
330
1E
100
AcDbEntity
  8
AM7
100
AcDbLine
 10
231.1390012338385
 20
132.0623773296169
 30
0.0
 11
215.9498895778637
 21
132.062377329617
 31
0.0
  0
LINE
  5
5D85
330
1E
100
AcDbEntity
  8
AM7
100
AcDbLine
 10
231.1390012338385
 20
207.0623773296169
 30
0.0
 11
215.9498895778638
 21
207.062377329617
 31
0.0
  0
ARC
  5
5D86
330
1E
100
AcDbEntity
  8
AM4
100
AcDbCircle
 10
223.38421357663
 20
207.062377329617
 30
0.0
 40
6.0
100
AcDbArc
 50
180.0
 51
89.99999999999998
  0
CIRCLE
  5
5D87
330
1E
100
AcDbEntity
  8
0
100
AcDbCircle
 10
223.38421357663
 20
207.062377329617
 30
0.0
 40
5.099999999999999
  0
ARC
  5
5D88
330
1E
100
AcDbEntity
  8
AM4
100
AcDbCircle
 10
223.3842135766299
 20
132.062377329617
 30
0.0
 40
6.0
100
AcDbArc
 50
180.0
 51
89.99999999999998
  0
LINE
  5
5D89
330
1E
100
AcDbEntity
  8
0
100
AcDbLine
 10
202.0342135766299
 20
180.562377329617
 30
0.0
 11
319.7342135766298
 21
180.5623773296169
 31
0.0
  0
LINE
  5
5D8A
330
1E
100
AcDbEntity
  8
0
100
AcDbLine
 10
202.0342135766299
 20
194.062377329617
 30
0.0
 11
319.7342135766298
 21
194.0623773296169
 31
0.0
  0
LINE
  5
5D8B
330
1E
100
AcDbEntity
  8
0
100
AcDbLine
 10
202.0342135766299
 20
219.562377329617
 30
0.0
 11
319.7342135766298
 21
219.5623773296169
 31
0.0
  0
LINE
  5
5D8D
330
1E
100
AcDbEntity
  8
0
100
AcDbLine
 10
202.0342135766299
 20
145.062377329617
 30
0.0
 11
319.7342135766298
 21
145.0623773296169
 31
0.0
  0
LINE
  5
5D8E
330
1E
100
AcDbEntity
  8
0
100
AcDbLine
 10
202.0342135766299
 20
158.562377329617
 30
0.0
 11
319.7342135766298
 21
158.562377329617
 31
0.0
  0
LINE
  5
5D8F
330
1E
100
AcDbEntity
  8
0
100
AcDbLine
 10
202.0342135766299
 20
119.562377329617
 30
0.0
 11
319.7342135766298
 21
119.5623773296174
 31
0.0
  0
LINE
  5
5D90
330
1E
100
AcDbEntity
  8
0
100
AcDbLine
 10
202.0342135766299
 20
121.5623773296175
 30
0.0
 11
319.7342135766298
 21
121.5623773296174
 31
0.0
  0
LINE
  5
5D91
330
1E
100
AcDbEntity
  8
0
100
AcDbLine
 10
202.0342135766299
 20
144.0623773296179
 30
0.0
 11
319.7342135766298
 21
144.0623773296179
 31
0.0
  0
LINE
  5
5D92
330
1E
100
AcDbEntity
  8
0
100
AcDbLine
 10
202.0342135766299
 20
159.562377329617
 30
0.0
 11
319.7342135766298
 21
159.562377329617
 31
0.0
  0
LINE
  5
5D93
330
1E
100
AcDbEntity
  8
0
100
AcDbLine
 10
202.0342135766299
 20
179.562377329617
 30
0.0
 11
319.7342135766298
 21
179.562377329617
 31
0.0
  0
LINE
  5
5D94
330
1E
100
AcDbEntity
  8
0
100
AcDbLine
 10
202.0342135766299
 20
195.0623773296175
 30
0.0
 11
319.7342135766298
 21
195.0623773296174
 31
0.0
  0
LINE
  5
5D95
330
1E
100
AcDbEntity
  8
0
100
AcDbLine
 10
202.0342135766299
 20
217.612377329617
 30
0.0
 11
319.7342135766298
 21
217.6123773296169
 31
0.0
  0
LINE
  5
5D96
330
1E
100
AcDbEntity
  8
0
100
AcDbLine
 10
202.0342135766299
 20
219.562377329617
 30
0.0
 11
202.0342135766299
 21
119.5623773296172
 31
0.0
  0
LINE
  5
5D9E
330
1E
100
AcDbEntity
  8
AM7
100
AcDbLine
 10
223.38421357663
 20
214.6576485183278
 30
0.0
 11
223.38421357663
 21
199.3441900197636
 31
0.0
  0
LINE
  5
5DDB
330
1E
100
AcDbEntity
  8
AM7
100
AcDbLine
 10
223.3842135766299
 20
124.4671061409063
 30
0.0
 11
223.3842135766299
 21
139.7805646394704
 31
0.0
  0
LINE
  5
5DE4
330
1E
100
AcDbEntity
  8
0
100
AcDbLine
 10
319.7342135766298
 20
219.562377329617
 30
0.0
 11
319.7342135766298
 21
119.5623773296172
 31
0.0
  0
LINE
  5
5DE5
330
1E
100
AcDbEntity
  8
AM7
100
AcDbLine
 10
260.8842135766299
 20
225.8922326984707
 30
0.0
 11
260.8842135766299
 21
113.8027147053976
 31
0.0
  0
ARC
  5
5DED
330
1E
100
AcDbEntity
  8
AM4
100
AcDbCircle
 10
298.3842135766299
 20
207.062377329617
 30
0.0
 40
6.0
100
AcDbArc
 50
180.0
 51
89.99999999999998
  0
CIRCLE
  5
5DEE
330
1E
100
AcDbEntity
  8
0
100
AcDbCircle
 10
298.3842135766299
 20
207.062377329617
 30
0.0
 40
5.099999999999999
  0
LINE
  5
5DEF
330
1E
100
AcDbEntity
  8
AM7
100
AcDbLine
 10
298.3842135766299
 20
214.6576485183277
 30
0.0
 11
298.3842135766299
 21
199.3441900197635
 31
0.0
  0
LINE
  5
5E04
330
1E
100
AcDbEntity
  8
AM7
100
AcDbLine
 10
290.6294259194213
 20
207.062377329617
 30
0.0
 11
305.8185375753961
 21
207.062377329617
 31
0.0
  0
LINE
  5
5E13
330
1E
100
AcDbEntity
  8
AM7
100
AcDbLine
 10
290.6294259194212
 20
132.0623773296169
 30
0.0
 11
305.818537575396
 21
132.0623773296169
 31
0.0
  0
CIRCLE
  5
5E14
330
1E
100
AcDbEntity
  8
0
100
AcDbCircle
 10
298.3842135766298
 20
132.0623773296169
 30
0.0
 40
5.099999999999999
  0
ARC
  5
5E15
330
1E
100
AcDbEntity
  8
AM4
100
AcDbCircle
 10
298.3842135766298
 20
132.0623773296169
 30
0.0
 40
6.0
100
AcDbArc
 50
180.0
 51
89.99999999999998
  0
LINE
  5
5E16
330
1E
100
AcDbEntity
  8
AM7
100
AcDbLine
 10
298.3842135766298
 20
124.4671061409062
 30
0.0
 11
298.3842135766298
 21
139.7805646394703
 31
0.0
  0
LINE
  5
5E4E
330
1E
100
AcDbEntity
  8
0
 48
0.27
100
AcDbLine
 10
183.0342135766301
 20
121.0623773296169
 30
0.0
 11
183.0342135766301
 21
218.0623773296171
 31
0.0
  0
LINE
  5
5E57
330
1E
100
AcDbEntity
  8
0
 48
0.27
100
AcDbLine
 10
202.0342135766299
 20
121.0623773296169
 30
0.0
 11
180.83421357663
 21
121.0623773296169
 31
0.0
  0
LINE
  5
5E58
330
1E
100
AcDbEntity
  8
0
 48
0.27
100
AcDbLine
 10
180.83421357663
 20
218.0623773296171
 30
0.0
 11
202.0342135766299
 21
218.0623773296171
 31
0.0
  0
LINE
  5
5E67
330
1E
100
AcDbEntity
  8
0
 48
0.27
100
AcDbLine
 10
97.68742426960352
 20
143.062377329617
 30
0.0
 11
97.68742426960347
 21
196.0623773296171
 31
0.0
  0
LINE
  5
5E6A
330
1E
100
AcDbEntity
  8
0
100
AcDbLine
 10
97.68742426960352
 20
143.062377329617
 30
0.0
 11
178.0654266913448
 21
143.062377329617
 31
0.0
  0
LINE
  5
5E6B
330
1E
100
AcDbEntity
  8
0
100
AcDbLine
 10
97.68742426960347
 20
196.0623773296171
 30
0.0
 11
178.0654266913448
 21
196.0623773296171
 31
0.0
  0
LINE
  5
5E6E
330
1E
100
AcDbEntity
  8
0
 48
0.27
100
AcDbLine
 10
397.6874242696034
 20
143.0623773296169
 30
0.0
 11
397.6874242696034
 21
196.062377329617
 31
0.0
  0
LINE
  5
5E8B
330
1E
100
AcDbEntity
  8
中心線
100
AcDbLine
 10
175.4387316547733
 20
128.5623773296169
 30
0.0
 11
186.0839571827024
 21
128.5623773296169
 31
0.0
  0
LINE
  5
5E93
330
1E
100
AcDbEntity
  8
中心線
100
AcDbLine
 10
175.7373592213127
 20
210.5623773296172
 30
0.0
 11
186.3825847492418
 21
210.5623773296172
 31
0.0
  0
LINE
  5
5EA5
330
1E
100
AcDbEntity
  8
0
 48
0.27
100
AcDbLine
 10
338.7342135766296
 20
121.0623773296169
 30
0.0
 11
338.7342135766296
 21
218.0623773296171
 31
0.0
  0
LINE
  5
5EA6
330
1E
100
AcDbEntity
  8
0
100
AcDbLine
 10
340.9342135766296
 20
121.0623773296169
 30
0.0
 11
340.9342135766296
 21
218.0623773296171
 31
0.0
  0
LINE
  5
5EAA
330
1E
100
AcDbEntity
  8
0
 48
0.27
100
AcDbLine
 10
319.7342135766298
 20
121.0623773296169
 30
0.0
 11
340.9342135766296
 21
121.0623773296169
 31
0.0
  0
LINE
  5
5EB1
330
1E
100
AcDbEntity
  8
0
 48
0.27
100
AcDbLine
 10
340.9342135766296
 20
218.0623773296171
 30
0.0
 11
319.7342135766298
 21
218.0623773296171
 31
0.0
  0
LINE
  5
5ECA
330
1E
100
AcDbEntity
  8
中心線
 48
0.27
100
AcDbLine
 10
127.6874242696035
 20
153.4943073261036
 30
0.0
 11
127.6874242696035
 21
185.6304473331304
 31
0.0
  0
LINE
  5
5ECB
330
1E
100
AcDbEntity
  8
中心線
 48
0.27
100
AcDbLine
 10
111.6193542660901
 20
169.562377329617
 30
0.0
 11
143.7554942731169
 21
169.562377329617
 31
0.0
  0
LINE
  5
5ECC
330
1E
100
AcDbEntity
  8
0
100
AcDbLine
 10
397.6874242696034
 20
143.0623773296169
 30
0.0
 11
343.7030004619146
 21
143.0623773296169
 31
0.0
  0
LINE
  5
5ECD
330
1E
100
AcDbEntity
  8
0
100
AcDbLine
 10
397.6874242696034
 20
196.062377329617
 30
0.0
 11
343.7030004619149
 21
196.062377329617
 31
0.0
  0
CIRCLE
  5
5ECE
330
1E
100
AcDbEntity
  8
0
100
AcDbCircle
 10
127.6874242696035
 20
169.562377329617
 30
0.0
 40
11.50000000000023
  0
CIRCLE
  5
5ECF
330
1E
100
AcDbEntity
  8
0
100
AcDbCircle
 10
127.6874242696035
 20
169.562377329617
 30
0.0
 40
8.000000000000227
  0
LINE
  5
5ED2
330
1E
100
AcDbEntity
  8
中心線
 48
0.27
100
AcDbLine
 10
352.3193542660901
 20
169.5623773296169
 30
0.0
 11
383.755494273117
 21
169.5623773296169
 31
0.0
  0
CIRCLE
  5
5ED3
330
1E
100
AcDbEntity
  8
0
100
AcDbCircle
 10
367.6874242696035
 20
169.5623773296169
 30
0.0
 40
8.000000000000227
  0
CIRCLE
  5
5ED4
330
1E
100
AcDbEntity
  8
0
100
AcDbCircle
 10
367.6874242696035
 20
169.562377329617
 30
0.0
 40
11.50000000000023
  0
LINE
  5
5ED5
330
1E
100
AcDbEntity
  8
中心線
 48
0.27
100
AcDbLine
 10
367.6874242696035
 20
153.4943073261035
 30
0.0
 11
367.6874242696035
 21
185.6304473331304
 31
0.0
  0
LINE
  5
5F2C
330
1E
100
AcDbEntity
  8
0
100
AcDbLine
 10
319.7342135766299
 20
57.00000000000011
 30
0.0
 11
202.03421357663
 21
57.00000000000011
 31
0.0
  0
LINE
  5
5F99
330
1E
100
AcDbEntity
  8
0
100
AcDbLine
 10
-14.25405003200422
 20
-13.00000000000154
 30
0.0
 11
5.341719861079937
 21
-13.00000000000131
 31
0.0
  0
LINE
  5
5FDB
330
1E
100
AcDbEntity
  8
0
100
AcDbLine
 10
-23.45827747084658
 20
-13.00000000000165
 30
0.0
 11
-28.95403560764514
 21
-13.00000000000171
 31
0.0
  0
LINE
  5
5FDC
330
1E
100
AcDbEntity
  8
0
100
AcDbLine
 10
14.54594729992098
 20
-13.0000000000012
 30
0.0
 11
20.0417054367208
 21
-13.00000000000113
 31
0.0
  0
LINE
  5
5FDE
330
1E
100
AcDbEntity
  8
0
100
AcDbLine
 10
-15.25405108556543
 20
-12.00000000000053
 30
0.0
 11
-22.45827890011185
 21
-12.00000000000129
 31
0.0
  0
LINE
  5
5FDF
330
1E
100
AcDbEntity
  8
0
100
AcDbLine
 10
6.341720914642774
 20
-11.99999999999824
 30
0.0
 11
13.5459487291831
 21
-11.99999999999748
 31
0.0
  0
LINE
  5
6147
330
1E
100
AcDbEntity
  8
0
100
AcDbLine
 10
179.53421357663
 20
11.51479279940698
 30
0.0
 11
180.8357924966672
 21
11.51479279940693
 31
0.0
  0
LINE
  5
6148
330
1E
100
AcDbEntity
  8
0
100
AcDbLine
 10
179.5342135766301
 20
19.48520720059311
 30
0.0
 11
180.8357924966672
 21
19.48520720059311
 31
0.0
  0
LINE
  5
6149
330
1E
100
AcDbEntity
  8
0
100
AcDbLine
 10
178.0342135766301
 20
18.80987103233415
 30
0.0
 11
178.0342135766301
 21
27.46109029590008
 31
0.0
  0
LINE
  5
615A
330
1E
100
AcDbEntity
  8
0
 48
0.27
100
AcDbLine
 10
176.80609607663
 20
45.00045843125022
 30
0.0
 11
176.80609607663
 21
40.00047387265816
 31
0.0
  0
LINE
  5
615B
330
1E
100
AcDbEntity
  8
0
100
AcDbLine
 10
342.2342135766298
 20
19.48520720059311
 30
0.0
 11
340.9326346565927
 21
19.48520720059311
 31
0.0
  0
LINE
  5
615C
330
1E
100
AcDbEntity
  8
0
100
AcDbLine
 10
342.2342135766299
 20
11.51479279940697
 30
0.0
 11
340.9326346565927
 21
11.51479279940693
 31
0.0
  0
LINE
  5
615F
330
1E
100
AcDbEntity
  8
0
100
AcDbLine
 10
344.2342135766298
 20
17.48520720059311
 30
0.0
 11
344.2342135766298
 21
13.51479279940697
 31
0.0
  0
LINE
  5
6160
330
1E
100
AcDbEntity
  8
中心線
100
AcDbLine
 10
341.9326346565927
 20
15.50000000000006
 30
0.0
 11
337.7326346565927
 21
15.50000000000006
 31
0.0
  0
LINE
  5
6161
330
1E
100
AcDbEntity
  8
中心線
100
AcDbLine
 10
344.2342135766298
 20
15.50000000000006
 30
0.0
 11
333.5889880487008
 21
15.50000000000006
 31
0.0
  0
LINE
  5
6162
330
1E
100
AcDbEntity
  8
中心線
100
AcDbLine
 10
346.2030338445607
 20
15.50000000000017
 30
0.0
 11
339.0225373069462
 21
15.50000000000017
 31
0.0
  0
LINE
  5
616A
330
1E
100
AcDbEntity
  8
0
100
AcDbLine
 10
343.7342135766297
 20
18.80987103233438
 30
0.0
 11
343.7342135766298
 21
27.46109029590008
 31
0.0
  0
ARC
  5
619D
330
1E
100
AcDbEntity
  8
0
100
AcDbCircle
 10
179.5342135766301
 20
17.48520720059311
 30
0.0
 40
2.0
100
AcDbArc
 50
89.99999999999952
 51
180.0
  0
ARC
  5
619E
330
1E
100
AcDbEntity
  8
0
100
AcDbCircle
 10
179.5342135766301
 20
13.51479279940698
 30
0.0
 40
2.0
100
AcDbArc
 50
180.0
 51
269.9999999999981
  0
ARC
  5
619F
330
1E
100
AcDbEntity
  8
0
100
AcDbCircle
 10
342.2342135766298
 20
17.48520720059311
 30
0.0
 40
2.0
100
AcDbArc
 50
0.0
 51
90.00000000000049
  0
ARC
  5
61A0
330
1E
100
AcDbEntity
  8
0
100
AcDbCircle
 10
342.2342135766298
 20
13.51479279940697
 30
0.0
 40
2.0
100
AcDbArc
 50
270.0000000000019
 51
0.0
  0
ARC
  5
620E
330
1E
100
AcDbEntity
  8
0
100
AcDbCircle
 10
179.53421357663
 20
126.5771701290239
 30
0.0
 40
2.0
100
AcDbArc
 50
180.0
 51
269.9999999999981
  0
ARC
  5
620F
330
1E
100
AcDbEntity
  8
0
100
AcDbCircle
 10
179.5342135766301
 20
130.54758453021
 30
0.0
 40
2.0
100
AcDbArc
 50
89.99999999999952
 51
180.0
  0
LINE
  5
6210
330
1E
100
AcDbEntity
  8
0
100
AcDbLine
 10
179.5342135766301
 20
132.54758453021
 30
0.0
 11
180.8357924966671
 21
132.54758453021
 31
0.0
  0
LINE
  5
6211
330
1E
100
AcDbEntity
  8
0
100
AcDbLine
 10
179.53421357663
 20
124.5771701290239
 30
0.0
 11
180.8357924966671
 21
124.5771701290238
 31
0.0
  0
LINE
  5
6212
330
1E
100
AcDbEntity
  8
0
100
AcDbLine
 10
177.5342135766301
 20
130.54758453021
 30
0.0
 11
177.53421357663
 21
126.5771701290239
 31
0.0
  0
ARC
  5
6216
330
1E
100
AcDbEntity
  8
0
100
AcDbCircle
 10
179.53421357663
 20
126.5475845302104
 30
0.0
 40
2.0
100
AcDbArc
 50
179.5762136493503
 51
180.0
  0
ARC
  5
6218
330
1E
100
AcDbEntity
  8
0
100
AcDbCircle
 10
179.53421357663
 20
208.5771701290246
 30
0.0
 40
2.0
100
AcDbArc
 50
180.0
 51
269.9999999999981
  0
ARC
  5
6219
330
1E
100
AcDbEntity
  8
0
100
AcDbCircle
 10
179.5342135766301
 20
212.5475845302108
 30
0.0
 40
2.0
100
AcDbArc
 50
89.99999999999952
 51
180.0
  0
LINE
  5
621A
330
1E
100
AcDbEntity
  8
0
100
AcDbLine
 10
179.5342135766301
 20
214.5475845302108
 30
0.0
 11
180.8357924966671
 21
214.5475845302108
 31
0.0
  0
LINE
  5
621B
330
1E
100
AcDbEntity
  8
0
100
AcDbLine
 10
179.53421357663
 20
206.5771701290246
 30
0.0
 11
180.8357924966671
 21
206.5771701290246
 31
0.0
  0
LINE
  5
621C
330
1E
100
AcDbEntity
  8
0
100
AcDbLine
 10
177.5342135766301
 20
212.5475845302108
 30
0.0
 11
177.53421357663
 21
208.5771701290246
 31
0.0
  0
ARC
  5
6221
330
1E
100
AcDbEntity
  8
0
100
AcDbCircle
 10
179.5342135766301
 20
212.5771701290243
 30
0.0
 40
2.0
100
AcDbArc
 50
180.0
 51
180.4237863506496
  0
LINE
  5
6239
330
1E
100
AcDbEntity
  8
中心線
100
AcDbLine
 10
346.031067931947
 20
210.5623773296172
 30
0.0
 11
335.3858424040179
 21
210.5623773296172
 31
0.0
  0
ARC
  5
623A
330
1E
100
AcDbEntity
  8
0
100
AcDbCircle
 10
342.2342135766296
 20
208.5771701290246
 30
0.0
 40
2.0
100
AcDbArc
 50
270.0000000000019
 51
0.000000000000007
  0
ARC
  5
623B
330
1E
100
AcDbEntity
  8
0
100
AcDbCircle
 10
342.2342135766296
 20
212.5475845302107
 30
0.0
 40
2.0
100
AcDbArc
 50
0.000000000000007
 51
90.00000000000047
  0
LINE
  5
623C
330
1E
100
AcDbEntity
  8
0
100
AcDbLine
 10
342.2342135766296
 20
214.5475845302107
 30
0.0
 11
340.9326346565925
 21
214.5475845302107
 31
0.0
  0
LINE
  5
623D
330
1E
100
AcDbEntity
  8
0
100
AcDbLine
 10
342.2342135766297
 20
206.5771701290246
 30
0.0
 11
340.9326346565925
 21
206.5771701290245
 31
0.0
  0
LINE
  5
623E
330
1E
100
AcDbEntity
  8
0
100
AcDbLine
 10
344.2342135766296
 20
212.5475845302107
 30
0.0
 11
344.2342135766296
 21
208.5771701290246
 31
0.0
  0
ARC
  5
6242
330
1E
100
AcDbEntity
  8
0
100
AcDbCircle
 10
342.2342135766296
 20
212.5771701290243
 30
0.0
 40
2.0
100
AcDbArc
 50
359.5762136493505
 51
0.000000000000007
  0
LINE
  5
6244
330
1E
100
AcDbEntity
  8
中心線
100
AcDbLine
 10
346.3296954984863
 20
128.5623773296169
 30
0.0
 11
335.6844699705573
 21
128.5623773296169
 31
0.0
  0
ARC
  5
6245
330
1E
100
AcDbEntity
  8
0
100
AcDbCircle
 10
342.2342135766296
 20
126.5771701290239
 30
0.0
 40
2.0
100
AcDbArc
 50
270.0000000000019
 51
0.000000000000007
  0
ARC
  5
6246
330
1E
100
AcDbEntity
  8
0
100
AcDbCircle
 10
342.2342135766296
 20
130.54758453021
 30
0.0
 40
2.0
100
AcDbArc
 50
0.000000000000007
 51
90.00000000000047
  0
LINE
  5
6247
330
1E
100
AcDbEntity
  8
0
100
AcDbLine
 10
342.2342135766296
 20
132.54758453021
 30
0.0
 11
340.9326346565925
 21
132.54758453021
 31
0.0
  0
LINE
  5
6248
330
1E
100
AcDbEntity
  8
0
100
AcDbLine
 10
342.2342135766297
 20
124.5771701290239
 30
0.0
 11
340.9326346565925
 21
124.5771701290238
 31
0.0
  0
LINE
  5
6249
330
1E
100
AcDbEntity
  8
0
100
AcDbLine
 10
344.2342135766296
 20
130.54758453021
 30
0.0
 11
344.2342135766296
 21
126.5771701290239
 31
0.0
  0
ARC
  5
624C
330
1E
100
AcDbEntity
  8
0
100
AcDbCircle
 10
342.2342135766296
 20
126.5475845302103
 30
0.0
 40
2.0
100
AcDbArc
 50
0.000000000000007
 51
0.4237863506496294
  0
LINE
  5
62C5
330
1E
100
AcDbEntity
  8
0
100
AcDbLine
 10
178.0342135766301
 20
143.062377329617
 30
0.0
 11
178.0342135766301
 21
164.2290439962837
 31
0.0
  0
LINE
  5
6384
330
1E
100
AcDbEntity
  8
0
100
AcDbLine
 10
178.0342135766301
 20
150.0759189268671
 30
0.0
 11
180.8342135766299
 21
148.8611579987671
 31
0.0
  0
LINE
  5
6385
330
1E
100
AcDbEntity
  8
0
100
AcDbLine
 10
178.03421357663
 20
143.095069637267
 30
0.0
 11
180.8342135766299
 21
140.1623773296672
 31
0.0
  0
LINE
  5
6386
330
1E
100
AcDbEntity
  8
0
100
AcDbLine
 10
178.03421357663
 20
196.0296850219671
 30
0.0
 11
180.8342135766299
 21
198.9623773295669
 31
0.0
  0
LINE
  5
6387
330
1E
100
AcDbEntity
  8
0
100
AcDbLine
 10
178.0342135766301
 20
189.048835732367
 30
0.0
 11
180.8342135766299
 21
190.2635966604671
 31
0.0
  0
LINE
  5
6388
330
1E
100
AcDbEntity
  8
0
100
AcDbLine
 10
178.0342135766301
 20
196.0623773296172
 30
0.0
 11
178.0342135766301
 21
174.8957106629504
 31
0.0
  0
LINE
  5
639F
330
1E
100
AcDbEntity
  8
0
100
AcDbLine
 10
343.7342135766295
 20
143.062377329617
 30
0.0
 11
343.7342135766295
 21
174.8957106629504
 31
0.0
  0
LINE
  5
63A0
330
1E
100
AcDbEntity
  8
0
100
AcDbLine
 10
343.7342135766295
 20
150.0759189268672
 30
0.0
 11
340.9342135766296
 21
148.8611579987671
 31
0.0
  0
LINE
  5
63A1
330
1E
100
AcDbEntity
  8
0
100
AcDbLine
 10
343.7342135766295
 20
143.0950696372671
 30
0.0
 11
340.9342135766296
 21
140.1623773296672
 31
0.0
  0
LINE
  5
63A2
330
1E
100
AcDbEntity
  8
0
100
AcDbLine
 10
343.7342135766295
 20
196.0296850219671
 30
0.0
 11
340.9342135766296
 21
198.962377329567
 31
0.0
  0
LINE
  5
63A3
330
1E
100
AcDbEntity
  8
0
100
AcDbLine
 10
343.7342135766295
 20
189.048835732367
 30
0.0
 11
340.9342135766296
 21
190.2635966604671
 31
0.0
  0
LINE
  5
63A4
330
1E
100
AcDbEntity
  8
0
100
AcDbLine
 10
343.7342135766295
 20
196.0623773296172
 30
0.0
 11
343.7342135766295
 21
174.8957106629504
 31
0.0
  0
LINE
  5
63A6
330
1E
100
AcDbEntity
  8
0
 48
0.27
100
AcDbLine
 10
176.80609607663
 20
45.00045843125022
 30
0.0
 11
176.8060960766298
 21
50.00047838788267
 31
0.0
  0
ARC
  5
63A7
330
1E
100
AcDbEntity
  8
0
 48
0.27
100
AcDbCircle
 10
180.4987348266298
 20
47.50047838788275
 30
0.0
 40
3.69263874999997
100
AcDbArc
 50
137.3886784721743
 51
222.6118639138355
  0
LINE
  5
63D4
330
1E
100
AcDbEntity
  8
0
 48
0.27
100
AcDbLine
 10
180.83421357663
 20
121.0623773296169
 30
0.0
 11
180.83421357663
 21
218.0623773296172
 31
0.0
  0
LINE
  5
63D5
330
1E
100
AcDbEntity
  8
0
100
AcDbLine
 10
177.7811118059946
 20
45.00045717682984
 30
0.0
 11
180.83421357663
 21
45.00045324881823
 31
0.0
  0
LINE
  5
6402
330
1E
100
AcDbEntity
  8
虛線
 48
0.27
100
AcDbLine
 10
218.25921357663
 20
55.39999999999986
 30
0.0
 11
218.25921357663
 21
33.749997
 31
0.0
  0
LINE
  5
6403
330
1E
100
AcDbEntity
  8
虛線
 48
0.27
100
AcDbLine
 10
217.38421357663
 20
55.39999999999998
 30
0.0
 11
217.38421357663
 21
38.99999999999997
 31
0.0
  0
LINE
  5
6404
330
1E
100
AcDbEntity
  8
虛線
 48
0.27
100
AcDbLine
 10
228.50921357663
 20
55.39999999999986
 30
0.0
 11
228.50921357663
 21
33.749997
 31
0.0
  0
LINE
  5
6405
330
1E
100
AcDbEntity
  8
虛線
 48
0.27
100
AcDbLine
 10
229.38421357663
 20
55.39999999999998
 30
0.0
 11
229.3842135766296
 21
38.99999999999991
 31
0.0
  0
LINE
  5
6406
330
1E
100
AcDbEntity
  8
中心線
 48
0.27
100
AcDbLine
 10
223.38421357663
 20
59.0
 30
0.0
 11
223.38421357663
 21
29.46597599999995
 31
0.0
  0
LINE
  5
6407
330
1E
100
AcDbEntity
  8
虛線
 48
0.27
100
AcDbLine
 10
228.5113277542981
 20
33.749997
 30
0.0
 11
223.3863277542981
 21
30.67058632748364
 31
0.0
  0
LINE
  5
6408
330
1E
100
AcDbEntity
  8
虛線
 48
0.27
100
AcDbLine
 10
218.2613277542981
 20
33.74999699999989
 30
0.0
 11
223.3863277542981
 21
30.67058632748364
 31
0.0
  0
LINE
  5
6409
330
1E
100
AcDbEntity
  8
虛線
 48
0.27
100
AcDbLine
 10
229.3863277542977
 20
38.99999999999991
 30
0.0
 11
217.3863277542981
 21
38.99999999999997
 31
0.0
  0
LINE
  5
640A
330
1E
100
AcDbEntity
  8
虛線
 48
0.27
100
AcDbLine
 10
228.5113277542981
 20
33.749997
 30
0.0
 11
218.2613277542981
 21
33.749997
 31
0.0
  0
LINE
  5
640B
330
1E
100
AcDbEntity
  8
虛線
 48
0.27
100
AcDbLine
 10
217.38421357663
 20
55.39999999999998
 30
0.0
 11
229.38421357663
 21
55.39999999999998
 31
0.0
  0
LINE
  5
640C
330
1E
100
AcDbEntity
  8
虛線
 48
0.27
100
AcDbLine
 10
217.38421357663
 20
55.39999999999998
 30
0.0
 11
215.7842135766299
 21
57.00000000000011
 31
0.0
  0
LINE
  5
640D
330
1E
100
AcDbEntity
  8
虛線
 48
0.27
100
AcDbLine
 10
230.9842135766297
 20
57.00000000000011
 30
0.0
 11
229.38421357663
 21
55.39999999999998
 31
0.0
  0
LINE
  5
640E
330
1E
100
AcDbEntity
  8
虛線
 48
0.27
100
AcDbLine
 10
293.2592135766299
 20
55.39999999999986
 30
0.0
 11
293.2592135766299
 21
33.749997
 31
0.0
  0
LINE
  5
640F
330
1E
100
AcDbEntity
  8
虛線
 48
0.27
100
AcDbLine
 10
292.3842135766299
 20
55.39999999999998
 30
0.0
 11
292.3842135766299
 21
38.99999999999997
 31
0.0
  0
LINE
  5
6410
330
1E
100
AcDbEntity
  8
虛線
 48
0.27
100
AcDbLine
 10
303.5092135766299
 20
55.39999999999986
 30
0.0
 11
303.5092135766299
 21
33.749997
 31
0.0
  0
LINE
  5
6411
330
1E
100
AcDbEntity
  8
虛線
 48
0.27
100
AcDbLine
 10
304.3842135766299
 20
55.39999999999998
 30
0.0
 11
304.3842135766295
 21
38.99999999999991
 31
0.0
  0
LINE
  5
6412
330
1E
100
AcDbEntity
  8
中心線
 48
0.27
100
AcDbLine
 10
298.3842135766299
 20
59.0
 30
0.0
 11
298.3842135766299
 21
29.46597599999995
 31
0.0
  0
LINE
  5
6413
330
1E
100
AcDbEntity
  8
虛線
 48
0.27
100
AcDbLine
 10
303.511327754298
 20
33.749997
 30
0.0
 11
298.386327754298
 21
30.67058632748364
 31
0.0
  0
LINE
  5
6414
330
1E
100
AcDbEntity
  8
虛線
 48
0.27
100
AcDbLine
 10
293.261327754298
 20
33.74999699999989
 30
0.0
 11
298.386327754298
 21
30.67058632748364
 31
0.0
  0
LINE
  5
6415
330
1E
100
AcDbEntity
  8
虛線
 48
0.27
100
AcDbLine
 10
304.3863277542976
 20
38.99999999999991
 30
0.0
 11
292.386327754298
 21
38.99999999999997
 31
0.0
  0
LINE
  5
6416
330
1E
100
AcDbEntity
  8
虛線
 48
0.27
100
AcDbLine
 10
303.511327754298
 20
33.749997
 30
0.0
 11
293.261327754298
 21
33.749997
 31
0.0
  0
LINE
  5
6417
330
1E
100
AcDbEntity
  8
虛線
 48
0.27
100
AcDbLine
 10
292.3842135766299
 20
55.39999999999998
 30
0.0
 11
304.3842135766299
 21
55.39999999999998
 31
0.0
  0
LINE
  5
6418
330
1E
100
AcDbEntity
  8
虛線
 48
0.27
100
AcDbLine
 10
292.3842135766299
 20
55.39999999999998
 30
0.0
 11
290.7842135766298
 21
57.00000000000011
 31
0.0
  0
LINE
  5
6419
330
1E
100
AcDbEntity
  8
虛線
 48
0.27
100
AcDbLine
 10
305.9842135766296
 20
57.00000000000011
 30
0.0
 11
304.3842135766299
 21
55.39999999999998
 31
0.0
  0
ENDSEC
  0
SECTION
  2
OBJECTS
  0
DICTIONARY
  5
C
330
0
100
AcDbDictionary
281
     1
  3
ACAD_COLOR
350
3D97
  3
ACAD_GROUP
350
D
  3
ACAD_LAYOUT
350
19
  3
ACAD_MATERIAL
350
3D96
  3
ACAD_MLINESTYLE
350
16
  3
ACAD_PLOTSETTINGS
350
18
  3
ACAD_PLOTSTYLENAME
350
E
  3
ACAD_TABLESTYLE
350
5FE2
  3
ACAD_VISUALSTYLE
350
63E6
  3
AcDbVariableDictionary
350
3E63
  3
DWGPROPS
350
6443
  0
DICTIONARY
  5
43C2
330
2
100
AcDbDictionary
280
     1
281
     1
  3
ACAD_LAYERSTATES
360
43C3
  0
DICTIONARY
  5
3D1E
330
1E
100
AcDbDictionary
280
     1
281
     1
  3
ACAD_LAYOUTSELFREF
360
3D92
  0
DICTIONARY
  5
3D20
330
1A
100
AcDbDictionary
280
     1
281
     1
  3
ACAD_LAYOUTSELFREF
360
3D91
  0
DICTIONARY
  5
3D97
102
{ACAD_REACTORS
330
C
102
}
330
C
100
AcDbDictionary
281
     1
  0
DICTIONARY
  5
D
102
{ACAD_REACTORS
330
C
102
}
330
C
100
AcDbDictionary
281
     1
  3
*A1
350
4143
  3
*A10
350
423E
  3
*A11
350
423F
  3
*A12
350
579E
  3
*A13
350
4374
  3
*A14
350
437D
  3
*A15
350
437F
  3
*A16
350
414B
  3
*A17
350
4375
  3
*A18
350
4145
  3
*A19
350
4376
  3
*A2
350
4237
  3
*A20
350
437A
  3
*A21
350
43B7
  3
*A22
350
43B9
  3
*A23
350
57D9
  3
*A24
350
437B
  3
*A25
350
414D
  3
*A26
350
437C
  3
*A27
350
4146
  3
*A28
350
43BC
  3
*A29
350
43BE
  3
*A3
350
4238
  3
*A30
350
43B5
  3
*A31
350
423A
  3
*A32
350
43B6
  3
*A33
350
414E
  3
*A34
350
43C0
  3
*A35
350
4148
  3
*A36
350
43BA
  3
*A37
350
4241
  3
*A38
350
43BB
  3
*A39
350
4144
  3
*A4
350
414A
  3
*A40
350
5691
  3
*A41
350
4147
  3
*A42
350
4378
  3
*A43
350
43BF
  3
*A44
350
414C
  3
*A45
350
4235
  3
*A46
350
414F
  3
*A47
350
437E
  3
*A48
350
4149
  3
*A49
350
4239
  3
*A5
350
423C
  3
*A50
350
423B
  3
*A51
350
43B8
  3
*A52
350
576A
  3
*A53
350
4240
  3
*A54
350
4373
  3
*A55
350
43BD
  3
*A56
350
4236
  3
*A6
350
4377
  3
*A7
350
4379
  3
*A8
350
43C1
  3
*A9
350
423D
  0
DICTIONARY
  5
19
102
{ACAD_REACTORS
330
C
102
}
330
C
100
AcDbDictionary
281
     1
  3
Model
350
21
  3
配置1
350
1D
  0
DICTIONARY
  5
3D96
102
{ACAD_REACTORS
330
C
102
}
330
C
100
AcDbDictionary
281
     1
  3
ByBlock
350
63E4
  3
ByLayer
350
63E3
  3
Global
350
63E5
  0
DICTIONARY
  5
16
102
{ACAD_REACTORS
330
C
102
}
330
C
100
AcDbDictionary
281
     1
  3
Standard
350
17
  0
DICTIONARY
  5
18
102
{ACAD_REACTORS
330
C
102
}
330
C
100
AcDbDictionary
281
     1
  3
LANSRO
350
4150
  0
ACDBDICTIONARYWDFLT
  5
E
102
{ACAD_REACTORS
330
C
102
}
330
C
100
AcDbDictionary
281
     1
  3
Normal
350
F
100
AcDbDictionaryWithDefault
340
F
  0
DICTIONARY
  5
5FE2
102
{ACAD_REACTORS
330
C
102
}
330
C
100
AcDbDictionary
281
     1
  3
Standard
350
5FE3
  0
DICTIONARY
  5
63E6
102
{ACAD_REACTORS
330
C
102
}
330
C
100
AcDbDictionary
281
     1
  3
2dWireframe
350
63EC
  3
3D Hidden
350
63EE
  3
3dWireframe
350
63ED
  3
Basic
350
63EB
  3
Brighten
350
63F2
  3
ColorChange
350
63F6
  3
Conceptual
350
63EF
  3
Dim
350
63F1
  3
Facepattern
350
63F5
  3
Flat
350
63E7
  3
FlatWithEdges
350
63E8
  3
Gouraud
350
63E9
  3
GouraudWithEdges
350
63EA
  3
Linepattern
350
63F4
  3
Realistic
350
63F0
  3
Thicken
350
63F3
  0
DICTIONARY
  5
3E63
102
{ACAD_REACTORS
330
C
102
}
330
C
100
AcDbDictionary
281
     1
  3
CTABLESTYLE
350
5FF0
  3
DIMASSOC
350
3E64
  3
INDEXCTL
350
6442
  3
PROJECTNAME
350
3E65
  3
SORTENTS
350
6441
  0
XRECORD
  5
6443
102
{ACAD_REACTORS
330
C
102
}
330
C
100
AcDbXrecord
280
     1
  1
DWGPROPS COOKIE
  2

  3

  4

  6

  7

  8
tony4321
  9

300
=
301
=
302
=
303
=
304
=
305
=
306
=
307
=
308
=
309
=
 40
0.1425138541666667
 41
2444975.333333334
 42
2454358.487784456
  1

 90
        0
  0
DICTIONARY
  5
43C3
102
{ACAD_REACTORS
330
43C2
102
}
330
43C2
100
AcDbDictionary
281
     1
  0
XRECORD
  5
3D92
102
{ACAD_REACTORS
330
3D1E
102
}
330
3D1E
100
AcDbXrecord
280
     1
340
1E
  0
XRECORD
  5
3D91
102
{ACAD_REACTORS
330
3D20
102
}
330
3D20
100
AcDbXrecord
280
     1
340
1A
  0
GROUP
  5
4143
102
{ACAD_REACTORS
330
D
102
}
330
D
100
AcDbGroup
300

 70
     1
 71
     1
  0
GROUP
  5
423E
102
{ACAD_REACTORS
330
D
102
}
330
D
100
AcDbGroup
300

 70
     1
 71
     1
  0
GROUP
  5
423F
102
{ACAD_REACTORS
330
D
102
}
330
D
100
AcDbGroup
300

 70
     1
 71
     1
  0
GROUP
  5
579E
102
{ACAD_REACTORS
330
D
102
}
330
D
100
AcDbGroup
300

 70
     1
 71
     1
  0
GROUP
  5
4374
102
{ACAD_REACTORS
330
D
102
}
330
D
100
AcDbGroup
300

 70
     1
 71
     1
  0
GROUP
  5
437D
102
{ACAD_REACTORS
330
D
102
}
330
D
100
AcDbGroup
300

 70
     1
 71
     1
  0
GROUP
  5
437F
102
{ACAD_REACTORS
330
D
102
}
330
D
100
AcDbGroup
300

 70
     1
 71
     1
  0
GROUP
  5
414B
102
{ACAD_REACTORS
330
D
102
}
330
D
100
AcDbGroup
300

 70
     1
 71
     1
  0
GROUP
  5
4375
102
{ACAD_REACTORS
330
D
102
}
330
D
100
AcDbGroup
300

 70
     1
 71
     1
  0
GROUP
  5
4145
102
{ACAD_REACTORS
330
D
102
}
330
D
100
AcDbGroup
300

 70
     1
 71
     1
  0
GROUP
  5
4376
102
{ACAD_REACTORS
330
D
102
}
330
D
100
AcDbGroup
300

 70
     1
 71
     1
  0
GROUP
  5
4237
102
{ACAD_REACTORS
330
D
102
}
330
D
100
AcDbGroup
300

 70
     1
 71
     1
  0
GROUP
  5
437A
102
{ACAD_REACTORS
330
D
102
}
330
D
100
AcDbGroup
300

 70
     1
 71
     1
  0
GROUP
  5
43B7
102
{ACAD_REACTORS
330
D
102
}
330
D
100
AcDbGroup
300

 70
     1
 71
     1
  0
GROUP
  5
43B9
102
{ACAD_REACTORS
330
D
102
}
330
D
100
AcDbGroup
300

 70
     1
 71
     1
  0
GROUP
  5
57D9
102
{ACAD_REACTORS
330
D
102
}
330
D
100
AcDbGroup
300

 70
     1
 71
     1
  0
GROUP
  5
437B
102
{ACAD_REACTORS
330
D
102
}
330
D
100
AcDbGroup
300

 70
     1
 71
     1
  0
GROUP
  5
414D
102
{ACAD_REACTORS
330
D
102
}
330
D
100
AcDbGroup
300

 70
     1
 71
     1
  0
GROUP
  5
437C
102
{ACAD_REACTORS
330
D
102
}
330
D
100
AcDbGroup
300

 70
     1
 71
     1
  0
GROUP
  5
4146
102
{ACAD_REACTORS
330
D
102
}
330
D
100
AcDbGroup
300

 70
     1
 71
     1
  0
GROUP
  5
43BC
102
{ACAD_REACTORS
330
D
102
}
330
D
100
AcDbGroup
300

 70
     1
 71
     1
  0
GROUP
  5
43BE
102
{ACAD_REACTORS
330
D
102
}
330
D
100
AcDbGroup
300

 70
     1
 71
     1
  0
GROUP
  5
4238
102
{ACAD_REACTORS
330
D
102
}
330
D
100
AcDbGroup
300

 70
     1
 71
     1
  0
GROUP
  5
43B5
102
{ACAD_REACTORS
330
D
102
}
330
D
100
AcDbGroup
300

 70
     1
 71
     1
  0
GROUP
  5
423A
102
{ACAD_REACTORS
330
D
102
}
330
D
100
AcDbGroup
300

 70
     1
 71
     1
  0
GROUP
  5
43B6
102
{ACAD_REACTORS
330
D
102
}
330
D
100
AcDbGroup
300

 70
     1
 71
     1
  0
GROUP
  5
414E
102
{ACAD_REACTORS
330
D
102
}
330
D
100
AcDbGroup
300

 70
     1
 71
     1
  0
GROUP
  5
43C0
102
{ACAD_REACTORS
330
D
102
}
330
D
100
AcDbGroup
300

 70
     1
 71
     1
  0
GROUP
  5
4148
102
{ACAD_REACTORS
330
D
102
}
330
D
100
AcDbGroup
300

 70
     1
 71
     1
  0
GROUP
  5
43BA
102
{ACAD_REACTORS
330
D
102
}
330
D
100
AcDbGroup
300

 70
     1
 71
     1
  0
GROUP
  5
4241
102
{ACAD_REACTORS
330
D
102
}
330
D
100
AcDbGroup
300

 70
     1
 71
     1
  0
GROUP
  5
43BB
102
{ACAD_REACTORS
330
D
102
}
330
D
100
AcDbGroup
300

 70
     1
 71
     1
  0
GROUP
  5
4144
102
{ACAD_REACTORS
330
D
102
}
330
D
100
AcDbGroup
300

 70
     1
 71
     1
  0
GROUP
  5
414A
102
{ACAD_REACTORS
330
D
102
}
330
D
100
AcDbGroup
300

 70
     1
 71
     1
  0
GROUP
  5
5691
102
{ACAD_REACTORS
330
D
102
}
330
D
100
AcDbGroup
300

 70
     1
 71
     1
  0
GROUP
  5
4147
102
{ACAD_REACTORS
330
D
102
}
330
D
100
AcDbGroup
300

 70
     1
 71
     1
  0
GROUP
  5
4378
102
{ACAD_REACTORS
330
D
102
}
330
D
100
AcDbGroup
300

 70
     1
 71
     1
  0
GROUP
  5
43BF
102
{ACAD_REACTORS
330
D
102
}
330
D
100
AcDbGroup
300

 70
     1
 71
     1
  0
GROUP
  5
414C
102
{ACAD_REACTORS
330
D
102
}
330
D
100
AcDbGroup
300

 70
     1
 71
     1
  0
GROUP
  5
4235
102
{ACAD_REACTORS
330
D
102
}
330
D
100
AcDbGroup
300

 70
     1
 71
     1
  0
GROUP
  5
414F
102
{ACAD_REACTORS
330
D
102
}
330
D
100
AcDbGroup
300

 70
     1
 71
     1
  0
GROUP
  5
437E
102
{ACAD_REACTORS
330
D
102
}
330
D
100
AcDbGroup
300

 70
     1
 71
     1
  0
GROUP
  5
4149
102
{ACAD_REACTORS
330
D
102
}
330
D
100
AcDbGroup
300

 70
     1
 71
     1
  0
GROUP
  5
4239
102
{ACAD_REACTORS
330
D
102
}
330
D
100
AcDbGroup
300

 70
     1
 71
     1
  0
GROUP
  5
423C
102
{ACAD_REACTORS
330
D
102
}
330
D
100
AcDbGroup
300

 70
     1
 71
     1
  0
GROUP
  5
423B
102
{ACAD_REACTORS
330
D
102
}
330
D
100
AcDbGroup
300

 70
     1
 71
     1
  0
GROUP
  5
43B8
102
{ACAD_REACTORS
330
D
102
}
330
D
100
AcDbGroup
300

 70
     1
 71
     1
  0
GROUP
  5
576A
102
{ACAD_REACTORS
330
D
102
}
330
D
100
AcDbGroup
300

 70
     1
 71
     1
  0
GROUP
  5
4240
102
{ACAD_REACTORS
330
D
102
}
330
D
100
AcDbGroup
300

 70
     1
 71
     1
  0
GROUP
  5
4373
102
{ACAD_REACTORS
330
D
102
}
330
D
100
AcDbGroup
300

 70
     1
 71
     1
  0
GROUP
  5
43BD
102
{ACAD_REACTORS
330
D
102
}
330
D
100
AcDbGroup
300

 70
     1
 71
     1
  0
GROUP
  5
4236
102
{ACAD_REACTORS
330
D
102
}
330
D
100
AcDbGroup
300

 70
     1
 71
     1
  0
GROUP
  5
4377
102
{ACAD_REACTORS
330
D
102
}
330
D
100
AcDbGroup
300

 70
     1
 71
     1
  0
GROUP
  5
4379
102
{ACAD_REACTORS
330
D
102
}
330
D
100
AcDbGroup
300

 70
     1
 71
     1
  0
GROUP
  5
43C1
102
{ACAD_REACTORS
330
D
102
}
330
D
100
AcDbGroup
300

 70
     1
 71
     1
  0
GROUP
  5
423D
102
{ACAD_REACTORS
330
D
102
}
330
D
100
AcDbGroup
300

 70
     1
 71
     1
  0
LAYOUT
  5
21
102
{ACAD_XDICTIONARY
360
6446
102
}
102
{ACAD_REACTORS
330
19
102
}
330
19
100
AcDbPlotSettings
  1

  2
HP 2200
  4

  6

 40
0.0
 41
0.0
 42
0.0
 43
0.0
 44
0.0
 45
0.0
 46
0.0
 47
0.0
 48
0.0
 49
0.0
140
0.0
141
0.0
142
1.0
143
1.0
 70
  1712
 72
     0
 73
     0
 74
     0
  7
AAA.ctb
 75
     0
147
1.0
148
0.0
149
0.0
100
AcDbLayout
  1
Model
 70
     1
 71
     0
 10
0.0
 20
0.0
 11
12.0
 21
9.0
 12
0.0
 22
0.0
 32
0.0
 14
0.0
 24
0.0
 34
0.0
 15
0.0
 25
0.0
 35
0.0
146
0.0
 13
0.0
 23
0.0
 33
0.0
 16
1.0
 26
0.0
 36
0.0
 17
0.0
 27
1.0
 37
0.0
 76
     0
330
1E
331
63D8
  0
LAYOUT
  5
1D
102
{ACAD_XDICTIONARY
360
6444
102
}
102
{ACAD_REACTORS
330
19
102
}
330
19
100
AcDbPlotSettings
  1

  2
HP 2200
  4

  6

 40
0.0
 41
0.0
 42
0.0
 43
0.0
 44
0.0
 45
0.0
 46
0.0
 47
0.0
 48
0.0
 49
0.0
140
0.0
141
0.0
142
1.0
143
1.0
 70
   688
 72
     0
 73
     0
 74
     5
  7
AAA.ctb
 75
    16
147
1.0
148
0.0
149
0.0
100
AcDbLayout
  1
配置1
 70
     0
 71
     1
 10
0.0
 20
0.0
 11
12.0
 21
9.0
 12
0.0
 22
0.0
 32
0.0
 14
1.000000000000000E+20
 24
1.000000000000000E+20
 34
1.000000000000000E+20
 15
-1.000000000000000E+20
 25
-1.000000000000000E+20
 35
-1.000000000000000E+20
146
0.0
 13
0.0
 23
0.0
 33
0.0
 16
1.0
 26
0.0
 36
0.0
 17
0.0
 27
1.0
 37
0.0
 76
     0
330
1A
  0
MATERIAL
  5
63E4
102
{ACAD_XDICTIONARY
360
644E
102
}
102
{ACAD_REACTORS
330
3D96
102
}
330
3D96
100
AcDbMaterial
  1
ByBlock
  0
MATERIAL
  5
63E3
102
{ACAD_XDICTIONARY
360
644C
102
}
102
{ACAD_REACTORS
330
3D96
102
}
330
3D96
100
AcDbMaterial
  1
ByLayer
  0
MATERIAL
  5
63E5
102
{ACAD_XDICTIONARY
360
6450
102
}
102
{ACAD_REACTORS
330
3D96
102
}
330
3D96
100
AcDbMaterial
  1
Global
  0
MLINESTYLE
  5
17
102
{ACAD_REACTORS
330
16
102
}
330
16
100
AcDbMlineStyle
  2
STANDARD
 70
     0
  3

 62
   256
 51
90.0
 52
90.0
 71
     2
 49
0.5
 62
   256
  6
BYLAYER
 49
-0.5
 62
   256
  6
BYLAYER
  0
PLOTSETTINGS
  5
4150
102
{ACAD_XDICTIONARY
360
6448
102
}
102
{ACAD_REACTORS
330
18
102
}
330
18
100
AcDbPlotSettings
  1
LANSRO
  2
\\1260\HP2200
  4
A4
  6

 40
6.043083190917968
 41
6.762742042541503
 42
7.736419677734375
 43
5.027069091796875
 44
209.9733276367187
 45
296.9683227539062
 46
5.15
 47
0.0
 48
0.0
 49
0.0
140
0.0
141
0.0
142
1.0
143
0.8829829263240881
 70
  1716
 72
     1
 73
     1
 74
     0
  7
AAA.ctb
 75
     0
147
1.132524729739748
148
-132.297014905803
149
-71.78507365635891
  0
ACDBPLACEHOLDER
  5
F
102
{ACAD_REACTORS
330
E
102
}
330
E
  0
TABLESTYLE
  5
5FE3
102
{ACAD_XDICTIONARY
360
644A
102
}
102
{ACAD_REACTORS
330
5FE2
102
}
330
5FE2
100
AcDbTableStyle
  3
Standard
 70
     0
 71
     0
 40
0.06
 41
0.06
280
     0
281
     0
  7
STANDARD
140
0.18
170
     2
 62
     0
 63
     7
283
     0
274
    -2
284
     1
 64
     0
275
    -2
285
     1
 65
     0
276
    -2
286
     1
 66
     0
277
    -2
287
     1
 67
     0
278
    -2
288
     1
 68
     0
279
    -2
289
     1
 69
     0
  7
STANDARD
140
0.25
170
     5
 62
     0
 63
     7
283
     0
274
    -2
284
     1
 64
     0
275
    -2
285
     1
 65
     0
276
    -2
286
     1
 66
     0
277
    -2
287
     1
 67
     0
278
    -2
288
     1
 68
     0
279
    -2
289
     1
 69
     0
  7
STANDARD
140
0.18
170
     5
 62
     0
 63
     7
283
     0
274
    -2
284
     1
 64
     0
275
    -2
285
     1
 65
     0
276
    -2
286
     1
 66
     0
277
    -2
287
     1
 67
     0
278
    -2
288
     1
 68
     0
279
    -2
289
     1
 69
     0
1001
ACAD
1000
AcRTDxfName
1000
TABLESTYLE
1000
AcRTDxfName
1000
TABLESTYLE
  0
VISUALSTYLE
  5
63EC
102
{ACAD_REACTORS
330
63E6
102
}
330
63E6
100
AcDbVisualStyle
  2
2dWireframe
 70
     4
 71
     0
 72
     2
 73
     0
 90
        0
 40
-0.6
 41
-30.0
 62
     5
 63
     7
 74
     1
 91
        4
 64
     7
 65
   257
 75
     1
175
     1
 42
1.0
 92
        0
 66
   257
 43
1.0
 76
     1
 77
     6
 78
     2
 67
     7
 79
     5
170
     0
171
     0
290
     0
174
     0
 93
        1
 44
0.0
173
     0
291
     0
 45
0.0
1001
ACAD
1000
AcDbSavedByObjectVersion
1070
     0
  0
VISUALSTYLE
  5
63EE
102
{ACAD_REACTORS
330
63E6
102
}
330
63E6
100
AcDbVisualStyle
  2
3D Hidden
 70
     6
 71
     1
 72
     2
 73
     2
 90
        0
 40
-0.6
 41
-30.0
 62
     5
 63
     7
 74
     2
 91
        2
 64
     7
 65
   257
 75
     2
175
     1
 42
40.0
 92
        0
 66
   257
 43
1.0
 76
     1
 77
     6
 78
     2
 67
     7
 79
     3
170
     0
171
     0
290
     0
174
     0
 93
        1
 44
0.0
173
     0
291
     0
 45
0.0
1001
ACAD
1000
AcDbSavedByObjectVersion
1070
     0
  0
VISUALSTYLE
  5
63ED
102
{ACAD_REACTORS
330
63E6
102
}
330
63E6
100
AcDbVisualStyle
  2
3dWireframe
 70
     5
 71
     0
 72
     2
 73
     0
 90
        0
 40
-0.6
 41
-30.0
 62
     5
 63
     7
 74
     1
 91
        4
 64
     7
 65
   257
 75
     1
175
     1
 42
1.0
 92
        0
 66
   257
 43
1.0
 76
     1
 77
     6
 78
     2
 67
     7
 79
     5
170
     0
171
     0
290
     0
174
     0
 93
        1
 44
0.0
173
     0
291
     0
 45
0.0
1001
ACAD
1000
AcDbSavedByObjectVersion
1070
     0
  0
VISUALSTYLE
  5
63EB
102
{ACAD_REACTORS
330
63E6
102
}
330
63E6
100
AcDbVisualStyle
  2
Basic
 70
     7
 71
     1
 72
     0
 73
     1
 90
        0
 40
-0.6
 41
-30.0
 62
     5
 63
     7
 74
     0
 91
        4
 64
     7
 65
   257
 75
     1
175
     1
 42
1.0
 92
        8
 66
     7
 43
1.0
 76
     1
 77
     6
 78
     2
 67
     7
 79
     5
170
     0
171
     0
290
     0
174
     0
 93
        1
 44
0.0
173
     0
291
     1
 45
0.0
1001
ACAD
1000
AcDbSavedByObjectVersion
1070
     0
  0
VISUALSTYLE
  5
63F2
102
{ACAD_REACTORS
330
63E6
102
}
330
63E6
100
AcDbVisualStyle
  2
Brighten
 70
    12
 71
     2
 72
     2
 73
     0
 90
        0
 40
-0.6
 41
-30.0
 62
     5
 63
     7
 74
     1
 91
        4
 64
     7
 65
   257
 75
     1
175
     1
 42
1.0
 92
        8
 66
     7
 43
1.0
 76
     1
 77
     6
 78
     2
 67
     7
 79
     5
170
     0
171
     0
290
     0
174
     0
 93
        1
 44
50.0
173
     0
291
     1
 45
0.0
1001
ACAD
1000
AcDbSavedByObjectVersion
1070
     0
  0
VISUALSTYLE
  5
63F6
102
{ACAD_REACTORS
330
63E6
102
}
330
63E6
100
AcDbVisualStyle
  2
ColorChange
 70
    16
 71
     2
 72
     2
 73
     3
 90
        0
 40
-0.6
 41
-30.0
 62
     5
 63
     8
 74
     1
 91
        4
 64
     7
 65
   257
 75
     1
175
     1
 42
1.0
 92
        8
 66
     8
 43
1.0
 76
     1
 77
     6
 78
     2
 67
     7
 79
     5
170
     0
171
     0
290
     0
174
     0
 93
        1
 44
0.0
173
     0
291
     1
 45
0.0
1001
ACAD
1000
AcDbSavedByObjectVersion
1070
     0
  0
VISUALSTYLE
  5
63EF
102
{ACAD_REACTORS
330
63E6
102
}
330
63E6
100
AcDbVisualStyle
  2
Conceptual
 70
     9
 71
     3
 72
     2
 73
     0
 90
        0
 40
-0.6
 41
-30.0
 62
     5
 63
     7
 74
     2
 91
        2
 64
     7
 65
   257
 75
     1
175
     1
 42
40.0
 92
        8
 66
     7
 43
1.0
 76
     1
 77
     6
 78
     2
 67
     7
 79
     3
170
     0
171
     0
290
     0
174
     0
 93
        1
 44
0.0
173
     0
291
     0
 45
0.0
1001
ACAD
1000
AcDbSavedByObjectVersion
1070
     0
  0
VISUALSTYLE
  5
63F1
102
{ACAD_REACTORS
330
63E6
102
}
330
63E6
100
AcDbVisualStyle
  2
Dim
 70
    11
 71
     2
 72
     2
 73
     0
 90
        0
 40
-0.6
 41
-30.0
 62
     5
 63
     7
 74
     1
 91
        4
 64
     7
 65
   257
 75
     1
175
     1
 42
1.0
 92
        8
 66
     7
 43
1.0
 76
     1
 77
     6
 78
     2
 67
     7
 79
     5
170
     0
171
     0
290
     0
174
     0
 93
        1
 44
-50.0
173
     0
291
     1
 45
0.0
1001
ACAD
1000
AcDbSavedByObjectVersion
1070
     0
  0
VISUALSTYLE
  5
63F5
102
{ACAD_REACTORS
330
63E6
102
}
330
63E6
100
AcDbVisualStyle
  2
Facepattern
 70
    15
 71
     2
 72
     2
 73
     0
 90
        0
 40
-0.6
 41
-30.0
 62
     5
 63
     7
 74
     1
 91
        4
 64
     7
 65
   257
 75
     1
175
     1
 42
1.0
 92
        8
 66
     7
 43
1.0
 76
     1
 77
     6
 78
     2
 67
     7
 79
     5
170
     0
171
     0
290
     0
174
     0
 93
        1
 44
0.0
173
     0
291
     1
 45
0.0
1001
ACAD
1000
AcDbSavedByObjectVersion
1070
     0
  0
VISUALSTYLE
  5
63E7
102
{ACAD_REACTORS
330
63E6
102
}
330
63E6
100
AcDbVisualStyle
  2
Flat
 70
     0
 71
     2
 72
     1
 73
     1
 90
        2
 40
-0.6
 41
30.0
 62
     5
 63
     7
 74
     0
 91
        4
 64
     7
 65
   257
 75
     1
175
     1
 42
1.0
 92
        8
 66
     7
 43
1.0
 76
     1
 77
     6
 78
     2
 67
     7
 79
     5
170
     0
171
     0
290
     0
174
     0
 93
       13
 44
0.0
173
     0
291
     1
 45
0.0
1001
ACAD
1000
AcDbSavedByObjectVersion
1070
     0
  0
VISUALSTYLE
  5
63E8
102
{ACAD_REACTORS
330
63E6
102
}
330
63E6
100
AcDbVisualStyle
  2
FlatWithEdges
 70
     1
 71
     2
 72
     1
 73
     1
 90
        2
 40
-0.6
 41
30.0
 62
     5
 63
     7
 74
     1
 91
        4
 64
     7
 65
   257
 75
     1
175
     1
 42
1.0
 92
        0
 66
   257
 43
1.0
 76
     1
 77
     6
 78
     2
 67
     7
 79
     5
170
     0
171
     0
290
     0
174
     0
 93
       13
 44
0.0
173
     0
291
     1
 45
0.0
1001
ACAD
1000
AcDbSavedByObjectVersion
1070
     0
  0
VISUALSTYLE
  5
63E9
102
{ACAD_REACTORS
330
63E6
102
}
330
63E6
100
AcDbVisualStyle
  2
Gouraud
 70
     2
 71
     2
 72
     2
 73
     1
 90
        2
 40
-0.6
 41
30.0
 62
     5
 63
     7
 74
     0
 91
        4
 64
     7
 65
   257
 75
     1
175
     1
 42
1.0
 92
        0
 66
     7
 43
1.0
 76
     1
 77
     6
 78
     2
 67
     7
 79
     5
170
     0
171
     0
290
     0
174
     0
 93
       13
 44
0.0
173
     0
291
     1
 45
0.0
1001
ACAD
1000
AcDbSavedByObjectVersion
1070
     0
  0
VISUALSTYLE
  5
63EA
102
{ACAD_REACTORS
330
63E6
102
}
330
63E6
100
AcDbVisualStyle
  2
GouraudWithEdges
 70
     3
 71
     2
 72
     2
 73
     1
 90
        2
 40
-0.6
 41
30.0
 62
     5
 63
     7
 74
     1
 91
        4
 64
     7
 65
   257
 75
     1
175
     1
 42
1.0
 92
        0
 66
   257
 43
1.0
 76
     1
 77
     6
 78
     2
 67
     7
 79
     5
170
     0
171
     0
290
     0
174
     0
 93
       13
 44
0.0
173
     0
291
     1
 45
0.0
1001
ACAD
1000
AcDbSavedByObjectVersion
1070
     0
  0
VISUALSTYLE
  5
63F4
102
{ACAD_REACTORS
330
63E6
102
}
330
63E6
100
AcDbVisualStyle
  2
Linepattern
 70
    14
 71
     2
 72
     2
 73
     0
 90
        0
 40
-0.6
 41
-30.0
 62
     5
 63
     7
 74
     1
 91
        4
 64
     7
 65
   257
 75
     7
175
     7
 42
1.0
 92
        8
 66
     7
 43
1.0
 76
     1
 77
     6
 78
     2
 67
     7
 79
     5
170
     0
171
     0
290
     0
174
     0
 93
        1
 44
0.0
173
     0
291
     1
 45
0.0
1001
ACAD
1000
AcDbSavedByObjectVersion
1070
     0
  0
VISUALSTYLE
  5
63F0
102
{ACAD_REACTORS
330
63E6
102
}
330
63E6
100
AcDbVisualStyle
  2
Realistic
 70
     8
 71
     2
 72
     2
 73
     0
 90
        0
 40
-0.6
 41
-30.0
 62
     5
 63
     7
 74
     1
 91
        0
 64
     7
 65
   257
 75
     1
175
     1
 42
1.0
 92
        8
 66
     8
 43
1.0
 76
     1
 77
     6
 78
     2
 67
     7
 79
     5
170
     0
171
     0
290
     0
174
     0
 93
       13
 44
0.0
173
     0
291
     0
 45
0.0
1001
ACAD
1000
AcDbSavedByObjectVersion
1070
     0
  0
VISUALSTYLE
  5
63F3
102
{ACAD_REACTORS
330
63E6
102
}
330
63E6
100
AcDbVisualStyle
  2
Thicken
 70
    13
 71
     2
 72
     2
 73
     0
 90
        0
 40
-0.6
 41
-30.0
 62
     5
 63
     7
 74
     1
 91
        4
 64
     7
 65
   257
 75
     1
175
     1
 42
1.0
 92
       12
 66
     7
 43
1.0
 76
     1
 77
     6
 78
     2
 67
     7
 79
     5
170
     0
171
     0
290
     0
174
     0
 93
        1
 44
0.0
173
     0
291
     1
 45
0.0
1001
ACAD
1000
AcDbSavedByObjectVersion
1070
     0
  0
DICTIONARYVAR
  5
5FF0
102
{ACAD_REACTORS
330
3E63
102
}
330
3E63
100
DictionaryVariables
280
     0
  1
STANDARD
  0
DICTIONARYVAR
  5
3E64
102
{ACAD_REACTORS
330
3E63
102
}
330
3E63
100
DictionaryVariables
280
     0
  1
1
  0
DICTIONARYVAR
  5
6442
102
{ACAD_REACTORS
330
3E63
102
}
330
3E63
100
DictionaryVariables
280
     0
  1
0
  0
DICTIONARYVAR
  5
3E65
102
{ACAD_REACTORS
330
3E63
102
}
330
3E63
100
DictionaryVariables
280
     0
  1

  0
DICTIONARYVAR
  5
6441
102
{ACAD_REACTORS
330
3E63
102
}
330
3E63
100
DictionaryVariables
280
     0
  1
127
  0
DICTIONARY
  5
6446
330
21
100
AcDbDictionary
280
     1
281
     1
  3
ACAD_XREC_ROUNDTRIP
360
6447
  0
DICTIONARY
  5
6444
330
1D
100
AcDbDictionary
280
     1
281
     1
  3
ACAD_XREC_ROUNDTRIP
360
6445
  0
DICTIONARY
  5
644E
330
63E4
100
AcDbDictionary
280
     1
281
     1
  3
ACAD_XREC_ROUNDTRIP
360
644F
  0
DICTIONARY
  5
644C
330
63E3
100
AcDbDictionary
280
     1
281
     1
  3
ACAD_XREC_ROUNDTRIP
360
644D
  0
DICTIONARY
  5
6450
330
63E5
100
AcDbDictionary
280
     1
281
     1
  3
ACAD_XREC_ROUNDTRIP
360
6451
  0
DICTIONARY
  5
6448
330
4150
100
AcDbDictionary
280
     1
281
     1
  3
ACAD_XREC_ROUNDTRIP
360
6449
  0
DICTIONARY
  5
644A
330
5FE3
100
AcDbDictionary
280
     1
281
     1
  3
ACAD_XREC_ROUNDTRIP
360
644B
  0
XRECORD
  5
6447
102
{ACAD_REACTORS
330
6446
102
}
330
6446
100
AcDbXrecord
280
     1
102
SHADEPLOT
 70
     0
102
SHADEPLOTRESLEVEL
 70
     2
102
SHADEPLOTCUSTOMDPI
 70
   300
  0
XRECORD
  5
6445
102
{ACAD_REACTORS
330
6444
102
}
330
6444
100
AcDbXrecord
280
     1
102
SHADEPLOT
 70
     0
102
SHADEPLOTRESLEVEL
 70
     2
102
SHADEPLOTCUSTOMDPI
 70
   300
  0
XRECORD
  5
644F
102
{ACAD_REACTORS
330
644E
102
}
330
644E
100
AcDbXrecord
280
     1
102
MATERIAL
148
0.0
149
0.0
149
0.0
 93
        0
 94
       63
282
     0
 72
     1
 77
     1
171
     1
175
     1
179
     1
273
     0
  0
XRECORD
  5
644D
102
{ACAD_REACTORS
330
644C
102
}
330
644C
100
AcDbXrecord
280
     1
102
MATERIAL
148
0.0
149
0.0
149
0.0
 93
        0
 94
       63
282
     0
 72
     1
 77
     1
171
     1
175
     1
179
     1
273
     0
  0
XRECORD
  5
6451
102
{ACAD_REACTORS
330
6450
102
}
330
6450
100
AcDbXrecord
280
     1
102
MATERIAL
148
0.0
149
0.0
149
0.0
 93
        0
 94
       63
282
     0
 72
     1
 77
     1
171
     1
175
     1
179
     1
273
     0
  0
XRECORD
  5
6449
102
{ACAD_REACTORS
330
6448
102
}
330
6448
100
AcDbXrecord
280
     1
102
SHADEPLOT
 70
     0
102
SHADEPLOTRESLEVEL
 70
     2
102
SHADEPLOTCUSTOMDPI
 70
   300
  0
XRECORD
  5
644B
102
{ACAD_REACTORS
330
644A
102
}
330
644A
100
AcDbXrecord
280
     1
102
ACAD_ROUNDTRIP_PRE2007_TABLESTYLE
 90
        4
 91
        0
  1

 92
        4
 93
        0
  2

 94
        4
 95
        0
  3

  0
ENDSEC
  0
EOF
