  0
SECTION
  2
HEADER
  9
$ACADVER
  1
AC1015
  9
$ACADMAINTVER
 70
    20
  9
$DWGCODEPAGE
  3
ANSI_950
  9
$INSBASE
 10
0.0
 20
0.0
 30
0.0
  9
$EXTMIN
 10
-67.48127529301553
 20
-428.3249882612897
 30
-0.0015258207003583
  9
$EXTMAX
 10
334.9045280193509
 20
-162.1948671657467
 30
0.0000000349246037
  9
$LIMMIN
 10
-10.0
 20
-15.0
  9
$LIMMAX
 10
120.0
 20
90.0
  9
$ORTHOMODE
 70
     1
  9
$REGENMODE
 70
     0
  9
$FILLMODE
 70
     1
  9
$QTEXTMODE
 70
     0
  9
$MIRRTEXT
 70
     0
  9
$LTSCALE
 40
3.0
  9
$ATTMODE
 70
     1
  9
$TEXTSIZE
 40
3.0
  9
$TRACEWID
 40
1.0
  9
$TEXTSTYLE
  7
STANDARD
  9
$CLAYER
  8
0
  9
$CELTYPE
  6
ByLayer
  9
$CECOLOR
 62
   256
  9
$CELTSCALE
 40
1.0
  9
$DISPSILH
 70
     0
  9
$DIMSCALE
 40
1.0
  9
$DIMASZ
 40
3.0
  9
$DIMEXO
 40
1.0
  9
$DIMDLI
 40
6.0
  9
$DIMRND
 40
0.0
  9
$DIMDLE
 40
0.0
  9
$DIMEXE
 40
1.0
  9
$DIMTP
 40
0.0
  9
$DIMTM
 40
0.0
  9
$DIMTXT
 40
3.0
  9
$DIMCEN
 40
1.5
  9
$DIMTSZ
 40
0.0
  9
$DIMTOL
 70
     0
  9
$DIMLIM
 70
     0
  9
$DIMTIH
 70
     1
  9
$DIMTOH
 70
     1
  9
$DIMSE1
 70
     0
  9
$DIMSE2
 70
     0
  9
$DIMTAD
 70
     0
  9
$DIMZIN
 70
     0
  9
$DIMBLK
  1

  9
$DIMASO
 70
     1
  9
$DIMSHO
 70
     0
  9
$DIMPOST
  1

  9
$DIMAPOST
  1

  9
$DIMALT
 70
     0
  9
$DIMALTD
 70
     2
  9
$DIMALTF
 40
25.4
  9
$DIMLFAC
 40
1.0
  9
$DIMTOFL
 70
     1
  9
$DIMTVP
 40
0.0
  9
$DIMTIX
 70
     0
  9
$DIMSOXD
 70
     0
  9
$DIMSAH
 70
     0
  9
$DIMBLK1
  1

  9
$DIMBLK2
  1

  9
$DIMSTYLE
  2
Standard
  9
$DIMCLRD
 70
     0
  9
$DIMCLRE
 70
     0
  9
$DIMCLRT
 70
     0
  9
$DIMTFAC
 40
1.0
  9
$DIMGAP
 40
0.09
  9
$DIMJUST
 70
     0
  9
$DIMSD1
 70
     0
  9
$DIMSD2
 70
     0
  9
$DIMTOLJ
 70
     1
  9
$DIMTZIN
 70
     0
  9
$DIMALTZ
 70
     0
  9
$DIMALTTZ
 70
     0
  9
$DIMUPT
 70
     0
  9
$DIMDEC
 70
     8
  9
$DIMTDEC
 70
     8
  9
$DIMALTU
 70
     2
  9
$DIMALTTD
 70
     2
  9
$DIMTXSTY
  7
STANDARD
  9
$DIMAUNIT
 70
     0
  9
$DIMADEC
 70
     8
  9
$DIMALTRND
 40
0.0
  9
$DIMAZIN
 70
     0
  9
$DIMDSEP
 70
    46
  9
$DIMATFIT
 70
     3
  9
$DIMFRAC
 70
     0
  9
$DIMLDRBLK
  1

  9
$DIMLUNIT
 70
     2
  9
$DIMLWD
 70
    -2
  9
$DIMLWE
 70
    -2
  9
$DIMTMOVE
 70
     2
  9
$LUNITS
 70
     2
  9
$LUPREC
 70
     4
  9
$SKETCHINC
 40
0.5
  9
$FILLETRAD
 40
0.0
  9
$AUNITS
 70
     0
  9
$AUPREC
 70
     0
  9
$MENU
  1
ACAD
  9
$ELEVATION
 40
0.0
  9
$PELEVATION
 40
0.0
  9
$THICKNESS
 40
0.0
  9
$LIMCHECK
 70
     0
  9
$CHAMFERA
 40
0.0
  9
$CHAMFERB
 40
0.0
  9
$CHAMFERC
 40
0.0
  9
$CHAMFERD
 40
0.0
  9
$SKPOLY
 70
     0
  9
$TDCREATE
 40
2444975.333333334
  9
$TDUCREATE
 40
2444975.000000000
  9
$TDUPDATE
 40
2454358.478801875
  9
$TDUUPDATE
 40
2454358.145468542
  9
$TDINDWG
 40
0.1346656829
  9
$TDUSRTIMER
 40
0.0000000000
  9
$USRTIMER
 70
     0
  9
$ANGBASE
 50
0.0
  9
$ANGDIR
 70
     0
  9
$PDMODE
 70
   171
  9
$PDSIZE
 40
0.001
  9
$PLINEWID
 40
0.0
  9
$SPLFRAME
 70
     0
  9
$SPLINETYPE
 70
     6
  9
$SPLINESEGS
 70
     8
  9
$HANDSEED
  5
6BB9
  9
$SURFTAB1
 70
     6
  9
$SURFTAB2
 70
     6
  9
$SURFTYPE
 70
     6
  9
$SURFU
 70
     6
  9
$SURFV
 70
     6
  9
$UCSBASE
  2

  9
$UCSNAME
  2

  9
$UCSORG
 10
0.0
 20
0.0
 30
0.0
  9
$UCSXDIR
 10
1.0
 20
0.0
 30
0.0
  9
$UCSYDIR
 10
0.0
 20
1.0
 30
0.0
  9
$UCSORTHOREF
  2

  9
$UCSORTHOVIEW
 70
     0
  9
$UCSORGTOP
 10
0.0
 20
0.0
 30
0.0
  9
$UCSORGBOTTOM
 10
0.0
 20
0.0
 30
0.0
  9
$UCSORGLEFT
 10
0.0
 20
0.0
 30
0.0
  9
$UCSORGRIGHT
 10
0.0
 20
0.0
 30
0.0
  9
$UCSORGFRONT
 10
0.0
 20
0.0
 30
0.0
  9
$UCSORGBACK
 10
0.0
 20
0.0
 30
0.0
  9
$PUCSBASE
  2

  9
$PUCSNAME
  2

  9
$PUCSORG
 10
0.0
 20
0.0
 30
0.0
  9
$PUCSXDIR
 10
1.0
 20
0.0
 30
0.0
  9
$PUCSYDIR
 10
0.0
 20
1.0
 30
0.0
  9
$PUCSORTHOREF
  2

  9
$PUCSORTHOVIEW
 70
     0
  9
$PUCSORGTOP
 10
0.0
 20
0.0
 30
0.0
  9
$PUCSORGBOTTOM
 10
0.0
 20
0.0
 30
0.0
  9
$PUCSORGLEFT
 10
0.0
 20
0.0
 30
0.0
  9
$PUCSORGRIGHT
 10
0.0
 20
0.0
 30
0.0
  9
$PUCSORGFRONT
 10
0.0
 20
0.0
 30
0.0
  9
$PUCSORGBACK
 10
0.0
 20
0.0
 30
0.0
  9
$USERI1
 70
     0
  9
$USERI2
 70
     0
  9
$USERI3
 70
     0
  9
$USERI4
 70
     0
  9
$USERI5
 70
     0
  9
$USERR1
 40
0.0
  9
$USERR2
 40
0.0
  9
$USERR3
 40
0.0
  9
$USERR4
 40
0.0
  9
$USERR5
 40
0.0
  9
$WORLDVIEW
 70
     1
  9
$SHADEDGE
 70
     3
  9
$SHADEDIF
 70
    70
  9
$TILEMODE
 70
     1
  9
$MAXACTVP
 70
    48
  9
$PINSBASE
 10
0.0
 20
0.0
 30
0.0
  9
$PLIMCHECK
 70
     0
  9
$PEXTMIN
 10
1.000000000000000E+20
 20
1.000000000000000E+20
 30
1.000000000000000E+20
  9
$PEXTMAX
 10
-1.000000000000000E+20
 20
-1.000000000000000E+20
 30
-1.000000000000000E+20
  9
$PLIMMIN
 10
0.0
 20
0.0
  9
$PLIMMAX
 10
12.0
 20
9.0
  9
$UNITMODE
 70
     0
  9
$VISRETAIN
 70
     1
  9
$PLINEGEN
 70
     0
  9
$PSLTSCALE
 70
     0
  9
$TREEDEPTH
 70
  3020
  9
$CMLSTYLE
  2
Standard
  9
$CMLJUST
 70
     0
  9
$CMLSCALE
 40
1.0
  9
$PROXYGRAPHICS
 70
     1
  9
$MEASUREMENT
 70
     0
  9
$CELWEIGHT
370
    -1
  9
$ENDCAPS
280
     0
  9
$JOINSTYLE
280
     0
  9
$LWDISPLAY
290
     0
  9
$INSUNITS
 70
     0
  9
$HYPERLINKBASE
  1

  9
$STYLESHEET
  1

  9
$XEDIT
290
     1
  9
$CEPSNTYPE
380
     0
  9
$PSTYLEMODE
290
     1
  9
$FINGERPRINTGUID
  2
{77095E5F-9CE7-11D7-970D-0040F4541FA8}
  9
$VERSIONGUID
  2
{05E7DE2C-78FE-419E-A30E-EEA8315FFEB0}
  9
$EXTNAMES
290
     1
  9
$PSVPSCALE
 40
0.0
  9
$OLESTARTUP
290
     0
  0
ENDSEC
  0
SECTION
  2
CLASSES
  0
CLASS
  1
ACDBDICTIONARYWDFLT
  2
AcDbDictionaryWithDefault
  3
ObjectDBX Classes
 90
        0
280
     0
281
     0
  0
CLASS
  1
ACDBPLACEHOLDER
  2
AcDbPlaceHolder
  3
ObjectDBX Classes
 90
        0
280
     0
281
     0
  0
CLASS
  1
LAYOUT
  2
AcDbLayout
  3
ObjectDBX Classes
 90
        0
280
     0
281
     0
  0
CLASS
  1
DICTIONARYVAR
  2
AcDbDictionaryVar
  3
ObjectDBX Classes
 90
        0
280
     0
281
     0
  0
CLASS
  1
PLOTSETTINGS
  2
AcDbPlotSettings
  3
ObjectDBX Classes
 90
        0
280
     0
281
     0
  0
CLASS
  1
TABLESTYLE
  2
AcDbTableStyle
  3
ObjectDBX Classes
 90
     4095
280
     0
281
     0
  0
CLASS
  1
MATERIAL
  2
AcDbMaterial
  3
ObjectDBX Classes
 90
     1024
280
     0
281
     0
  0
CLASS
  1
VISUALSTYLE
  2
AcDbVisualStyle
  3
ObjectDBX Classes
 90
     4095
280
     0
281
     0
  0
ENDSEC
  0
SECTION
  2
TABLES
  0
TABLE
  2
VPORT
  5
8
330
0
100
AcDbSymbolTable
 70
     1
  0
VPORT
  5
6B51
330
8
100
AcDbSymbolTableRecord
100
AcDbViewportTableRecord
  2
*Active
 70
     0
 10
0.0
 20
0.0
 11
1.0
 21
1.0
 12
133.7116263631677
 22
-295.2599277135182
 13
457.9999999999997
 23
1082.0
 14
10.0
 24
10.0
 15
10.0
 25
10.0
 16
0.0
 26
0.0
 36
1.0
 17
0.0
 27
0.0
 37
0.0
 40
269.059993988338
 41
1.981617647058823
 42
1.0
 43
0.0
 44
0.0
 50
0.0
 51
0.0
 71
     0
 72
 10000
 73
     1
 74
     1
 75
     0
 76
     0
 77
     0
 78
     0
281
     0
 65
     1
110
0.0
120
0.0
130
0.0
111
1.0
121
0.0
131
0.0
112
0.0
122
1.0
132
0.0
 79
     0
146
0.0
  0
ENDTAB
  0
TABLE
  2
LTYPE
  5
5
330
0
100
AcDbSymbolTable
 70
     7
  0
LTYPE
  5
13
330
5
100
AcDbSymbolTableRecord
100
AcDbLinetypeTableRecord
  2
ByBlock
 70
     0
  3

 72
    65
 73
     0
 40
0.0
  0
LTYPE
  5
14
330
5
100
AcDbSymbolTableRecord
100
AcDbLinetypeTableRecord
  2
ByLayer
 70
     0
  3

 72
    65
 73
     0
 40
0.0
  0
LTYPE
  5
15
330
5
100
AcDbSymbolTableRecord
100
AcDbLinetypeTableRecord
  2
CONTINUOUS
 70
     0
  3
連續線 ________________________
 72
    65
 73
     2
 40
200000.0
 49
200000.0
 74
     0
 49
0.0
 74
     0
  0
LTYPE
  5
225
330
5
100
AcDbSymbolTableRecord
100
AcDbLinetypeTableRecord
  2
BYBLOCK
 70
     0
  3
Solid line
 72
    65
 73
     0
 40
0.0
  0
LTYPE
  5
226
330
5
100
AcDbSymbolTableRecord
100
AcDbLinetypeTableRecord
  2
BYLAYER
 70
     0
  3
Solid line
 72
    65
 73
     0
 40
0.0
  0
LTYPE
  5
413C
330
5
100
AcDbSymbolTableRecord
100
AcDbLinetypeTableRecord
  2
CENTER2
 70
     0
  3
Center (.5x) ___ _ ___ _ ___ _ ___ _ ___ _ ___
 72
    65
 73
     4
 40
28.575
 49
19.05
 74
     0
 49
-3.174999999999999
 74
     0
 49
3.174999999999999
 74
     0
 49
-3.174999999999999
 74
     0
  0
LTYPE
  5
413D
330
5
100
AcDbSymbolTableRecord
100
AcDbLinetypeTableRecord
  2
DASHED2
 70
     0
  3
Dashed (.5x) _ _ _ _ _ _ _ _ _ _ _ _ _ _ _ _ _
 72
    65
 73
     2
 40
9.524999999999998
 49
6.349999999999999
 74
     0
 49
-3.174999999999999
 74
     0
  0
LTYPE
  5
64D7
330
5
100
AcDbSymbolTableRecord
100
AcDbLinetypeTableRecord
  2
PHANTOM2
 70
     0
  3
Phantom (.5x) ___ _ _ ___ _ _ ___ _ _ ___ _ _
 72
    65
 73
     6
 40
31.75
 49
15.875
 74
     0
 49
-3.174999999999999
 74
     0
 49
3.174999999999999
 74
     0
 49
-3.174999999999999
 74
     0
 49
3.174999999999999
 74
     0
 49
-3.174999999999999
 74
     0
  0
ENDTAB
  0
TABLE
  2
LAYER
  5
2
102
{ACAD_XDICTIONARY
360
43C2
102
}
330
0
100
AcDbSymbolTable
 70
    13
  0
LAYER
  5
10
330
2
100
AcDbSymbolTableRecord
100
AcDbLayerTableRecord
  2
0
 70
     0
 62
     7
  6
CONTINUOUS
370
    -3
390
F
  0
LAYER
  5
413E
330
2
100
AcDbSymbolTableRecord
100
AcDbLayerTableRecord
  2
指線
 70
     0
 62
     3
  6
CONTINUOUS
370
    15
390
F
  0
LAYER
  5
413F
330
2
100
AcDbSymbolTableRecord
100
AcDbLayerTableRecord
  2
中心線
 70
     0
 62
     4
  6
CENTER2
370
    20
390
F
  0
LAYER
  5
4140
330
2
100
AcDbSymbolTableRecord
100
AcDbLayerTableRecord
  2
虛線
 70
     0
 62
     6
  6
DASHED2
290
     0
370
    -3
390
F
  0
LAYER
  5
43B4
330
2
100
AcDbSymbolTableRecord
100
AcDbLayerTableRecord
  2
建構線
 70
     0
 62
     1
  6
CONTINUOUS
370
    -3
390
F
  0
LAYER
  5
58A2
330
2
100
AcDbSymbolTableRecord
100
AcDbLayerTableRecord
  2
AM3
 70
     0
 62
     6
  6
DASHED2
370
    20
390
F
  0
LAYER
  5
58A3
330
2
100
AcDbSymbolTableRecord
100
AcDbLayerTableRecord
  2
AM4
 70
     0
 62
     3
  6
CONTINUOUS
370
    15
390
F
  0
LAYER
  5
58A4
330
2
100
AcDbSymbolTableRecord
100
AcDbLayerTableRecord
  2
AM5
 70
     0
 62
     3
  6
CONTINUOUS
370
    15
390
F
  0
LAYER
  5
58A5
330
2
100
AcDbSymbolTableRecord
100
AcDbLayerTableRecord
  2
AM7
 70
     0
 62
     4
  6
CENTER2
370
    20
390
F
  0
LAYER
  5
58A6
330
2
100
AcDbSymbolTableRecord
100
AcDbLayerTableRecord
  2
DEFPOINTS
 70
     0
 62
     7
  6
CONTINUOUS
290
     0
370
    -3
390
F
  0
LAYER
  5
64D8
330
2
100
AcDbSymbolTableRecord
100
AcDbLayerTableRecord
  2
CENTER
 70
     0
 62
     4
  6
CENTER2
370
    20
390
F
  0
LAYER
  5
64D9
330
2
100
AcDbSymbolTableRecord
100
AcDbLayerTableRecord
  2
RMF
 70
     0
 62
     3
  6
PHANTOM2
370
    15
390
F
  0
LAYER
  5
64DA
330
2
100
AcDbSymbolTableRecord
100
AcDbLayerTableRecord
  2
文字
 70
     0
 62
     2
  6
CONTINUOUS
370
    20
390
F
  0
ENDTAB
  0
TABLE
  2
STYLE
  5
3
330
0
100
AcDbSymbolTable
 70
     2
  0
STYLE
  5
11
330
3
100
AcDbSymbolTableRecord
100
AcDbTextStyleTableRecord
  2
STANDARD
 70
     0
 40
0.0
 41
1.0
 50
0.0
 71
     0
 42
3.0
  3

  4

  0
STYLE
  5
58A7
330
3
100
AcDbSymbolTableRecord
100
AcDbTextStyleTableRecord
  2
型式2
 70
     0
 40
0.0
 41
1.0
 50
0.0
 71
     0
 42
2.5
  3
KAIU.TTF
  4

1001
ACAD
1000
DFKai-SB
1071
    34881
  0
ENDTAB
  0
TABLE
  2
VIEW
  5
6
330
0
100
AcDbSymbolTable
 70
     0
  0
ENDTAB
  0
TABLE
  2
UCS
  5
7
330
0
100
AcDbSymbolTable
 70
     0
  0
ENDTAB
  0
TABLE
  2
APPID
  5
9
330
0
100
AcDbSymbolTable
 70
     6
  0
APPID
  5
12
330
9
100
AcDbSymbolTableRecord
100
AcDbRegAppTableRecord
  2
ACAD
 70
     0
  0
APPID
  5
230
330
9
100
AcDbSymbolTableRecord
100
AcDbRegAppTableRecord
  2
TCAD
 70
     0
  0
APPID
  5
4142
330
9
100
AcDbSymbolTableRecord
100
AcDbRegAppTableRecord
  2
CONTENTBLOCKICON
 70
     0
  0
APPID
  5
568F
330
9
100
AcDbSymbolTableRecord
100
AcDbRegAppTableRecord
  2
pntflag
 70
     0
  0
APPID
  5
64DC
330
9
100
AcDbSymbolTableRecord
100
AcDbRegAppTableRecord
  2
ACAD_PSEXT
 70
     0
  0
APPID
  5
6B75
330
9
100
AcDbSymbolTableRecord
100
AcDbRegAppTableRecord
  2
ACAD_EXEMPT_FROM_CAD_STANDARDS
 70
     0
  0
ENDTAB
  0
TABLE
  2
DIMSTYLE
  5
A
330
0
100
AcDbSymbolTable
 70
     5
100
AcDbDimStyleTable
 71
     3
340
3C9D
340
58A9
340
58A8
  0
DIMSTYLE
105
3C9D
330
A
100
AcDbSymbolTableRecord
100
AcDbDimStyleTableRecord
  2
Standard
 70
     0
179
     8
271
     8
272
     8
340
11
  0
DIMSTYLE
105
58A8
330
A
100
AcDbSymbolTableRecord
100
AcDbDimStyleTableRecord
  2
ISO-25
 70
     0
 41
1.199999999999999
 42
0.7
 43
3.75
 44
0.3
 73
     0
 74
     0
 77
     1
 78
     8
140
2.0
141
2.5
143
0.03937007874016
147
0.5
171
     3
172
     1
176
     3
177
     3
178
     2
271
     8
272
     8
274
     3
283
     0
284
     8
340
11
  0
DIMSTYLE
105
58A9
330
A
100
AcDbSymbolTableRecord
100
AcDbDimStyleTableRecord
  2
複本 ISO-25
 70
     0
 41
1.8
 42
0.7
 43
3.75
 44
0.3
 73
     0
 74
     0
 77
     1
 78
     8
140
2.799999999999999
141
2.5
143
0.03937007874016
147
0.5
171
     3
172
     1
176
     3
177
     3
178
     2
271
     8
272
     8
274
     3
283
     0
284
     8
340
11
  0
DIMSTYLE
105
64DB
330
A
100
AcDbSymbolTableRecord
100
AcDbDimStyleTableRecord
  2
複本 ISO-25$4
 70
     0
 41
1.8
 42
0.7
 43
3.75
 44
0.3
 73
     0
 78
     8
140
2.799999999999999
141
0.0
143
0.03937007874016
147
0.5
171
     3
176
     3
177
     3
178
     2
271
     2
272
     2
274
     3
283
     0
284
     8
340
11
  0
ENDTAB
  0
TABLE
  2
BLOCK_RECORD
  5
1
330
0
100
AcDbSymbolTable
 70
     4
  0
BLOCK_RECORD
  5
1E
102
{ACAD_XDICTIONARY
360
3D1E
102
}
330
1
100
AcDbSymbolTableRecord
100
AcDbBlockTableRecord
  2
*Model_Space
340
21
  0
BLOCK_RECORD
  5
1A
102
{ACAD_XDICTIONARY
360
3D20
102
}
330
1
100
AcDbSymbolTableRecord
100
AcDbBlockTableRecord
  2
*Paper_Space
340
1D
  0
BLOCK_RECORD
  5
6478
330
1
100
AcDbSymbolTableRecord
100
AcDbBlockTableRecord
  2
_DatumFilled
340
0
  0
BLOCK_RECORD
  5
647C
330
1
100
AcDbSymbolTableRecord
100
AcDbBlockTableRecord
  2
_None
340
0
  0
BLOCK_RECORD
  5
647F
330
1
100
AcDbSymbolTableRecord
100
AcDbBlockTableRecord
  2
A$C05B51937
340
0
  0
ENDTAB
  0
ENDSEC
  0
SECTION
  2
BLOCKS
  0
BLOCK
  5
254
330
1E
100
AcDbEntity
  8
0
100
AcDbBlockBegin
  2
*Model_Space
 70
     0
 10
0.0
 20
0.0
 30
0.0
  3
*Model_Space
  1

  0
ENDBLK
  5
255
330
1E
100
AcDbEntity
  8
0
100
AcDbBlockEnd
  0
BLOCK
  5
252
330
1A
100
AcDbEntity
 67
     1
  8
0
100
AcDbBlockBegin
  2
*Paper_Space
 70
     0
 10
0.0
 20
0.0
 30
0.0
  3
*Paper_Space
  1

  0
ENDBLK
  5
253
330
1A
100
AcDbEntity
 67
     1
  8
0
100
AcDbBlockEnd
  0
BLOCK
  5
6479
330
6478
100
AcDbEntity
  8
0
100
AcDbBlockBegin
  2
_DatumFilled
 70
     0
 10
0.0
 20
0.0
 30
0.0
  3
_DatumFilled
  1

  0
SOLID
  5
647A
330
6478
100
AcDbEntity
  8
0
  6
ByBlock
 62
     0
100
AcDbTrace
 10
0.0
 20
0.5773502700000001
 30
0.0
 11
-1.0
 21
0.0
 31
0.0
 12
0.0
 22
-0.5773502700000001
 32
0.0
 13
0.0
 23
-0.5773502700000001
 33
0.0
  0
ENDBLK
  5
647B
330
6478
100
AcDbEntity
  8
0
100
AcDbBlockEnd
  0
BLOCK
  5
647D
330
647C
100
AcDbEntity
  8
0
100
AcDbBlockBegin
  2
_None
 70
     0
 10
0.0
 20
0.0
 30
0.0
  3
_None
  1

  0
ENDBLK
  5
647E
330
647C
100
AcDbEntity
  8
0
100
AcDbBlockEnd
  0
BLOCK
  5
6480
330
647F
100
AcDbEntity
  8
0
100
AcDbBlockBegin
  2
A$C05B51937
 70
     0
 10
0.0
 20
0.0
 30
0.0
  3
A$C05B51937
  1

  0
LINE
  5
6481
330
647F
100
AcDbEntity
  8
0
100
AcDbLine
 10
-0.9999999999999715
 20
1.732050807568839
 30
0.0
 11
0.9999999999999715
 21
1.732050807568839
 31
0.0
  0
LINE
  5
6482
330
647F
100
AcDbEntity
  8
0
100
AcDbLine
 10
1.999999999999943
 20
3.464101615137678
 30
0.0
 11
0.0
 21
0.0
 31
0.0
  0
LINE
  5
6483
330
647F
100
AcDbEntity
  8
0
100
AcDbLine
 10
-0.9999999999999715
 20
1.732050807568839
 30
0.0
 11
0.0
 21
0.0
 31
0.0
  0
ENDBLK
  5
6484
330
647F
100
AcDbEntity
  8
0
100
AcDbBlockEnd
  0
ENDSEC
  0
SECTION
  2
ENTITIES
  0
MTEXT
  5
413A
330
1E
100
AcDbEntity
  8
0
100
AcDbMText
 10
-52.70522243818175
 20
-389.9153317164652
 30
0.0
 40
7.800000159341863
 41
100.6095
 71
     1
 72
     5
  1
\A1;{\fTimes New Roman|b0|i0|c0|p18;HG\fTimes New Roman|b0|i0|c238|p18;L\fTimes New Roman|b0|i0|c0|p18;45HA\PC : 9640 kgf\PC\fProxy 1|b0|i0|c0|p2;\H0.7x;\S^ 0;\fTimes New Roman|b0|i0|c0|p18;\H1.429x;: 21120 kgf}
 73
     1
 44
1.0
1001
ACAD
1000
MTEXTBEGIN
1070
    73
1070
     1
1070
    44
1040
1.0
1070
    74
1070
     0
1000
MTEXTEND
  0
LINE
  5
5E03
330
1E
100
AcDbEntity
  8
0
100
AcDbLine
 10
147.9322158783286
 20
-232.3228966865768
 30
0.0
 11
79.89224799178066
 21
-232.3228966865779
 31
0.0
  0
LINE
  5
5E04
330
1E
100
AcDbEntity
  8
0
100
AcDbLine
 10
147.9322158783282
 20
-187.3228966865769
 30
0.0
 11
79.89224799177987
 21
-187.3228966865779
 31
0.0
  0
LINE
  5
5E05
330
1E
100
AcDbEntity
  8
0
  6
Continuous
100
AcDbLine
 10
142.796134245021
 20
-204.4895633532431
 30
0.0
 11
147.6910421256878
 21
-204.4895633532431
 31
0.0
  0
ARC
  5
5E06
330
1E
100
AcDbEntity
  8
0
  6
Continuous
100
AcDbCircle
 10
143.9315319451429
 20
-217.5996363311334
 30
0.0
 40
2.472178306553662
100
AcDbArc
 50
34.63277999893691
 51
100.3672200010633
  0
LINE
  5
5E07
330
1E
100
AcDbEntity
  8
0
  6
Continuous
100
AcDbLine
 10
144.307605312542
 20
-215.1562300199097
 30
0.0
 11
147.6910421256878
 21
-215.1562300199097
 31
0.0
  0
ARC
  5
5E08
330
1E
100
AcDbEntity
  8
0
  6
Continuous
100
AcDbCircle
 10
144.757957516406
 20
-215.6044685086982
 30
0.0
 40
2.472178306553662
100
AcDbArc
 50
214.6327799989369
 51
280.3672200010634
  0
LINE
  5
5E09
330
1E
100
AcDbEntity
  8
0
 48
0.27
100
AcDbLine
 10
144.2130182969006
 20
-319.9012259128552
 30
0.0
 11
142.2127607969006
 21
-323.6512259128552
 31
0.0
  0
LINE
  5
5E0A
330
1E
100
AcDbEntity
  8
0
 48
0.27
100
AcDbLine
 10
142.2127607969006
 20
-316.1512259128552
 30
0.0
 11
144.2130182969006
 21
-319.9012259128552
 31
0.0
  0
LINE
  5
5E0B
330
1E
100
AcDbEntity
  8
0
 48
0.27
100
AcDbLine
 10
143.3388132969007
 20
-319.9012259128552
 30
0.0
 11
144.2130182969006
 21
-319.9012259128552
 31
0.0
  0
LINE
  5
5E0C
330
1E
100
AcDbEntity
  8
0
 48
0.27
100
AcDbLine
 10
141.7473370469006
 20
-324.9012259128552
 30
0.0
 11
149.8608793416649
 21
-324.9012259128554
 31
0.0
  0
LINE
  5
5E0D
330
1E
100
AcDbEntity
  8
0
 48
0.27
100
AcDbLine
 10
149.8608793416649
 20
-314.9012259128552
 30
0.0
 11
141.7473370469006
 21
-314.9012259128552
 31
0.0
  0
LINE
  5
5E0E
330
1E
100
AcDbEntity
  8
中心線
 48
0.27
100
AcDbLine
 10
132.7608795469007
 20
-319.9012259128552
 30
0.0
 11
153.0317633019967
 21
-319.9012500767301
 31
0.0
  0
LINE
  5
5E0F
330
1E
100
AcDbEntity
  8
0
 48
0.27
100
AcDbLine
 10
147.8608793416649
 20
-355.9021313012804
 30
0.0
 11
133.2357377383001
 21
-355.9021313012804
 31
0.0
  0
LINE
  5
5E10
330
1E
100
AcDbEntity
  8
0
 48
0.27
100
AcDbLine
 10
147.8608793416649
 20
-351.9021277781859
 30
0.0
 11
133.0018434355122
 21
-351.902127778186
 31
0.0
  0
LINE
  5
5E11
330
1E
100
AcDbEntity
  8
0
 48
0.27
100
AcDbLine
 10
147.8608793416649
 20
-350.8024860044012
 30
0.0
 11
132.7157710164446
 21
-350.8024860044011
 31
0.0
  0
LINE
  5
5E12
330
1E
100
AcDbEntity
  8
0
 48
0.27
100
AcDbLine
 10
147.1608793416649
 20
-347.4342704898051
 30
0.0
 11
131.8395278769307
 21
-347.4342704898051
 31
0.0
  0
LINE
  5
5E13
330
1E
100
AcDbEntity
  8
0
 48
0.27
100
AcDbLine
 10
147.2134465682257
 20
-343.6021218777739
 30
0.0
 11
131.5571749167422
 21
-343.6021218777739
 31
0.0
  0
LINE
  5
5E14
330
1E
100
AcDbEntity
  8
0
 48
0.27
100
AcDbLine
 10
147.8608793416649
 20
-341.8021485623083
 30
0.0
 11
132.0270052438032
 21
-341.8021485623083
 31
0.0
  0
LINE
  5
5E15
330
1E
100
AcDbEntity
  8
0
 48
0.27
100
AcDbLine
 10
147.8608793416649
 20
-337.9688747704954
 30
0.0
 11
131.4363520854931
 21
-337.9688747704955
 31
0.0
  0
LINE
  5
5E16
330
1E
100
AcDbEntity
  8
0
 48
0.27
100
AcDbLine
 10
147.8608793416649
 20
-334.6018865718601
 30
0.0
 11
131.2290878786606
 21
-334.6018865718601
 31
0.0
  0
LINE
  5
5E17
330
1E
100
AcDbEntity
  8
0
 48
0.27
100
AcDbLine
 10
147.8608793416649
 20
-333.402115778186
 30
0.0
 11
79.89224799178064
 21
-333.402115778186
 31
0.0
  0
LINE
  5
5E18
330
1E
100
AcDbEntity
  8
0
 48
0.27
100
AcDbLine
 10
207.3922479917805
 20
-369.102105343203
 30
0.0
 11
133.5143435402829
 21
-369.1021096236509
 31
0.0
  0
LINE
  5
5E19
330
1E
100
AcDbEntity
  8
0
 48
0.27
100
AcDbLine
 10
207.3922479917806
 20
-364.2021560735878
 30
0.0
 11
132.3435267745991
 21
-364.2021560735878
 31
0.0
  0
LINE
  5
5E1A
330
1E
100
AcDbEntity
  8
0
 48
0.27
100
AcDbLine
 10
207.3922479917806
 20
-371.4021157781858
 30
0.0
 11
79.89224799178064
 21
-371.4021157781859
 31
0.0
  0
LINE
  5
5F6C
330
1E
100
AcDbEntity
  8
0
 48
0.27
100
AcDbLine
 10
79.89224799178074
 20
-371.4021157781859
 30
0.0
 11
79.89224799178064
 21
-333.402115778186
 31
0.0
  0
LINE
  5
5F97
330
1E
100
AcDbEntity
  8
建構線
 48
0.27
100
AcDbLine
 10
131.5403200324602
 20
-333.402115778186
 30
0.0
 11
130.8171747542806
 21
-336.1897730743588
 31
0.0
  0
LINE
  5
5F98
330
1E
100
AcDbEntity
  8
中心線
 48
0.27
100
AcDbLine
 10
102.3922479917806
 20
-373.3615369384232
 30
0.0
 11
102.3922479917806
 21
-331.3866416153206
 31
0.0
  0
LINE
  5
5F99
330
1E
100
AcDbEntity
  8
0
 48
0.27
100
AcDbLine
 10
112.3922479917808
 20
-333.802115778186
 30
0.0
 11
112.3922479917807
 21
-350.402115778186
 31
0.0
  0
LINE
  5
5F9A
330
1E
100
AcDbEntity
  8
0
 48
0.27
100
AcDbLine
 10
92.39224799178087
 20
-333.802115778186
 30
0.0
 11
92.39224799178087
 21
-350.402115778186
 31
0.0
  0
LINE
  5
5F9B
330
1E
100
AcDbEntity
  8
0
 48
0.27
100
AcDbLine
 10
109.3922479917808
 20
-350.7021157781859
 30
0.0
 11
109.3922479917808
 21
-370.702115778186
 31
0.0
  0
LINE
  5
5F9C
330
1E
100
AcDbEntity
  8
0
 48
0.27
100
AcDbLine
 10
95.39224799178086
 20
-350.7021157781859
 30
0.0
 11
95.39224799178075
 21
-370.702115778186
 31
0.0
  0
LINE
  5
5F9D
330
1E
100
AcDbEntity
  8
0
 48
0.27
100
AcDbLine
 10
95.39224799178075
 20
-370.702115778186
 30
0.0
 11
109.3922479917808
 21
-370.702115778186
 31
0.0
  0
LINE
  5
5F9E
330
1E
100
AcDbEntity
  8
0
 48
0.27
100
AcDbLine
 10
95.39224799178075
 20
-370.702115778186
 30
0.0
 11
94.69224799178082
 21
-371.402115778186
 31
0.0
  0
LINE
  5
5F9F
330
1E
100
AcDbEntity
  8
0
 48
0.27
100
AcDbLine
 10
109.3922479917808
 20
-370.702115778186
 30
0.0
 11
110.092247991781
 21
-371.402115778186
 31
0.0
  0
LINE
  5
5FA0
330
1E
100
AcDbEntity
  8
0
 48
0.27
100
AcDbLine
 10
95.39224799178086
 20
-350.7021157781859
 30
0.0
 11
109.3922479917808
 21
-350.7021157781859
 31
0.0
  0
LINE
  5
5FA1
330
1E
100
AcDbEntity
  8
0
 48
0.27
100
AcDbLine
 10
92.39224799178087
 20
-350.402115778186
 30
0.0
 11
112.3922479917807
 21
-350.402115778186
 31
0.0
  0
LINE
  5
5FA2
330
1E
100
AcDbEntity
  8
0
 48
0.27
100
AcDbLine
 10
95.39224799178063
 20
-350.7021157781859
 30
0.0
 11
95.09224799178069
 21
-350.402115778186
 31
0.0
  0
LINE
  5
5FA3
330
1E
100
AcDbEntity
  8
0
 48
0.27
100
AcDbLine
 10
109.3922479917808
 20
-350.7021157781859
 30
0.0
 11
109.6922479917808
 21
-350.402115778186
 31
0.0
  0
LINE
  5
5FA4
330
1E
100
AcDbEntity
  8
建構線
 48
0.27
100
AcDbLine
 10
133.6830057699654
 20
-354.5204667293315
 30
0.0
 11
131.5813971088328
 21
-361.0125878415356
 31
0.0
  0
LINE
  5
5FA5
330
1E
100
AcDbEntity
  8
建構線
 48
0.27
100
AcDbLine
 10
131.5813971088328
 20
-361.0125878415356
 30
0.0
 11
134.0639172738689
 21
-371.4021157781859
 31
0.0
  0
LINE
  5
5FA6
330
1E
100
AcDbEntity
  8
建構線
 48
0.27
100
AcDbLine
 10
130.8171747542806
 20
-336.1897730743588
 30
0.0
 11
132.3456194633855
 21
-340.5815013197949
 31
0.0
  0
LINE
  5
5FA7
330
1E
100
AcDbEntity
  8
建構線
 48
0.27
100
AcDbLine
 10
132.3456194633855
 20
-340.5815013197949
 30
0.0
 11
131.1992870571117
 21
-344.9732308934343
 31
0.0
  0
LINE
  5
5FA8
330
1E
100
AcDbEntity
  8
建構線
 48
0.27
100
AcDbLine
 10
131.1992870571117
 20
-344.9732308934343
 30
0.0
 11
133.6830057699654
 21
-354.5204667293315
 31
0.0
  0
LINE
  5
5FA9
330
1E
100
AcDbEntity
  8
0
 48
0.27
100
AcDbLine
 10
92.39224799178087
 20
-333.802115778186
 30
0.0
 11
112.3922479917808
 21
-333.802115778186
 31
0.0
  0
LINE
  5
5FAA
330
1E
100
AcDbEntity
  8
0
 48
0.27
100
AcDbLine
 10
92.39224799178064
 20
-333.802115778186
 30
0.0
 11
92.16130788410485
 21
-333.402115778186
 31
0.0
  0
LINE
  5
5FAB
330
1E
100
AcDbEntity
  8
0
 48
0.27
100
AcDbLine
 10
112.3922479917808
 20
-333.802115778186
 30
0.0
 11
112.6231880994567
 21
-333.402115778186
 31
0.0
  0
ARC
  5
5FAC
330
1E
100
AcDbEntity
  8
0
 48
0.27
100
AcDbCircle
 10
141.7473370469006
 20
-319.9012259128552
 30
0.0
 40
4.99999999999996
100
AcDbArc
 50
90.0
 51
131.4096219996003
  0
ARC
  5
5FAD
330
1E
100
AcDbEntity
  8
0
 48
0.27
100
AcDbCircle
 10
141.7473370469006
 20
-319.9012259128552
 30
0.0
 40
4.99999999999996
100
AcDbArc
 50
228.5903779972994
 51
270.0
  0
LINE
  5
5FAE
330
1E
100
AcDbEntity
  8
0
 48
0.27
100
AcDbLine
 10
136.5327632969007
 20
-322.1408059128552
 30
0.0
 11
136.9364245469007
 21
-322.0977734128552
 31
0.0
  0
LINE
  5
5FAF
330
1E
100
AcDbEntity
  8
0
 48
0.27
100
AcDbLine
 10
136.5327632969007
 20
-317.6616471628552
 30
0.0
 11
136.9364245469007
 21
-317.7046796628552
 31
0.0
  0
LINE
  5
5FB0
330
1E
100
AcDbEntity
  8
0
 48
0.27
100
AcDbLine
 10
136.0812120469007
 20
-322.8500084128552
 30
0.0
 11
136.6343832969007
 21
-323.0316371628553
 31
0.0
  0
LINE
  5
5FB1
330
1E
100
AcDbEntity
  8
0
 48
0.27
100
AcDbLine
 10
136.0812120469007
 20
-316.9524434128553
 30
0.0
 11
136.6343832969007
 21
-316.7708159128553
 31
0.0
  0
LWPOLYLINE
  5
5FB2
330
1E
100
AcDbEntity
  8
0
 48
0.27
100
AcDbPolyline
 90
       31
 70
     0
 43
0.0
 10
137.2718657969007
 20
-319.9012259128553
 10
137.2308432969007
 20
-319.6384071628552
 10
137.1756595469007
 20
-319.5065484128552
 10
137.0968682969007
 20
-319.3843246628552
 10
136.9975232969007
 20
-319.2791834128552
 10
136.8831595469007
 20
-319.1968421628552
 10
136.7607595469007
 20
-319.1402409128553
 10
136.5949645469007
 20
-319.1040646628553
 10
136.4412032969007
 20
-319.1073884128552
 10
136.3075482969007
 20
-319.1392709128552
 10
136.1622920469007
 20
-319.2089809128552
 10
136.0240795469007
 20
-319.3208421628552
 10
135.9137920469007
 20
-319.4640296628552
 10
135.8429995469007
 20
-319.6138284128552
 10
135.8081857969007
 20
-319.7433984128553
 10
135.7936595469007
 20
-319.9012259128553
 10
135.8346820469007
 20
-320.1640446628552
 10
135.8898670469007
 20
-320.2959046628552
 10
135.9686570469007
 20
-320.4181271628552
 10
136.0680020469007
 20
-320.5232684128552
 10
136.1823657969007
 20
-320.6056096628552
 10
136.3047657969007
 20
-320.6622109128553
 10
136.4705607969007
 20
-320.6983884128553
 10
136.6243220469007
 20
-320.6950634128552
 10
136.7579770469007
 20
-320.6631821628552
 10
136.9032332969007
 20
-320.5934721628552
 10
137.0414457969007
 20
-320.4816096628552
 10
137.1517332969007
 20
-320.3384234128552
 10
137.2225257969007
 20
-320.1886246628553
 10
137.2573407969007
 20
-320.0590534128551
 10
137.2718657969007
 20
-319.9012259128553
  0
LINE
  5
5FB3
330
1E
100
AcDbEntity
  8
0
 48
0.27
100
AcDbLine
 10
134.4636607969007
 20
-319.9012259128552
 30
0.0
 11
134.5034182969007
 21
-320.3381459128552
 31
0.0
  0
LINE
  5
5FB4
330
1E
100
AcDbEntity
  8
0
 48
0.27
100
AcDbLine
 10
134.2608795469007
 20
-319.9012259128552
 30
0.0
 11
134.3175395469007
 21
-320.5239034128552
 31
0.0
  0
LINE
  5
5FB5
330
1E
100
AcDbEntity
  8
0
 48
0.27
100
AcDbLine
 10
136.1291007969007
 20
-322.0977734128552
 30
0.0
 11
136.5327632969007
 21
-322.1408059128552
 31
0.0
  0
LINE
  5
5FB6
330
1E
100
AcDbEntity
  8
0
 48
0.27
100
AcDbLine
 10
135.7409520469007
 20
-321.9703284128552
 30
0.0
 11
136.1291007969007
 21
-322.0977734128552
 31
0.0
  0
LINE
  5
5FB7
330
1E
100
AcDbEntity
  8
0
 48
0.27
100
AcDbLine
 10
135.3832307969007
 20
-321.7633684128552
 30
0.0
 11
135.7409520469007
 21
-321.9703284128552
 31
0.0
  0
LINE
  5
5FB8
330
1E
100
AcDbEntity
  8
0
 48
0.27
100
AcDbLine
 10
135.0696870469007
 20
-321.4848484128551
 30
0.0
 11
135.3832307969007
 21
-321.7633684128552
 31
0.0
  0
LINE
  5
5FB9
330
1E
100
AcDbEntity
  8
0
 48
0.27
100
AcDbLine
 10
134.8123670469007
 20
-321.1454696628552
 30
0.0
 11
135.0696870469007
 21
-321.4848484128551
 31
0.0
  0
LINE
  5
5FBA
330
1E
100
AcDbEntity
  8
0
 48
0.27
100
AcDbLine
 10
135.5714057969007
 20
-322.5550596628552
 30
0.0
 11
136.0812120469007
 21
-322.8500084128552
 31
0.0
  0
LINE
  5
5FBB
330
1E
100
AcDbEntity
  8
0
 48
0.27
100
AcDbLine
 10
134.6211620469007
 20
-320.7582759128552
 30
0.0
 11
134.8123670469007
 21
-321.1454696628552
 31
0.0
  0
LINE
  5
5FBC
330
1E
100
AcDbEntity
  8
0
 48
0.27
100
AcDbLine
 10
135.1245582969007
 20
-322.1581259128553
 30
0.0
 11
135.5714057969007
 21
-322.5550596628552
 31
0.0
  0
LINE
  5
5FBD
330
1E
100
AcDbEntity
  8
0
 48
0.27
100
AcDbLine
 10
134.5034182969007
 20
-320.3381459128552
 30
0.0
 11
134.6211620469007
 21
-320.7582759128552
 31
0.0
  0
LINE
  5
5FBE
330
1E
100
AcDbEntity
  8
0
 48
0.27
100
AcDbLine
 10
134.7578382969007
 20
-321.6744609128552
 30
0.0
 11
135.1245582969007
 21
-322.1581259128553
 31
0.0
  0
LINE
  5
5FBF
330
1E
100
AcDbEntity
  8
0
 48
0.27
100
AcDbLine
 10
134.4853420469007
 20
-321.1226521628552
 30
0.0
 11
134.7578382969007
 21
-321.6744609128552
 31
0.0
  0
LINE
  5
5FC0
330
1E
100
AcDbEntity
  8
0
 48
0.27
100
AcDbLine
 10
134.3175395469007
 20
-320.5239034128552
 30
0.0
 11
134.4853420469007
 21
-321.1226521628552
 31
0.0
  0
LINE
  5
5FC1
330
1E
100
AcDbEntity
  8
0
 48
0.27
100
AcDbLine
 10
135.7084270469007
 20
-321.9515109128552
 30
0.0
 11
135.7121407969007
 21
-321.9494909128552
 31
0.0
  0
LINE
  5
5FC3
330
1E
100
AcDbEntity
  8
0
 48
0.27
100
AcDbLine
 10
136.1291007969007
 20
-317.7046796628552
 30
0.0
 11
136.5327632969007
 21
-317.6616471628552
 31
0.0
  0
LINE
  5
5FC4
330
1E
100
AcDbEntity
  8
0
 48
0.27
100
AcDbLine
 10
135.7409520469007
 20
-317.8321246628553
 30
0.0
 11
136.1291007969007
 21
-317.7046796628552
 31
0.0
  0
LINE
  5
5FC5
330
1E
100
AcDbEntity
  8
0
 48
0.27
100
AcDbLine
 10
135.3832307969007
 20
-318.0390834128552
 30
0.0
 11
135.7409520469007
 21
-317.8321246628553
 31
0.0
  0
LINE
  5
5FC6
330
1E
100
AcDbEntity
  8
0
 48
0.27
100
AcDbLine
 10
135.0696870469007
 20
-318.3176046628552
 30
0.0
 11
135.3832307969007
 21
-318.0390834128552
 31
0.0
  0
LINE
  5
5FC7
330
1E
100
AcDbEntity
  8
0
 48
0.27
100
AcDbLine
 10
135.0696870469007
 20
-318.3176046628552
 30
0.0
 11
134.8123670469007
 21
-318.6569821628552
 31
0.0
  0
LINE
  5
5FC8
330
1E
100
AcDbEntity
  8
0
 48
0.27
100
AcDbLine
 10
135.5714057969007
 20
-317.2473921628552
 30
0.0
 11
136.0812120469007
 21
-316.9524434128553
 31
0.0
  0
LINE
  5
5FC9
330
1E
100
AcDbEntity
  8
0
 48
0.27
100
AcDbLine
 10
134.8123670469007
 20
-318.6569821628552
 30
0.0
 11
134.6211620469007
 21
-319.0441759128552
 31
0.0
  0
LINE
  5
5FCA
330
1E
100
AcDbEntity
  8
0
 48
0.27
100
AcDbLine
 10
134.6211620469007
 20
-319.0441759128552
 30
0.0
 11
134.5034182969007
 21
-319.4643059128552
 31
0.0
  0
LINE
  5
5FCB
330
1E
100
AcDbEntity
  8
0
 48
0.27
100
AcDbLine
 10
134.5034182969007
 20
-319.4643059128552
 30
0.0
 11
134.4636607969007
 21
-319.9012259128552
 31
0.0
  0
LINE
  5
5FCC
330
1E
100
AcDbEntity
  8
0
 48
0.27
100
AcDbLine
 10
135.1245582969007
 20
-317.6443259128551
 30
0.0
 11
135.5714057969007
 21
-317.2473921628552
 31
0.0
  0
LINE
  5
5FCD
330
1E
100
AcDbEntity
  8
0
 48
0.27
100
AcDbLine
 10
135.1245582969007
 20
-317.6443259128551
 30
0.0
 11
134.7578382969007
 21
-318.1279909128552
 31
0.0
  0
LINE
  5
5FCE
330
1E
100
AcDbEntity
  8
0
 48
0.27
100
AcDbLine
 10
134.7578382969007
 20
-318.1279909128552
 30
0.0
 11
134.4853420469007
 21
-318.6798009128552
 31
0.0
  0
LINE
  5
5FCF
330
1E
100
AcDbEntity
  8
0
 48
0.27
100
AcDbLine
 10
134.4853420469007
 20
-318.6798009128552
 30
0.0
 11
134.3175395469007
 21
-319.2785484128552
 31
0.0
  0
LINE
  5
5FD0
330
1E
100
AcDbEntity
  8
0
 48
0.27
100
AcDbLine
 10
134.3175395469007
 20
-319.2785484128552
 30
0.0
 11
134.2608795469007
 21
-319.9012259128552
 31
0.0
  0
LINE
  5
5FD1
330
1E
100
AcDbEntity
  8
0
 48
0.27
100
AcDbLine
 10
135.7084270469007
 20
-317.8509421628552
 30
0.0
 11
135.7121407969007
 21
-317.8529609128552
 31
0.0
  0
LINE
  5
5FD2
330
1E
100
AcDbEntity
  8
0
 48
0.27
100
AcDbLine
 10
138.6018645469007
 20
-319.9012259128552
 30
0.0
 11
138.5621070469007
 21
-320.3381459128552
 31
0.0
  0
LINE
  5
5FD3
330
1E
100
AcDbEntity
  8
0
 48
0.27
100
AcDbLine
 10
140.1584445469007
 20
-319.9012259128552
 30
0.0
 11
140.1017845469006
 21
-320.5239034128552
 31
0.0
  0
LINE
  5
5FD4
330
1E
100
AcDbEntity
  8
0
 48
0.27
100
AcDbLine
 10
140.3130695469007
 20
-319.9012259128552
 30
0.0
 11
140.2570282969007
 21
-320.5171034128552
 31
0.0
  0
LINE
  5
5FD5
330
1E
100
AcDbEntity
  8
0
 48
0.27
100
AcDbLine
 10
142.8028457969007
 20
-319.9012259128552
 30
0.0
 11
142.7362757969006
 21
-320.6328146628552
 31
0.0
  0
LINE
  5
5FD6
330
1E
100
AcDbEntity
  8
0
 48
0.27
100
AcDbLine
 10
143.3388132969007
 20
-319.9012259128552
 30
0.0
 11
141.3385557969006
 21
-323.6512259128552
 31
0.0
  0
LINE
  5
5FD7
330
1E
100
AcDbEntity
  8
0
 48
0.27
100
AcDbLine
 10
140.2570282969007
 20
-320.5171034128552
 30
0.0
 11
140.0910582969007
 21
-321.1093134128552
 31
0.0
  0
LINE
  5
5FD8
330
1E
100
AcDbEntity
  8
0
 48
0.27
100
AcDbLine
 10
140.0141982969007
 20
-323.5791709128551
 30
0.0
 11
140.6641232969007
 21
-323.3657746628552
 31
0.0
  0
LINE
  5
5FD9
330
1E
100
AcDbEntity
  8
0
 48
0.27
100
AcDbLine
 10
142.2127607969006
 20
-323.6512259128552
 30
0.0
 11
137.3380407969007
 21
-323.6512259128552
 31
0.0
  0
LINE
  5
5FDA
330
1E
100
AcDbEntity
  8
0
 48
0.27
100
AcDbLine
 10
138.5621070469007
 20
-320.3381459128552
 30
0.0
 11
138.4443632969007
 21
-320.7582759128552
 31
0.0
  0
LINE
  5
5FDB
330
1E
100
AcDbEntity
  8
0
 48
0.27
100
AcDbLine
 10
138.4443632969007
 20
-320.7582759128552
 30
0.0
 11
138.2531582969006
 21
-321.1454696628552
 31
0.0
  0
LINE
  5
5FDC
330
1E
100
AcDbEntity
  8
0
 48
0.27
100
AcDbLine
 10
138.2531582969006
 20
-321.1454696628552
 30
0.0
 11
137.9958382969007
 21
-321.4848484128551
 31
0.0
  0
LINE
  5
5FDD
330
1E
100
AcDbEntity
  8
0
 48
0.27
100
AcDbLine
 10
137.6822945469007
 20
-321.7633684128552
 30
0.0
 11
137.9958382969007
 21
-321.4848484128551
 31
0.0
  0
LINE
  5
5FDE
330
1E
100
AcDbEntity
  8
0
 48
0.27
100
AcDbLine
 10
140.1017845469006
 20
-320.5239034128552
 30
0.0
 11
139.9339807969007
 21
-321.1226521628552
 31
0.0
  0
LINE
  5
5FDF
330
1E
100
AcDbEntity
  8
0
 48
0.27
100
AcDbLine
 10
137.3245732969007
 20
-321.9703284128552
 30
0.0
 11
137.6822945469007
 21
-321.7633684128552
 31
0.0
  0
LINE
  5
5FE0
330
1E
100
AcDbEntity
  8
0
 48
0.27
100
AcDbLine
 10
139.9339807969007
 20
-321.1226521628552
 30
0.0
 11
139.6614845469007
 21
-321.6744609128552
 31
0.0
  0
LINE
  5
5FE1
330
1E
100
AcDbEntity
  8
0
 48
0.27
100
AcDbLine
 10
139.6614845469007
 20
-321.6744609128552
 30
0.0
 11
139.2947657969006
 21
-322.1581259128553
 31
0.0
  0
LINE
  5
5FE2
330
1E
100
AcDbEntity
  8
0
 48
0.27
100
AcDbLine
 10
136.9364245469007
 20
-322.0977734128552
 30
0.0
 11
137.3245732969007
 21
-321.9703284128552
 31
0.0
  0
LINE
  5
5FE3
330
1E
100
AcDbEntity
  8
0
 48
0.27
100
AcDbLine
 10
138.8479170469007
 20
-322.5550596628552
 30
0.0
 11
139.2947657969006
 21
-322.1581259128553
 31
0.0
  0
LINE
  5
5FE4
330
1E
100
AcDbEntity
  8
0
 48
0.27
100
AcDbLine
 10
138.3381120469007
 20
-322.8500084128552
 30
0.0
 11
138.8479170469007
 21
-322.5550596628552
 31
0.0
  0
LINE
  5
5FE5
330
1E
100
AcDbEntity
  8
0
 48
0.27
100
AcDbLine
 10
140.0910582969007
 20
-321.1093134128552
 30
0.0
 11
139.8215370469007
 21
-321.6550971628552
 31
0.0
  0
LINE
  5
5FE6
330
1E
100
AcDbEntity
  8
0
 48
0.27
100
AcDbLine
 10
139.8215370469007
 20
-321.6550971628552
 30
0.0
 11
139.4588232969007
 21
-322.1334809128552
 31
0.0
  0
LINE
  5
5FE7
330
1E
100
AcDbEntity
  8
0
 48
0.27
100
AcDbLine
 10
137.7849407969007
 20
-323.0316371628553
 30
0.0
 11
138.3381120469007
 21
-322.8500084128552
 31
0.0
  0
LINE
  5
5FE8
330
1E
100
AcDbEntity
  8
0
 48
0.27
100
AcDbLine
 10
139.0168545469007
 20
-322.5260796628552
 30
0.0
 11
139.4588232969007
 21
-322.1334809128552
 31
0.0
  0
LINE
  5
5FE9
330
1E
100
AcDbEntity
  8
0
 48
0.27
100
AcDbLine
 10
137.2096620469007
 20
-323.0929646628552
 30
0.0
 11
137.7849407969007
 21
-323.0316371628553
 31
0.0
  0
LINE
  5
5FEA
330
1E
100
AcDbEntity
  8
0
 48
0.27
100
AcDbLine
 10
137.7849407969007
 20
-323.0316371628553
 30
0.0
 11
137.9654857969007
 21
-322.9974521628552
 31
0.0
  0
LINE
  5
5FEB
330
1E
100
AcDbEntity
  8
0
 48
0.27
100
AcDbLine
 10
138.5126157969007
 20
-322.8178071628551
 30
0.0
 11
139.0168545469007
 21
-322.5260796628552
 31
0.0
  0
LINE
  5
5FEC
330
1E
100
AcDbEntity
  8
0
 48
0.27
100
AcDbLine
 10
137.9654857969007
 20
-322.9974521628552
 30
0.0
 11
138.5126157969007
 21
-322.8178071628551
 31
0.0
  0
LINE
  5
5FED
330
1E
100
AcDbEntity
  8
0
 48
0.27
100
AcDbLine
 10
136.6343832969007
 20
-323.0316371628553
 30
0.0
 11
137.2096620469007
 21
-323.0929646628552
 31
0.0
  0
LINE
  5
5FEE
330
1E
100
AcDbEntity
  8
0
 48
0.27
100
AcDbLine
 10
139.3382982969007
 20
-323.6512259128552
 30
0.0
 11
140.0141982969007
 21
-323.5791709128551
 31
0.0
  0
LINE
  5
5FEF
330
1E
100
AcDbEntity
  8
0
 48
0.27
100
AcDbLine
 10
138.6623982969007
 20
-323.5791709128551
 30
0.0
 11
139.3382982969007
 21
-323.6512259128552
 31
0.0
  0
LINE
  5
5FF0
330
1E
100
AcDbEntity
  8
0
 48
0.27
100
AcDbLine
 10
138.0124732969006
 20
-323.3657746628552
 30
0.0
 11
138.6623982969007
 21
-323.5791709128551
 31
0.0
  0
LINE
  5
5FF1
330
1E
100
AcDbEntity
  8
0
 48
0.27
100
AcDbLine
 10
137.4893895469007
 20
-323.0631446628551
 30
0.0
 11
138.0124732969006
 21
-323.3657746628552
 31
0.0
  0
LINE
  5
5FF2
330
1E
100
AcDbEntity
  8
0
 48
0.27
100
AcDbLine
 10
137.0300495469007
 20
-323.0738171628552
 30
0.0
 11
137.3380407969007
 21
-323.6512259128552
 31
0.0
  0
LINE
  5
5FF3
330
1E
100
AcDbEntity
  8
0
 48
0.27
100
AcDbLine
 10
142.7362757969006
 20
-320.6328146628552
 30
0.0
 11
142.5391232969007
 21
-321.3362896628551
 31
0.0
  0
LINE
  5
5FF4
330
1E
100
AcDbEntity
  8
0
 48
0.27
100
AcDbLine
 10
142.5391232969007
 20
-321.3362896628551
 30
0.0
 11
142.2189645469007
 21
-321.9846146628552
 31
0.0
  0
LINE
  5
5FF5
330
1E
100
AcDbEntity
  8
0
 48
0.27
100
AcDbLine
 10
142.2189645469007
 20
-321.9846146628552
 30
0.0
 11
141.7881032969007
 21
-322.5528771628552
 31
0.0
  0
LINE
  5
5FF6
330
1E
100
AcDbEntity
  8
0
 48
0.27
100
AcDbLine
 10
141.2630982969007
 20
-323.0192371628552
 30
0.0
 11
141.7881032969007
 21
-322.5528771628552
 31
0.0
  0
LINE
  5
5FF7
330
1E
100
AcDbEntity
  8
0
 48
0.27
100
AcDbLine
 10
140.6641232969007
 20
-323.3657746628552
 30
0.0
 11
141.2630982969007
 21
-323.0192371628552
 31
0.0
  0
LINE
  5
5FF8
330
1E
100
AcDbEntity
  8
0
 48
0.27
100
AcDbLine
 10
140.0910582969007
 20
-318.6931384128552
 30
0.0
 11
140.2570282969007
 21
-319.2853484128552
 31
0.0
  0
LINE
  5
5FF9
330
1E
100
AcDbEntity
  8
0
 48
0.27
100
AcDbLine
 10
140.0141982969007
 20
-316.2232809128553
 30
0.0
 11
140.6641232969007
 21
-316.4366784128552
 31
0.0
  0
LINE
  5
5FFA
330
1E
100
AcDbEntity
  8
0
 48
0.27
100
AcDbLine
 10
137.3380407969007
 20
-316.1512259128552
 30
0.0
 11
142.2127607969006
 21
-316.1512259128552
 31
0.0
  0
LINE
  5
5FFB
330
1E
100
AcDbEntity
  8
0
 48
0.27
100
AcDbLine
 10
138.5621070469007
 20
-319.4643059128552
 30
0.0
 11
138.6018645469007
 21
-319.9012259128552
 31
0.0
  0
LINE
  5
5FFC
330
1E
100
AcDbEntity
  8
0
 48
0.27
100
AcDbLine
 10
138.4443632969007
 20
-319.0441759128552
 30
0.0
 11
138.5621070469007
 21
-319.4643059128552
 31
0.0
  0
LINE
  5
5FFD
330
1E
100
AcDbEntity
  8
0
 48
0.27
100
AcDbLine
 10
138.2531582969006
 20
-318.6569821628552
 30
0.0
 11
138.4443632969007
 21
-319.0441759128552
 31
0.0
  0
LINE
  5
5FFE
330
1E
100
AcDbEntity
  8
0
 48
0.27
100
AcDbLine
 10
137.9958382969007
 20
-318.3176046628552
 30
0.0
 11
138.2531582969006
 21
-318.6569821628552
 31
0.0
  0
LINE
  5
5FFF
330
1E
100
AcDbEntity
  8
0
 48
0.27
100
AcDbLine
 10
140.1017845469006
 20
-319.2785484128552
 30
0.0
 11
140.1584445469007
 21
-319.9012259128552
 31
0.0
  0
LINE
  5
6000
330
1E
100
AcDbEntity
  8
0
 48
0.27
100
AcDbLine
 10
137.6822945469007
 20
-318.0390834128552
 30
0.0
 11
137.9958382969007
 21
-318.3176046628552
 31
0.0
  0
LINE
  5
6001
330
1E
100
AcDbEntity
  8
0
 48
0.27
100
AcDbLine
 10
139.9339807969007
 20
-318.6798009128552
 30
0.0
 11
140.1017845469006
 21
-319.2785484128552
 31
0.0
  0
LINE
  5
6002
330
1E
100
AcDbEntity
  8
0
 48
0.27
100
AcDbLine
 10
139.6614845469007
 20
-318.1279909128552
 30
0.0
 11
139.9339807969007
 21
-318.6798009128552
 31
0.0
  0
LINE
  5
6003
330
1E
100
AcDbEntity
  8
0
 48
0.27
100
AcDbLine
 10
137.3245732969007
 20
-317.8321246628553
 30
0.0
 11
137.6822945469007
 21
-318.0390834128552
 31
0.0
  0
LINE
  5
6004
330
1E
100
AcDbEntity
  8
0
 48
0.27
100
AcDbLine
 10
139.2947657969006
 20
-317.6443259128551
 30
0.0
 11
139.6614845469007
 21
-318.1279909128552
 31
0.0
  0
LINE
  5
6005
330
1E
100
AcDbEntity
  8
0
 48
0.27
100
AcDbLine
 10
136.9364245469007
 20
-317.7046796628552
 30
0.0
 11
137.3245732969007
 21
-317.8321246628553
 31
0.0
  0
LINE
  5
6006
330
1E
100
AcDbEntity
  8
0
 48
0.27
100
AcDbLine
 10
138.8479170469007
 20
-317.2473921628552
 30
0.0
 11
139.2947657969006
 21
-317.6443259128551
 31
0.0
  0
LINE
  5
6007
330
1E
100
AcDbEntity
  8
0
 48
0.27
100
AcDbLine
 10
139.8215370469007
 20
-318.1473546628552
 30
0.0
 11
140.0910582969007
 21
-318.6931384128552
 31
0.0
  0
LINE
  5
6008
330
1E
100
AcDbEntity
  8
0
 48
0.27
100
AcDbLine
 10
138.3381120469007
 20
-316.9524434128553
 30
0.0
 11
138.8479170469007
 21
-317.2473921628552
 31
0.0
  0
LINE
  5
6009
330
1E
100
AcDbEntity
  8
0
 48
0.27
100
AcDbLine
 10
139.4588232969007
 20
-317.6689709128552
 30
0.0
 11
139.8215370469007
 21
-318.1473546628552
 31
0.0
  0
LINE
  5
600A
330
1E
100
AcDbEntity
  8
0
 48
0.27
100
AcDbLine
 10
137.7849407969007
 20
-316.7708159128553
 30
0.0
 11
138.3381120469007
 21
-316.9524434128553
 31
0.0
  0
LINE
  5
600B
330
1E
100
AcDbEntity
  8
0
 48
0.27
100
AcDbLine
 10
139.0168545469007
 20
-317.2763721628552
 30
0.0
 11
139.4588232969007
 21
-317.6689709128552
 31
0.0
  0
LINE
  5
600C
330
1E
100
AcDbEntity
  8
0
 48
0.27
100
AcDbLine
 10
138.5126157969007
 20
-316.9846446628552
 30
0.0
 11
139.0168545469007
 21
-317.2763721628552
 31
0.0
  0
LINE
  5
600D
330
1E
100
AcDbEntity
  8
0
 48
0.27
100
AcDbLine
 10
137.2096620469007
 20
-316.7094871628552
 30
0.0
 11
137.7849407969007
 21
-316.7708159128553
 31
0.0
  0
LINE
  5
600E
330
1E
100
AcDbEntity
  8
0
 48
0.27
100
AcDbLine
 10
137.7849407969007
 20
-316.7708159128553
 30
0.0
 11
137.9654857969007
 21
-316.8049996628552
 31
0.0
  0
LINE
  5
600F
330
1E
100
AcDbEntity
  8
0
 48
0.27
100
AcDbLine
 10
137.9654857969007
 20
-316.8049996628552
 30
0.0
 11
138.5126157969007
 21
-316.9846446628552
 31
0.0
  0
LINE
  5
6010
330
1E
100
AcDbEntity
  8
0
 48
0.27
100
AcDbLine
 10
136.6343832969007
 20
-316.7708159128553
 30
0.0
 11
137.2096620469007
 21
-316.7094871628552
 31
0.0
  0
LINE
  5
6011
330
1E
100
AcDbEntity
  8
0
 48
0.27
100
AcDbLine
 10
139.3382982969007
 20
-316.1512259128552
 30
0.0
 11
140.0141982969007
 21
-316.2232809128553
 31
0.0
  0
LINE
  5
6012
330
1E
100
AcDbEntity
  8
0
 48
0.27
100
AcDbLine
 10
138.6623982969007
 20
-316.2232809128553
 30
0.0
 11
139.3382982969007
 21
-316.1512259128552
 31
0.0
  0
LINE
  5
6013
330
1E
100
AcDbEntity
  8
0
 48
0.27
100
AcDbLine
 10
138.0124732969006
 20
-316.4366784128552
 30
0.0
 11
138.6623982969007
 21
-316.2232809128553
 31
0.0
  0
LINE
  5
6014
330
1E
100
AcDbEntity
  8
0
 48
0.27
100
AcDbLine
 10
137.4893895469007
 20
-316.7393084128552
 30
0.0
 11
138.0124732969006
 21
-316.4366784128552
 31
0.0
  0
LINE
  5
6015
330
1E
100
AcDbEntity
  8
0
 48
0.27
100
AcDbLine
 10
137.3380407969007
 20
-316.1512259128552
 30
0.0
 11
137.0300495469007
 21
-316.7286346628552
 31
0.0
  0
LINE
  5
6016
330
1E
100
AcDbEntity
  8
0
 48
0.27
100
AcDbLine
 10
140.2570282969007
 20
-319.2853484128552
 30
0.0
 11
140.3130695469007
 21
-319.9012259128552
 31
0.0
  0
LINE
  5
6017
330
1E
100
AcDbEntity
  8
0
 48
0.27
100
AcDbLine
 10
142.7362757969006
 20
-319.1696371628552
 30
0.0
 11
142.8028457969007
 21
-319.9012259128552
 31
0.0
  0
LINE
  5
6018
330
1E
100
AcDbEntity
  8
0
 48
0.27
100
AcDbLine
 10
142.5391232969007
 20
-318.4661634128552
 30
0.0
 11
142.7362757969006
 21
-319.1696371628552
 31
0.0
  0
LINE
  5
6019
330
1E
100
AcDbEntity
  8
0
 48
0.27
100
AcDbLine
 10
142.2189645469007
 20
-317.8178384128552
 30
0.0
 11
142.5391232969007
 21
-318.4661634128552
 31
0.0
  0
LINE
  5
601A
330
1E
100
AcDbEntity
  8
0
 48
0.27
100
AcDbLine
 10
141.7881032969007
 20
-317.2495759128552
 30
0.0
 11
142.2189645469007
 21
-317.8178384128552
 31
0.0
  0
LINE
  5
601B
330
1E
100
AcDbEntity
  8
0
 48
0.27
100
AcDbLine
 10
141.3385557969006
 20
-316.1512259128552
 30
0.0
 11
143.3388132969007
 21
-319.9012259128552
 31
0.0
  0
LINE
  5
601C
330
1E
100
AcDbEntity
  8
0
 48
0.27
100
AcDbLine
 10
141.2630982969007
 20
-316.7832146628552
 30
0.0
 11
141.7881032969007
 21
-317.2495759128552
 31
0.0
  0
LINE
  5
601D
330
1E
100
AcDbEntity
  8
0
 48
0.27
100
AcDbLine
 10
140.6641232969007
 20
-316.4366784128552
 30
0.0
 11
141.2630982969007
 21
-316.7832146628552
 31
0.0
  0
LINE
  5
601E
330
1E
100
AcDbEntity
  8
0
100
AcDbLine
 10
79.89224799178114
 20
-232.3228966865779
 30
0.0
 11
79.89224799178007
 21
-187.3228966865779
 31
0.0
  0
LINE
  5
601F
330
1E
100
AcDbEntity
  8
中心線
 48
0.27
100
AcDbLine
 10
102.3922479917835
 20
-223.9165581239705
 30
0.0
 11
102.3922479917835
 21
-195.7292352491823
 31
0.0
  0
CIRCLE
  5
6020
330
1E
100
AcDbEntity
  8
0
100
AcDbCircle
 10
102.3922479917835
 20
-209.8228966865764
 30
0.0
 40
9.999999999999772
  0
CIRCLE
  5
6021
330
1E
100
AcDbEntity
  8
0
100
AcDbCircle
 10
102.3922479917835
 20
-209.8228966865764
 30
0.0
 40
6.999999999999829
  0
ARC
  5
6022
330
1E
100
AcDbEntity
  8
0
  6
Continuous
100
AcDbCircle
 10
142.796134245021
 20
-209.8228966865764
 30
0.0
 40
5.333333333333332
100
AcDbArc
 50
90.0
 51
210.8352048940846
  0
LINE
  5
6023
330
1E
100
AcDbEntity
  8
中心線
 48
0.27
100
AcDbLine
 10
88.29858655438945
 20
-209.8228966865764
 30
0.0
 11
116.4859094291776
 21
-209.8228966865764
 31
0.0
  0
ARC
  5
6024
330
1E
100
AcDbEntity
  8
0
  6
Continuous
100
AcDbCircle
 10
144.8200394823285
 20
-220.8204425933628
 30
0.0
 40
2.746231479756806
100
AcDbArc
 50
89.1520988349392
 51
159.1520988349398
  0
ARC
  5
6025
330
1E
100
AcDbEntity
  8
0
  6
Continuous
100
AcDbCircle
 10
137.9192556433217
 20
-220.6407486677569
 30
0.0
 40
3.813798694049016
100
AcDbArc
 50
118.5864858262631
 51
163.5864858262638
  0
LINE
  5
6026
330
1E
100
AcDbEntity
  8
0
  6
Continuous
100
AcDbLine
 10
136.3407789751228
 20
-217.3939167445263
 30
0.0
 11
142.0072401078586
 21
-219.7410417963655
 31
0.0
  0
LINE
  5
6027
330
1E
100
AcDbEntity
  8
0
  6
Continuous
100
AcDbLine
 10
134.2608793416678
 20
-223.6057535519744
 30
0.0
 11
139.0855193126914
 21
-225.6041848615396
 31
0.0
  0
LINE
  5
6028
330
1E
100
AcDbEntity
  8
0
  6
Continuous
100
AcDbLine
 10
134.2608793416678
 20
-219.5630922687931
 30
0.0
 11
141.9441125200691
 21
-222.7455916541619
 31
0.0
  0
LINE
  5
6029
330
1E
100
AcDbEntity
  8
0
  6
Continuous
100
AcDbLine
 10
134.2608793416678
 20
-223.6057535519744
 30
0.0
 11
134.2608793416678
 21
-219.5630922687931
 31
0.0
  0
LINE
  5
602A
330
1E
100
AcDbEntity
  8
0
  6
Continuous
100
AcDbLine
 10
139.0855193126914
 20
-225.6041848615396
 30
0.0
 11
141.9441125200691
 21
-222.7455916541619
 31
0.0
  0
ARC
  5
602B
330
1E
100
AcDbEntity
  8
0
  6
Continuous
100
AcDbCircle
 10
138.5952316815411
 20
-220.9207471106266
 30
0.0
 40
3.813798694049015
100
AcDbArc
 50
331.4135141737373
 51
16.41351417373954
  0
ARC
  5
602C
330
1E
100
AcDbEntity
  8
0
  6
Continuous
100
AcDbCircle
 10
137.3207270649958
 20
-212.5238667892299
 30
0.0
 40
2.472178306553662
100
AcDbArc
 50
214.6327799989369
 51
280.3672200010634
  0
ARC
  5
602D
330
1E
100
AcDbEntity
  8
0
  6
Continuous
100
AcDbCircle
 10
143.650453090477
 20
-207.7603885432858
 30
0.0
 40
9.295339642905963
100
AcDbArc
 50
230.7213499979128
 51
264.2786500020895
  0
LINE
  5
602E
330
1E
100
AcDbEntity
  8
0
  6
Continuous
100
AcDbLine
 10
136.3746653852253
 20
-214.8078617273732
 30
0.0
 11
143.8118958366355
 21
-217.8884634468415
 31
0.0
  0
LINE
  5
602F
330
1E
100
AcDbEntity
  8
0
  6
Continuous
100
AcDbLine
 10
137.4403631735032
 20
-212.2350396735218
 30
0.0
 11
144.8775936249134
 21
-215.3156413929901
 31
0.0
  0
ARC
  5
6030
330
1E
100
AcDbEntity
  8
0
  6
Continuous
100
AcDbCircle
 10
136.4943014937327
 20
-214.5190346116652
 30
0.0
 40
2.472178306553662
100
AcDbArc
 50
34.63277999893691
 51
100.3672200010633
  0
ARC
  5
6031
330
1E
100
AcDbEntity
  8
0
  6
Continuous
100
AcDbCircle
 10
133.5885778401429
 20
-216.1682188558962
 30
0.0
 40
2.746231479756806
100
AcDbArc
 50
335.8479011650615
 51
45.84790116506176
  0
LINE
  5
6032
330
1E
100
AcDbEntity
  8
0
  6
Continuous
100
AcDbLine
 10
135.2865911682483
 20
-213.9287616067396
 30
0.0
 11
136.0493608596025
 21
-212.0872726729051
 31
0.0
  0
LINE
  5
6033
330
1E
100
AcDbEntity
  8
0
  6
Continuous
100
AcDbLine
 10
137.7656681285146
 20
-214.9556289058485
 30
0.0
 11
138.5284378198688
 21
-213.1141399720141
 31
0.0
  0
ARC
  5
6034
330
1E
100
AcDbEntity
  8
0
  6
Continuous
100
AcDbCircle
 10
137.6018059196617
 20
-222.3631145770776
 30
0.0
 40
9.295339642905963
100
AcDbArc
 50
50.72134999791215
 51
84.27865000208958
  0
LINE
  5
6035
330
1E
100
AcDbEntity
  8
0
  6
Continuous
100
AcDbLine
 10
142.7238211902699
 20
-217.0093631483492
 30
0.0
 11
143.486590881624
 21
-215.1678742145148
 31
0.0
  0
LINE
  5
6036
330
1E
100
AcDbEntity
  8
0
 48
0.27
100
AcDbLine
 10
168.360879341665
 20
-313.4025774904728
 30
0.0
 11
297.1608793416692
 21
-313.4025774904728
 31
0.0
  0
LINE
  5
6037
330
1E
100
AcDbEntity
  8
0
 48
0.27
100
AcDbLine
 10
168.3608793416649
 20
-361.9021157781871
 30
0.0
 11
297.1608793416693
 21
-361.9021157781871
 31
0.0
  0
LINE
  5
6038
330
1E
100
AcDbEntity
  8
0
 48
0.27
100
AcDbLine
 10
168.360879341665
 20
-311.4021157781869
 30
0.0
 11
297.1608793416692
 21
-311.4021157781869
 31
0.0
  0
LINE
  5
6039
330
1E
100
AcDbEntity
  8
0
 48
0.27
100
AcDbLine
 10
313.1608793416693
 20
-358.902115778187
 30
0.0
 11
152.3608793416649
 21
-358.9021157781871
 31
0.0
  0
LINE
  5
603A
330
1E
100
AcDbEntity
  8
0
 48
0.27
100
AcDbLine
 10
334.8922479917807
 20
-364.202156073588
 30
0.0
 11
207.3922479917806
 21
-364.2021560735879
 31
0.0
  0
LINE
  5
603B
330
1E
100
AcDbEntity
  8
0
 48
0.27
100
AcDbLine
 10
334.8922479917806
 20
-369.1021198781897
 30
0.0
 11
207.3922479917805
 21
-369.1021198781897
 31
0.0
  0
LINE
  5
603C
330
1E
100
AcDbEntity
  8
0
 48
0.27
100
AcDbLine
 10
334.8922479917807
 20
-371.4021157781859
 30
0.0
 11
207.3922479917806
 21
-371.4021157781859
 31
0.0
  0
LINE
  5
603D
330
1E
100
AcDbEntity
  8
虛線
 48
0.27
100
AcDbLine
 10
200.3922479917807
 20
-370.702115778186
 30
0.0
 11
214.3922479917808
 21
-370.702115778186
 31
0.0
  0
CIRCLE
  5
603E
330
1E
100
AcDbEntity
  8
0
 48
0.27
100
AcDbCircle
 10
158.3608793416649
 20
-331.902115778187
 30
0.0
 40
4.549999999999999
  0
CIRCLE
  5
603F
330
1E
100
AcDbEntity
  8
0
 48
0.27
100
AcDbCircle
 10
158.3608793416649
 20
-331.902115778187
 30
0.0
 40
4.25
  0
CIRCLE
  5
6040
330
1E
100
AcDbEntity
  8
0
 48
0.27
100
AcDbCircle
 10
158.3608793416649
 20
-331.902115778187
 30
0.0
 40
3.9375
  0
LINE
  5
6041
330
1E
100
AcDbEntity
  8
中心線
 48
0.27
100
AcDbLine
 10
158.3608793416649
 20
-337.5123784134396
 30
0.0
 11
158.3608793416649
 21
-326.2918531429341
 31
0.0
  0
LINE
  5
6042
330
1E
100
AcDbEntity
  8
0
 48
0.27
100
AcDbLine
 10
168.3608793416649
 20
-361.9021157781871
 30
0.0
 11
168.3608793416649
 21
-312.902115778187
 31
0.0
  0
LINE
  5
6043
330
1E
100
AcDbEntity
  8
0
 48
0.27
100
AcDbLine
 10
152.3608793416649
 20
-361.9021157781871
 30
0.0
 11
152.3608793416649
 21
-312.902115778187
 31
0.0
  0
LINE
  5
6044
330
1E
100
AcDbEntity
  8
0
 48
0.27
100
AcDbLine
 10
168.360879341665
 20
-311.4021157781869
 30
0.0
 11
168.3608793416649
 21
-361.9021157781871
 31
0.0
  0
LINE
  5
6045
330
1E
100
AcDbEntity
  8
0
 48
0.27
100
AcDbLine
 10
152.3608793416649
 20
-361.9021157781871
 30
0.0
 11
152.3608793416649
 21
-312.902115778187
 31
0.0
  0
LINE
  5
6046
330
1E
100
AcDbEntity
  8
0
100
AcDbLine
 10
147.8608793416649
 20
-336.596716673287
 30
0.0
 11
147.8608793416649
 21
-331.8521157781871
 31
0.0
  0
LINE
  5
6047
330
1E
100
AcDbEntity
  8
0
100
AcDbLine
 10
149.8608793416649
 20
-361.9021157781871
 30
0.0
 11
149.8608793416649
 21
-312.902115778187
 31
0.0
  0
LINE
  5
6048
330
1E
100
AcDbEntity
  8
0
100
AcDbLine
 10
147.8608793416649
 20
-361.9021157781871
 30
0.0
 11
147.8608793416648
 21
-349.3510460554879
 31
0.0
  0
LINE
  5
6049
330
1E
100
AcDbEntity
  8
0
 48
0.27
100
AcDbLine
 10
168.3608793416649
 20
-361.9021157781871
 30
0.0
 11
152.3608793416649
 21
-361.9021157781871
 31
0.0
  0
LINE
  5
604A
330
1E
100
AcDbEntity
  8
0
100
AcDbLine
 10
147.8608793416649
 20
-361.9021157781871
 30
0.0
 11
152.3608793416649
 21
-361.9021157781871
 31
0.0
  0
LINE
  5
604B
330
1E
100
AcDbEntity
  8
0
100
AcDbLine
 10
152.3608793416649
 20
-358.9021157781871
 30
0.0
 11
149.8608793416649
 21
-358.9021157781871
 31
0.0
  0
LINE
  5
604D
330
1E
100
AcDbEntity
  8
中心線
100
AcDbLine
 10
146.5593004216278
 20
-345.902115778187
 30
0.0
 11
157.2045259495569
 21
-345.902115778187
 31
0.0
  0
LINE
  5
6050
330
1E
100
AcDbEntity
  8
虛線
 48
0.27
100
AcDbLine
 10
200.3922479917808
 20
-361.9027560154786
 30
0.0
 11
200.3922479917807
 21
-370.702115778186
 31
0.0
  0
LINE
  5
6051
330
1E
100
AcDbEntity
  8
虛線
 48
0.27
100
AcDbLine
 10
200.3922479917807
 20
-370.702115778186
 30
0.0
 11
199.6922479917808
 21
-371.402115778186
 31
0.0
  0
LINE
  5
6052
330
1E
100
AcDbEntity
  8
0
 48
0.27
100
AcDbLine
 10
146.4327620469006
 20
-314.9012259128552
 30
0.0
 11
146.4327620469006
 21
-319.9012464706675
 31
0.0
  0
ARC
  5
6053
330
1E
100
AcDbEntity
  8
0
 48
0.27
100
AcDbCircle
 10
150.1254020469006
 20
-317.4012259128553
 30
0.0
 40
3.69263999999997
100
AcDbArc
 50
137.3885980021988
 51
222.6118632088948
  0
LINE
  5
6054
330
1E
100
AcDbEntity
  8
中心線
 48
0.27
100
AcDbLine
 10
152.2470940704883
 20
-331.902115778187
 30
0.0
 11
164.4746646128413
 21
-331.902115778187
 31
0.0
  0
LINE
  5
6055
330
1E
100
AcDbEntity
  8
0
 48
0.27
100
AcDbLine
 10
152.3608793416649
 20
-315.902115778187
 30
0.0
 11
168.3608793416649
 21
-315.902115778187
 31
0.0
  0
LINE
  5
6057
330
1E
100
AcDbEntity
  8
0
100
AcDbLine
 10
147.8608793416649
 20
-331.8521157781871
 30
0.0
 11
149.8608793416649
 21
-330.702115778187
 31
0.0
  0
CIRCLE
  5
6058
330
1E
100
AcDbEntity
  8
0
 48
0.27
100
AcDbCircle
 10
158.3608793416649
 20
-331.902115778187
 30
0.0
 40
0.75
  0
LINE
  5
605D
330
1E
100
AcDbEntity
  8
0
100
AcDbLine
 10
152.3608793416649
 20
-315.902115778187
 30
0.0
 11
149.8608793416649
 21
-315.902115778187
 31
0.0
  0
LINE
  5
605E
330
1E
100
AcDbEntity
  8
0
 48
0.27
100
AcDbLine
 10
152.3608793416649
 20
-312.902115778187
 30
0.0
 11
168.3608793416649
 21
-312.902115778187
 31
0.0
  0
LINE
  5
605F
330
1E
100
AcDbEntity
  8
0
100
AcDbLine
 10
152.3608793416649
 20
-312.902115778187
 30
0.0
 11
149.8608793416649
 21
-312.902115778187
 31
0.0
  0
LINE
  5
6060
330
1E
100
AcDbEntity
  8
虛線
 48
0.27
100
AcDbLine
 10
188.5108793416634
 20
-312.1021157781868
 30
0.0
 11
188.5108793416634
 21
-332.902115778187
 31
0.0
  0
LINE
  5
6061
330
1E
100
AcDbEntity
  8
虛線
 48
0.27
100
AcDbLine
 10
197.0108793416634
 20
-312.1021157781868
 30
0.0
 11
197.0108793416634
 21
-332.902115778187
 31
0.0
  0
LINE
  5
6062
330
1E
100
AcDbEntity
  8
中心線
 48
0.27
100
AcDbLine
 10
192.7608793416634
 20
-310.3021157781869
 30
0.0
 11
192.7608793416634
 21
-338.2445295568376
 31
0.0
  0
LINE
  5
6063
330
1E
100
AcDbEntity
  8
虛線
 48
0.27
100
AcDbLine
 10
187.7608793416634
 20
-312.1021157781868
 30
0.0
 11
187.7608793416634
 21
-328.402115778187
 31
0.0
  0
LINE
  5
6064
330
1E
100
AcDbEntity
  8
虛線
 48
0.27
100
AcDbLine
 10
197.7608793416634
 20
-312.1021157781868
 30
0.0
 11
197.7608793416634
 21
-328.402115778187
 31
0.0
  0
LINE
  5
6065
330
1E
100
AcDbEntity
  8
虛線
 48
0.27
100
AcDbLine
 10
192.7608793416634
 20
-335.3558544222427
 30
0.0
 11
197.0108793416634
 21
-332.902115778187
 31
0.0
  0
LINE
  5
6066
330
1E
100
AcDbEntity
  8
虛線
 48
0.27
100
AcDbLine
 10
188.5108793416634
 20
-332.902115778187
 30
0.0
 11
197.0108793416634
 21
-332.902115778187
 31
0.0
  0
LINE
  5
6067
330
1E
100
AcDbEntity
  8
虛線
 48
0.27
100
AcDbLine
 10
187.7608793416634
 20
-328.402115778187
 30
0.0
 11
197.7608793416634
 21
-328.402115778187
 31
0.0
  0
LINE
  5
6068
330
1E
100
AcDbEntity
  8
虛線
 48
0.27
100
AcDbLine
 10
188.5108793416634
 20
-332.902115778187
 30
0.0
 11
192.7608793416634
 21
-335.3558544222427
 31
0.0
  0
LINE
  5
6069
330
1E
100
AcDbEntity
  8
虛線
 48
0.27
100
AcDbLine
 10
197.7608793416631
 20
-312.1021157781868
 30
0.0
 11
187.7608793416631
 21
-312.1021157781868
 31
0.0
  0
LINE
  5
606A
330
1E
100
AcDbEntity
  8
虛線
 48
0.27
100
AcDbLine
 10
187.0608793416629
 20
-311.402115778187
 30
0.0
 11
187.7608793416631
 21
-312.1021157781868
 31
0.0
  0
LINE
  5
606B
330
1E
100
AcDbEntity
  8
虛線
 48
0.27
100
AcDbLine
 10
198.4608793416632
 20
-311.4021157781869
 30
0.0
 11
197.7608793416631
 21
-312.1021157781868
 31
0.0
  0
LINE
  5
606C
330
1E
100
AcDbEntity
  8
虛線
 48
0.27
100
AcDbLine
 10
214.3922479917808
 20
-361.9027560154786
 30
0.0
 11
214.3922479917808
 21
-370.702115778186
 31
0.0
  0
LINE
  5
606D
330
1E
100
AcDbEntity
  8
中心線
 48
0.27
100
AcDbLine
 10
207.3922479917806
 20
-373.3615369384232
 30
0.0
 11
207.3922479917806
 21
-360.4388610379711
 31
0.0
  0
LINE
  5
606E
330
1E
100
AcDbEntity
  8
虛線
 48
0.27
100
AcDbLine
 10
214.3922479917808
 20
-370.702115778186
 30
0.0
 11
215.092247991781
 21
-371.402115778186
 31
0.0
  0
LINE
  5
606F
330
1E
100
AcDbEntity
  8
虛線
 48
0.27
100
AcDbLine
 10
268.5108793416696
 20
-312.1021157781867
 30
0.0
 11
268.5108793416696
 21
-332.9021157781869
 31
0.0
  0
LINE
  5
6070
330
1E
100
AcDbEntity
  8
虛線
 48
0.27
100
AcDbLine
 10
277.0108793416696
 20
-312.1021157781867
 30
0.0
 11
277.0108793416696
 21
-332.9021157781869
 31
0.0
  0
LINE
  5
6071
330
1E
100
AcDbEntity
  8
中心線
 48
0.27
100
AcDbLine
 10
272.7608793416696
 20
-310.3021157781868
 30
0.0
 11
272.7608793416696
 21
-338.2445295568374
 31
0.0
  0
LINE
  5
6072
330
1E
100
AcDbEntity
  8
虛線
 48
0.27
100
AcDbLine
 10
267.7608793416696
 20
-312.1021157781867
 30
0.0
 11
267.7608793416696
 21
-328.4021157781869
 31
0.0
  0
LINE
  5
6073
330
1E
100
AcDbEntity
  8
虛線
 48
0.27
100
AcDbLine
 10
277.7608793416696
 20
-312.1021157781867
 30
0.0
 11
277.7608793416696
 21
-328.4021157781869
 31
0.0
  0
LINE
  5
6074
330
1E
100
AcDbEntity
  8
虛線
 48
0.27
100
AcDbLine
 10
272.7608793416696
 20
-335.3558544222425
 30
0.0
 11
277.0108793416696
 21
-332.9021157781869
 31
0.0
  0
LINE
  5
6075
330
1E
100
AcDbEntity
  8
虛線
 48
0.27
100
AcDbLine
 10
268.5108793416696
 20
-332.9021157781869
 30
0.0
 11
277.0108793416696
 21
-332.9021157781869
 31
0.0
  0
LINE
  5
6076
330
1E
100
AcDbEntity
  8
虛線
 48
0.27
100
AcDbLine
 10
267.7608793416696
 20
-328.4021157781869
 30
0.0
 11
277.7608793416696
 21
-328.4021157781869
 31
0.0
  0
LINE
  5
6077
330
1E
100
AcDbEntity
  8
虛線
 48
0.27
100
AcDbLine
 10
268.5108793416696
 20
-332.9021157781869
 30
0.0
 11
272.7608793416696
 21
-335.3558544222425
 31
0.0
  0
LINE
  5
6078
330
1E
100
AcDbEntity
  8
虛線
 48
0.27
100
AcDbLine
 10
277.7608793416694
 20
-312.1021157781867
 30
0.0
 11
267.7608793416694
 21
-312.1021157781867
 31
0.0
  0
LINE
  5
6079
330
1E
100
AcDbEntity
  8
虛線
 48
0.27
100
AcDbLine
 10
267.0608793416691
 20
-311.4021157781869
 30
0.0
 11
267.7608793416694
 21
-312.1021157781867
 31
0.0
  0
LINE
  5
607A
330
1E
100
AcDbEntity
  8
虛線
 48
0.27
100
AcDbLine
 10
278.4608793416694
 20
-311.4021157781868
 30
0.0
 11
277.7608793416694
 21
-312.1021157781867
 31
0.0
  0
LINE
  5
607B
330
1E
100
AcDbEntity
  8
0
 48
0.27
100
AcDbLine
 10
334.8922479917807
 20
-333.4021157781859
 30
0.0
 11
317.6608793416693
 21
-333.4021157781859
 31
0.0
  0
LINE
  5
607C
330
1E
100
AcDbEntity
  8
0
 48
0.27
100
AcDbLine
 10
334.8922479917807
 20
-334.6018865718607
 30
0.0
 11
317.6608793416693
 21
-334.6018865718606
 31
0.0
  0
LINE
  5
607D
330
1E
100
AcDbEntity
  8
0
 48
0.27
100
AcDbLine
 10
334.8922479917807
 20
-337.9688747704955
 30
0.0
 11
317.6608793416693
 21
-337.9688747704955
 31
0.0
  0
LINE
  5
607E
330
1E
100
AcDbEntity
  8
0
 48
0.27
100
AcDbLine
 10
334.8922479917807
 20
-341.8021485623088
 30
0.0
 11
317.6608793416693
 21
-341.8021485623087
 31
0.0
  0
LINE
  5
607F
330
1E
100
AcDbEntity
  8
0
 48
0.27
100
AcDbLine
 10
334.8922479917807
 20
-343.602121877774
 30
0.0
 11
318.3083121151085
 21
-343.6021218777739
 31
0.0
  0
LINE
  5
6080
330
1E
100
AcDbEntity
  8
0
 48
0.27
100
AcDbLine
 10
334.8922479917807
 20
-347.4342704898051
 30
0.0
 11
318.3608793416693
 21
-347.4342704898051
 31
0.0
  0
LINE
  5
6081
330
1E
100
AcDbEntity
  8
0
 48
0.27
100
AcDbLine
 10
334.8922479917807
 20
-350.8024860044013
 30
0.0
 11
317.6608793416693
 21
-350.8024860044013
 31
0.0
  0
LINE
  5
6082
330
1E
100
AcDbEntity
  8
0
 48
0.27
100
AcDbLine
 10
334.8922479917807
 20
-351.902127778186
 30
0.0
 11
317.6608793416693
 21
-351.902127778186
 31
0.0
  0
LINE
  5
6083
330
1E
100
AcDbEntity
  8
0
 48
0.27
100
AcDbLine
 10
334.8922479917807
 20
-355.9021313012808
 30
0.0
 11
317.6608793416693
 21
-355.9021313012806
 31
0.0
  0
LINE
  5
6084
330
1E
100
AcDbEntity
  8
中心線
 48
0.27
100
AcDbLine
 10
307.1608793416693
 20
-337.5123784134398
 30
0.0
 11
307.1608793416693
 21
-326.2918531429343
 31
0.0
  0
CIRCLE
  5
6085
330
1E
100
AcDbEntity
  8
0
 48
0.27
100
AcDbCircle
 10
307.1608793416693
 20
-331.902115778187
 30
0.0
 40
4.549999999999999
  0
CIRCLE
  5
6086
330
1E
100
AcDbEntity
  8
0
 48
0.27
100
AcDbCircle
 10
307.1608793416693
 20
-331.902115778187
 30
0.0
 40
3.9375
  0
CIRCLE
  5
6087
330
1E
100
AcDbEntity
  8
0
 48
0.27
100
AcDbCircle
 10
307.1608793416693
 20
-331.902115778187
 30
0.0
 40
4.25
  0
LINE
  5
6088
330
1E
100
AcDbEntity
  8
0
 48
0.27
100
AcDbLine
 10
297.1608793416693
 20
-361.9021157781871
 30
0.0
 11
297.1608793416693
 21
-312.902115778187
 31
0.0
  0
LINE
  5
6089
330
1E
100
AcDbEntity
  8
0
 48
0.27
100
AcDbLine
 10
297.1608793416692
 20
-311.4021157781869
 30
0.0
 11
297.1608793416693
 21
-361.9021157781871
 31
0.0
  0
LINE
  5
608A
330
1E
100
AcDbEntity
  8
0
 48
0.27
100
AcDbLine
 10
313.1608793416693
 20
-361.9021157781871
 30
0.0
 11
313.1608793416693
 21
-312.902115778187
 31
0.0
  0
LINE
  5
608B
330
1E
100
AcDbEntity
  8
0
100
AcDbLine
 10
317.6608793416693
 20
-336.596716673287
 30
0.0
 11
317.6608793416693
 21
-331.8521157781871
 31
0.0
  0
LINE
  5
608C
330
1E
100
AcDbEntity
  8
0
100
AcDbLine
 10
315.6608793416693
 20
-361.9021157781871
 30
0.0
 11
315.6608793416693
 21
-312.902115778187
 31
0.0
  0
LINE
  5
608D
330
1E
100
AcDbEntity
  8
中心線
 48
0.27
100
AcDbLine
 10
312.3922479917807
 20
-373.3615369384232
 30
0.0
 11
312.3922479917807
 21
-361.9021157781871
 31
0.0
  0
LINE
  5
608E
330
1E
100
AcDbEntity
  8
虛線
 48
0.27
100
AcDbLine
 10
322.3922479917809
 20
-333.802115778186
 30
0.0
 11
322.3922479917808
 21
-350.402115778186
 31
0.0
  0
LINE
  5
6090
330
1E
100
AcDbEntity
  8
0
100
AcDbLine
 10
317.6608793416693
 20
-361.9021157781871
 30
0.0
 11
317.6608793416693
 21
-349.3510460554879
 31
0.0
  0
LINE
  5
6091
330
1E
100
AcDbEntity
  8
0
 48
0.27
100
AcDbLine
 10
297.1608793416693
 20
-361.9021157781871
 30
0.0
 11
313.1608793416693
 21
-361.9021157781871
 31
0.0
  0
LINE
  5
6092
330
1E
100
AcDbEntity
  8
0
100
AcDbLine
 10
317.6608793416693
 20
-361.9021157781871
 30
0.0
 11
313.1608793416693
 21
-361.9021157781871
 31
0.0
  0
LINE
  5
6093
330
1E
100
AcDbEntity
  8
0
100
AcDbLine
 10
313.1608793416693
 20
-358.9021157781871
 30
0.0
 11
315.6608793416693
 21
-358.9021157781871
 31
0.0
  0
LINE
  5
6094
330
1E
100
AcDbEntity
  8
中心線
100
AcDbLine
 10
319.6047869997835
 20
-345.902115778187
 30
0.0
 11
308.9595614718545
 21
-345.902115778187
 31
0.0
  0
LINE
  5
6095
330
1E
100
AcDbEntity
  8
0
100
AcDbLine
 10
318.3608793416693
 20
-344.0512991193219
 30
0.0
 11
318.3608793416693
 21
-347.7529324370522
 31
0.0
  0
ARC
  5
6096
330
1E
100
AcDbEntity
  8
0
100
AcDbCircle
 10
316.1031575331042
 20
-347.7163757763703
 30
0.0
 40
2.258017748891657
100
AcDbArc
 50
285.9630221688284
 51
359.0723572120041
  0
ARC
  5
6097
330
1E
100
AcDbEntity
  8
0
100
AcDbCircle
 10
316.1031575331042
 20
-344.0878557800037
 30
0.0
 40
2.258017748891657
100
AcDbArc
 50
0.9276427879959484
 51
74.03697783117156
  0
LINE
  5
6098
330
1E
100
AcDbEntity
  8
虛線
 48
0.27
100
AcDbLine
 10
319.3922479917809
 20
-350.7021157781859
 30
0.0
 11
319.3922479917809
 21
-370.702115778186
 31
0.0
  0
LINE
  5
6099
330
1E
100
AcDbEntity
  8
虛線
 48
0.27
100
AcDbLine
 10
305.3922479917809
 20
-361.9021157781871
 30
0.0
 11
305.3922479917808
 21
-370.702115778186
 31
0.0
  0
LINE
  5
609A
330
1E
100
AcDbEntity
  8
虛線
 48
0.27
100
AcDbLine
 10
305.3922479917808
 20
-370.702115778186
 30
0.0
 11
319.3922479917809
 21
-370.702115778186
 31
0.0
  0
LINE
  5
609B
330
1E
100
AcDbEntity
  8
虛線
 48
0.27
100
AcDbLine
 10
305.3922479917808
 20
-370.702115778186
 30
0.0
 11
304.6922479917808
 21
-371.402115778186
 31
0.0
  0
LINE
  5
609C
330
1E
100
AcDbEntity
  8
虛線
 48
0.27
100
AcDbLine
 10
319.3922479917809
 20
-370.702115778186
 30
0.0
 11
320.0922479917811
 21
-371.402115778186
 31
0.0
  0
LINE
  5
609D
330
1E
100
AcDbEntity
  8
虛線
 48
0.27
100
AcDbLine
 10
317.6608793416693
 20
-350.7021157781859
 30
0.0
 11
319.3922479917809
 21
-350.7021157781859
 31
0.0
  0
LINE
  5
609E
330
1E
100
AcDbEntity
  8
虛線
 48
0.27
100
AcDbLine
 10
317.6608793416692
 20
-350.402115778186
 30
0.0
 11
322.3922479917808
 21
-350.402115778186
 31
0.0
  0
LINE
  5
60A0
330
1E
100
AcDbEntity
  8
虛線
 48
0.27
100
AcDbLine
 10
319.3922479917809
 20
-350.7021157781859
 30
0.0
 11
319.6922479917808
 21
-350.402115778186
 31
0.0
  0
LINE
  5
60A1
330
1E
100
AcDbEntity
  8
0
 48
0.27
100
AcDbLine
 10
313.1608793416693
 20
-315.902115778187
 30
0.0
 11
297.1608793416693
 21
-315.902115778187
 31
0.0
  0
LINE
  5
60A2
330
1E
100
AcDbEntity
  8
中心線
 48
0.27
100
AcDbLine
 10
301.0470940704927
 20
-331.902115778187
 30
0.0
 11
313.2746646128458
 21
-331.902115778187
 31
0.0
  0
CIRCLE
  5
60A4
330
1E
100
AcDbEntity
  8
0
 48
0.27
100
AcDbCircle
 10
307.1608793416693
 20
-331.902115778187
 30
0.0
 40
0.75
  0
LINE
  5
60A6
330
1E
100
AcDbEntity
  8
0
100
AcDbLine
 10
317.6608793416693
 20
-331.8521157781871
 30
0.0
 11
315.6608793416693
 21
-330.702115778187
 31
0.0
  0
LINE
  5
60A8
330
1E
100
AcDbEntity
  8
0
100
AcDbLine
 10
313.1608793416693
 20
-315.902115778187
 30
0.0
 11
315.6608793416693
 21
-315.902115778187
 31
0.0
  0
LINE
  5
60AA
330
1E
100
AcDbEntity
  8
0
 48
0.27
100
AcDbLine
 10
313.1608793416693
 20
-312.902115778187
 30
0.0
 11
297.1608793416693
 21
-312.902115778187
 31
0.0
  0
LINE
  5
60AB
330
1E
100
AcDbEntity
  8
0
100
AcDbLine
 10
313.1608793416693
 20
-312.902115778187
 30
0.0
 11
315.6608793416693
 21
-312.902115778187
 31
0.0
  0
LINE
  5
60AC
330
1E
100
AcDbEntity
  8
虛線
 48
0.27
100
AcDbLine
 10
317.6608793416693
 20
-333.802115778186
 30
0.0
 11
322.3922479917809
 21
-333.802115778186
 31
0.0
  0
LINE
  5
60AE
330
1E
100
AcDbEntity
  8
虛線
 48
0.27
100
AcDbLine
 10
322.3922479917809
 20
-333.802115778186
 30
0.0
 11
322.6231880994568
 21
-333.402115778186
 31
0.0
  0
LINE
  5
60AF
330
1E
100
AcDbEntity
  8
0
 48
0.27
100
AcDbLine
 10
334.8922479917807
 20
-371.4021157781859
 30
0.0
 11
334.8922479917807
 21
-333.402115778186
 31
0.0
  0
LINE
  5
60B0
330
1E
100
AcDbEntity
  8
0
100
AcDbLine
 10
168.3608793416681
 20
-168.8228966865768
 30
0.0
 11
297.1608793416722
 21
-168.8228966865768
 31
0.0
  0
LINE
  5
60B1
330
1E
100
AcDbEntity
  8
0
100
AcDbLine
 10
168.3608793416681
 20
-189.2471607552885
 30
0.0
 11
297.1608793416722
 21
-189.2471607552885
 31
0.0
  0
LINE
  5
60B2
330
1E
100
AcDbEntity
  8
0
100
AcDbLine
 10
168.3608793416681
 20
-201.8986326178648
 30
0.0
 11
297.1608793416722
 21
-201.8986326178648
 31
0.0
  0
LINE
  5
60B3
330
1E
100
AcDbEntity
  8
0
100
AcDbLine
 10
168.3608793416681
 20
-217.7471607552888
 30
0.0
 11
297.1608793416722
 21
-217.7471607552888
 31
0.0
  0
LINE
  5
60B4
330
1E
100
AcDbEntity
  8
0
100
AcDbLine
 10
168.3608793416681
 20
-230.3986326178648
 30
0.0
 11
297.1608793416722
 21
-230.3986326178648
 31
0.0
  0
LINE
  5
60B5
330
1E
100
AcDbEntity
  8
0
100
AcDbLine
 10
168.3608793416681
 20
-250.8228966865766
 30
0.0
 11
297.1608793416722
 21
-250.8228966865766
 31
0.0
  0
LINE
  5
60B6
330
1E
100
AcDbEntity
  8
0
100
AcDbLine
 10
168.360879341668
 20
-252.8228966865769
 30
0.0
 11
297.1608793416723
 21
-252.822896686577
 31
0.0
  0
LINE
  5
60B7
330
1E
100
AcDbEntity
  8
0
100
AcDbLine
 10
168.3608793416681
 20
-190.2471607552886
 30
0.0
 11
297.1608793416722
 21
-190.2471607552885
 31
0.0
  0
LINE
  5
60B8
330
1E
100
AcDbEntity
  8
0
100
AcDbLine
 10
168.3608793416681
 20
-200.8986326178648
 30
0.0
 11
297.1608793416722
 21
-200.8986326178648
 31
0.0
  0
LINE
  5
60B9
330
1E
100
AcDbEntity
  8
0
100
AcDbLine
 10
168.3608793416681
 20
-218.7471607552886
 30
0.0
 11
297.1608793416722
 21
-218.7471607552886
 31
0.0
  0
LINE
  5
60BA
330
1E
100
AcDbEntity
  8
0
100
AcDbLine
 10
168.3608793416681
 20
-229.3986326178648
 30
0.0
 11
297.1608793416722
 21
-229.3986326178648
 31
0.0
  0
LINE
  5
60BB
330
1E
100
AcDbEntity
  8
0
100
AcDbLine
 10
168.3608793416681
 20
-166.8228966865767
 30
0.0
 11
297.1608793416722
 21
-166.8228966865767
 31
0.0
  0
LINE
  5
60BC
330
1E
100
AcDbEntity
  8
AM7
100
AcDbLine
 10
147.9322829198632
 20
-209.8228966865764
 30
0.0
 11
317.589475763477
 21
-209.8228966865764
 31
0.0
  0
ARC
  5
60BD
330
1E
100
AcDbEntity
  8
0
  6
Continuous
100
AcDbCircle
 10
158.2174579811793
 20
-209.8228966865764
 30
0.0
 40
10.62324530617824
100
AcDbArc
 50
163.2213499979121
 51
196.7786500020878
  0
LINE
  5
60BE
330
1E
100
AcDbEntity
  8
0
  6
Continuous
100
AcDbLine
 10
147.5942126750011
 20
-214.4228968193669
 30
0.0
 11
147.5942126750011
 21
-205.2228965537859
 31
0.0
  0
LINE
  5
60BF
330
1E
100
AcDbEntity
  8
0
100
AcDbLine
 10
149.8608793416678
 20
-250.8228131244053
 30
0.0
 11
149.8608793416678
 21
-168.8228131284126
 31
0.0
  0
LINE
  5
60C0
330
1E
100
AcDbEntity
  8
0
 48
0.27
100
AcDbLine
 10
152.3608793416678
 20
-250.8228244162712
 30
0.0
 11
152.3608793416677
 21
-168.8228244203757
 31
0.0
  0
LINE
  5
60C1
330
1E
100
AcDbEntity
  8
0
100
AcDbLine
 10
168.3608793416681
 20
-166.8228966865767
 30
0.0
 11
168.360879341668
 21
-252.8228966865769
 31
0.0
  0
LINE
  5
60C2
330
1E
100
AcDbEntity
  8
AM7
100
AcDbLine
 10
232.7608793416701
 20
-162.1986387307594
 30
0.0
 11
232.7608793416701
 21
-258.8098962926435
 31
0.0
  0
LINE
  5
60C4
330
1E
100
AcDbEntity
  8
0
 48
0.27
100
AcDbLine
 10
168.360879341668
 20
-250.8228966842129
 30
0.0
 11
149.8608793416678
 21
-250.8228131244053
 31
0.0
  0
LINE
  5
60C5
330
1E
100
AcDbEntity
  8
中心線
100
AcDbLine
 10
144.9228015961526
 20
-243.8228966846164
 30
0.0
 11
155.5680271240816
 21
-243.8228966846164
 31
0.0
  0
ARC
  5
60CB
330
1E
100
AcDbEntity
  8
0
  6
Continuous
100
AcDbCircle
 10
150.4195593110625
 20
-214.4228968193669
 30
0.0
 40
2.825346636061327
100
AcDbArc
 50
147.1327799989379
 51
212.8672200010621
  0
LINE
  5
60CC
330
1E
100
AcDbEntity
  8
0
  6
Continuous
100
AcDbLine
 10
148.0465493978137
 20
-215.9562300199098
 30
0.0
 11
149.8608793416678
 21
-215.9562300199098
 31
0.0
  0
LINE
  5
60CD
330
1E
100
AcDbEntity
  8
0
  6
Continuous
100
AcDbLine
 10
145.2028418144742
 20
-218.0362874864855
 30
0.0
 11
145.9656683389619
 21
-216.1946613453293
 31
0.0
  0
LINE
  5
60CE
330
1E
100
AcDbEntity
  8
0
  6
Continuous
100
AcDbLine
 10
148.0465493978137
 20
-212.8895630876619
 30
0.0
 11
149.8608793416678
 21
-212.889563087662
 31
0.0
  0
CIRCLE
  5
60CF
330
1E
100
AcDbEntity
  8
0
100
AcDbCircle
 10
192.7608793416684
 20
-239.8228966865766
 30
0.0
 40
4.25
  0
LINE
  5
60D0
330
1E
100
AcDbEntity
  8
AM7
100
AcDbLine
 10
199.0774534919654
 20
-239.8228966865766
 30
0.0
 11
186.8279148493083
 21
-239.8228966865766
 31
0.0
  0
ARC
  5
60D1
330
1E
100
AcDbEntity
  8
AM4
100
AcDbCircle
 10
192.7608793416684
 20
-239.8228966865766
 30
0.0
 40
5.0
100
AcDbArc
 50
180.0
 51
90.0
  0
LINE
  5
60D2
330
1E
100
AcDbEntity
  8
AM7
100
AcDbLine
 10
192.7608793416684
 20
-245.9094122030335
 30
0.0
 11
192.7608793416684
 21
-233.6357914345911
 31
0.0
  0
LINE
  5
60D3
330
1E
100
AcDbEntity
  8
AM7
100
AcDbLine
 10
266.4443051913755
 20
-239.8228966865765
 30
0.0
 11
278.6938438340327
 21
-239.8228966865765
 31
0.0
  0
ARC
  5
60D4
330
1E
100
AcDbEntity
  8
AM4
100
AcDbCircle
 10
272.7608793416725
 20
-239.8228966865765
 30
0.0
 40
5.0
100
AcDbArc
 50
180.0
 51
90.0
  0
CIRCLE
  5
60D5
330
1E
100
AcDbEntity
  8
0
100
AcDbCircle
 10
272.7608793416725
 20
-239.8228966865765
 30
0.0
 40
4.25
  0
LINE
  5
60D6
330
1E
100
AcDbEntity
  8
AM7
100
AcDbLine
 10
272.7608793416725
 20
-245.9094122030335
 30
0.0
 11
272.7608793416725
 21
-233.635791434591
 31
0.0
  0
ARC
  5
60D8
330
1E
100
AcDbEntity
  8
0
  6
Continuous
100
AcDbCircle
 10
150.4195593110625
 20
-205.2228965537859
 30
0.0
 40
2.825346636061327
100
AcDbArc
 50
147.1327799989379
 51
212.8672200010621
  0
LINE
  5
60D9
330
1E
100
AcDbEntity
  8
0
  6
Continuous
100
AcDbLine
 10
148.0465493978137
 20
-206.7562302854909
 30
0.0
 11
149.8608793416678
 21
-206.7562302854909
 31
0.0
  0
LINE
  5
60DA
330
1E
100
AcDbEntity
  8
0
  6
Continuous
100
AcDbLine
 10
148.0465493978137
 20
-203.689563353243
 30
0.0
 11
149.8608793416678
 21
-203.689563353243
 31
0.0
  0
LINE
  5
60DC
330
1E
100
AcDbEntity
  8
中心線
100
AcDbLine
 10
144.9228015961526
 20
-175.8228966885364
 30
0.0
 11
155.5680271240816
 21
-175.8228966885364
 31
0.0
  0
LINE
  5
60E1
330
1E
100
AcDbEntity
  8
AM7
100
AcDbLine
 10
199.0774534919654
 20
-179.8228966865769
 30
0.0
 11
186.8279148493083
 21
-179.8228966865768
 31
0.0
  0
CIRCLE
  5
60E2
330
1E
100
AcDbEntity
  8
0
100
AcDbCircle
 10
192.7608793416684
 20
-179.8228966865768
 30
0.0
 40
4.25
  0
ARC
  5
60E3
330
1E
100
AcDbEntity
  8
AM4
100
AcDbCircle
 10
192.7608793416684
 20
-179.8228966865768
 30
0.0
 40
5.0
100
AcDbArc
 50
180.0
 51
90.0
  0
LINE
  5
60E4
330
1E
100
AcDbEntity
  8
AM7
100
AcDbLine
 10
192.7608793416684
 20
-173.7363811701197
 30
0.0
 11
192.7608793416684
 21
-186.0100019385621
 31
0.0
  0
LINE
  5
60E5
330
1E
100
AcDbEntity
  8
0
 48
0.27
100
AcDbLine
 10
149.8608793416678
 20
-168.8228131284126
 30
0.0
 11
168.3608793416681
 21
-168.8228966889399
 31
0.0
  0
LINE
  5
60E6
330
1E
100
AcDbEntity
  8
AM7
100
AcDbLine
 10
266.4443051913755
 20
-179.8228966865768
 30
0.0
 11
278.6938438340327
 21
-179.8228966865767
 31
0.0
  0
ARC
  5
60E7
330
1E
100
AcDbEntity
  8
AM4
100
AcDbCircle
 10
272.7608793416725
 20
-179.8228966865767
 30
0.0
 40
5.0
100
AcDbArc
 50
180.0
 51
90.0
  0
CIRCLE
  5
60E8
330
1E
100
AcDbEntity
  8
0
100
AcDbCircle
 10
272.7608793416725
 20
-179.8228966865767
 30
0.0
 40
4.25
  0
LINE
  5
60E9
330
1E
100
AcDbEntity
  8
AM7
100
AcDbLine
 10
272.7608793416725
 20
-173.7363811701196
 30
0.0
 11
272.7608793416725
 21
-186.010001938562
 31
0.0
  0
ARC
  5
60EA
330
1E
100
AcDbEntity
  8
0
100
AcDbCircle
 10
312.3922479917836
 20
-209.8228966865764
 30
0.0
 40
9.999999999999772
100
AcDbArc
 50
301.7937534742371
 51
58.20624652576258
  0
ARC
  5
60EB
330
1E
100
AcDbEntity
  8
0
100
AcDbCircle
 10
312.3922479917836
 20
-209.8228966865764
 30
0.0
 40
6.999999999999829
100
AcDbArc
 50
318.8214647605317
 51
41.1785352394681
  0
LINE
  5
60ED
330
1E
100
AcDbEntity
  8
0
100
AcDbLine
 10
334.8922479917836
 20
-232.322896686574
 30
0.0
 11
334.8922479917836
 21
-187.3228966865739
 31
0.0
  0
LINE
  5
60EE
330
1E
100
AcDbEntity
  8
0
 48
0.27
100
AcDbLine
 10
313.1608793416724
 20
-250.8228244162713
 30
0.0
 11
313.1608793416725
 21
-168.8228244203758
 31
0.0
  0
LINE
  5
60EF
330
1E
100
AcDbEntity
  8
0
100
AcDbLine
 10
315.6608793416724
 20
-250.8228131244053
 30
0.0
 11
315.6608793416725
 21
-168.8228131284127
 31
0.0
  0
LINE
  5
60F0
330
1E
100
AcDbEntity
  8
0
100
AcDbLine
 10
297.1608793416722
 20
-166.8228966865767
 30
0.0
 11
297.1608793416723
 21
-252.822896686577
 31
0.0
  0
LINE
  5
60F1
330
1E
100
AcDbEntity
  8
0
100
AcDbLine
 10
334.8922479917836
 20
-232.3228966865745
 30
0.0
 11
317.589542805013
 21
-232.3228966865748
 31
0.0
  0
LINE
  5
60F4
330
1E
100
AcDbEntity
  8
0
 48
0.27
100
AcDbLine
 10
297.1608793416722
 20
-250.822896684213
 30
0.0
 11
315.6608793416724
 21
-250.8228131244053
 31
0.0
  0
LINE
  5
60FB
330
1E
100
AcDbEntity
  8
0
100
AcDbLine
 10
334.8922479917836
 20
-187.3228966865744
 30
0.0
 11
317.5895428050107
 21
-187.3228966865747
 31
0.0
  0
LINE
  5
6103
330
1E
100
AcDbEntity
  8
0
 48
0.27
100
AcDbLine
 10
315.6608793416725
 20
-168.8228131284127
 30
0.0
 11
297.1608793416722
 21
-168.82289668894
 31
0.0
  0
LINE
  5
62DE
330
1E
100
AcDbEntity
  8
虛線
 48
0.27
100
AcDbLine
 10
5.531032884204904
 20
-325.3568167830857
 30
0.0
 11
9.781059230972914
 21
-322.9031237735367
 31
0.0
  0
ARC
  5
62E4
330
1E
100
AcDbEntity
  8
0
100
AcDbCircle
 10
13.53100286310206
 20
-315.9021157781793
 30
0.0
 40
3.0
100
AcDbArc
 50
359.9993847866999
 51
89.99999999999511
  0
LINE
  5
62E5
330
1E
100
AcDbEntity
  8
0
 48
0.27
100
AcDbLine
 10
16.53072368597537
 20
-341.9023305501608
 30
0.0
 11
12.53072368620596
 21
-341.90228760017
 31
0.0
  0
LINE
  5
62E6
330
1E
100
AcDbEntity
  8
指線
 48
0.27
100
AcDbLine
 10
11.72806062261873
 20
-346.7051405008633
 30
0.0
 11
11.72827189730057
 21
-348.1728871073232
 31
0.0
  0
LINE
  5
62E7
330
1E
100
AcDbEntity
  8
指線
 48
0.27
100
AcDbLine
 10
13.33353194977604
 20
-346.7049092478895
 30
0.0
 11
13.33374322477877
 21
-348.1726558543564
 31
0.0
  0
ARC
  5
62E8
330
1E
100
AcDbEntity
  8
指線
 48
0.27
100
AcDbCircle
 10
12.5306807362152
 20
-345.9022875999394
 30
0.0
 40
2.408211238907886
100
AcDbArc
 50
289.479432555884
 51
340.5379346017803
  0
LINE
  5
62E9
330
1E
100
AcDbEntity
  8
指線
 48
0.27
100
AcDbLine
 10
13.33353194977604
 20
-346.7049092478895
 30
0.0
 11
16.46016467905664
 21
-346.7043822840826
 31
0.0
  0
LINE
  5
62EA
330
1E
100
AcDbEntity
  8
指線
 48
0.27
100
AcDbLine
 10
13.33330084981128
 20
-345.0994346990153
 30
0.0
 11
16.45993357909188
 21
-345.0989077352083
 31
0.0
  0
LINE
  5
62EB
330
1E
100
AcDbEntity
  8
0
 48
0.27
100
AcDbLine
 10
16.53063778599386
 20
-349.9023305496996
 30
0.0
 11
12.53063778622445
 21
-349.9022875997089
 31
0.0
  0
LINE
  5
62EC
330
1E
100
AcDbEntity
  8
指線
 48
0.27
100
AcDbLine
 10
11.72806062261873
 20
-346.7051405008633
 30
0.0
 11
8.594993582179029
 21
-346.7055151881759
 31
0.0
  0
LINE
  5
62ED
330
1E
100
AcDbEntity
  8
指線
 48
0.27
100
AcDbLine
 10
11.7278295226543
 20
-345.0996659519894
 30
0.0
 11
8.594762482214633
 21
-345.1000406393016
 31
0.0
  0
ARC
  5
62EE
330
1E
100
AcDbEntity
  8
指線
 48
0.27
100
AcDbCircle
 10
12.5306807362152
 20
-345.9022875999394
 30
0.0
 40
2.408211238907886
100
AcDbArc
 50
199.478573099186
 51
250.5370623270881
  0
ARC
  5
62EF
330
1E
100
AcDbEntity
  8
0
 48
0.27
100
AcDbCircle
 10
12.5306807362152
 20
-345.9022875999395
 30
0.0
 40
4.0
100
AcDbArc
 50
89.99938478669987
 51
269.9993847866998
  0
CIRCLE
  5
62F0
330
1E
100
AcDbEntity
  8
指線
 48
0.27
100
AcDbCircle
 10
12.5306807362152
 20
-345.9022875999394
 30
0.0
 40
4.0
  0
CIRCLE
  5
62F1
330
1E
100
AcDbEntity
  8
指線
 48
0.27
100
AcDbCircle
 10
12.5306807362152
 20
-345.9022875999394
 30
0.0
 40
4.0
  0
ARC
  5
62F2
330
1E
100
AcDbEntity
  8
指線
 48
0.27
100
AcDbCircle
 10
12.5306807362152
 20
-345.9022875999394
 30
0.0
 40
2.408211238907886
100
AcDbArc
 50
109.4794325558855
 51
160.5361215893392
  0
LINE
  5
62F3
330
1E
100
AcDbEntity
  8
指線
 48
0.27
100
AcDbLine
 10
11.72761824765157
 20
-343.6319193455222
 30
0.0
 11
11.7278295226543
 21
-345.0996659519894
 31
0.0
  0
ARC
  5
62F4
330
1E
100
AcDbEntity
  8
指線
 48
0.27
100
AcDbCircle
 10
12.5306807362152
 20
-345.9022875999394
 30
0.0
 40
2.408211238907886
100
AcDbArc
 50
19.48038611139727
 51
70.53706232708965
  0
LINE
  5
62F5
330
1E
100
AcDbEntity
  8
指線
 48
0.27
100
AcDbLine
 10
13.33308957512977
 20
-343.6316880925557
 30
0.0
 11
13.33330084981128
 21
-345.0994346990153
 31
0.0
  0
LINE
  5
62F7
330
1E
100
AcDbEntity
  8
0
 48
0.27
100
AcDbLine
 10
16.53054115531591
 20
-358.9023305423797
 30
0.0
 11
13.53050893619453
 21
-361.9022983365149
 31
0.0
  0
LINE
  5
62F8
330
1E
100
AcDbEntity
  8
0
 48
0.27
100
AcDbLine
 10
16.53100286292911
 20
-315.9021479906723
 30
0.0
 11
16.53054115531591
 21
-358.9017021273587
 31
0.0
  0
LINE
  5
62FE
330
1E
100
AcDbEntity
  8
0
 48
0.27
100
AcDbLine
 10
-7.57862462720152
 20
-333.6977975568796
 30
0.0
 11
-6.345728743882062
 21
-333.4534033379963
 31
0.0
  0
ARC
  5
62FF
330
1E
100
AcDbEntity
  8
0
 48
0.27
100
AcDbCircle
 10
-6.841881819782457
 20
-333.5153075000099
 30
0.0
 40
0.5
100
AcDbArc
 50
337.2038119202202
 51
44.99938478564986
  0
LINE
  5
6300
330
1E
100
AcDbEntity
  8
0
 48
0.27
100
AcDbLine
 10
-9.28535837406514
 20
-334.3245045911661
 30
0.0
 11
-10.10780081464918
 21
-333.5020444884447
 31
0.0
  0
LINE
  5
6301
330
1E
100
AcDbEntity
  8
0
 48
0.27
100
AcDbLine
 10
-10.10780081464918
 20
-333.5020444884447
 30
0.0
 11
-8.947972775122536
 21
-330.7020569419342
 31
0.0
  0
LINE
  5
6302
330
1E
100
AcDbEntity
  8
0
 48
0.27
100
AcDbLine
 10
-9.28535837406514
 20
-334.3245045911661
 30
0.0
 11
-10.10780081464918
 21
-333.5020444884447
 31
0.0
  0
LINE
  5
6303
330
1E
100
AcDbEntity
  8
0
 48
0.27
100
AcDbLine
 10
-8.947972775122536
 20
-330.7020569419342
 30
0.0
 11
-6.488324632924445
 21
-333.1617579057223
 31
0.0
  0
LINE
  5
6304
330
1E
100
AcDbEntity
  8
0
 48
0.27
100
AcDbLine
 10
-9.42433071991735
 20
-331.8520518271082
 30
0.0
 11
-7.57862462720152
 21
-333.6977975568796
 31
0.0
  0
LINE
  5
6305
330
1E
100
AcDbEntity
  8
0
 48
0.27
100
AcDbLine
 10
-9.28535837406514
 20
-334.3245045911661
 30
0.0
 11
-7.57862462720152
 21
-333.6977975568796
 31
0.0
  0
LINE
  5
6306
330
1E
100
AcDbEntity
  8
0
 48
0.27
100
AcDbLine
 10
-12.27284956308165
 20
-319.9018903140238
 30
0.0
 11
-12.28931743845683
 21
-319.464969741558
 31
0.0
  0
LINE
  5
6307
330
1E
100
AcDbEntity
  8
0
 48
0.27
100
AcDbLine
 10
-12.28931743845683
 20
-319.464969741558
 30
0.0
 11
-12.33808813435149
 21
-319.0448410246465
 31
0.0
  0
LINE
  5
6308
330
1E
100
AcDbEntity
  8
0
 48
0.27
100
AcDbLine
 10
-12.33808813435149
 20
-319.0448410246465
 30
0.0
 11
-12.41728791020284
 21
-318.65764638836
 31
0.0
  0
LINE
  5
6309
330
1E
100
AcDbEntity
  8
0
 48
0.27
100
AcDbLine
 10
-12.41728791020284
 20
-318.65764638836
 30
0.0
 11
-12.52387402500278
 21
-318.318268877809
 31
0.0
  0
LINE
  5
630A
330
1E
100
AcDbEntity
  8
0
 48
0.27
100
AcDbLine
 10
-12.52387402500278
 20
-318.318268877809
 30
0.0
 11
-12.65374829731675
 21
-318.0397478569209
 31
0.0
  0
LINE
  5
630B
330
1E
100
AcDbEntity
  8
0
 48
0.27
100
AcDbLine
 10
-12.65374829731675
 20
-318.0397478569209
 30
0.0
 11
-12.80192076556156
 21
-317.832789699484
 31
0.0
  0
LINE
  5
630C
330
1E
100
AcDbEntity
  8
0
 48
0.27
100
AcDbLine
 10
-14.52579051757277
 20
-316.7714793034952
 30
0.0
 11
-12.96269672803618
 21
-317.7053436079504
 31
0.0
  0
LINE
  5
630D
330
1E
100
AcDbEntity
  8
0
 48
0.27
100
AcDbLine
 10
-12.96269672803618
 20
-317.7053436079504
 30
0.0
 11
-12.80192076556156
 21
-317.832789699484
 31
0.0
  0
LINE
  5
630E
330
1E
100
AcDbEntity
  8
0
 48
0.27
100
AcDbLine
 10
-14.76407788524182
 20
-316.7101518735035
 30
0.0
 11
-14.52579051757277
 21
-316.7714793034952
 31
0.0
  0
LINE
  5
630F
330
1E
100
AcDbEntity
  8
0
 48
0.27
100
AcDbLine
 10
-13.12989885258389
 20
-317.6623110338891
 30
0.0
 11
-12.96269672803618
 21
-317.7053436079504
 31
0.0
  0
LINE
  5
6310
330
1E
100
AcDbEntity
  8
0
 48
0.27
100
AcDbLine
 10
-15.0023669229111
 20
-316.7714793034952
 30
0.0
 11
-14.76407788524182
 21
-316.7101518735035
 31
0.0
  0
LINE
  5
6311
330
1E
100
AcDbEntity
  8
0
 48
0.27
100
AcDbLine
 10
-13.29710097700666
 20
-317.7053436079504
 30
0.0
 11
-13.12989885258389
 21
-317.6623110338891
 31
0.0
  0
LINE
  5
6312
330
1E
100
AcDbEntity
  8
0
 48
0.27
100
AcDbLine
 10
-13.45787860948155
 20
-317.832789699484
 30
0.0
 11
-13.29710097700666
 21
-317.7053436079504
 31
0.0
  0
LINE
  5
6313
330
1E
100
AcDbEntity
  8
0
 48
0.27
100
AcDbLine
 10
-13.6060510777263
 20
-318.0397478569209
 30
0.0
 11
-13.45787860948155
 21
-317.832789699484
 31
0.0
  0
LINE
  5
6314
330
1E
100
AcDbEntity
  8
0
 48
0.27
100
AcDbLine
 10
-13.73592535004036
 20
-318.318268877809
 30
0.0
 11
-13.6060510777263
 21
-318.0397478569209
 31
0.0
  0
LINE
  5
6315
330
1E
100
AcDbEntity
  8
0
 48
0.27
100
AcDbLine
 10
-13.84250979483994
 20
-318.65764638836
 30
0.0
 11
-13.73592535004036
 21
-318.318268877809
 31
0.0
  0
LINE
  5
6316
330
1E
100
AcDbEntity
  8
0
 48
0.27
100
AcDbLine
 10
-13.92170957069129
 20
-319.0448410246465
 30
0.0
 11
-13.84250979483994
 21
-318.65764638836
 31
0.0
  0
LINE
  5
6317
330
1E
100
AcDbEntity
  8
0
 48
0.27
100
AcDbLine
 10
-13.97048193658628
 20
-319.464969741558
 30
0.0
 11
-13.92170957069129
 21
-319.0448410246465
 31
0.0
  0
LINE
  5
6318
330
1E
100
AcDbEntity
  8
0
 48
0.27
100
AcDbLine
 10
-13.98694981196138
 20
-319.9018903140238
 30
0.0
 11
-13.97048193658628
 21
-319.464969741558
 31
0.0
  0
POINT
  5
6319
330
1E
100
AcDbEntity
  8
0
100
AcDbPoint
 10
-12.27284956308165
 20
-319.9018903140238
 30
0.0
1001
pntflag
1000
endpoint
  0
LINE
  5
631A
330
1E
100
AcDbEntity
  8
0
 48
0.27
100
AcDbLine
 10
-17.1208360935704
 20
-317.356214964146
 30
0.0
 11
-16.81943272536108
 21
-317.4792171841874
 31
0.0
  0
LINE
  5
631B
330
1E
100
AcDbEntity
  8
0
 48
0.27
100
AcDbLine
 10
-16.81943272536108
 20
-317.4792171841874
 30
0.0
 11
-16.55077806774574
 21
-317.4678094105323
 31
0.0
  0
LINE
  5
631C
330
1E
100
AcDbEntity
  8
0
 48
0.27
100
AcDbLine
 10
-16.55077806774574
 20
-317.4678094105323
 30
0.0
 11
-15.85834407198428
 21
-317.0112880416682
 31
0.0
  0
LINE
  5
631D
330
1E
100
AcDbEntity
  8
0
 48
0.27
100
AcDbLine
 10
-16.78932261545767
 20
-317.6484383394473
 30
0.0
 11
-16.61422138846575
 21
-317.5096379141426
 31
0.0
  0
LINE
  5
631E
330
1E
100
AcDbEntity
  8
0
 48
0.27
100
AcDbLine
 10
-15.45080381917506
 20
-316.805664214704
 30
0.0
 11
-15.21511831231555
 21
-316.7450047849489
 31
0.0
  0
LINE
  5
631F
330
1E
100
AcDbEntity
  8
0
 48
0.27
100
AcDbLine
 10
-15.85834407198428
 20
-317.0112880416682
 30
0.0
 11
-15.45080381917506
 21
-316.805664214704
 31
0.0
  0
LINE
  5
6320
330
1E
100
AcDbEntity
  8
0
 48
0.27
100
AcDbLine
 10
-16.06992312094297
 20
-317.1790028564266
 30
0.0
 11
-15.85834407198428
 21
-317.0112880416682
 31
0.0
  0
LINE
  5
6321
330
1E
100
AcDbEntity
  8
0
 48
0.27
100
AcDbLine
 10
-16.95069810815738
 20
-317.8738366428388
 30
0.0
 11
-16.78932261545767
 21
-317.6484383394473
 31
0.0
  0
LINE
  5
6322
330
1E
100
AcDbEntity
  8
0
 48
0.27
100
AcDbLine
 10
-17.09214381415381
 20
-318.1771722017459
 30
0.0
 11
-16.95069810815738
 21
-317.8738366428388
 31
0.0
  0
LINE
  5
6323
330
1E
100
AcDbEntity
  8
0
 48
0.27
100
AcDbLine
 10
-17.20822555203944
 20
-318.5467884122218
 30
0.0
 11
-17.09214381415381
 21
-318.1771722017459
 31
0.0
  0
LINE
  5
6324
330
1E
100
AcDbEntity
  8
0
 48
0.27
100
AcDbLine
 10
-15.44266590644102
 20
-317.2480573788337
 30
0.0
 11
-15.23149767767591
 21
-316.9531085627022
 31
0.0
  0
LINE
  5
6325
330
1E
100
AcDbEntity
  8
0
 48
0.27
100
AcDbLine
 10
-17.29448108019414
 20
-318.9684802497693
 30
0.0
 11
-17.20822555203944
 21
-318.5467884122218
 31
0.0
  0
LINE
  5
6326
330
1E
100
AcDbEntity
  8
0
 48
0.27
100
AcDbLine
 10
-17.34759878743978
 20
-319.4260420289321
 30
0.0
 11
-17.29448108019414
 21
-318.9684802497693
 31
0.0
  0
LINE
  5
6327
330
1E
100
AcDbEntity
  8
0
 48
0.27
100
AcDbLine
 10
-17.36553292330978
 20
-319.9018903140238
 30
0.0
 11
-17.34759878743978
 21
-319.4260420289321
 31
0.0
  0
LINE
  5
6328
330
1E
100
AcDbEntity
  8
0
 48
0.27
100
AcDbLine
 10
-15.62775707685122
 20
-317.6449897882464
 30
0.0
 11
-15.44266590644102
 21
-317.2480573788337
 31
0.0
  0
LINE
  5
6329
330
1E
100
AcDbEntity
  8
0
 48
0.27
100
AcDbLine
 10
-15.77965698634352
 20
-318.1286553460186
 30
0.0
 11
-15.62775707685122
 21
-317.6449897882464
 31
0.0
  0
LINE
  5
632A
330
1E
100
AcDbEntity
  8
0
 48
0.27
100
AcDbLine
 10
-15.89252898319313
 20
-318.6804652757958
 30
0.0
 11
-15.77965698634352
 21
-318.1286553460186
 31
0.0
  0
LINE
  5
632B
330
1E
100
AcDbEntity
  8
0
 48
0.27
100
AcDbLine
 10
-15.96203440580055
 20
-319.2792139110368
 30
0.0
 11
-15.89252898319313
 21
-318.6804652757958
 31
0.0
  0
LINE
  5
632C
330
1E
100
AcDbEntity
  8
0
 48
0.27
100
AcDbLine
 10
-15.98550459347007
 20
-319.9018903140238
 30
0.0
 11
-15.96203440580055
 21
-319.2792139110368
 31
0.0
  0
LINE
  5
632D
330
1E
100
AcDbEntity
  8
0
 48
0.27
100
AcDbLine
 10
-16.61422138846575
 20
-317.5096379141426
 30
0.0
 11
-16.55077806774574
 21
-317.4678094105323
 31
0.0
  0
LINE
  5
632E
330
1E
100
AcDbEntity
  8
0
 48
0.27
100
AcDbLine
 10
-15.21511831231555
 20
-316.7450047849489
 30
0.0
 11
-14.76407788524182
 21
-316.7101518735035
 31
0.0
  0
LINE
  5
632F
330
1E
100
AcDbEntity
  8
0
 48
0.27
100
AcDbLine
 10
-15.23149767767591
 20
-316.9531085627022
 30
0.0
 11
-15.0023669229111
 21
-316.7714793034952
 31
0.0
  0
LINE
  5
6330
330
1E
100
AcDbEntity
  8
0
 48
0.27
100
AcDbLine
 10
-12.33808813435149
 20
-320.7589412734013
 30
0.0
 11
-12.28931743845683
 21
-320.3388108864896
 31
0.0
  0
LINE
  5
6331
330
1E
100
AcDbEntity
  8
0
 48
0.27
100
AcDbLine
 10
-12.41728791020284
 20
-321.1461342396875
 30
0.0
 11
-12.33808813435149
 21
-320.7589412734013
 31
0.0
  0
LINE
  5
6332
330
1E
100
AcDbEntity
  8
0
 48
0.27
100
AcDbLine
 10
-12.52387402500278
 20
-321.4855134202388
 30
0.0
 11
-12.41728791020284
 21
-321.1461342396875
 31
0.0
  0
LINE
  5
6333
330
1E
100
AcDbEntity
  8
0
 48
0.27
100
AcDbLine
 10
-13.47306726439305
 20
-321.9497769116458
 30
0.0
 11
-13.47069419362174
 21
-321.9486162613271
 31
0.0
  0
LINE
  5
6334
330
1E
100
AcDbEntity
  8
0
 48
0.27
100
AcDbLine
 10
-12.65374829731675
 20
-321.7640344411269
 30
0.0
 11
-12.52387402500278
 21
-321.4855134202388
 31
0.0
  0
LINE
  5
6335
330
1E
100
AcDbEntity
  8
0
 48
0.27
100
AcDbLine
 10
-12.80192076556156
 20
-321.9709925985638
 30
0.0
 11
-12.65374829731675
 21
-321.7640344411269
 31
0.0
  0
LINE
  5
6336
330
1E
100
AcDbEntity
  8
0
 48
0.27
100
AcDbLine
 10
-14.52579051757277
 20
-323.0323013245524
 30
0.0
 11
-12.96269672803618
 21
-322.0984386900974
 31
0.0
  0
LINE
  5
6337
330
1E
100
AcDbEntity
  8
0
 48
0.27
100
AcDbLine
 10
-12.96269672803618
 20
-322.0984386900974
 30
0.0
 11
-12.80192076556156
 21
-321.9709925985638
 31
0.0
  0
LINE
  5
6338
330
1E
100
AcDbEntity
  8
0
 48
0.27
100
AcDbLine
 10
-14.76407788524182
 20
-323.0936304245444
 30
0.0
 11
-14.52579051757277
 21
-323.0323013245524
 31
0.0
  0
LINE
  5
6339
330
1E
100
AcDbEntity
  8
0
 48
0.27
100
AcDbLine
 10
-13.12989885258389
 20
-322.1414712641588
 30
0.0
 11
-12.96269672803618
 21
-322.0984386900974
 31
0.0
  0
LINE
  5
633A
330
1E
100
AcDbEntity
  8
0
 48
0.27
100
AcDbLine
 10
-15.0023669229111
 20
-323.0323013245524
 30
0.0
 11
-14.76407788524182
 21
-323.0936304245444
 31
0.0
  0
LINE
  5
633B
330
1E
100
AcDbEntity
  8
0
 48
0.27
100
AcDbLine
 10
-13.29710097700666
 20
-322.0984386900974
 30
0.0
 11
-13.12989885258389
 21
-322.1414712641588
 31
0.0
  0
LINE
  5
633C
330
1E
100
AcDbEntity
  8
0
 48
0.27
100
AcDbLine
 10
-13.45787860948155
 20
-321.9709925985638
 30
0.0
 11
-13.29710097700666
 21
-322.0984386900974
 31
0.0
  0
LINE
  5
633D
330
1E
100
AcDbEntity
  8
0
 48
0.27
100
AcDbLine
 10
-13.45787860948155
 20
-321.9709925985638
 30
0.0
 11
-13.6060510777263
 21
-321.7640344411269
 31
0.0
  0
LINE
  5
633E
330
1E
100
AcDbEntity
  8
0
 48
0.27
100
AcDbLine
 10
-13.6060510777263
 20
-321.7640344411269
 30
0.0
 11
-13.73592535004036
 21
-321.4855134202388
 31
0.0
  0
LINE
  5
633F
330
1E
100
AcDbEntity
  8
0
 48
0.27
100
AcDbLine
 10
-13.73592535004036
 20
-321.4855134202388
 30
0.0
 11
-13.84250979483994
 21
-321.1461342396875
 31
0.0
  0
LINE
  5
6340
330
1E
100
AcDbEntity
  8
0
 48
0.27
100
AcDbLine
 10
-13.84250979483994
 20
-321.1461342396875
 30
0.0
 11
-13.92170957069129
 21
-320.7589412734013
 31
0.0
  0
LINE
  5
6341
330
1E
100
AcDbEntity
  8
0
 48
0.27
100
AcDbLine
 10
-13.92170957069129
 20
-320.7589412734013
 30
0.0
 11
-13.97048193658628
 21
-320.3388108864896
 31
0.0
  0
LINE
  5
6342
330
1E
100
AcDbEntity
  8
0
 48
0.27
100
AcDbLine
 10
-17.1208360935704
 20
-322.4475673339018
 30
0.0
 11
-16.81943272536108
 21
-322.3245634438602
 31
0.0
  0
LINE
  5
6343
330
1E
100
AcDbEntity
  8
0
 48
0.27
100
AcDbLine
 10
-16.81943272536108
 20
-322.3245634438602
 30
0.0
 11
-16.55077806774574
 21
-322.3359728875156
 31
0.0
  0
LINE
  5
6344
330
1E
100
AcDbEntity
  8
0
 48
0.27
100
AcDbLine
 10
-16.55077806774574
 20
-322.3359728875156
 30
0.0
 11
-15.85834407198428
 21
-322.7924942563797
 31
0.0
  0
LINE
  5
6345
330
1E
100
AcDbEntity
  8
0
 48
0.27
100
AcDbLine
 10
-16.78932261545767
 20
-322.1553439586005
 30
0.0
 11
-16.61422138846575
 21
-322.2941443839052
 31
0.0
  0
LINE
  5
6346
330
1E
100
AcDbEntity
  8
0
 48
0.27
100
AcDbLine
 10
-15.85834407198428
 20
-322.7924942563797
 30
0.0
 11
-15.45080381917506
 21
-322.9981180833438
 31
0.0
  0
LINE
  5
6347
330
1E
100
AcDbEntity
  8
0
 48
0.27
100
AcDbLine
 10
-15.45080381917506
 20
-322.9981180833438
 30
0.0
 11
-15.21511831231555
 21
-323.0587758432236
 31
0.0
  0
LINE
  5
6348
330
1E
100
AcDbEntity
  8
0
 48
0.27
100
AcDbLine
 10
-16.78932261545767
 20
-322.1553439586005
 30
0.0
 11
-16.95069810815738
 21
-321.9299456552091
 31
0.0
  0
LINE
  5
6349
330
1E
100
AcDbEntity
  8
0
 48
0.27
100
AcDbLine
 10
-16.95069810815738
 20
-321.9299456552091
 30
0.0
 11
-17.09214381415381
 21
-321.626610096302
 31
0.0
  0
LINE
  5
634A
330
1E
100
AcDbEntity
  8
0
 48
0.27
100
AcDbLine
 10
-17.09214381415381
 20
-321.626610096302
 30
0.0
 11
-17.20822555203944
 21
-321.2569938858261
 31
0.0
  0
LINE
  5
634B
330
1E
100
AcDbEntity
  8
0
 48
0.27
100
AcDbLine
 10
-15.23149767767591
 20
-322.8506737353456
 30
0.0
 11
-15.44266590644102
 21
-322.5557249192142
 31
0.0
  0
LINE
  5
634C
330
1E
100
AcDbEntity
  8
0
 48
0.27
100
AcDbLine
 10
-17.20822555203944
 20
-321.2569938858261
 30
0.0
 11
-17.29448108019414
 21
-320.8353020482785
 31
0.0
  0
LINE
  5
634D
330
1E
100
AcDbEntity
  8
0
 48
0.27
100
AcDbLine
 10
-17.29448108019414
 20
-320.8353020482785
 30
0.0
 11
-17.34759878743978
 21
-320.3777402691157
 31
0.0
  0
LINE
  5
634E
330
1E
100
AcDbEntity
  8
0
 48
0.27
100
AcDbLine
 10
-15.44266590644102
 20
-322.5557249192142
 30
0.0
 11
-15.62775707685122
 21
-322.1587908398012
 31
0.0
  0
LINE
  5
634F
330
1E
100
AcDbEntity
  8
0
 48
0.27
100
AcDbLine
 10
-15.62775707685122
 20
-322.1587908398012
 30
0.0
 11
-15.77965698634352
 21
-321.6751269521543
 31
0.0
  0
LINE
  5
6350
330
1E
100
AcDbEntity
  8
0
 48
0.27
100
AcDbLine
 10
-15.77965698634352
 20
-321.6751269521543
 30
0.0
 11
-15.89252898319313
 21
-321.1233170222521
 31
0.0
  0
LINE
  5
6351
330
1E
100
AcDbEntity
  8
0
 48
0.27
100
AcDbLine
 10
-15.89252898319313
 20
-321.1233170222521
 30
0.0
 11
-15.96203440580055
 21
-320.524568387011
 31
0.0
  0
LINE
  5
6352
330
1E
100
AcDbEntity
  8
0
 48
0.27
100
AcDbLine
 10
-16.61422138846575
 20
-322.2941443839052
 30
0.0
 11
-16.55077806774574
 21
-322.3359728875156
 31
0.0
  0
LINE
  5
6353
330
1E
100
AcDbEntity
  8
0
 48
0.27
100
AcDbLine
 10
-16.87987505495494
 20
-322.3219966529315
 30
0.0
 11
-16.81943272536108
 21
-322.3245634438602
 31
0.0
  0
LINE
  5
6354
330
1E
100
AcDbEntity
  8
0
 48
0.27
100
AcDbLine
 10
-15.21511831231555
 20
-323.0587758432236
 30
0.0
 11
-14.76407788524182
 21
-323.0936304245444
 31
0.0
  0
LINE
  5
6355
330
1E
100
AcDbEntity
  8
0
 48
0.27
100
AcDbLine
 10
-15.23149767767591
 20
-322.8506737353456
 30
0.0
 11
-15.0023669229111
 21
-323.0323013245524
 31
0.0
  0
LWPOLYLINE
  5
6356
330
1E
100
AcDbEntity
  8
0
 48
0.27
100
AcDbPolyline
 90
       17
 70
     0
 43
0.0
 10
-13.27938561129821
 20
-319.9018903140238
 10
-13.23745022754494
 20
-320.1731869124553
 10
-13.19633648417897
 20
-320.2518172180865
 10
-13.15062355929496
 20
-320.2887442701284
 10
-13.10815210545217
 20
-320.2883601700643
 10
-13.06253604058429
 20
-320.2506047977591
 10
-13.02335615779123
 20
-320.1758923134071
 10
-12.98662282578178
 20
-320.0133010603794
 10
-12.98041376374485
 20
-319.9018903140238
 10
-13.02234747749779
 20
-319.6305953855925
 10
-13.06346289086411
 20
-319.5519650799613
 10
-13.10917581574813
 20
-319.5150380279195
 10
-13.15164559959058
 20
-319.5154221281086
 10
-13.19726333445877
 20
-319.5531775004138
 10
-13.23644154725153
 20
-319.6278899847657
 10
-13.27317654926128
 20
-319.7904812376685
 10
-13.27938561129821
 20
-319.9018903140238
  0
LINE
  5
6357
330
1E
100
AcDbEntity
  8
0
 48
0.27
100
AcDbLine
 10
-12.28931743845683
 20
-320.3388108864896
 30
0.0
 11
-12.27284956308165
 21
-319.9018903140238
 31
0.0
  0
LINE
  5
6358
330
1E
100
AcDbEntity
  8
0
 48
0.27
100
AcDbLine
 10
-17.34759878743978
 20
-320.3777402691157
 30
0.0
 11
-17.36553292330978
 21
-319.9018903140238
 31
0.0
  0
LINE
  5
6359
330
1E
100
AcDbEntity
  8
0
 48
0.27
100
AcDbLine
 10
-15.96203440580055
 20
-320.524568387011
 30
0.0
 11
-15.98550459347007
 21
-319.9018903140238
 31
0.0
  0
LINE
  5
635A
330
1E
100
AcDbEntity
  8
0
 48
0.27
100
AcDbLine
 10
-13.97048193658628
 20
-320.3388108864896
 30
0.0
 11
-13.98694981196138
 21
-319.9018903140238
 31
0.0
  0
LINE
  5
635B
330
1E
100
AcDbEntity
  8
0
 48
0.27
100
AcDbLine
 10
-18.99590435483182
 20
-316.5077494775772
 30
0.0
 11
-19.07452798046199
 21
-316.1518907315238
 31
0.0
  0
LINE
  5
635C
330
1E
100
AcDbEntity
  8
0
 48
0.27
100
AcDbLine
 10
-19.90306201057717
 20
-316.1518907315238
 30
0.0
 11
-19.62309476932262
 21
-316.2239462450572
 31
0.0
  0
LINE
  5
635D
330
1E
100
AcDbEntity
  8
0
 48
0.27
100
AcDbLine
 10
-20.18302925183167
 20
-316.2239462450572
 30
0.0
 11
-19.90306201057717
 21
-316.1518907315238
 31
0.0
  0
LINE
  5
635E
330
1E
100
AcDbEntity
  8
0
 48
0.27
100
AcDbLine
 10
-20.45223667966434
 20
-316.4373422545693
 30
0.0
 11
-20.18302925183167
 21
-316.2239462450572
 31
0.0
  0
LINE
  5
635F
330
1E
100
AcDbEntity
  8
0
 48
0.27
100
AcDbLine
 10
-20.7003403104726
 20
-316.7838790575659
 30
0.0
 11
-20.45223667966434
 21
-316.4373422545693
 31
0.0
  0
LINE
  5
6360
330
1E
100
AcDbEntity
  8
0
 48
0.27
100
AcDbLine
 10
-20.91780444141415
 20
-317.2502400695732
 30
0.0
 11
-20.7003403104726
 21
-316.7838790575659
 31
0.0
  0
LINE
  5
6361
330
1E
100
AcDbEntity
  8
0
 48
0.27
100
AcDbLine
 10
-21.56013007080753
 20
-319.9018903140238
 30
0.0
 11
-20.7315960406923
 21
-316.1518907315238
 31
0.0
  0
LINE
  5
6362
330
1E
100
AcDbEntity
  8
0
 48
0.27
100
AcDbLine
 10
-21.09627405959356
 20
-317.8185028448481
 30
0.0
 11
-20.91780444141415
 21
-317.2502400695732
 31
0.0
  0
LINE
  5
6363
330
1E
100
AcDbEntity
  8
0
 48
0.27
100
AcDbLine
 10
-21.22888713273994
 20
-318.4668271162433
 30
0.0
 11
-21.09627405959356
 21
-317.8185028448481
 31
0.0
  0
LINE
  5
6364
330
1E
100
AcDbEntity
  8
0
 48
0.27
100
AcDbLine
 10
-21.31055015937767
 20
-319.1703014855984
 30
0.0
 11
-21.22888713273994
 21
-318.4668271162433
 31
0.0
  0
LINE
  5
6365
330
1E
100
AcDbEntity
  8
0
 48
0.27
100
AcDbLine
 10
-21.33812520835769
 20
-319.9018903140238
 30
0.0
 11
-21.31055015937767
 21
-319.1703014855984
 31
0.0
  0
LINE
  5
6366
330
1E
100
AcDbEntity
  8
0
 48
0.27
100
AcDbLine
 10
-23.67064836876409
 20
-319.9018903140238
 30
0.0
 11
-22.84211433864888
 21
-316.1518907315238
 31
0.0
  0
LINE
  5
6367
330
1E
100
AcDbEntity
  8
0
 48
0.27
100
AcDbLine
 10
-22.84211433864888
 20
-316.1518907315238
 30
0.0
 11
-19.07452798046199
 21
-316.1518907315238
 31
0.0
  0
LINE
  5
6368
330
1E
100
AcDbEntity
  8
0
 48
0.27
100
AcDbLine
 10
-23.67064836876409
 20
-319.9018903140238
 30
0.0
 11
-21.56013007080753
 21
-319.9018903140238
 31
0.0
  0
LINE
  5
6369
330
1E
100
AcDbEntity
  8
0
 48
0.27
100
AcDbLine
 10
-20.86055682272879
 20
-323.651891566524
 30
0.0
 11
-21.5822442180006
 21
-324.9018919840241
 31
0.0
  0
LINE
  5
636A
330
1E
100
AcDbEntity
  8
0
 48
0.27
100
AcDbLine
 10
-19.07452798046199
 20
-323.651891566524
 30
0.0
 11
-18.99590435483182
 21
-323.2960328204706
 31
0.0
  0
LINE
  5
636B
330
1E
100
AcDbEntity
  8
0
 48
0.27
100
AcDbLine
 10
-19.90306201057717
 20
-323.651891566524
 30
0.0
 11
-19.62309476932262
 21
-323.5798360529907
 31
0.0
  0
LINE
  5
636C
330
1E
100
AcDbEntity
  8
0
 48
0.27
100
AcDbLine
 10
-20.18302925183167
 20
-323.5798360529907
 30
0.0
 11
-19.90306201057717
 21
-323.651891566524
 31
0.0
  0
LINE
  5
636D
330
1E
100
AcDbEntity
  8
0
 48
0.27
100
AcDbLine
 10
-20.45223667966434
 20
-323.3664400434786
 30
0.0
 11
-20.18302925183167
 21
-323.5798360529907
 31
0.0
  0
LINE
  5
636E
330
1E
100
AcDbEntity
  8
0
 48
0.27
100
AcDbLine
 10
-20.45223667966434
 20
-323.3664400434786
 30
0.0
 11
-20.7003403104726
 21
-323.0199032404819
 31
0.0
  0
LINE
  5
636F
330
1E
100
AcDbEntity
  8
0
 48
0.27
100
AcDbLine
 10
-20.7003403104726
 20
-323.0199032404819
 30
0.0
 11
-20.91780444141415
 21
-322.5535422284746
 31
0.0
  0
LINE
  5
6370
330
1E
100
AcDbEntity
  8
0
 48
0.27
100
AcDbLine
 10
-20.91780444141415
 20
-322.5535422284746
 30
0.0
 11
-21.09627405959356
 21
-321.9852794531998
 31
0.0
  0
LINE
  5
6371
330
1E
100
AcDbEntity
  8
0
 48
0.27
100
AcDbLine
 10
-21.09627405959356
 20
-321.9852794531998
 30
0.0
 11
-21.22888713273994
 21
-321.3369535118043
 31
0.0
  0
LINE
  5
6372
330
1E
100
AcDbEntity
  8
0
 48
0.27
100
AcDbLine
 10
-21.22888713273994
 20
-321.3369535118043
 30
0.0
 11
-21.31055015937767
 21
-320.6334791425741
 31
0.0
  0
LINE
  5
6373
330
1E
100
AcDbEntity
  8
0
 48
0.27
100
AcDbLine
 10
-22.84211433864888
 20
-323.651891566524
 30
0.0
 11
-19.07452798046199
 21
-323.651891566524
 31
0.0
  0
LINE
  5
6374
330
1E
100
AcDbEntity
  8
0
 48
0.27
100
AcDbLine
 10
-22.84211433864888
 20
-323.651891566524
 30
0.0
 11
-23.67064836876409
 21
-319.9018903140238
 31
0.0
  0
LINE
  5
6375
330
1E
100
AcDbEntity
  8
0
 48
0.27
100
AcDbLine
 10
-20.7315960406923
 20
-323.651891566524
 30
0.0
 11
-21.56013007080753
 21
-319.9018903140238
 31
0.0
  0
LINE
  5
6376
330
1E
100
AcDbEntity
  8
0
 48
0.27
100
AcDbLine
 10
-21.31055015937767
 20
-320.6334791425741
 30
0.0
 11
-21.33812520835769
 21
-319.9018903140238
 31
0.0
  0
LINE
  5
6377
330
1E
100
AcDbEntity
  8
0
 48
0.27
100
AcDbLine
 10
-19.62309476932262
 20
-323.5798360529907
 30
0.0
 11
-17.1208360935704
 21
-322.4475673339018
 31
0.0
  0
LINE
  5
6378
330
1E
100
AcDbEntity
  8
0
 48
0.27
100
AcDbLine
 10
-19.62309476932262
 20
-316.2239462450572
 30
0.0
 11
-17.1208360935704
 21
-317.356214964146
 31
0.0
  0
LINE
  5
6379
330
1E
100
AcDbEntity
  8
虛線
 48
0.27
100
AcDbLine
 10
-14.46864095480856
 20
-333.801997663951
 30
0.0
 11
-14.29543265281239
 21
-333.5019995237575
 31
0.0
  0
LINE
  5
637C
330
1E
100
AcDbEntity
  8
0
 48
0.27
100
AcDbLine
 10
-20.86055682272879
 20
-316.1518907315238
 30
0.0
 11
-21.58224588800084
 21
-314.9018903140238
 31
0.0
  0
LINE
  5
6381
330
1E
100
AcDbEntity
  8
0
 48
0.27
100
AcDbLine
 10
-30.24249964126324
 20
-319.9018903140238
 30
0.0
 11
-27.35574839017579
 21
-324.9018919840241
 31
0.0
  0
LINE
  5
6382
330
1E
100
AcDbEntity
  8
虛線
 48
0.27
100
AcDbLine
 10
-34.46864095365584
 20
-333.8017829139972
 30
0.0
 11
-34.64184281315346
 21
-333.5017810542254
 31
0.0
  0
LINE
  5
6383
330
1E
100
AcDbEntity
  8
0
 48
0.27
100
AcDbLine
 10
-38.82495810059373
 20
-333.5017361380347
 30
0.0
 11
-39.64741820331492
 21
-334.3241785786188
 31
0.0
  0
LINE
  5
6384
330
1E
100
AcDbEntity
  8
0
 48
0.27
100
AcDbLine
 10
-38.82495810059373
 20
-333.5017361380347
 30
0.0
 11
-39.98472601013336
 21
-330.7017236848681
 31
0.0
  0
LINE
  5
6385
330
1E
100
AcDbEntity
  8
0
 48
0.27
100
AcDbLine
 10
-38.82495810059373
 20
-333.5017361380347
 30
0.0
 11
-39.64741820331492
 21
-334.3241785786188
 31
0.0
  0
LINE
  5
6386
330
1E
100
AcDbEntity
  8
0
 48
0.27
100
AcDbLine
 10
-41.35413849125444
 20
-333.6974348923775
 30
0.0
 11
-42.58702912592468
 21
-333.4530141971172
 31
0.0
  0
ARC
  5
6387
330
1E
100
AcDbEntity
  8
0
 48
0.27
100
AcDbCircle
 10
-42.09087737953035
 20
-333.5149290140016
 30
0.0
 40
0.5
100
AcDbArc
 50
134.999384787749
 51
202.7949576531792
  0
LINE
  5
6389
330
1E
100
AcDbEntity
  8
0
 48
0.27
100
AcDbLine
 10
-42.44442697383107
 20
-333.1613718271565
 30
0.0
 11
-39.98472601013336
 21
-330.7017236848681
 31
0.0
  0
LINE
  5
638A
330
1E
100
AcDbEntity
  8
0
 48
0.27
100
AcDbLine
 10
-39.64741820331492
 20
-334.3241785786188
 30
0.0
 11
-41.35413849125444
 21
-333.6974348923775
 31
0.0
  0
LINE
  5
638B
330
1E
100
AcDbEntity
  8
0
 48
0.27
100
AcDbLine
 10
-41.35413849125444
 20
-333.6974348923775
 30
0.0
 11
-39.50839276158308
 21
-331.8517287995616
 31
0.0
  0
LINE
  5
638F
330
1E
100
AcDbEntity
  8
0
 48
0.27
100
AcDbLine
 10
-27.35574839017579
 20
-314.9018903140238
 30
0.0
 11
-30.24249964126324
 21
-319.9018903140238
 31
0.0
  0
LINE
  5
6390
330
1E
100
AcDbEntity
  8
0
 48
0.27
100
AcDbLine
 10
-10.10780081464918
 20
-333.5020444884447
 30
0.0
 11
-38.82495810059373
 21
-333.5017361380347
 31
0.0
  0
LINE
  5
6391
330
1E
100
AcDbEntity
  8
虛線
 48
0.27
100
AcDbLine
 10
-14.46864095480879
 20
-333.801997663951
 30
0.0
 11
-34.46864095365584
 21
-333.8017829139972
 31
0.0
  0
LINE
  5
6392
330
1E
100
AcDbEntity
  8
0
 48
0.27
100
AcDbLine
 10
-39.98472601013336
 20
-330.7017236848681
 30
0.0
 11
-8.947972775122536
 21
-330.7020569419342
 31
0.0
  0
LINE
  5
6393
330
1E
100
AcDbEntity
  8
0
 48
0.27
100
AcDbLine
 10
-39.50839276158308
 20
-331.8517287995616
 30
0.0
 11
-9.42433071991735
 21
-331.8520518271082
 31
0.0
  0
LINE
  5
6394
330
1E
100
AcDbEntity
  8
0
 48
0.27
100
AcDbLine
 10
-10.10780081464918
 20
-333.5020444884447
 30
0.0
 11
-38.82495810059373
 21
-333.5017361380347
 31
0.0
  0
ARC
  5
6395
330
1E
100
AcDbEntity
  8
0
 48
0.27
100
AcDbCircle
 10
-24.46899713908829
 20
-319.9018903140238
 30
0.0
 40
6.562501095937681
100
AcDbArc
 50
30.24329777399887
 51
329.7566907592988
  0
ARC
  5
6396
330
1E
100
AcDbEntity
  8
0
 48
0.27
100
AcDbCircle
 10
-24.46899713908829
 20
-319.9018903140238
 30
0.0
 40
5.0
100
AcDbArc
 50
48.59037799889933
 51
311.4096220031994
  0
LINE
  5
6397
330
1E
100
AcDbEntity
  8
0
 48
0.27
100
AcDbLine
 10
-27.35574839017579
 20
-314.9018903140238
 30
0.0
 11
-21.58224588800084
 21
-314.9018903140238
 31
0.0
  0
LINE
  5
6398
330
1E
100
AcDbEntity
  8
0
 48
0.27
100
AcDbLine
 10
-21.5822442180006
 20
-324.9018919840241
 30
0.0
 11
-27.35574839017579
 21
-324.9018919840241
 31
0.0
  0
LINE
  5
6399
330
1E
100
AcDbEntity
  8
中心線
 48
0.27
100
AcDbLine
 10
-10.77284956308165
 20
-319.9018903140238
 30
0.0
 11
-32.53149823502599
 21
-319.9018903140238
 31
0.0
  0
LINE
  5
639B
330
1E
100
AcDbEntity
  8
0
 48
0.27
100
AcDbLine
 10
-2.066490684127046
 20
-343.8607094763908
 30
0.0
 11
-2.066465803656029
 21
-341.5435521890245
 31
0.0
  0
LINE
  5
639C
330
1E
100
AcDbEntity
  8
0
 48
0.27
100
AcDbLine
 10
-2.066490684127046
 20
-343.8607094763908
 30
0.0
 11
-2.066465803656029
 21
-341.5435521890245
 31
0.0
  0
LINE
  5
639D
330
1E
100
AcDbEntity
  8
0
 48
0.27
100
AcDbLine
 10
-0.4164584651826999
 20
-340.8601175280351
 30
0.0
 11
-0.4164980227903925
 21
-344.5441795711226
 31
0.0
  0
LINE
  5
639E
330
1E
100
AcDbEntity
  8
0
 48
0.27
100
AcDbLine
 10
-2.066465803656029
 20
-341.5435521890245
 30
0.0
 11
0.7335466495107142
 21
-340.3837842793848
 31
0.0
  0
LINE
  5
639F
330
1E
100
AcDbEntity
  8
0
 48
0.27
100
AcDbLine
 10
-5.228883118360471
 20
-338.3810669606935
 30
0.0
 11
-4.602139432119145
 21
-336.6743466726541
 31
0.0
  0
ARC
  5
63A0
330
1E
100
AcDbEntity
  8
0
 48
0.27
100
AcDbCircle
 10
-4.419633553679716
 20
-335.9376077843514
 30
0.0
 40
0.5
100
AcDbArc
 50
44.99938478669079
 51
112.7949576553193
  0
LINE
  5
63A1
330
1E
100
AcDbEntity
  8
0
 48
0.27
100
AcDbLine
 10
-4.602139432119145
 20
-336.6743466726541
 30
0.0
 11
-4.35771873676353
 21
-335.4414560379609
 31
0.0
  0
LINE
  5
63A2
330
1E
100
AcDbEntity
  8
0
 48
0.27
100
AcDbLine
 10
-2.066465803656029
 20
-341.5435521890245
 30
0.0
 11
-5.228883118360471
 21
-338.3810669606935
 31
0.0
  0
LINE
  5
63A3
330
1E
100
AcDbEntity
  8
0
 48
0.27
100
AcDbLine
 10
-2.066465803656029
 20
-341.5435521890245
 30
0.0
 11
-5.228883118360471
 21
-338.3810669606935
 31
0.0
  0
LINE
  5
63A4
330
1E
100
AcDbEntity
  8
0
 48
0.27
100
AcDbLine
 10
-4.602139432119145
 20
-336.6743466726541
 30
0.0
 11
-0.4164584651826999
 21
-340.8601175280351
 31
0.0
  0
LINE
  5
63A5
330
1E
100
AcDbEntity
  8
0
 48
0.27
100
AcDbLine
 10
-4.066076366828042
 20
-335.5840581900571
 30
0.0
 11
0.7335466495107142
 21
-340.3837842793848
 31
0.0
  0
LINE
  5
63A6
330
1E
100
AcDbEntity
  8
0
 48
0.27
100
AcDbLine
 10
-5.218760762274513
 20
-347.0129118601798
 30
0.0
 11
-4.594075578797315
 21
-348.7216674146341
 31
0.0
  0
LINE
  5
63A7
330
1E
100
AcDbEntity
  8
0
 48
0.27
100
AcDbLine
 10
-7.577011185845634
 20
-351.7045389638419
 30
0.0
 11
-6.342801720313985
 21
-351.9465444475181
 31
0.0
  0
LINE
  5
63A8
330
1E
100
AcDbEntity
  8
0
 48
0.27
100
AcDbLine
 10
-6.485558372064787
 20
-352.2394377229272
 30
0.0
 11
-7.266589037136782
 21
-353.0204516154748
 31
0.0
  0
ARC
  5
63A9
330
1E
100
AcDbEntity
  8
0
 48
0.27
100
AcDbCircle
 10
-6.839107966342083
 20
-351.8858805360588
 30
0.0
 40
0.5
100
AcDbArc
 50
314.9993847839719
 51
23.03129649055254
  0
LINE
  5
63AA
330
1E
100
AcDbEntity
  8
0
 48
0.27
100
AcDbLine
 10
-10.06657658364725
 20
-351.8606235759481
 30
0.0
 11
-9.28575332479437
 21
-351.0798170850911
 31
0.0
  0
LINE
  5
63AB
330
1E
100
AcDbEntity
  8
0
 48
0.27
100
AcDbLine
 10
-10.06657658364725
 20
-351.8606235759481
 30
0.0
 11
-9.28575332479437
 21
-351.0798170850911
 31
0.0
  0
LINE
  5
63AC
330
1E
100
AcDbEntity
  8
0
 48
0.27
100
AcDbLine
 10
-10.06657658364725
 20
-351.8606235759481
 30
0.0
 11
-7.266589037136782
 21
-353.0204516154748
 31
0.0
  0
LINE
  5
63AD
330
1E
100
AcDbEntity
  8
0
 48
0.27
100
AcDbLine
 10
-9.28575332479437
 20
-351.0798170850911
 30
0.0
 11
-7.577011185845634
 21
-351.7045389638419
 31
0.0
  0
LINE
  5
63AE
330
1E
100
AcDbEntity
  8
0
 48
0.27
100
AcDbLine
 10
-7.577011185845634
 20
-351.7045389638419
 30
0.0
 11
-8.416583922310735
 21
-352.54409367068
 31
0.0
  0
ARC
  5
63AF
330
1E
100
AcDbEntity
  8
0
 48
0.27
100
AcDbCircle
 10
-5.13656908294493
 20
-351.1620978680521
 30
0.0
 40
4.15
100
AcDbArc
 50
91.13482994019701
 51
178.8639396332026
  0
ARC
  5
63B0
330
1E
100
AcDbEntity
  8
0
 48
0.27
100
AcDbCircle
 10
-5.13656908294493
 20
-351.1620978680521
 30
0.0
 40
2.5
100
AcDbArc
 50
77.46726309690055
 51
192.5315064765006
  0
ARC
  5
63B1
330
1E
100
AcDbEntity
  8
0
 48
0.27
100
AcDbCircle
 10
-5.13656908294493
 20
-351.1620978680521
 30
0.0
 40
1.35
100
AcDbArc
 50
66.96747308460245
 51
203.0312964905668
  0
ARC
  5
63B2
330
1E
100
AcDbEntity
  8
0
 48
0.27
100
AcDbCircle
 10
-5.13656908294493
 20
-351.1620978680521
 30
0.0
 40
4.15
100
AcDbArc
 50
91.13482994019701
 51
178.8639396332026
  0
LINE
  5
63B3
330
1E
100
AcDbEntity
  8
0
 48
0.27
100
AcDbLine
 10
-4.594075578797315
 20
-348.7216674146341
 30
0.0
 11
-4.352096599913579
 21
-349.9558820769307
 31
0.0
  0
ARC
  5
63B4
330
1E
100
AcDbEntity
  8
0
 48
0.27
100
AcDbCircle
 10
-4.412749853142855
 20
-349.4595745282547
 30
0.0
 40
0.5
100
AcDbArc
 50
246.9674730846024
 51
314.9993847866988
  0
LINE
  5
63B5
330
1E
100
AcDbEntity
  8
0
 48
0.27
100
AcDbLine
 10
0.7334968623835607
 20
-345.0205375159175
 30
0.0
 11
-4.059200258848619
 21
-349.8131317151063
 31
0.0
  0
LINE
  5
63B6
330
1E
100
AcDbEntity
  8
0
 48
0.27
100
AcDbLine
 10
-5.218760762274513
 20
-347.0129118601798
 30
0.0
 11
-2.066490684127046
 21
-343.8607094763908
 31
0.0
  0
LINE
  5
63B7
330
1E
100
AcDbEntity
  8
0
 48
0.27
100
AcDbLine
 10
-5.218760762274513
 20
-347.0129118601798
 30
0.0
 11
-2.066490684127046
 21
-343.8607094763908
 31
0.0
  0
LINE
  5
63B8
330
1E
100
AcDbEntity
  8
0
 48
0.27
100
AcDbLine
 10
-0.4164980227903925
 20
-344.5441795711226
 30
0.0
 11
-4.594075578797315
 21
-348.7216674146341
 31
0.0
  0
LINE
  5
63B9
330
1E
100
AcDbEntity
  8
0
 48
0.27
100
AcDbLine
 10
0.7335466495107142
 20
-340.3837842793848
 30
0.0
 11
0.7334968623835607
 21
-345.0205375159175
 31
0.0
  0
LINE
  5
63BA
330
1E
100
AcDbEntity
  8
0
 48
0.27
100
AcDbLine
 10
-2.066490684127046
 20
-343.8607094763908
 30
0.0
 11
0.7334968623835607
 21
-345.0205375159175
 31
0.0
  0
LINE
  5
63BB
330
1E
100
AcDbEntity
  8
虛線
 48
0.27
100
AcDbLine
 10
-17.46882241834657
 20
-350.7019654504838
 30
0.0
 11
-17.1688191971146
 21
-350.4019686717505
 31
0.0
  0
LINE
  5
63BC
330
1E
100
AcDbEntity
  8
0
 48
0.27
100
AcDbLine
 10
-10.06662042316145
 20
-355.9434662882127
 30
0.0
 11
-7.266607969994822
 21
-354.7836983785733
 31
0.0
  0
LINE
  5
63BD
330
1E
100
AcDbEntity
  8
0
 48
0.27
100
AcDbLine
 10
-4.108105759929458
 20
-361.9021089117938
 30
0.0
 11
-10.06662042316145
 21
-355.9434662882127
 31
0.0
  0
LINE
  5
63BE
330
1E
100
AcDbEntity
  8
0
 48
0.27
100
AcDbLine
 10
-1.968967987381887
 20
-364.0412926227725
 30
0.0
 11
-10.06662042316145
 21
-355.9434662882127
 31
0.0
  0
LINE
  5
63BF
330
1E
100
AcDbEntity
  8
0
 48
0.27
100
AcDbLine
 10
-1.774653382163961
 20
-361.9021339672333
 30
0.0
 11
-8.416613084688265
 21
-355.2600316272235
 31
0.0
  0
LINE
  5
63C0
330
1E
100
AcDbEntity
  8
0
 48
0.27
100
AcDbLine
 10
-7.266607969994822
 20
-354.7836983785733
 30
0.0
 11
-0.1483077855576482
 21
-361.9021514301153
 31
0.0
  0
LINE
  5
63C1
330
1E
100
AcDbEntity
  8
0
 48
0.27
100
AcDbLine
 10
-1.968967987381887
 20
-369.9024372861488
 30
0.0
 11
-3.468678685355712
 21
-371.402115778188
 31
0.0
  0
LINE
  5
63C2
330
1E
100
AcDbEntity
  8
0
 48
0.27
100
AcDbLine
 10
-10.21859067679395
 20
-370.4021117524105
 30
0.0
 11
-9.218608629917582
 21
-371.4021157781856
 31
0.0
  0
LINE
  5
63C3
330
1E
100
AcDbEntity
  8
0
100
AcDbLine
 10
-9.218608629917582
 20
-371.4021157781856
 30
0.0
 11
-3.468678685353552
 21
-371.4021157781858
 31
0.0
  0
LINE
  5
63C4
330
1E
100
AcDbEntity
  8
0
100
AcDbLine
 10
-1.968997139088287
 20
-364.0455722114007
 30
0.0
 11
-1.968997139088287
 21
-369.9023168810309
 31
0.0
  0
LINE
  5
63C5
330
1E
100
AcDbEntity
  8
0
 48
0.27
100
AcDbLine
 10
-15.2187275994404
 20
-370.4020580634518
 30
0.0
 11
-16.21880795976011
 21
-371.4021157781854
 31
0.0
  0
LINE
  5
63C6
330
1E
100
AcDbEntity
  8
虛線
 48
0.27
100
AcDbLine
 10
-17.46903716830047
 20
-370.7019654493308
 30
0.0
 11
-16.76904468458923
 21
-371.4019729655388
 31
0.0
  0
LINE
  5
63C7
330
1E
100
AcDbEntity
  8
0
 48
0.27
100
AcDbLine
 10
-10.21859067679395
 20
-370.4021117524105
 30
0.0
 11
-15.2187275994404
 21
-370.4020580634518
 31
0.0
  0
LINE
  5
63C8
330
1E
100
AcDbEntity
  8
虛線
 48
0.27
100
AcDbLine
 10
-17.4688224183468
 20
-350.7019654504838
 30
0.0
 11
-17.46903716830047
 21
-370.7019654493308
 31
0.0
  0
LINE
  5
63C9
330
1E
100
AcDbEntity
  8
0
 48
0.27
100
AcDbLine
 10
-10.06662042316145
 20
-355.9434662882127
 30
0.0
 11
-10.06657658364725
 21
-351.8606235759481
 31
0.0
  0
LINE
  5
63CA
330
1E
100
AcDbEntity
  8
0
 48
0.27
100
AcDbLine
 10
-10.06662042316145
 20
-355.9434662882127
 30
0.0
 11
-10.06657658364725
 21
-351.8606235759481
 31
0.0
  0
LINE
  5
63CB
330
1E
100
AcDbEntity
  8
0
 48
0.27
100
AcDbLine
 10
-7.266589037136782
 20
-353.0204516154748
 30
0.0
 11
-7.266607969994822
 21
-354.7836983785733
 31
0.0
  0
LINE
  5
63CC
330
1E
100
AcDbEntity
  8
0
 48
0.27
100
AcDbLine
 10
-8.416583922310735
 20
-352.54409367068
 30
0.0
 11
-8.416613084688265
 21
-355.2600316272235
 31
0.0
  0
LINE
  5
63CD
330
1E
100
AcDbEntity
  8
虛線
 48
0.27
100
AcDbLine
 10
-31.46882241753974
 20
-350.7018151255161
 30
0.0
 11
-31.76881919627306
 21
-350.4018119042842
 31
0.0
  0
LINE
  5
63CE
330
1E
100
AcDbEntity
  8
0
 48
0.27
100
AcDbLine
 10
-39.64738307284415
 20
-351.0794910771618
 30
0.0
 11
-38.86657658198709
 21
-351.8603143360147
 31
0.0
  0
LINE
  5
63CF
330
1E
100
AcDbEntity
  8
0
 48
0.27
100
AcDbLine
 10
-39.64738307284415
 20
-351.0794910771618
 30
0.0
 11
-38.86657658198709
 21
-351.8603143360147
 31
0.0
  0
LINE
  5
63D0
330
1E
100
AcDbEntity
  8
0
 48
0.27
100
AcDbLine
 10
-43.70398057274246
 20
-338.3806538344235
 30
0.0
 11
-44.33068760712894
 21
-336.6739200874599
 31
0.0
  0
LINE
  5
63D1
330
1E
100
AcDbEntity
  8
0
 48
0.27
100
AcDbLine
 10
-44.33068760712894
 20
-336.6739200874599
 30
0.0
 11
-44.5750818260164
 21
-335.4410242041187
 31
0.0
  0
ARC
  5
63D2
330
1E
100
AcDbEntity
  8
0
 48
0.27
100
AcDbCircle
 10
-44.5131776639621
 20
-335.937177280014
 30
0.0
 40
0.5
100
AcDbArc
 50
67.20381191807987
 51
134.9993847866988
  0
LINE
  5
63D3
330
1E
100
AcDbEntity
  8
0
 48
0.27
100
AcDbLine
 10
-46.86646580107338
 20
-341.543071149128
 30
0.0
 11
-46.8664906815444
 21
-343.8602284364943
 31
0.0
  0
LINE
  5
63D4
330
1E
100
AcDbEntity
  8
0
 48
0.27
100
AcDbLine
 10
-46.86646580107338
 20
-341.543071149128
 30
0.0
 11
-46.8664906815444
 21
-343.8602284364943
 31
0.0
  0
LINE
  5
63D5
330
1E
100
AcDbEntity
  8
0
 48
0.27
100
AcDbLine
 10
-43.70398057274246
 20
-338.3806538344235
 30
0.0
 11
-46.86646580107338
 21
-341.543071149128
 31
0.0
  0
LINE
  5
63D6
330
1E
100
AcDbEntity
  8
0
 48
0.27
100
AcDbLine
 10
-43.70398057274246
 20
-338.3806538344235
 30
0.0
 11
-46.86646580107338
 21
-341.543071149128
 31
0.0
  0
LINE
  5
63D7
330
1E
100
AcDbEntity
  8
0
 48
0.27
100
AcDbLine
 10
-48.51649802001759
 20
-344.5436630974838
 30
0.0
 11
-48.5164584624099
 21
-340.8596010543962
 31
0.0
  0
LINE
  5
63D8
330
1E
100
AcDbEntity
  8
0
 48
0.27
100
AcDbLine
 10
-49.66645334758386
 20
-340.3832431095013
 30
0.0
 11
-44.86672725825622
 21
-335.5836200931624
 31
0.0
  0
LINE
  5
63D9
330
1E
100
AcDbEntity
  8
0
 48
0.27
100
AcDbLine
 10
-48.5164584624099
 20
-340.8596010543962
 30
0.0
 11
-44.33068760712894
 21
-336.6739200874599
 31
0.0
  0
LINE
  5
63DA
330
1E
100
AcDbEntity
  8
0
 48
0.27
100
AcDbLine
 10
-46.86646580107338
 20
-341.543071149128
 30
0.0
 11
-49.66645334758386
 21
-340.3832431095013
 31
0.0
  0
LINE
  5
63DB
330
1E
100
AcDbEntity
  8
0
 48
0.27
100
AcDbLine
 10
-43.71428829775533
 20
-347.0124985145418
 30
0.0
 11
-44.33901017650606
 21
-348.7212406534907
 31
0.0
  0
LINE
  5
63DC
330
1E
100
AcDbEntity
  8
0
 48
0.27
100
AcDbLine
 10
-41.66658903515371
 20
-353.0200822455543
 30
0.0
 11
-42.4476029277759
 21
-352.2390515805568
 31
0.0
  0
LINE
  5
63DD
330
1E
100
AcDbEntity
  8
0
 48
0.27
100
AcDbLine
 10
-41.35613862729832
 20
-351.704176260539
 30
0.0
 11
-42.59035328961198
 21
-351.9461552395168
 31
0.0
  0
ARC
  5
63DE
330
1E
100
AcDbEntity
  8
0
 48
0.27
100
AcDbCircle
 10
-42.09404574094117
 20
-351.8855019862457
 30
0.0
 40
0.5
100
AcDbArc
 50
156.967473082848
 51
224.9993847894451
  0
ARC
  5
63DF
330
1E
100
AcDbEntity
  8
0
 48
0.27
100
AcDbCircle
 10
-43.79656908071626
 20
-351.1616827563914
 30
0.0
 40
1.35
100
AcDbArc
 50
336.9674730828481
 51
113.0312964888034
  0
LINE
  5
63E0
330
1E
100
AcDbEntity
  8
0
 48
0.27
100
AcDbLine
 10
-44.33901017650606
 20
-348.7212406534907
 30
0.0
 11
-44.58101566008815
 21
-349.9554501190051
 31
0.0
  0
ARC
  5
63E1
330
1E
100
AcDbEntity
  8
0
 48
0.27
100
AcDbCircle
 10
-44.52035174867069
 20
-349.459143872972
 30
0.0
 40
0.5
100
AcDbArc
 50
224.9993847866908
 51
293.0312964887997
  0
LINE
  5
63E2
330
1E
100
AcDbEntity
  8
0
 48
0.27
100
AcDbLine
 10
-44.87390893552237
 20
-349.8126934672662
 30
0.0
 11
-49.66650313471103
 21
-345.0199963460339
 31
0.0
  0
LINE
  5
63E3
330
1E
100
AcDbEntity
  8
0
 48
0.27
100
AcDbLine
 10
-46.8664906815444
 20
-343.8602284364943
 30
0.0
 11
-43.71428829775533
 21
-347.0124985145418
 31
0.0
  0
LINE
  5
63E4
330
1E
100
AcDbEntity
  8
0
 48
0.27
100
AcDbLine
 10
-49.66650313471103
 20
-345.0199963460339
 30
0.0
 11
-49.66645334758386
 21
-340.3832431095013
 31
0.0
  0
LINE
  5
63E5
330
1E
100
AcDbEntity
  8
0
 48
0.27
100
AcDbLine
 10
-44.33901017650606
 20
-348.7212406534907
 30
0.0
 11
-48.51649802001759
 21
-344.5436630974838
 31
0.0
  0
LINE
  5
63E6
330
1E
100
AcDbEntity
  8
0
 48
0.27
100
AcDbLine
 10
-46.8664906815444
 20
-343.8602284364943
 30
0.0
 11
-43.71428829775533
 21
-347.0124985145418
 31
0.0
  0
LINE
  5
63E7
330
1E
100
AcDbEntity
  8
0
 48
0.27
100
AcDbLine
 10
-46.8664906815444
 20
-343.8602284364943
 30
0.0
 11
-49.66650313471103
 21
-345.0199963460339
 31
0.0
  0
ARC
  5
63E8
330
1E
100
AcDbEntity
  8
0
 48
0.27
100
AcDbCircle
 10
-43.79656908071626
 20
-351.1616827563914
 30
0.0
 40
4.15
100
AcDbArc
 50
1.13482994020517
 51
88.8639396332026
  0
ARC
  5
63E9
330
1E
100
AcDbEntity
  8
0
 48
0.27
100
AcDbCircle
 10
-43.79656908071626
 20
-351.1616827563914
 30
0.0
 40
4.15
100
AcDbArc
 50
1.13482994020517
 51
88.8639396332026
  0
ARC
  5
63EA
330
1E
100
AcDbEntity
  8
0
 48
0.27
100
AcDbCircle
 10
-43.79656908071626
 20
-351.1616827563914
 30
0.0
 40
2.5
100
AcDbArc
 50
347.4672630968999
 51
102.5315064765005
  0
LINE
  5
63EB
330
1E
100
AcDbEntity
  8
0
 48
0.27
100
AcDbLine
 10
-39.64738307284415
 20
-351.0794910771618
 30
0.0
 11
-41.35613862729832
 21
-351.704176260539
 31
0.0
  0
LINE
  5
63EC
330
1E
100
AcDbEntity
  8
0
 48
0.27
100
AcDbLine
 10
-38.86657658198709
 20
-351.8603143360147
 30
0.0
 11
-41.66658903515371
 21
-353.0200822455543
 31
0.0
  0
LINE
  5
63ED
330
1E
100
AcDbEntity
  8
0
 48
0.27
100
AcDbLine
 10
-40.51658392046028
 20
-352.5437489970041
 30
0.0
 11
-41.35613862729832
 21
-351.704176260539
 31
0.0
  0
LINE
  5
63EE
330
1E
100
AcDbEntity
  8
虛線
 48
0.27
100
AcDbLine
 10
-31.46903716749353
 20
-370.7018151243631
 30
0.0
 11
-32.16904468370171
 21
-371.4018076080744
 31
0.0
  0
LINE
  5
63EF
330
1E
100
AcDbEntity
  8
0
 48
0.27
100
AcDbLine
 10
-38.71897655182204
 20
-370.4020580607471
 30
0.0
 11
-39.71905556762209
 21
-371.4021157781847
 31
0.0
  0
LINE
  5
63F0
330
1E
100
AcDbEntity
  8
0
 48
0.27
100
AcDbLine
 10
-33.71833596669808
 20
-370.4021117551138
 30
0.0
 11
-38.71897655182204
 21
-370.4020580607471
 31
0.0
  0
LINE
  5
63F1
330
1E
100
AcDbEntity
  8
0
 48
0.27
100
AcDbLine
 10
-33.71833596669808
 20
-370.4021117551138
 30
0.0
 11
-32.71835263392115
 21
-371.4021157781849
 31
0.0
  0
LINE
  5
63F2
330
1E
100
AcDbEntity
  8
0
 48
0.27
100
AcDbLine
 10
-48.78506101955389
 20
-361.9016291930899
 30
0.0
 11
-41.66660796801176
 21
-354.7833290086528
 31
0.0
  0
LINE
  5
63F3
330
1E
100
AcDbEntity
  8
0
 48
0.27
100
AcDbLine
 10
-45.46895970985974
 20
-371.4021157781846
 30
0.0
 11
-46.96896798738186
 21
-369.902075287646
 31
0.0
  0
LINE
  5
63F4
330
1E
100
AcDbEntity
  8
0
100
AcDbLine
 10
-46.96899713908829
 20
-364.0455722114008
 30
0.0
 11
-46.96899713908829
 21
-369.9023168810311
 31
0.0
  0
LINE
  5
63F5
330
1E
100
AcDbEntity
  8
0
 48
0.27
100
AcDbLine
 10
-38.8666204215013
 20
-355.9431570482793
 30
0.0
 11
-46.96896798738189
 21
-364.0453306180158
 31
0.0
  0
LINE
  5
63F6
330
1E
100
AcDbEntity
  8
0
 48
0.27
100
AcDbLine
 10
-38.8666204215013
 20
-355.9431570482793
 30
0.0
 11
-44.82526304518223
 21
-361.9016717114115
 31
0.0
  0
LINE
  5
63F7
330
1E
100
AcDbEntity
  8
0
 48
0.27
100
AcDbLine
 10
-47.15871542294769
 20
-361.9016466559719
 30
0.0
 11
-40.5166130828378
 21
-355.2596869535477
 31
0.0
  0
LINE
  5
63F8
330
1E
100
AcDbEntity
  8
0
 48
0.27
100
AcDbLine
 10
-38.8666204215013
 20
-355.9431570482793
 30
0.0
 11
-41.66660796801176
 21
-354.7833290086528
 31
0.0
  0
LINE
  5
63F9
330
1E
100
AcDbEntity
  8
0
100
AcDbLine
 10
-45.46895970985974
 20
-371.4021157781845
 30
0.0
 11
-39.71905556762209
 21
-371.4021157781847
 31
0.0
  0
LINE
  5
63FA
330
1E
100
AcDbEntity
  8
虛線
 48
0.27
100
AcDbLine
 10
-31.46882241753974
 20
-350.7018151255161
 30
0.0
 11
-31.46903716749353
 21
-370.7018151243631
 31
0.0
  0
LINE
  5
63FB
330
1E
100
AcDbEntity
  8
0
 48
0.27
100
AcDbLine
 10
-38.86657658198709
 20
-351.8603143360147
 30
0.0
 11
-38.8666204215013
 21
-355.9431570482793
 31
0.0
  0
LINE
  5
63FC
330
1E
100
AcDbEntity
  8
0
 48
0.27
100
AcDbLine
 10
-41.66660796801176
 20
-354.7833290086528
 30
0.0
 11
-41.66658903515371
 21
-353.0200822455543
 31
0.0
  0
LINE
  5
63FD
330
1E
100
AcDbEntity
  8
0
 48
0.27
100
AcDbLine
 10
-40.5166130828378
 20
-355.2596869535477
 30
0.0
 11
-40.51658392046028
 21
-352.5437489970041
 31
0.0
  0
LINE
  5
63FE
330
1E
100
AcDbEntity
  8
0
 48
0.27
100
AcDbLine
 10
-38.86657658198709
 20
-351.8603143360147
 30
0.0
 11
-38.8666204215013
 21
-355.9431570482793
 31
0.0
  0
LINE
  5
63FF
330
1E
100
AcDbEntity
  8
虛線
 48
0.27
100
AcDbLine
 10
-17.46903716830047
 20
-370.7019654493308
 30
0.0
 11
-31.46903716749353
 21
-370.7018151243631
 31
0.0
  0
LINE
  5
6400
330
1E
100
AcDbEntity
  8
虛線
 48
0.27
100
AcDbLine
 10
-17.4688224183468
 20
-350.7019654504838
 30
0.0
 11
-31.46882241753974
 21
-350.7018151255161
 31
0.0
  0
LINE
  5
6401
330
1E
100
AcDbEntity
  8
虛線
 48
0.27
100
AcDbLine
 10
-14.46881919727042
 20
-350.4019976629942
 30
0.0
 11
-34.46881919611735
 21
-350.4017829130404
 31
0.0
  0
LINE
  5
6402
330
1E
100
AcDbEntity
  8
0
100
AcDbLine
 10
-32.71835263392115
 20
-371.4021157781849
 30
0.0
 11
-16.21880795976011
 21
-371.4021157781854
 31
0.0
  0
ARC
  5
6404
330
1E
100
AcDbEntity
  8
0
 48
0.27
100
AcDbCircle
 10
-43.79638729488038
 20
-334.2316827573673
 30
0.0
 40
4.15
100
AcDbArc
 50
271.2758922367967
 51
358.7228773366011
  0
LINE
  5
6405
330
1E
100
AcDbEntity
  8
虛線
 48
0.27
100
AcDbLine
 10
-34.46864095365584
 20
-333.8017829139972
 30
0.0
 11
-34.46881919611735
 21
-350.4017829130404
 31
0.0
  0
LINE
  5
6406
330
1E
100
AcDbEntity
  8
虛線
 48
0.27
100
AcDbLine
 10
-14.46864095480879
 20
-333.801997663951
 30
0.0
 11
-14.46881919727042
 21
-350.4019976629942
 31
0.0
  0
ARC
  5
6407
330
1E
100
AcDbEntity
  8
0
 48
0.27
100
AcDbCircle
 10
-5.136387297109052
 20
-334.2320978690279
 30
0.0
 40
4.15
100
AcDbArc
 50
181.2758922368033
 51
268.7228773366027
  0
ARC
  5
6409
330
1E
100
AcDbEntity
  8
0
 48
0.27
100
AcDbCircle
 10
-43.79638729488038
 20
-334.2316827573673
 30
0.0
 40
4.15
100
AcDbArc
 50
271.2758922367967
 51
358.7228773366011
  0
ARC
  5
640A
330
1E
100
AcDbEntity
  8
0
 48
0.27
100
AcDbCircle
 10
-43.79638729488038
 20
-334.2316827573673
 30
0.0
 40
2.5
100
AcDbArc
 50
257.6595493216995
 51
12.33922025169948
  0
ARC
  5
640B
330
1E
100
AcDbEntity
  8
0
 48
0.27
100
AcDbCircle
 10
-43.79638729488038
 20
-334.2316827573673
 30
0.0
 40
1.35
100
AcDbArc
 50
247.2038119180795
 51
22.79495765317917
  0
ARC
  5
640C
330
1E
100
AcDbEntity
  8
0
 48
0.27
100
AcDbCircle
 10
-5.136387297109052
 20
-334.2320978690279
 30
0.0
 40
2.5
100
AcDbArc
 50
167.6595493217018
 51
282.3392202516998
  0
ARC
  5
640D
330
1E
100
AcDbEntity
  8
0
 48
0.27
100
AcDbCircle
 10
-5.136387297109052
 20
-334.2320978690279
 30
0.0
 40
4.15
100
AcDbArc
 50
181.2758922368033
 51
268.7228773366027
  0
ARC
  5
640E
330
1E
100
AcDbEntity
  8
0
 48
0.27
100
AcDbCircle
 10
-5.136387297109052
 20
-334.2320978690279
 30
0.0
 40
1.35
100
AcDbArc
 50
157.2038119202201
 51
292.7949576553193
  0
ARC
  5
641F
330
1E
100
AcDbEntity
  8
0
100
AcDbCircle
 10
-62.46899714127909
 20
-315.9021157781735
 30
0.0
 40
3.0
100
AcDbArc
 50
89.99999999999552
 51
179.9993847866998
  0
LINE
  5
6420
330
1E
100
AcDbEntity
  8
0
 48
0.27
100
AcDbLine
 10
-65.46927630929758
 20
-341.9014500753503
 30
0.0
 11
-61.46927630952814
 21
-341.901493025341
 31
0.0
  0
LINE
  5
6421
330
1E
100
AcDbEntity
  8
指線
 48
0.27
100
AcDbLine
 10
-62.2719393731154
 20
-346.7043459260343
 30
0.0
 11
-62.27172809843358
 21
-348.1720925324942
 31
0.0
  0
LINE
  5
6422
330
1E
100
AcDbEntity
  8
指線
 48
0.27
100
AcDbLine
 10
-60.66646804595809
 20
-346.7041146730605
 30
0.0
 11
-60.66625677095538
 21
-348.1718612795274
 31
0.0
  0
ARC
  5
6423
330
1E
100
AcDbEntity
  8
指線
 48
0.27
100
AcDbCircle
 10
-61.46931925951889
 20
-345.9014930251104
 30
0.0
 40
2.408211238907886
100
AcDbArc
 50
289.479432555884
 51
340.5379346017803
  0
LINE
  5
6424
330
1E
100
AcDbEntity
  8
指線
 48
0.27
100
AcDbLine
 10
-60.66646804595809
 20
-346.7041146730605
 30
0.0
 11
-57.53983531667751
 21
-346.7035877092536
 31
0.0
  0
LINE
  5
6425
330
1E
100
AcDbEntity
  8
指線
 48
0.27
100
AcDbLine
 10
-60.66669914592285
 20
-345.0986401241863
 30
0.0
 11
-57.54006641664227
 21
-345.0981131603793
 31
0.0
  0
LINE
  5
6426
330
1E
100
AcDbEntity
  8
0
 48
0.27
100
AcDbLine
 10
-65.4693622092791
 20
-349.9014500748891
 30
0.0
 11
-61.46936220950966
 21
-349.9014930248799
 31
0.0
  0
LINE
  5
6427
330
1E
100
AcDbEntity
  8
指線
 48
0.27
100
AcDbLine
 10
-62.2719393731154
 20
-346.7043459260343
 30
0.0
 11
-65.4050064135551
 21
-346.7047206133468
 31
0.0
  0
LINE
  5
6428
330
1E
100
AcDbEntity
  8
指線
 48
0.27
100
AcDbLine
 10
-62.27217047307982
 20
-345.0988713771604
 30
0.0
 11
-65.40523751351947
 21
-345.0992460644726
 31
0.0
  0
ARC
  5
6429
330
1E
100
AcDbEntity
  8
指線
 48
0.27
100
AcDbCircle
 10
-61.46931925951889
 20
-345.9014930251104
 30
0.0
 40
2.408211238907886
100
AcDbArc
 50
199.478573099186
 51
250.5370623270881
  0
ARC
  5
642A
330
1E
100
AcDbEntity
  8
0
 48
0.27
100
AcDbCircle
 10
-61.46931925951889
 20
-345.9014930251105
 30
0.0
 40
4.0
100
AcDbArc
 50
269.9993847866998
 51
89.99938478669987
  0
CIRCLE
  5
642B
330
1E
100
AcDbEntity
  8
指線
 48
0.27
100
AcDbCircle
 10
-61.46931925951889
 20
-345.9014930251104
 30
0.0
 40
4.0
  0
CIRCLE
  5
642C
330
1E
100
AcDbEntity
  8
指線
 48
0.27
100
AcDbCircle
 10
-61.46931925951889
 20
-345.9014930251104
 30
0.0
 40
4.0
  0
ARC
  5
642D
330
1E
100
AcDbEntity
  8
指線
 48
0.27
100
AcDbCircle
 10
-61.46931925951889
 20
-345.9014930251104
 30
0.0
 40
2.408211238907886
100
AcDbArc
 50
109.4794325558855
 51
160.5361215893392
  0
LINE
  5
642E
330
1E
100
AcDbEntity
  8
指線
 48
0.27
100
AcDbLine
 10
-62.27238174808253
 20
-343.6311247706932
 30
0.0
 11
-62.27217047307982
 21
-345.0988713771604
 31
0.0
  0
ARC
  5
642F
330
1E
100
AcDbEntity
  8
指線
 48
0.27
100
AcDbCircle
 10
-61.46931925951889
 20
-345.9014930251104
 30
0.0
 40
2.408211238907886
100
AcDbArc
 50
19.48038611139727
 51
70.53706232708965
  0
LINE
  5
6430
330
1E
100
AcDbEntity
  8
指線
 48
0.27
100
AcDbLine
 10
-60.66691042060432
 20
-343.6308935177267
 30
0.0
 11
-60.66669914592285
 21
-345.0986401241863
 31
0.0
  0
LINE
  5
6432
330
1E
100
AcDbEntity
  8
0
 48
0.27
100
AcDbLine
 10
-62.46949105942428
 20
-361.9014822866905
 30
0.0
 11
-65.46945883995715
 21
-358.9014500811716
 31
0.0
  0
LINE
  5
6434
330
1E
100
AcDbEntity
  8
0
 48
0.27
100
AcDbLine
 10
-65.46945883995715
 20
-358.9008216661505
 30
0.0
 11
-65.46899714110617
 21
-315.9020835656804
 31
0.0
  0
LINE
  5
643F
330
1E
100
AcDbEntity
  8
0
100
AcDbLine
 10
-63.46958099385759
 20
-361.9021157781832
 30
0.0
 11
-44.82612396374029
 21
-361.9021157781837
 31
0.0
  0
LINE
  5
6441
330
1E
100
AcDbEntity
  8
虛線
 48
0.27
100
AcDbLine
 10
1.281059231462933
 20
-322.9030325048063
 30
0.0
 11
9.781059230972914
 21
-322.9031237735367
 31
0.0
  0
LINE
  5
6442
330
1E
100
AcDbEntity
  8
虛線
 48
0.27
100
AcDbLine
 10
0.5311075502457641
 20
-318.4030244519425
 30
0.0
 11
10.53110754966928
 21
-318.4031318269194
 31
0.0
  0
LINE
  5
6443
330
1E
100
AcDbEntity
  8
虛線
 48
0.27
100
AcDbLine
 10
1.281059231462933
 20
-322.9030325048063
 30
0.0
 11
5.531032884204904
 21
-325.3568167830857
 31
0.0
  0
LINE
  5
6445
330
1E
100
AcDbEntity
  8
0
100
AcDbLine
 10
-4.108515735935043
 20
-361.902115778185
 30
0.0
 11
14.53169948724826
 21
-361.9021157781855
 31
0.0
  0
LINE
  5
6446
330
1E
100
AcDbEntity
  8
0
100
AcDbLine
 10
13.53100286310231
 20
-312.9021157781795
 30
0.0
 11
-62.46899714127886
 21
-312.9021157781736
 31
0.0
  0
LINE
  5
658B
330
1E
100
AcDbEntity
  8
0
100
AcDbLine
 10
17.53100286091219
 20
-358.9021157781853
 30
0.0
 11
14.53100286091174
 21
-361.9021157781852
 31
0.0
  0
LINE
  5
658E
330
1E
100
AcDbEntity
  8
0
100
AcDbLine
 10
-66.4689971390878
 20
-358.9021157781853
 30
0.0
 11
-63.4689971390878
 21
-361.9021157781852
 31
0.0
  0
LINE
  5
658F
330
1E
100
AcDbEntity
  8
0
100
AcDbLine
 10
-56.91237281206188
 20
-361.9021157781852
 30
0.0
 11
-63.4689971390878
 21
-361.9021157781852
 31
0.0
  0
LINE
  5
6594
330
1E
100
AcDbEntity
  8
0
100
AcDbLine
 10
14.53100286091174
 20
-361.9021157781852
 30
0.0
 11
7.974378533886266
 21
-361.9021157781852
 31
0.0
  0
LINE
  5
659C
330
1E
100
AcDbEntity
  8
AM3
100
AcDbLine
 10
-59.46899713908782
 20
-312.102115778185
 30
0.0
 11
-49.46899713908782
 21
-312.102115778185
 31
0.0
  0
LINE
  5
659D
330
1E
100
AcDbEntity
  8
0
100
AcDbLine
 10
-65.46899713908736
 20
-311.402115778185
 30
0.0
 11
-45.04473307037618
 21
-311.4021157781852
 31
0.0
  0
LINE
  5
659E
330
1E
100
AcDbEntity
  8
虛線
 48
0.27
100
AcDbLine
 10
-50.21899713908782
 20
-332.9021157781852
 30
0.0
 11
-58.71899713908781
 21
-332.9021157781852
 31
0.0
  0
LINE
  5
659F
330
1E
100
AcDbEntity
  8
虛線
 48
0.27
100
AcDbLine
 10
-49.46899713908782
 20
-328.4021157781852
 30
0.0
 11
-59.46899713908782
 21
-328.4021157781852
 31
0.0
  0
LINE
  5
65A0
330
1E
100
AcDbEntity
  8
AM3
100
AcDbLine
 10
-50.21899713908782
 20
-332.9021157781852
 30
0.0
 11
-54.46899713908782
 21
-335.3558544222409
 31
0.0
  0
LINE
  5
65A2
330
1E
100
AcDbEntity
  8
0
100
AcDbLine
 10
18.53100286091124
 20
-342.4021157781853
 30
0.0
 11
18.53100286091124
 21
-313.4021157781853
 31
0.0
  0
LINE
  5
65A3
330
1E
100
AcDbEntity
  8
CENTER
100
AcDbLine
 10
-54.46899713908782
 20
-310.3021157781851
 30
0.0
 11
-54.46899713908782
 21
-338.2445295568358
 31
0.0
  0
LINE
  5
65A4
330
1E
100
AcDbEntity
  8
虛線
 48
0.27
100
AcDbLine
 10
-59.46899713908782
 20
-312.102115778185
 30
0.0
 11
-59.46899713908782
 21
-328.4021157781852
 31
0.0
  0
LINE
  5
65A5
330
1E
100
AcDbEntity
  8
虛線
 48
0.27
100
AcDbLine
 10
-58.71899713908781
 20
-312.102115778185
 30
0.0
 11
-58.71899713908781
 21
-332.9021157781852
 31
0.0
  0
LINE
  5
65A6
330
1E
100
AcDbEntity
  8
0
100
AcDbLine
 10
18.53100286091124
 20
-342.4021157781853
 30
0.0
 11
17.53100286091124
 21
-343.4021157781852
 31
0.0
  0
LINE
  5
65B0
330
1E
100
AcDbEntity
  8
0
100
AcDbLine
 10
17.53100286091125
 20
-358.9021157781853
 30
0.0
 11
17.53100286091125
 21
-343.4021157781852
 31
0.0
  0
LINE
  5
65B7
330
1E
100
AcDbEntity
  8
虛線
 48
0.27
100
AcDbLine
 10
-54.46899713908782
 20
-335.3558544222409
 30
0.0
 11
-58.71899713908781
 21
-332.9021157781852
 31
0.0
  0
LINE
  5
65B8
330
1E
100
AcDbEntity
  8
AM3
100
AcDbLine
 10
-60.16899713908809
 20
-311.4021157781851
 30
0.0
 11
-59.46899713908782
 21
-312.102115778185
 31
0.0
  0
LINE
  5
65B9
330
1E
100
AcDbEntity
  8
0
100
AcDbLine
 10
16.53100286091079
 20
-311.402115778185
 30
0.0
 11
18.53100286091124
 21
-313.4021157781853
 31
0.0
  0
LINE
  5
65BA
330
1E
100
AcDbEntity
  8
CENTER
100
AcDbLine
 10
5.531002860912181
 20
-310.3021157781851
 30
0.0
 11
5.531002860912181
 21
-338.2445295568358
 31
0.0
  0
LINE
  5
65BB
330
1E
100
AcDbEntity
  8
虛線
 48
0.27
100
AcDbLine
 10
10.53100286091218
 20
-312.102115778185
 30
0.0
 11
10.53100286091218
 21
-328.4021157781852
 31
0.0
  0
LINE
  5
65BC
330
1E
100
AcDbEntity
  8
虛線
 48
0.27
100
AcDbLine
 10
0.5310028609121816
 20
-312.102115778185
 30
0.0
 11
0.5310028609121816
 21
-328.4021157781852
 31
0.0
  0
LINE
  5
65BD
330
1E
100
AcDbEntity
  8
虛線
 48
0.27
100
AcDbLine
 10
1.281002860912181
 20
-312.102115778185
 30
0.0
 11
1.281002860912181
 21
-332.9021157781852
 31
0.0
  0
LINE
  5
65BE
330
1E
100
AcDbEntity
  8
虛線
 48
0.27
100
AcDbLine
 10
9.781002860912181
 20
-312.102115778185
 30
0.0
 11
9.781002860912181
 21
-332.9021157781852
 31
0.0
  0
LINE
  5
65BF
330
1E
100
AcDbEntity
  8
虛線
 48
0.27
100
AcDbLine
 10
-49.46899713908782
 20
-312.102115778185
 30
0.0
 11
-49.46899713908782
 21
-328.4021157781852
 31
0.0
  0
LINE
  5
65C0
330
1E
100
AcDbEntity
  8
AM3
100
AcDbLine
 10
-50.21899713908782
 20
-312.102115778185
 30
0.0
 11
-50.21899713908782
 21
-332.9021157781852
 31
0.0
  0
LINE
  5
65C1
330
1E
100
AcDbEntity
  8
中心線
 48
0.27
100
AcDbLine
 10
-24.46899713908826
 20
-298.2021157781852
 30
0.0
 11
-24.46899713908826
 21
-375.2375853124751
 31
0.0
  0
LINE
  5
65C2
330
1E
100
AcDbEntity
  8
0
100
AcDbLine
 10
-67.46899713908878
 20
-313.4021157781852
 30
0.0
 11
-67.46899713908833
 21
-327.4021157781851
 31
0.0
  0
LINE
  5
65EB
330
1E
100
AcDbEntity
  8
0
100
AcDbLine
 10
-66.46899713908877
 20
-358.9021157781853
 30
0.0
 11
-66.46899713908877
 21
-328.4021157781853
 31
0.0
  0
LINE
  5
6608
330
1E
100
AcDbEntity
  8
虛線
 48
0.27
100
AcDbLine
 10
1.281002860912181
 20
-332.9021157781852
 30
0.0
 11
5.531002860912181
 21
-335.3558544222409
 31
0.0
  0
LINE
  5
6609
330
1E
100
AcDbEntity
  8
虛線
 48
0.27
100
AcDbLine
 10
0.5310028609121816
 20
-328.4021157781852
 30
0.0
 11
10.53100286091218
 21
-328.4021157781852
 31
0.0
  0
LINE
  5
660A
330
1E
100
AcDbEntity
  8
虛線
 48
0.27
100
AcDbLine
 10
1.281002860912181
 20
-332.9021157781852
 30
0.0
 11
9.781002860912181
 21
-332.9021157781852
 31
0.0
  0
LINE
  5
6618
330
1E
100
AcDbEntity
  8
0
100
AcDbLine
 10
-67.46899713908833
 20
-327.4021157781851
 30
0.0
 11
-66.46899713908879
 21
-328.4021157781852
 31
0.0
  0
LINE
  5
6619
330
1E
100
AcDbEntity
  8
虛線
 48
0.27
100
AcDbLine
 10
5.531002860912181
 20
-335.3558544222409
 30
0.0
 11
9.781002860912181
 21
-332.9021157781852
 31
0.0
  0
LINE
  5
661B
330
1E
100
AcDbEntity
  8
0
100
AcDbLine
 10
-16.54473307037573
 20
-311.4021157781851
 30
0.0
 11
-15.54473307037618
 21
-312.402115778185
 31
0.0
  0
LINE
  5
661C
330
1E
100
AcDbEntity
  8
0
100
AcDbLine
 10
-44.04473307037572
 20
-312.402115778185
 30
0.0
 11
-33.39326120779991
 21
-312.402115778185
 31
0.0
  0
LINE
  5
661D
330
1E
100
AcDbEntity
  8
0
100
AcDbLine
 10
-44.04473307037572
 20
-312.402115778185
 30
0.0
 11
-45.04473307037618
 21
-311.4021157781852
 31
0.0
  0
LINE
  5
661E
330
1E
100
AcDbEntity
  8
AM3
100
AcDbLine
 10
-48.768997139088
 20
-311.4021157781851
 30
0.0
 11
-49.46899713908782
 21
-312.102115778185
 31
0.0
  0
LINE
  5
661F
330
1E
100
AcDbEntity
  8
0
100
AcDbLine
 10
-32.39326120779991
 20
-311.4021157781852
 30
0.0
 11
-33.39326120779991
 21
-312.402115778185
 31
0.0
  0
LINE
  5
6620
330
1E
100
AcDbEntity
  8
0
100
AcDbLine
 10
-32.39326120779991
 20
-311.4021157781852
 30
0.0
 11
-16.54473307037573
 21
-311.4021157781851
 31
0.0
  0
LINE
  5
6621
330
1E
100
AcDbEntity
  8
AM3
100
AcDbLine
 10
10.53100286091172
 20
-312.102115778185
 30
0.0
 11
0.5310028609117268
 21
-312.102115778185
 31
0.0
  0
LINE
  5
6622
330
1E
100
AcDbEntity
  8
0
100
AcDbLine
 10
-3.893261207799909
 20
-311.4021157781851
 30
0.0
 11
16.53100286091173
 21
-311.4021157781852
 31
0.0
  0
LINE
  5
6623
330
1E
100
AcDbEntity
  8
0
100
AcDbLine
 10
-4.893261207799909
 20
-312.4021157781852
 30
0.0
 11
-3.893261207799909
 21
-311.4021157781851
 31
0.0
  0
LINE
  5
6624
330
1E
100
AcDbEntity
  8
AM3
100
AcDbLine
 10
-0.1689971390880913
 20
-311.4021157781851
 30
0.0
 11
0.5310028609117268
 21
-312.102115778185
 31
0.0
  0
LINE
  5
6625
330
1E
100
AcDbEntity
  8
0
100
AcDbLine
 10
-4.893261207799909
 20
-312.4021157781852
 30
0.0
 11
-15.54473307037618
 21
-312.402115778185
 31
0.0
  0
LINE
  5
6628
330
1E
100
AcDbEntity
  8
AM3
100
AcDbLine
 10
11.231002860912
 20
-311.4021157781851
 30
0.0
 11
10.53100286091172
 21
-312.102115778185
 31
0.0
  0
LINE
  5
6629
330
1E
100
AcDbEntity
  8
0
100
AcDbLine
 10
-65.46899713908833
 20
-311.4021157781852
 30
0.0
 11
-67.46899713908878
 21
-313.4021157781852
 31
0.0
  0
LINE
  5
6922
330
1E
100
AcDbEntity
  8
0
100
AcDbLine
 10
316.7241506076702
 20
-349.8873229787801
 30
0.0
 11
315.6608793416693
 21
-349.8873229787801
 31
0.0
  0
LINE
  5
6923
330
1E
100
AcDbEntity
  8
0
100
AcDbLine
 10
316.7241506076702
 20
-341.9169085775939
 30
0.0
 11
315.6608793416693
 21
-341.9169085775939
 31
0.0
  0
LINE
  5
6924
330
1E
100
AcDbEntity
  8
0
100
AcDbLine
 10
317.6608793416693
 20
-342.4531855008861
 30
0.0
 11
317.6608793416693
 21
-336.674358845187
 31
0.0
  0
ARC
  5
6933
330
1E
100
AcDbEntity
  8
0
100
AcDbCircle
 10
149.41860115023
 20
-347.7163757763703
 30
0.0
 40
2.258017748891657
100
AcDbArc
 50
180.9276427879959
 51
254.0369778311716
  0
LINE
  5
6936
330
1E
100
AcDbEntity
  8
0
100
AcDbLine
 10
148.797608075664
 20
-349.8873229787801
 30
0.0
 11
149.8608793416649
 21
-349.8873229787801
 31
0.0
  0
LINE
  5
6937
330
1E
100
AcDbEntity
  8
0
100
AcDbLine
 10
147.1608793416649
 20
-344.0512991193219
 30
0.0
 11
147.1608793416649
 21
-347.7529324370522
 31
0.0
  0
ARC
  5
6938
330
1E
100
AcDbEntity
  8
0
100
AcDbCircle
 10
149.41860115023
 20
-344.0878557800037
 30
0.0
 40
2.258017748891657
100
AcDbArc
 50
105.9630221688284
 51
179.072357212004
  0
LINE
  5
6939
330
1E
100
AcDbEntity
  8
0
100
AcDbLine
 10
148.797608075664
 20
-341.9169085775939
 30
0.0
 11
149.8608793416648
 21
-341.9169085775939
 31
0.0
  0
LINE
  5
693A
330
1E
100
AcDbEntity
  8
0
100
AcDbLine
 10
147.8608793416649
 20
-342.4531855008861
 30
0.0
 11
147.8608793416649
 21
-336.674358845187
 31
0.0
  0
LINE
  5
6955
330
1E
100
AcDbEntity
  8
0
100
AcDbLine
 10
148.7976080756669
 20
-239.8376894840234
 30
0.0
 11
149.8608793416678
 21
-239.8376894840234
 31
0.0
  0
ARC
  5
6956
330
1E
100
AcDbEntity
  8
0
100
AcDbCircle
 10
149.4186011502329
 20
-242.0086366864332
 30
0.0
 40
2.258017748891657
100
AcDbArc
 50
105.9630221688284
 51
179.072357212004
  0
LINE
  5
6957
330
1E
100
AcDbEntity
  8
0
100
AcDbLine
 10
147.1608793416678
 20
-241.9720800257513
 30
0.0
 11
147.1608793416678
 21
-245.6737133434816
 31
0.0
  0
LINE
  5
6958
330
1E
100
AcDbEntity
  8
0
100
AcDbLine
 10
148.7976080756669
 20
-247.8081038852096
 30
0.0
 11
149.8608793416678
 21
-247.8081038852096
 31
0.0
  0
ARC
  5
6959
330
1E
100
AcDbEntity
  8
0
100
AcDbCircle
 10
149.4186011502329
 20
-245.6371566827997
 30
0.0
 40
2.258017748891657
100
AcDbArc
 50
180.9276427879959
 51
254.0369778311716
  0
ARC
  5
6962
330
1E
100
AcDbEntity
  8
0
100
AcDbCircle
 10
149.4186011502329
 20
-174.0084921538471
 30
0.0
 40
2.258017748891657
100
AcDbArc
 50
105.9630221688285
 51
179.0723572120041
  0
LINE
  5
6963
330
1E
100
AcDbEntity
  8
0
100
AcDbLine
 10
148.7976080756669
 20
-171.8375449514373
 30
0.0
 11
149.8608793416678
 21
-171.8375449514373
 31
0.0
  0
LINE
  5
6964
330
1E
100
AcDbEntity
  8
0
100
AcDbLine
 10
147.1608793416678
 20
-177.6735688108955
 30
0.0
 11
147.1608793416678
 21
-173.9719354931652
 31
0.0
  0
ARC
  5
6965
330
1E
100
AcDbEntity
  8
0
100
AcDbCircle
 10
149.4186011502329
 20
-177.6370121502137
 30
0.0
 40
2.258017748891657
100
AcDbArc
 50
180.927642787996
 51
254.0369778311716
  0
LINE
  5
6966
330
1E
100
AcDbEntity
  8
0
100
AcDbLine
 10
148.7976080756669
 20
-179.8079593526235
 30
0.0
 11
149.8608793416677
 21
-179.8079593526235
 31
0.0
  0
ARC
  5
696A
330
1E
100
AcDbEntity
  8
0
 48
0.27
100
AcDbCircle
 10
150.1254020469006
 20
-322.401274240605
 30
0.0
 40
3.69263999999997
100
AcDbArc
 50
137.3880465568548
 51
222.611401997802
  0
LINE
  5
696B
330
1E
100
AcDbEntity
  8
0
 48
0.27
100
AcDbLine
 10
146.4327620469007
 20
-324.9012742406052
 30
0.0
 11
146.4327620469006
 21
-319.9012464706675
 31
0.0
  0
LINE
  5
6A8D
330
1E
100
AcDbEntity
  8
0
100
AcDbLine
 10
147.8608793416679
 20
-204.0246726898432
 30
0.0
 11
147.8608793416678
 21
-187.4227678378956
 31
0.0
  0
LINE
  5
6A8E
330
1E
100
AcDbEntity
  8
0
100
AcDbLine
 10
147.8608793416678
 20
-195.4642879786105
 30
0.0
 11
149.8608793416678
 21
-194.3045200690709
 31
0.0
  0
LINE
  5
6A8F
330
1E
100
AcDbEntity
  8
0
100
AcDbLine
 10
147.8608793416678
 20
-187.4227678378956
 30
0.0
 11
149.8608793416678
 21
-184.6227678380568
 31
0.0
  0
LINE
  5
6A90
330
1E
100
AcDbEntity
  8
0
100
AcDbLine
 10
147.8608793416676
 20
-232.2230255352572
 30
0.0
 11
149.8608793416676
 21
-235.023025535096
 31
0.0
  0
LINE
  5
6A91
330
1E
100
AcDbEntity
  8
0
100
AcDbLine
 10
147.8608793416677
 20
-224.1815053945423
 30
0.0
 11
149.8608793416677
 21
-225.3412733040819
 31
0.0
  0
LINE
  5
6A92
330
1E
100
AcDbEntity
  8
0
100
AcDbLine
 10
147.8608793416678
 20
-215.6211206833096
 30
0.0
 11
147.8608793416676
 21
-232.2230255352572
 31
0.0
  0
LINE
  5
6ACA
330
1E
100
AcDbEntity
  8
中心線
100
AcDbLine
 10
320.5989570871876
 20
-175.8228966885362
 30
0.0
 11
309.9537315592586
 21
-175.8228966885362
 31
0.0
  0
ARC
  5
6ACF
330
1E
100
AcDbEntity
  8
0
100
AcDbCircle
 10
316.1031575331073
 20
-174.008492153847
 30
0.0
 40
2.258017748891657
100
AcDbArc
 50
0.9276427879958715
 51
74.03697783117149
  0
LINE
  5
6AD0
330
1E
100
AcDbEntity
  8
0
100
AcDbLine
 10
316.7241506076732
 20
-171.8375449514372
 30
0.0
 11
315.6608793416724
 21
-171.8375449514372
 31
0.0
  0
LINE
  5
6AD1
330
1E
100
AcDbEntity
  8
0
100
AcDbLine
 10
318.3608793416723
 20
-177.6735688108954
 30
0.0
 11
318.3608793416723
 21
-173.9719354931651
 31
0.0
  0
ARC
  5
6AD2
330
1E
100
AcDbEntity
  8
0
100
AcDbCircle
 10
316.1031575331073
 20
-177.6370121502135
 30
0.0
 40
2.258017748891657
100
AcDbArc
 50
285.9630221688284
 51
359.072357212004
  0
LINE
  5
6AD3
330
1E
100
AcDbEntity
  8
0
100
AcDbLine
 10
316.7241506076732
 20
-179.8079593526234
 30
0.0
 11
315.6608793416724
 21
-179.8079593526234
 31
0.0
  0
LINE
  5
6AD4
330
1E
100
AcDbEntity
  8
中心線
100
AcDbLine
 10
320.5989570871875
 20
-243.8228966846164
 30
0.0
 11
309.9537315592585
 21
-243.8228966846164
 31
0.0
  0
LINE
  5
6AD6
330
1E
100
AcDbEntity
  8
0
100
AcDbLine
 10
316.7241506076732
 20
-239.8376894840232
 30
0.0
 11
315.6608793416724
 21
-239.8376894840232
 31
0.0
  0
ARC
  5
6AD7
330
1E
100
AcDbEntity
  8
0
100
AcDbCircle
 10
316.1031575331073
 20
-242.0086366864331
 30
0.0
 40
2.258017748891657
100
AcDbArc
 50
0.9276427879959481
 51
74.03697783117156
  0
LINE
  5
6AD8
330
1E
100
AcDbEntity
  8
0
100
AcDbLine
 10
318.3608793416723
 20
-241.9720800257512
 30
0.0
 11
318.3608793416723
 21
-245.6737133434815
 31
0.0
  0
LINE
  5
6AD9
330
1E
100
AcDbEntity
  8
0
100
AcDbLine
 10
316.7241506076732
 20
-247.8081038852094
 30
0.0
 11
315.6608793416723
 21
-247.8081038852094
 31
0.0
  0
ARC
  5
6ADA
330
1E
100
AcDbEntity
  8
0
100
AcDbCircle
 10
316.1031575331073
 20
-245.6371566827996
 30
0.0
 40
2.258017748891657
100
AcDbArc
 50
285.9630221688284
 51
359.0723572120041
  0
LINE
  5
6B21
330
1E
100
AcDbEntity
  8
0
100
AcDbLine
 10
317.6608793416724
 20
-215.6211206833095
 30
0.0
 11
317.6608793416725
 21
-187.4227678378955
 31
0.0
  0
LINE
  5
6B22
330
1E
100
AcDbEntity
  8
0
100
AcDbLine
 10
317.6608793416725
 20
-195.4642879786105
 30
0.0
 11
315.6608793416725
 21
-194.3045200690709
 31
0.0
  0
LINE
  5
6B23
330
1E
100
AcDbEntity
  8
0
100
AcDbLine
 10
317.6608793416725
 20
-187.4227678378955
 30
0.0
 11
315.6608793416725
 21
-184.6227678380568
 31
0.0
  0
LINE
  5
6B24
330
1E
100
AcDbEntity
  8
0
100
AcDbLine
 10
317.6608793416726
 20
-232.2230255352571
 30
0.0
 11
315.6608793416726
 21
-235.0230255350959
 31
0.0
  0
LINE
  5
6B25
330
1E
100
AcDbEntity
  8
0
100
AcDbLine
 10
317.6608793416726
 20
-224.1815053945422
 30
0.0
 11
315.6608793416726
 21
-225.3412733040818
 31
0.0
  0
LINE
  5
6B26
330
1E
100
AcDbEntity
  8
0
100
AcDbLine
 10
317.6608793416724
 20
-215.6211206833095
 30
0.0
 11
317.6608793416726
 21
-232.2230255352571
 31
0.0
  0
LINE
  5
6B4E
330
1E
100
AcDbEntity
  8
0
100
AcDbLine
 10
147.4077800441854
 20
-319.9012500767302
 30
0.0
 11
149.8608793416649
 21
-319.9012462968829
 31
0.0
  0
ENDSEC
  0
SECTION
  2
OBJECTS
  0
DICTIONARY
  5
C
330
0
100
AcDbDictionary
281
     1
  3
ACAD_COLOR
350
3D97
  3
ACAD_GROUP
350
D
  3
ACAD_LAYOUT
350
19
  3
ACAD_MATERIAL
350
3D96
  3
ACAD_MLINESTYLE
350
16
  3
ACAD_PLOTSETTINGS
350
18
  3
ACAD_PLOTSTYLENAME
350
E
  3
ACAD_TABLESTYLE
350
623D
  3
ACAD_VISUALSTYLE
350
6B5F
  3
AcDbVariableDictionary
350
3E63
  3
DWGPROPS
350
6BAA
  0
DICTIONARY
  5
43C2
330
2
100
AcDbDictionary
280
     1
281
     1
  3
ACAD_LAYERSTATES
360
43C3
  0
DICTIONARY
  5
3D1E
330
1E
100
AcDbDictionary
280
     1
281
     1
  3
ACAD_LAYOUTSELFREF
360
3D92
  0
DICTIONARY
  5
3D20
330
1A
100
AcDbDictionary
280
     1
281
     1
  3
ACAD_LAYOUTSELFREF
360
3D91
  0
DICTIONARY
  5
3D97
102
{ACAD_REACTORS
330
C
102
}
330
C
100
AcDbDictionary
281
     1
  0
DICTIONARY
  5
D
102
{ACAD_REACTORS
330
C
102
}
330
C
100
AcDbDictionary
281
     1
  3
*A1
350
4143
  3
*A10
350
4237
  3
*A11
350
4238
  3
*A12
350
43C0
  3
*A13
350
423C
  3
*A14
350
4240
  3
*A15
350
4373
  3
*A16
350
43BD
  3
*A17
350
423D
  3
*A18
350
423E
  3
*A19
350
423F
  3
*A2
350
414A
  3
*A20
350
4374
  3
*A21
350
4377
  3
*A22
350
4379
  3
*A23
350
43C1
  3
*A24
350
4375
  3
*A25
350
4145
  3
*A26
350
4376
  3
*A27
350
437A
  3
*A28
350
437D
  3
*A29
350
437F
  3
*A3
350
414B
  3
*A30
350
437B
  3
*A31
350
414D
  3
*A32
350
437C
  3
*A33
350
4146
  3
*A34
350
43B7
  3
*A35
350
43B9
  3
*A36
350
43B5
  3
*A37
350
423A
  3
*A38
350
43B6
  3
*A39
350
414E
  3
*A4
350
43BC
  3
*A40
350
43BE
  3
*A41
350
43BA
  3
*A42
350
4241
  3
*A43
350
43BB
  3
*A44
350
4144
  3
*A45
350
4148
  3
*A46
350
4147
  3
*A47
350
4378
  3
*A48
350
43BF
  3
*A49
350
414C
  3
*A5
350
4235
  3
*A50
350
414F
  3
*A51
350
437E
  3
*A52
350
4149
  3
*A6
350
4239
  3
*A7
350
423B
  3
*A8
350
43B8
  3
*A9
350
4236
  0
DICTIONARY
  5
19
102
{ACAD_REACTORS
330
C
102
}
330
C
100
AcDbDictionary
281
     1
  3
Model
350
21
  3
配置1
350
1D
  0
DICTIONARY
  5
3D96
102
{ACAD_REACTORS
330
C
102
}
330
C
100
AcDbDictionary
281
     1
  3
ByBlock
350
6B5D
  3
ByLayer
350
6B5C
  3
Global
350
6B5E
  0
DICTIONARY
  5
16
102
{ACAD_REACTORS
330
C
102
}
330
C
100
AcDbDictionary
281
     1
  3
Standard
350
17
  0
DICTIONARY
  5
18
102
{ACAD_REACTORS
330
C
102
}
330
C
100
AcDbDictionary
281
     1
  3
LANSRO
350
4150
  0
ACDBDICTIONARYWDFLT
  5
E
102
{ACAD_REACTORS
330
C
102
}
330
C
100
AcDbDictionary
281
     1
  3
Normal
350
F
100
AcDbDictionaryWithDefault
340
F
  0
DICTIONARY
  5
623D
102
{ACAD_REACTORS
330
C
102
}
330
C
100
AcDbDictionary
281
     1
  3
Standard
350
623E
  0
DICTIONARY
  5
6B5F
102
{ACAD_REACTORS
330
C
102
}
330
C
100
AcDbDictionary
281
     1
  3
2dWireframe
350
6B65
  3
3D Hidden
350
6B67
  3
3dWireframe
350
6B66
  3
Basic
350
6B64
  3
Brighten
350
6B6B
  3
ColorChange
350
6B6F
  3
Conceptual
350
6B68
  3
Dim
350
6B6A
  3
Facepattern
350
6B6E
  3
Flat
350
6B60
  3
FlatWithEdges
350
6B61
  3
Gouraud
350
6B62
  3
GouraudWithEdges
350
6B63
  3
Linepattern
350
6B6D
  3
Realistic
350
6B69
  3
Thicken
350
6B6C
  0
DICTIONARY
  5
3E63
102
{ACAD_REACTORS
330
C
102
}
330
C
100
AcDbDictionary
281
     1
  3
CTABLESTYLE
350
6244
  3
DIMASSOC
350
3E64
  3
INDEXCTL
350
6BA9
  3
PROJECTNAME
350
3E65
  3
SORTENTS
350
6BA8
  0
XRECORD
  5
6BAA
102
{ACAD_REACTORS
330
C
102
}
330
C
100
AcDbXrecord
280
     1
  1
DWGPROPS COOKIE
  2

  3

  4

  6

  7

  8
tony4321
  9

300
=
301
=
302
=
303
=
304
=
305
=
306
=
307
=
308
=
309
=
 40
0.1346656828703704
 41
2444975.333333334
 42
2454358.478801875
  1

 90
        0
  0
DICTIONARY
  5
43C3
102
{ACAD_REACTORS
330
43C2
102
}
330
43C2
100
AcDbDictionary
281
     1
  0
XRECORD
  5
3D92
102
{ACAD_REACTORS
330
3D1E
102
}
330
3D1E
100
AcDbXrecord
280
     1
340
1E
  0
XRECORD
  5
3D91
102
{ACAD_REACTORS
330
3D20
102
}
330
3D20
100
AcDbXrecord
280
     1
340
1A
  0
GROUP
  5
4143
102
{ACAD_REACTORS
330
D
102
}
330
D
100
AcDbGroup
300

 70
     1
 71
     1
  0
GROUP
  5
4237
102
{ACAD_REACTORS
330
D
102
}
330
D
100
AcDbGroup
300

 70
     1
 71
     1
  0
GROUP
  5
4238
102
{ACAD_REACTORS
330
D
102
}
330
D
100
AcDbGroup
300

 70
     1
 71
     1
  0
GROUP
  5
43C0
102
{ACAD_REACTORS
330
D
102
}
330
D
100
AcDbGroup
300

 70
     1
 71
     1
  0
GROUP
  5
423C
102
{ACAD_REACTORS
330
D
102
}
330
D
100
AcDbGroup
300

 70
     1
 71
     1
  0
GROUP
  5
4240
102
{ACAD_REACTORS
330
D
102
}
330
D
100
AcDbGroup
300

 70
     1
 71
     1
  0
GROUP
  5
4373
102
{ACAD_REACTORS
330
D
102
}
330
D
100
AcDbGroup
300

 70
     1
 71
     1
  0
GROUP
  5
43BD
102
{ACAD_REACTORS
330
D
102
}
330
D
100
AcDbGroup
300

 70
     1
 71
     1
  0
GROUP
  5
423D
102
{ACAD_REACTORS
330
D
102
}
330
D
100
AcDbGroup
300

 70
     1
 71
     1
  0
GROUP
  5
423E
102
{ACAD_REACTORS
330
D
102
}
330
D
100
AcDbGroup
300

 70
     1
 71
     1
  0
GROUP
  5
423F
102
{ACAD_REACTORS
330
D
102
}
330
D
100
AcDbGroup
300

 70
     1
 71
     1
  0
GROUP
  5
414A
102
{ACAD_REACTORS
330
D
102
}
330
D
100
AcDbGroup
300

 70
     1
 71
     1
  0
GROUP
  5
4374
102
{ACAD_REACTORS
330
D
102
}
330
D
100
AcDbGroup
300

 70
     1
 71
     1
  0
GROUP
  5
4377
102
{ACAD_REACTORS
330
D
102
}
330
D
100
AcDbGroup
300

 70
     1
 71
     1
  0
GROUP
  5
4379
102
{ACAD_REACTORS
330
D
102
}
330
D
100
AcDbGroup
300

 70
     1
 71
     1
  0
GROUP
  5
43C1
102
{ACAD_REACTORS
330
D
102
}
330
D
100
AcDbGroup
300

 70
     1
 71
     1
  0
GROUP
  5
4375
102
{ACAD_REACTORS
330
D
102
}
330
D
100
AcDbGroup
300

 70
     1
 71
     1
  0
GROUP
  5
4145
102
{ACAD_REACTORS
330
D
102
}
330
D
100
AcDbGroup
300

 70
     1
 71
     1
  0
GROUP
  5
4376
102
{ACAD_REACTORS
330
D
102
}
330
D
100
AcDbGroup
300

 70
     1
 71
     1
  0
GROUP
  5
437A
102
{ACAD_REACTORS
330
D
102
}
330
D
100
AcDbGroup
300

 70
     1
 71
     1
  0
GROUP
  5
437D
102
{ACAD_REACTORS
330
D
102
}
330
D
100
AcDbGroup
300

 70
     1
 71
     1
  0
GROUP
  5
437F
102
{ACAD_REACTORS
330
D
102
}
330
D
100
AcDbGroup
300

 70
     1
 71
     1
  0
GROUP
  5
414B
102
{ACAD_REACTORS
330
D
102
}
330
D
100
AcDbGroup
300

 70
     1
 71
     1
  0
GROUP
  5
437B
102
{ACAD_REACTORS
330
D
102
}
330
D
100
AcDbGroup
300

 70
     1
 71
     1
  0
GROUP
  5
414D
102
{ACAD_REACTORS
330
D
102
}
330
D
100
AcDbGroup
300

 70
     1
 71
     1
  0
GROUP
  5
437C
102
{ACAD_REACTORS
330
D
102
}
330
D
100
AcDbGroup
300

 70
     1
 71
     1
  0
GROUP
  5
4146
102
{ACAD_REACTORS
330
D
102
}
330
D
100
AcDbGroup
300

 70
     1
 71
     1
  0
GROUP
  5
43B7
102
{ACAD_REACTORS
330
D
102
}
330
D
100
AcDbGroup
300

 70
     1
 71
     1
  0
GROUP
  5
43B9
102
{ACAD_REACTORS
330
D
102
}
330
D
100
AcDbGroup
300

 70
     1
 71
     1
  0
GROUP
  5
43B5
102
{ACAD_REACTORS
330
D
102
}
330
D
100
AcDbGroup
300

 70
     1
 71
     1
  0
GROUP
  5
423A
102
{ACAD_REACTORS
330
D
102
}
330
D
100
AcDbGroup
300

 70
     1
 71
     1
  0
GROUP
  5
43B6
102
{ACAD_REACTORS
330
D
102
}
330
D
100
AcDbGroup
300

 70
     1
 71
     1
  0
GROUP
  5
414E
102
{ACAD_REACTORS
330
D
102
}
330
D
100
AcDbGroup
300

 70
     1
 71
     1
  0
GROUP
  5
43BC
102
{ACAD_REACTORS
330
D
102
}
330
D
100
AcDbGroup
300

 70
     1
 71
     1
  0
GROUP
  5
43BE
102
{ACAD_REACTORS
330
D
102
}
330
D
100
AcDbGroup
300

 70
     1
 71
     1
  0
GROUP
  5
43BA
102
{ACAD_REACTORS
330
D
102
}
330
D
100
AcDbGroup
300

 70
     1
 71
     1
  0
GROUP
  5
4241
102
{ACAD_REACTORS
330
D
102
}
330
D
100
AcDbGroup
300

 70
     1
 71
     1
  0
GROUP
  5
43BB
102
{ACAD_REACTORS
330
D
102
}
330
D
100
AcDbGroup
300

 70
     1
 71
     1
  0
GROUP
  5
4144
102
{ACAD_REACTORS
330
D
102
}
330
D
100
AcDbGroup
300

 70
     1
 71
     1
  0
GROUP
  5
4148
102
{ACAD_REACTORS
330
D
102
}
330
D
100
AcDbGroup
300

 70
     1
 71
     1
  0
GROUP
  5
4147
102
{ACAD_REACTORS
330
D
102
}
330
D
100
AcDbGroup
300

 70
     1
 71
     1
  0
GROUP
  5
4378
102
{ACAD_REACTORS
330
D
102
}
330
D
100
AcDbGroup
300

 70
     1
 71
     1
  0
GROUP
  5
43BF
102
{ACAD_REACTORS
330
D
102
}
330
D
100
AcDbGroup
300

 70
     1
 71
     1
  0
GROUP
  5
414C
102
{ACAD_REACTORS
330
D
102
}
330
D
100
AcDbGroup
300

 70
     1
 71
     1
  0
GROUP
  5
4235
102
{ACAD_REACTORS
330
D
102
}
330
D
100
AcDbGroup
300

 70
     1
 71
     1
  0
GROUP
  5
414F
102
{ACAD_REACTORS
330
D
102
}
330
D
100
AcDbGroup
300

 70
     1
 71
     1
  0
GROUP
  5
437E
102
{ACAD_REACTORS
330
D
102
}
330
D
100
AcDbGroup
300

 70
     1
 71
     1
  0
GROUP
  5
4149
102
{ACAD_REACTORS
330
D
102
}
330
D
100
AcDbGroup
300

 70
     1
 71
     1
  0
GROUP
  5
4239
102
{ACAD_REACTORS
330
D
102
}
330
D
100
AcDbGroup
300

 70
     1
 71
     1
  0
GROUP
  5
423B
102
{ACAD_REACTORS
330
D
102
}
330
D
100
AcDbGroup
300

 70
     1
 71
     1
  0
GROUP
  5
43B8
102
{ACAD_REACTORS
330
D
102
}
330
D
100
AcDbGroup
300

 70
     1
 71
     1
  0
GROUP
  5
4236
102
{ACAD_REACTORS
330
D
102
}
330
D
100
AcDbGroup
300

 70
     1
 71
     1
  0
LAYOUT
  5
21
102
{ACAD_XDICTIONARY
360
6BAD
102
}
102
{ACAD_REACTORS
330
19
102
}
330
19
100
AcDbPlotSettings
  1

  2
HP 2200
  4

  6

 40
0.0
 41
0.0
 42
0.0
 43
0.0
 44
0.0
 45
0.0
 46
0.0
 47
0.0
 48
0.0
 49
0.0
140
0.0
141
0.0
142
1.0
143
1.0
 70
  1712
 72
     0
 73
     0
 74
     0
  7
AAA.ctb
 75
     0
147
1.0
148
0.0
149
0.0
100
AcDbLayout
  1
Model
 70
     1
 71
     0
 10
0.0
 20
0.0
 11
12.0
 21
9.0
 12
0.0
 22
0.0
 32
0.0
 14
0.0
 24
0.0
 34
0.0
 15
0.0
 25
0.0
 35
0.0
146
0.0
 13
0.0
 23
0.0
 33
0.0
 16
1.0
 26
0.0
 36
0.0
 17
0.0
 27
1.0
 37
0.0
 76
     0
330
1E
331
6B51
  0
LAYOUT
  5
1D
102
{ACAD_XDICTIONARY
360
6BAB
102
}
102
{ACAD_REACTORS
330
19
102
}
330
19
100
AcDbPlotSettings
  1

  2
HP 2200
  4

  6

 40
0.0
 41
0.0
 42
0.0
 43
0.0
 44
0.0
 45
0.0
 46
0.0
 47
0.0
 48
0.0
 49
0.0
140
0.0
141
0.0
142
1.0
143
1.0
 70
   688
 72
     0
 73
     0
 74
     5
  7
AAA.ctb
 75
    16
147
1.0
148
0.0
149
0.0
100
AcDbLayout
  1
配置1
 70
     0
 71
     1
 10
0.0
 20
0.0
 11
12.0
 21
9.0
 12
0.0
 22
0.0
 32
0.0
 14
1.000000000000000E+20
 24
1.000000000000000E+20
 34
1.000000000000000E+20
 15
-1.000000000000000E+20
 25
-1.000000000000000E+20
 35
-1.000000000000000E+20
146
0.0
 13
0.0
 23
0.0
 33
0.0
 16
1.0
 26
0.0
 36
0.0
 17
0.0
 27
1.0
 37
0.0
 76
     0
330
1A
  0
MATERIAL
  5
6B5D
102
{ACAD_XDICTIONARY
360
6BB5
102
}
102
{ACAD_REACTORS
330
3D96
102
}
330
3D96
100
AcDbMaterial
  1
ByBlock
  0
MATERIAL
  5
6B5C
102
{ACAD_XDICTIONARY
360
6BB3
102
}
102
{ACAD_REACTORS
330
3D96
102
}
330
3D96
100
AcDbMaterial
  1
ByLayer
  0
MATERIAL
  5
6B5E
102
{ACAD_XDICTIONARY
360
6BB7
102
}
102
{ACAD_REACTORS
330
3D96
102
}
330
3D96
100
AcDbMaterial
  1
Global
  0
MLINESTYLE
  5
17
102
{ACAD_REACTORS
330
16
102
}
330
16
100
AcDbMlineStyle
  2
STANDARD
 70
     0
  3

 62
   256
 51
90.0
 52
90.0
 71
     2
 49
0.5
 62
   256
  6
BYLAYER
 49
-0.5
 62
   256
  6
BYLAYER
  0
PLOTSETTINGS
  5
4150
102
{ACAD_XDICTIONARY
360
6BAF
102
}
102
{ACAD_REACTORS
330
18
102
}
330
18
100
AcDbPlotSettings
  1
LANSRO
  2
\\1260\HP2200
  4
A4
  6

 40
6.043083190917968
 41
6.762742042541503
 42
7.736419677734375
 43
5.027069091796875
 44
209.9733276367187
 45
296.9683227539062
 46
5.15
 47
0.0
 48
0.0
 49
0.0
140
0.0
141
0.0
142
1.0
143
0.8829829263240881
 70
  1716
 72
     1
 73
     1
 74
     0
  7
AAA.ctb
 75
     0
147
1.132524729739748
148
-132.297014905803
149
-71.78507365635891
  0
ACDBPLACEHOLDER
  5
F
102
{ACAD_REACTORS
330
E
102
}
330
E
  0
TABLESTYLE
  5
623E
102
{ACAD_XDICTIONARY
360
6BB1
102
}
102
{ACAD_REACTORS
330
623D
102
}
330
623D
100
AcDbTableStyle
  3
Standard
 70
     0
 71
     0
 40
0.06
 41
0.06
280
     0
281
     0
  7
STANDARD
140
0.18
170
     2
 62
     0
 63
     7
283
     0
274
    -2
284
     1
 64
     0
275
    -2
285
     1
 65
     0
276
    -2
286
     1
 66
     0
277
    -2
287
     1
 67
     0
278
    -2
288
     1
 68
     0
279
    -2
289
     1
 69
     0
  7
STANDARD
140
0.25
170
     5
 62
     0
 63
     7
283
     0
274
    -2
284
     1
 64
     0
275
    -2
285
     1
 65
     0
276
    -2
286
     1
 66
     0
277
    -2
287
     1
 67
     0
278
    -2
288
     1
 68
     0
279
    -2
289
     1
 69
     0
  7
STANDARD
140
0.18
170
     5
 62
     0
 63
     7
283
     0
274
    -2
284
     1
 64
     0
275
    -2
285
     1
 65
     0
276
    -2
286
     1
 66
     0
277
    -2
287
     1
 67
     0
278
    -2
288
     1
 68
     0
279
    -2
289
     1
 69
     0
1001
ACAD
1000
AcRTDxfName
1000
TABLESTYLE
1000
AcRTDxfName
1000
TABLESTYLE
1000
AcRTDxfName
1000
TABLESTYLE
  0
VISUALSTYLE
  5
6B65
102
{ACAD_REACTORS
330
6B5F
102
}
330
6B5F
100
AcDbVisualStyle
  2
2dWireframe
 70
     4
 71
     0
 72
     2
 73
     0
 90
        0
 40
-0.6
 41
-30.0
 62
     5
 63
     7
 74
     1
 91
        4
 64
     7
 65
   257
 75
     1
175
     1
 42
1.0
 92
        0
 66
   257
 43
1.0
 76
     1
 77
     6
 78
     2
 67
     7
 79
     5
170
     0
171
     0
290
     0
174
     0
 93
        1
 44
0.0
173
     0
291
     0
 45
0.0
1001
ACAD
1000
AcDbSavedByObjectVersion
1070
     0
  0
VISUALSTYLE
  5
6B67
102
{ACAD_REACTORS
330
6B5F
102
}
330
6B5F
100
AcDbVisualStyle
  2
3D Hidden
 70
     6
 71
     1
 72
     2
 73
     2
 90
        0
 40
-0.6
 41
-30.0
 62
     5
 63
     7
 74
     2
 91
        2
 64
     7
 65
   257
 75
     2
175
     1
 42
40.0
 92
        0
 66
   257
 43
1.0
 76
     1
 77
     6
 78
     2
 67
     7
 79
     3
170
     0
171
     0
290
     0
174
     0
 93
        1
 44
0.0
173
     0
291
     0
 45
0.0
1001
ACAD
1000
AcDbSavedByObjectVersion
1070
     0
  0
VISUALSTYLE
  5
6B66
102
{ACAD_REACTORS
330
6B5F
102
}
330
6B5F
100
AcDbVisualStyle
  2
3dWireframe
 70
     5
 71
     0
 72
     2
 73
     0
 90
        0
 40
-0.6
 41
-30.0
 62
     5
 63
     7
 74
     1
 91
        4
 64
     7
 65
   257
 75
     1
175
     1
 42
1.0
 92
        0
 66
   257
 43
1.0
 76
     1
 77
     6
 78
     2
 67
     7
 79
     5
170
     0
171
     0
290
     0
174
     0
 93
        1
 44
0.0
173
     0
291
     0
 45
0.0
1001
ACAD
1000
AcDbSavedByObjectVersion
1070
     0
  0
VISUALSTYLE
  5
6B64
102
{ACAD_REACTORS
330
6B5F
102
}
330
6B5F
100
AcDbVisualStyle
  2
Basic
 70
     7
 71
     1
 72
     0
 73
     1
 90
        0
 40
-0.6
 41
-30.0
 62
     5
 63
     7
 74
     0
 91
        4
 64
     7
 65
   257
 75
     1
175
     1
 42
1.0
 92
        8
 66
     7
 43
1.0
 76
     1
 77
     6
 78
     2
 67
     7
 79
     5
170
     0
171
     0
290
     0
174
     0
 93
        1
 44
0.0
173
     0
291
     1
 45
0.0
1001
ACAD
1000
AcDbSavedByObjectVersion
1070
     0
  0
VISUALSTYLE
  5
6B6B
102
{ACAD_REACTORS
330
6B5F
102
}
330
6B5F
100
AcDbVisualStyle
  2
Brighten
 70
    12
 71
     2
 72
     2
 73
     0
 90
        0
 40
-0.6
 41
-30.0
 62
     5
 63
     7
 74
     1
 91
        4
 64
     7
 65
   257
 75
     1
175
     1
 42
1.0
 92
        8
 66
     7
 43
1.0
 76
     1
 77
     6
 78
     2
 67
     7
 79
     5
170
     0
171
     0
290
     0
174
     0
 93
        1
 44
50.0
173
     0
291
     1
 45
0.0
1001
ACAD
1000
AcDbSavedByObjectVersion
1070
     0
  0
VISUALSTYLE
  5
6B6F
102
{ACAD_REACTORS
330
6B5F
102
}
330
6B5F
100
AcDbVisualStyle
  2
ColorChange
 70
    16
 71
     2
 72
     2
 73
     3
 90
        0
 40
-0.6
 41
-30.0
 62
     5
 63
     8
 74
     1
 91
        4
 64
     7
 65
   257
 75
     1
175
     1
 42
1.0
 92
        8
 66
     8
 43
1.0
 76
     1
 77
     6
 78
     2
 67
     7
 79
     5
170
     0
171
     0
290
     0
174
     0
 93
        1
 44
0.0
173
     0
291
     1
 45
0.0
1001
ACAD
1000
AcDbSavedByObjectVersion
1070
     0
  0
VISUALSTYLE
  5
6B68
102
{ACAD_REACTORS
330
6B5F
102
}
330
6B5F
100
AcDbVisualStyle
  2
Conceptual
 70
     9
 71
     3
 72
     2
 73
     0
 90
        0
 40
-0.6
 41
-30.0
 62
     5
 63
     7
 74
     2
 91
        2
 64
     7
 65
   257
 75
     1
175
     1
 42
40.0
 92
        8
 66
     7
 43
1.0
 76
     1
 77
     6
 78
     2
 67
     7
 79
     3
170
     0
171
     0
290
     0
174
     0
 93
        1
 44
0.0
173
     0
291
     0
 45
0.0
1001
ACAD
1000
AcDbSavedByObjectVersion
1070
     0
  0
VISUALSTYLE
  5
6B6A
102
{ACAD_REACTORS
330
6B5F
102
}
330
6B5F
100
AcDbVisualStyle
  2
Dim
 70
    11
 71
     2
 72
     2
 73
     0
 90
        0
 40
-0.6
 41
-30.0
 62
     5
 63
     7
 74
     1
 91
        4
 64
     7
 65
   257
 75
     1
175
     1
 42
1.0
 92
        8
 66
     7
 43
1.0
 76
     1
 77
     6
 78
     2
 67
     7
 79
     5
170
     0
171
     0
290
     0
174
     0
 93
        1
 44
-50.0
173
     0
291
     1
 45
0.0
1001
ACAD
1000
AcDbSavedByObjectVersion
1070
     0
  0
VISUALSTYLE
  5
6B6E
102
{ACAD_REACTORS
330
6B5F
102
}
330
6B5F
100
AcDbVisualStyle
  2
Facepattern
 70
    15
 71
     2
 72
     2
 73
     0
 90
        0
 40
-0.6
 41
-30.0
 62
     5
 63
     7
 74
     1
 91
        4
 64
     7
 65
   257
 75
     1
175
     1
 42
1.0
 92
        8
 66
     7
 43
1.0
 76
     1
 77
     6
 78
     2
 67
     7
 79
     5
170
     0
171
     0
290
     0
174
     0
 93
        1
 44
0.0
173
     0
291
     1
 45
0.0
1001
ACAD
1000
AcDbSavedByObjectVersion
1070
     0
  0
VISUALSTYLE
  5
6B60
102
{ACAD_REACTORS
330
6B5F
102
}
330
6B5F
100
AcDbVisualStyle
  2
Flat
 70
     0
 71
     2
 72
     1
 73
     1
 90
        2
 40
-0.6
 41
30.0
 62
     5
 63
     7
 74
     0
 91
        4
 64
     7
 65
   257
 75
     1
175
     1
 42
1.0
 92
        8
 66
     7
 43
1.0
 76
     1
 77
     6
 78
     2
 67
     7
 79
     5
170
     0
171
     0
290
     0
174
     0
 93
       13
 44
0.0
173
     0
291
     1
 45
0.0
1001
ACAD
1000
AcDbSavedByObjectVersion
1070
     0
  0
VISUALSTYLE
  5
6B61
102
{ACAD_REACTORS
330
6B5F
102
}
330
6B5F
100
AcDbVisualStyle
  2
FlatWithEdges
 70
     1
 71
     2
 72
     1
 73
     1
 90
        2
 40
-0.6
 41
30.0
 62
     5
 63
     7
 74
     1
 91
        4
 64
     7
 65
   257
 75
     1
175
     1
 42
1.0
 92
        0
 66
   257
 43
1.0
 76
     1
 77
     6
 78
     2
 67
     7
 79
     5
170
     0
171
     0
290
     0
174
     0
 93
       13
 44
0.0
173
     0
291
     1
 45
0.0
1001
ACAD
1000
AcDbSavedByObjectVersion
1070
     0
  0
VISUALSTYLE
  5
6B62
102
{ACAD_REACTORS
330
6B5F
102
}
330
6B5F
100
AcDbVisualStyle
  2
Gouraud
 70
     2
 71
     2
 72
     2
 73
     1
 90
        2
 40
-0.6
 41
30.0
 62
     5
 63
     7
 74
     0
 91
        4
 64
     7
 65
   257
 75
     1
175
     1
 42
1.0
 92
        0
 66
     7
 43
1.0
 76
     1
 77
     6
 78
     2
 67
     7
 79
     5
170
     0
171
     0
290
     0
174
     0
 93
       13
 44
0.0
173
     0
291
     1
 45
0.0
1001
ACAD
1000
AcDbSavedByObjectVersion
1070
     0
  0
VISUALSTYLE
  5
6B63
102
{ACAD_REACTORS
330
6B5F
102
}
330
6B5F
100
AcDbVisualStyle
  2
GouraudWithEdges
 70
     3
 71
     2
 72
     2
 73
     1
 90
        2
 40
-0.6
 41
30.0
 62
     5
 63
     7
 74
     1
 91
        4
 64
     7
 65
   257
 75
     1
175
     1
 42
1.0
 92
        0
 66
   257
 43
1.0
 76
     1
 77
     6
 78
     2
 67
     7
 79
     5
170
     0
171
     0
290
     0
174
     0
 93
       13
 44
0.0
173
     0
291
     1
 45
0.0
1001
ACAD
1000
AcDbSavedByObjectVersion
1070
     0
  0
VISUALSTYLE
  5
6B6D
102
{ACAD_REACTORS
330
6B5F
102
}
330
6B5F
100
AcDbVisualStyle
  2
Linepattern
 70
    14
 71
     2
 72
     2
 73
     0
 90
        0
 40
-0.6
 41
-30.0
 62
     5
 63
     7
 74
     1
 91
        4
 64
     7
 65
   257
 75
     7
175
     7
 42
1.0
 92
        8
 66
     7
 43
1.0
 76
     1
 77
     6
 78
     2
 67
     7
 79
     5
170
     0
171
     0
290
     0
174
     0
 93
        1
 44
0.0
173
     0
291
     1
 45
0.0
1001
ACAD
1000
AcDbSavedByObjectVersion
1070
     0
  0
VISUALSTYLE
  5
6B69
102
{ACAD_REACTORS
330
6B5F
102
}
330
6B5F
100
AcDbVisualStyle
  2
Realistic
 70
     8
 71
     2
 72
     2
 73
     0
 90
        0
 40
-0.6
 41
-30.0
 62
     5
 63
     7
 74
     1
 91
        0
 64
     7
 65
   257
 75
     1
175
     1
 42
1.0
 92
        8
 66
     8
 43
1.0
 76
     1
 77
     6
 78
     2
 67
     7
 79
     5
170
     0
171
     0
290
     0
174
     0
 93
       13
 44
0.0
173
     0
291
     0
 45
0.0
1001
ACAD
1000
AcDbSavedByObjectVersion
1070
     0
  0
VISUALSTYLE
  5
6B6C
102
{ACAD_REACTORS
330
6B5F
102
}
330
6B5F
100
AcDbVisualStyle
  2
Thicken
 70
    13
 71
     2
 72
     2
 73
     0
 90
        0
 40
-0.6
 41
-30.0
 62
     5
 63
     7
 74
     1
 91
        4
 64
     7
 65
   257
 75
     1
175
     1
 42
1.0
 92
       12
 66
     7
 43
1.0
 76
     1
 77
     6
 78
     2
 67
     7
 79
     5
170
     0
171
     0
290
     0
174
     0
 93
        1
 44
0.0
173
     0
291
     1
 45
0.0
1001
ACAD
1000
AcDbSavedByObjectVersion
1070
     0
  0
DICTIONARYVAR
  5
6244
102
{ACAD_REACTORS
330
3E63
102
}
330
3E63
100
DictionaryVariables
280
     0
  1
STANDARD
  0
DICTIONARYVAR
  5
3E64
102
{ACAD_REACTORS
330
3E63
102
}
330
3E63
100
DictionaryVariables
280
     0
  1
1
  0
DICTIONARYVAR
  5
6BA9
102
{ACAD_REACTORS
330
3E63
102
}
330
3E63
100
DictionaryVariables
280
     0
  1
0
  0
DICTIONARYVAR
  5
3E65
102
{ACAD_REACTORS
330
3E63
102
}
330
3E63
100
DictionaryVariables
280
     0
  1

  0
DICTIONARYVAR
  5
6BA8
102
{ACAD_REACTORS
330
3E63
102
}
330
3E63
100
DictionaryVariables
280
     0
  1
127
  0
DICTIONARY
  5
6BAD
330
21
100
AcDbDictionary
280
     1
281
     1
  3
ACAD_XREC_ROUNDTRIP
360
6BAE
  0
DICTIONARY
  5
6BAB
330
1D
100
AcDbDictionary
280
     1
281
     1
  3
ACAD_XREC_ROUNDTRIP
360
6BAC
  0
DICTIONARY
  5
6BB5
330
6B5D
100
AcDbDictionary
280
     1
281
     1
  3
ACAD_XREC_ROUNDTRIP
360
6BB6
  0
DICTIONARY
  5
6BB3
330
6B5C
100
AcDbDictionary
280
     1
281
     1
  3
ACAD_XREC_ROUNDTRIP
360
6BB4
  0
DICTIONARY
  5
6BB7
330
6B5E
100
AcDbDictionary
280
     1
281
     1
  3
ACAD_XREC_ROUNDTRIP
360
6BB8
  0
DICTIONARY
  5
6BAF
330
4150
100
AcDbDictionary
280
     1
281
     1
  3
ACAD_XREC_ROUNDTRIP
360
6BB0
  0
DICTIONARY
  5
6BB1
330
623E
100
AcDbDictionary
280
     1
281
     1
  3
ACAD_XREC_ROUNDTRIP
360
6BB2
  0
XRECORD
  5
6BAE
102
{ACAD_REACTORS
330
6BAD
102
}
330
6BAD
100
AcDbXrecord
280
     1
102
SHADEPLOT
 70
     0
102
SHADEPLOTRESLEVEL
 70
     2
102
SHADEPLOTCUSTOMDPI
 70
   300
  0
XRECORD
  5
6BAC
102
{ACAD_REACTORS
330
6BAB
102
}
330
6BAB
100
AcDbXrecord
280
     1
102
SHADEPLOT
 70
     0
102
SHADEPLOTRESLEVEL
 70
     2
102
SHADEPLOTCUSTOMDPI
 70
   300
  0
XRECORD
  5
6BB6
102
{ACAD_REACTORS
330
6BB5
102
}
330
6BB5
100
AcDbXrecord
280
     1
102
MATERIAL
148
0.0
149
0.0
149
0.0
 93
        0
 94
       63
282
     0
 72
     1
 77
     1
171
     1
175
     1
179
     1
273
     0
  0
XRECORD
  5
6BB4
102
{ACAD_REACTORS
330
6BB3
102
}
330
6BB3
100
AcDbXrecord
280
     1
102
MATERIAL
148
0.0
149
0.0
149
0.0
 93
        0
 94
       63
282
     0
 72
     1
 77
     1
171
     1
175
     1
179
     1
273
     0
  0
XRECORD
  5
6BB8
102
{ACAD_REACTORS
330
6BB7
102
}
330
6BB7
100
AcDbXrecord
280
     1
102
MATERIAL
148
0.0
149
0.0
149
0.0
 93
        0
 94
       63
282
     0
 72
     1
 77
     1
171
     1
175
     1
179
     1
273
     0
  0
XRECORD
  5
6BB0
102
{ACAD_REACTORS
330
6BAF
102
}
330
6BAF
100
AcDbXrecord
280
     1
102
SHADEPLOT
 70
     0
102
SHADEPLOTRESLEVEL
 70
     2
102
SHADEPLOTCUSTOMDPI
 70
   300
  0
XRECORD
  5
6BB2
102
{ACAD_REACTORS
330
6BB1
102
}
330
6BB1
100
AcDbXrecord
280
     1
102
ACAD_ROUNDTRIP_PRE2007_TABLESTYLE
 90
        4
 91
        0
  1

 92
        4
 93
        0
  2

 94
        4
 95
        0
  3

  0
ENDSEC
  0
EOF
