  0
SECTION
  2
HEADER
  9
$ACADVER
  1
AC1015
  9
$ACADMAINTVER
 70
    20
  9
$DWGCODEPAGE
  3
ANSI_950
  9
$INSBASE
 10
0.0
 20
0.0
 30
0.0
  9
$EXTMIN
 10
-64.13505077617651
 20
-76.53813082314775
 30
-0.0015258207003583
  9
$EXTMAX
 10
334.9047737378433
 20
203.5867950314057
 30
0.0000000349246037
  9
$LIMMIN
 10
-10.0
 20
-15.0
  9
$LIMMAX
 10
120.0
 20
90.0
  9
$ORTHOMODE
 70
     1
  9
$REGENMODE
 70
     0
  9
$FILLMODE
 70
     1
  9
$QTEXTMODE
 70
     0
  9
$MIRRTEXT
 70
     0
  9
$LTSCALE
 40
3.0
  9
$ATTMODE
 70
     1
  9
$TEXTSIZE
 40
3.0
  9
$TRACEWID
 40
1.0
  9
$TEXTSTYLE
  7
STANDARD
  9
$CLAYER
  8
0
  9
$CELTYPE
  6
ByLayer
  9
$CECOLOR
 62
   256
  9
$CELTSCALE
 40
1.0
  9
$DISPSILH
 70
     0
  9
$DIMSCALE
 40
1.0
  9
$DIMASZ
 40
3.0
  9
$DIMEXO
 40
1.0
  9
$DIMDLI
 40
6.0
  9
$DIMRND
 40
0.0
  9
$DIMDLE
 40
0.0
  9
$DIMEXE
 40
1.0
  9
$DIMTP
 40
0.0
  9
$DIMTM
 40
0.0
  9
$DIMTXT
 40
3.0
  9
$DIMCEN
 40
1.5
  9
$DIMTSZ
 40
0.0
  9
$DIMTOL
 70
     0
  9
$DIMLIM
 70
     0
  9
$DIMTIH
 70
     1
  9
$DIMTOH
 70
     1
  9
$DIMSE1
 70
     0
  9
$DIMSE2
 70
     0
  9
$DIMTAD
 70
     0
  9
$DIMZIN
 70
     0
  9
$DIMBLK
  1

  9
$DIMASO
 70
     1
  9
$DIMSHO
 70
     0
  9
$DIMPOST
  1

  9
$DIMAPOST
  1

  9
$DIMALT
 70
     0
  9
$DIMALTD
 70
     2
  9
$DIMALTF
 40
25.4
  9
$DIMLFAC
 40
1.0
  9
$DIMTOFL
 70
     1
  9
$DIMTVP
 40
0.0
  9
$DIMTIX
 70
     0
  9
$DIMSOXD
 70
     0
  9
$DIMSAH
 70
     0
  9
$DIMBLK1
  1

  9
$DIMBLK2
  1

  9
$DIMSTYLE
  2
Standard
  9
$DIMCLRD
 70
     0
  9
$DIMCLRE
 70
     0
  9
$DIMCLRT
 70
     0
  9
$DIMTFAC
 40
1.0
  9
$DIMGAP
 40
0.09
  9
$DIMJUST
 70
     0
  9
$DIMSD1
 70
     0
  9
$DIMSD2
 70
     0
  9
$DIMTOLJ
 70
     1
  9
$DIMTZIN
 70
     0
  9
$DIMALTZ
 70
     0
  9
$DIMALTTZ
 70
     0
  9
$DIMUPT
 70
     0
  9
$DIMDEC
 70
     8
  9
$DIMTDEC
 70
     8
  9
$DIMALTU
 70
     2
  9
$DIMALTTD
 70
     2
  9
$DIMTXSTY
  7
STANDARD
  9
$DIMAUNIT
 70
     0
  9
$DIMADEC
 70
     0
  9
$DIMALTRND
 40
0.0
  9
$DIMAZIN
 70
     0
  9
$DIMDSEP
 70
    46
  9
$DIMATFIT
 70
     3
  9
$DIMFRAC
 70
     0
  9
$DIMLDRBLK
  1

  9
$DIMLUNIT
 70
     2
  9
$DIMLWD
 70
    -2
  9
$DIMLWE
 70
    -2
  9
$DIMTMOVE
 70
     2
  9
$LUNITS
 70
     2
  9
$LUPREC
 70
     4
  9
$SKETCHINC
 40
0.5
  9
$FILLETRAD
 40
3.0
  9
$AUNITS
 70
     0
  9
$AUPREC
 70
     0
  9
$MENU
  1
ACAD
  9
$ELEVATION
 40
0.0
  9
$PELEVATION
 40
0.0
  9
$THICKNESS
 40
0.0
  9
$LIMCHECK
 70
     0
  9
$CHAMFERA
 40
0.0
  9
$CHAMFERB
 40
0.0
  9
$CHAMFERC
 40
0.0
  9
$CHAMFERD
 40
0.0
  9
$SKPOLY
 70
     0
  9
$TDCREATE
 40
2444975.333333334
  9
$TDUCREATE
 40
2444975.000000000
  9
$TDUPDATE
 40
2454358.476549676
  9
$TDUUPDATE
 40
2454358.143216343
  9
$TDINDWG
 40
0.1642110532
  9
$TDUSRTIMER
 40
0.0000000000
  9
$USRTIMER
 70
     0
  9
$ANGBASE
 50
0.0
  9
$ANGDIR
 70
     0
  9
$PDMODE
 70
   171
  9
$PDSIZE
 40
0.001
  9
$PLINEWID
 40
0.0
  9
$SPLFRAME
 70
     0
  9
$SPLINETYPE
 70
     6
  9
$SPLINESEGS
 70
     8
  9
$HANDSEED
  5
6C3F
  9
$SURFTAB1
 70
     6
  9
$SURFTAB2
 70
     6
  9
$SURFTYPE
 70
     6
  9
$SURFU
 70
     6
  9
$SURFV
 70
     6
  9
$UCSBASE
  2

  9
$UCSNAME
  2

  9
$UCSORG
 10
0.0
 20
0.0
 30
0.0
  9
$UCSXDIR
 10
1.0
 20
0.0
 30
0.0
  9
$UCSYDIR
 10
0.0
 20
1.0
 30
0.0
  9
$UCSORTHOREF
  2

  9
$UCSORTHOVIEW
 70
     0
  9
$UCSORGTOP
 10
0.0
 20
0.0
 30
0.0
  9
$UCSORGBOTTOM
 10
0.0
 20
0.0
 30
0.0
  9
$UCSORGLEFT
 10
0.0
 20
0.0
 30
0.0
  9
$UCSORGRIGHT
 10
0.0
 20
0.0
 30
0.0
  9
$UCSORGFRONT
 10
0.0
 20
0.0
 30
0.0
  9
$UCSORGBACK
 10
0.0
 20
0.0
 30
0.0
  9
$PUCSBASE
  2

  9
$PUCSNAME
  2

  9
$PUCSORG
 10
0.0
 20
0.0
 30
0.0
  9
$PUCSXDIR
 10
1.0
 20
0.0
 30
0.0
  9
$PUCSYDIR
 10
0.0
 20
1.0
 30
0.0
  9
$PUCSORTHOREF
  2

  9
$PUCSORTHOVIEW
 70
     0
  9
$PUCSORGTOP
 10
0.0
 20
0.0
 30
0.0
  9
$PUCSORGBOTTOM
 10
0.0
 20
0.0
 30
0.0
  9
$PUCSORGLEFT
 10
0.0
 20
0.0
 30
0.0
  9
$PUCSORGRIGHT
 10
0.0
 20
0.0
 30
0.0
  9
$PUCSORGFRONT
 10
0.0
 20
0.0
 30
0.0
  9
$PUCSORGBACK
 10
0.0
 20
0.0
 30
0.0
  9
$USERI1
 70
     0
  9
$USERI2
 70
     0
  9
$USERI3
 70
     0
  9
$USERI4
 70
     0
  9
$USERI5
 70
     0
  9
$USERR1
 40
0.0
  9
$USERR2
 40
0.0
  9
$USERR3
 40
0.0
  9
$USERR4
 40
0.0
  9
$USERR5
 40
0.0
  9
$WORLDVIEW
 70
     1
  9
$SHADEDGE
 70
     3
  9
$SHADEDIF
 70
    70
  9
$TILEMODE
 70
     1
  9
$MAXACTVP
 70
    48
  9
$PINSBASE
 10
0.0
 20
0.0
 30
0.0
  9
$PLIMCHECK
 70
     0
  9
$PEXTMIN
 10
1.000000000000000E+20
 20
1.000000000000000E+20
 30
1.000000000000000E+20
  9
$PEXTMAX
 10
-1.000000000000000E+20
 20
-1.000000000000000E+20
 30
-1.000000000000000E+20
  9
$PLIMMIN
 10
0.0
 20
0.0
  9
$PLIMMAX
 10
12.0
 20
9.0
  9
$UNITMODE
 70
     0
  9
$VISRETAIN
 70
     1
  9
$PLINEGEN
 70
     0
  9
$PSLTSCALE
 70
     0
  9
$TREEDEPTH
 70
  3020
  9
$CMLSTYLE
  2
Standard
  9
$CMLJUST
 70
     0
  9
$CMLSCALE
 40
1.0
  9
$PROXYGRAPHICS
 70
     1
  9
$MEASUREMENT
 70
     0
  9
$CELWEIGHT
370
    -1
  9
$ENDCAPS
280
     0
  9
$JOINSTYLE
280
     0
  9
$LWDISPLAY
290
     0
  9
$INSUNITS
 70
     0
  9
$HYPERLINKBASE
  1

  9
$STYLESHEET
  1

  9
$XEDIT
290
     1
  9
$CEPSNTYPE
380
     0
  9
$PSTYLEMODE
290
     1
  9
$FINGERPRINTGUID
  2
{77095E5F-9CE7-11D7-970D-0040F4541FA8}
  9
$VERSIONGUID
  2
{8C056896-9510-481B-85BE-630E753EC9B9}
  9
$EXTNAMES
290
     1
  9
$PSVPSCALE
 40
0.0
  9
$OLESTARTUP
290
     0
  0
ENDSEC
  0
SECTION
  2
CLASSES
  0
CLASS
  1
ACDBDICTIONARYWDFLT
  2
AcDbDictionaryWithDefault
  3
ObjectDBX Classes
 90
        0
280
     0
281
     0
  0
CLASS
  1
ACDBPLACEHOLDER
  2
AcDbPlaceHolder
  3
ObjectDBX Classes
 90
        0
280
     0
281
     0
  0
CLASS
  1
LAYOUT
  2
AcDbLayout
  3
ObjectDBX Classes
 90
        0
280
     0
281
     0
  0
CLASS
  1
DICTIONARYVAR
  2
AcDbDictionaryVar
  3
ObjectDBX Classes
 90
        0
280
     0
281
     0
  0
CLASS
  1
PLOTSETTINGS
  2
AcDbPlotSettings
  3
ObjectDBX Classes
 90
        0
280
     0
281
     0
  0
CLASS
  1
TABLESTYLE
  2
AcDbTableStyle
  3
ObjectDBX Classes
 90
     4095
280
     0
281
     0
  0
CLASS
  1
MATERIAL
  2
AcDbMaterial
  3
ObjectDBX Classes
 90
     1024
280
     0
281
     0
  0
CLASS
  1
VISUALSTYLE
  2
AcDbVisualStyle
  3
ObjectDBX Classes
 90
     4095
280
     0
281
     0
  0
ENDSEC
  0
SECTION
  2
TABLES
  0
TABLE
  2
VPORT
  5
8
330
0
100
AcDbSymbolTable
 70
     1
  0
VPORT
  5
6BDE
330
8
100
AcDbSymbolTableRecord
100
AcDbViewportTableRecord
  2
*Active
 70
     0
 10
0.0
 20
0.0
 11
1.0
 21
1.0
 12
135.3848614808333
 22
63.52433210412896
 13
457.9999999999997
 23
1082.0
 14
10.0
 24
10.0
 15
10.0
 25
10.0
 16
0.0
 26
0.0
 36
1.0
 17
0.0
 27
0.0
 37
0.0
 40
283.2088699924018
 41
1.981617647058823
 42
1.0
 43
0.0
 44
0.0
 50
0.0
 51
0.0
 71
     0
 72
 20000
 73
     1
 74
     1
 75
     0
 76
     0
 77
     0
 78
     0
281
     0
 65
     1
110
0.0
120
0.0
130
0.0
111
1.0
121
0.0
131
0.0
112
0.0
122
1.0
132
0.0
 79
     0
146
0.0
  0
ENDTAB
  0
TABLE
  2
LTYPE
  5
5
330
0
100
AcDbSymbolTable
 70
     6
  0
LTYPE
  5
13
330
5
100
AcDbSymbolTableRecord
100
AcDbLinetypeTableRecord
  2
ByBlock
 70
     0
  3

 72
    65
 73
     0
 40
0.0
  0
LTYPE
  5
14
330
5
100
AcDbSymbolTableRecord
100
AcDbLinetypeTableRecord
  2
ByLayer
 70
     0
  3

 72
    65
 73
     0
 40
0.0
  0
LTYPE
  5
15
330
5
100
AcDbSymbolTableRecord
100
AcDbLinetypeTableRecord
  2
CONTINUOUS
 70
     0
  3
連續線 ________________________
 72
    65
 73
     2
 40
200000.0
 49
200000.0
 74
     0
 49
0.0
 74
     0
  0
LTYPE
  5
225
330
5
100
AcDbSymbolTableRecord
100
AcDbLinetypeTableRecord
  2
BYBLOCK
 70
     0
  3
Solid line
 72
    65
 73
     0
 40
0.0
  0
LTYPE
  5
226
330
5
100
AcDbSymbolTableRecord
100
AcDbLinetypeTableRecord
  2
BYLAYER
 70
     0
  3
Solid line
 72
    65
 73
     0
 40
0.0
  0
LTYPE
  5
413C
330
5
100
AcDbSymbolTableRecord
100
AcDbLinetypeTableRecord
  2
CENTER2
 70
     0
  3
Center (.5x) ___ _ ___ _ ___ _ ___ _ ___ _ ___
 72
    65
 73
     4
 40
28.575
 49
19.05
 74
     0
 49
-3.174999999999999
 74
     0
 49
3.174999999999999
 74
     0
 49
-3.174999999999999
 74
     0
  0
LTYPE
  5
413D
330
5
100
AcDbSymbolTableRecord
100
AcDbLinetypeTableRecord
  2
DASHED2
 70
     0
  3
Dashed (.5x) _ _ _ _ _ _ _ _ _ _ _ _ _ _ _ _ _
 72
    65
 73
     2
 40
9.524999999999998
 49
6.349999999999999
 74
     0
 49
-3.174999999999999
 74
     0
  0
ENDTAB
  0
TABLE
  2
LAYER
  5
2
102
{ACAD_XDICTIONARY
360
43C2
102
}
330
0
100
AcDbSymbolTable
 70
    10
  0
LAYER
  5
10
330
2
100
AcDbSymbolTableRecord
100
AcDbLayerTableRecord
  2
0
 70
     0
 62
     7
  6
CONTINUOUS
370
    -3
390
F
  0
LAYER
  5
413E
330
2
100
AcDbSymbolTableRecord
100
AcDbLayerTableRecord
  2
指線
 70
     0
 62
     3
  6
CONTINUOUS
370
    15
390
F
  0
LAYER
  5
413F
330
2
100
AcDbSymbolTableRecord
100
AcDbLayerTableRecord
  2
中心線
 70
     0
 62
     4
  6
CENTER2
370
    20
390
F
  0
LAYER
  5
4140
330
2
100
AcDbSymbolTableRecord
100
AcDbLayerTableRecord
  2
虛線
 70
     0
 62
     6
  6
DASHED2
290
     0
370
    -3
390
F
  0
LAYER
  5
43B4
330
2
100
AcDbSymbolTableRecord
100
AcDbLayerTableRecord
  2
建構線
 70
     0
 62
     1
  6
CONTINUOUS
370
    -3
390
F
  0
LAYER
  5
58A5
330
2
100
AcDbSymbolTableRecord
100
AcDbLayerTableRecord
  2
DEFPOINTS
 70
     0
 62
     7
  6
CONTINUOUS
290
     0
370
    -3
390
F
  0
LAYER
  5
64C0
330
2
100
AcDbSymbolTableRecord
100
AcDbLayerTableRecord
  2
AM3
 70
     0
 62
     6
  6
DASHED2
370
    20
390
F
  0
LAYER
  5
64C1
330
2
100
AcDbSymbolTableRecord
100
AcDbLayerTableRecord
  2
AM4
 70
     0
 62
     3
  6
CONTINUOUS
370
    15
390
F
  0
LAYER
  5
64C2
330
2
100
AcDbSymbolTableRecord
100
AcDbLayerTableRecord
  2
AM7
 70
     0
 62
     4
  6
CENTER2
370
    20
390
F
  0
LAYER
  5
64C3
330
2
100
AcDbSymbolTableRecord
100
AcDbLayerTableRecord
  2
CENTER
 70
     0
 62
     4
  6
CENTER2
370
    20
390
F
  0
ENDTAB
  0
TABLE
  2
STYLE
  5
3
330
0
100
AcDbSymbolTable
 70
     1
  0
STYLE
  5
11
330
3
100
AcDbSymbolTableRecord
100
AcDbTextStyleTableRecord
  2
STANDARD
 70
     0
 40
0.0
 41
1.0
 50
0.0
 71
     0
 42
3.0
  3

  4

  0
ENDTAB
  0
TABLE
  2
VIEW
  5
6
330
0
100
AcDbSymbolTable
 70
     0
  0
ENDTAB
  0
TABLE
  2
UCS
  5
7
330
0
100
AcDbSymbolTable
 70
     0
  0
ENDTAB
  0
TABLE
  2
APPID
  5
9
330
0
100
AcDbSymbolTable
 70
     5
  0
APPID
  5
12
330
9
100
AcDbSymbolTableRecord
100
AcDbRegAppTableRecord
  2
ACAD
 70
     0
  0
APPID
  5
230
330
9
100
AcDbSymbolTableRecord
100
AcDbRegAppTableRecord
  2
TCAD
 70
     0
  0
APPID
  5
4142
330
9
100
AcDbSymbolTableRecord
100
AcDbRegAppTableRecord
  2
CONTENTBLOCKICON
 70
     0
  0
APPID
  5
568F
330
9
100
AcDbSymbolTableRecord
100
AcDbRegAppTableRecord
  2
pntflag
 70
     0
  0
APPID
  5
6C01
330
9
100
AcDbSymbolTableRecord
100
AcDbRegAppTableRecord
  2
ACAD_EXEMPT_FROM_CAD_STANDARDS
 70
     0
  0
ENDTAB
  0
TABLE
  2
DIMSTYLE
  5
A
330
0
100
AcDbSymbolTable
 70
     4
100
AcDbDimStyleTable
 71
     1
340
3C9D
  0
DIMSTYLE
105
3C9D
330
A
100
AcDbSymbolTableRecord
100
AcDbDimStyleTableRecord
  2
Standard
 70
     0
271
     8
272
     8
340
11
  0
DIMSTYLE
105
64C4
330
A
100
AcDbSymbolTableRecord
100
AcDbDimStyleTableRecord
  2
ISO-25
 70
     0
 41
1.199999999999999
 42
0.7
 43
3.75
 44
0.3
 73
     0
 74
     0
 77
     1
 78
     8
140
2.0
141
2.5
143
0.03937007874016
147
0.5
171
     3
172
     1
176
     3
177
     3
178
     2
271
     8
272
     8
274
     3
283
     0
284
     8
340
11
  0
DIMSTYLE
105
64C5
330
A
100
AcDbSymbolTableRecord
100
AcDbDimStyleTableRecord
  2
複本 ISO-25
 70
     0
 41
1.8
 42
0.7
 43
3.75
 44
0.3
 73
     0
 74
     0
 77
     1
 78
     8
140
2.799999999999999
141
2.5
143
0.03937007874016
147
0.5
171
     3
172
     1
176
     3
177
     3
178
     2
271
     8
272
     8
274
     3
283
     0
284
     8
340
11
  0
ENDTAB
  0
TABLE
  2
BLOCK_RECORD
  5
1
330
0
100
AcDbSymbolTable
 70
     1
  0
BLOCK_RECORD
  5
1E
102
{ACAD_XDICTIONARY
360
3D1E
102
}
330
1
100
AcDbSymbolTableRecord
100
AcDbBlockTableRecord
  2
*Model_Space
340
21
  0
BLOCK_RECORD
  5
1A
102
{ACAD_XDICTIONARY
360
3D20
102
}
330
1
100
AcDbSymbolTableRecord
100
AcDbBlockTableRecord
  2
*Paper_Space
340
1D
  0
ENDTAB
  0
ENDSEC
  0
SECTION
  2
BLOCKS
  0
BLOCK
  5
254
330
1E
100
AcDbEntity
  8
0
100
AcDbBlockBegin
  2
*Model_Space
 70
     0
 10
0.0
 20
0.0
 30
0.0
  3
*Model_Space
  1

  0
ENDBLK
  5
255
330
1E
100
AcDbEntity
  8
0
100
AcDbBlockEnd
  0
BLOCK
  5
252
330
1A
100
AcDbEntity
 67
     1
  8
0
100
AcDbBlockBegin
  2
*Paper_Space
 70
     0
 10
0.0
 20
0.0
 30
0.0
  3
*Paper_Space
  1

  0
ENDBLK
  5
253
330
1A
100
AcDbEntity
 67
     1
  8
0
100
AcDbBlockEnd
  0
ENDSEC
  0
SECTION
  2
ENTITIES
  0
MTEXT
  5
413A
330
1E
100
AcDbEntity
  8
0
100
AcDbMText
 10
-42.56516489958324
 20
-38.13574305180487
 30
0.0
 40
7.800000159341863
 41
100.6095
 71
     1
 72
     5
  1
\A1;{\fTimes New Roman|b0|i0|c0|p18;HG\fTimes New Roman|b0|i0|c238|p18;L\fTimes New Roman|b0|i0|c0|p18;45CA\PC : 7910 kgf\PC\fProxy 1|b0|i0|c0|p2;\H0.7x;\S^ 0;\fTimes New Roman|b0|i0|c0|p18;\H1.429x;: 15900 kgf}
 73
     1
 44
1.0
1001
ACAD
1000
MTEXTBEGIN
1070
    73
1070
     1
1070
    44
1040
1.0
1070
    74
1070
     0
1000
MTEXTEND
  0
LINE
  5
54C7
330
1E
100
AcDbEntity
  8
0
 48
0.27
100
AcDbLine
 10
334.8922479917851
 20
-9.499359762707257
 30
0.0
 11
207.3922479917851
 21
-9.499359762707257
 31
0.0
  0
LINE
  5
54C8
330
1E
100
AcDbEntity
  8
0
 48
0.27
100
AcDbLine
 10
334.8922479917851
 20
-7.199363862711066
 30
0.0
 11
207.392247991785
 21
-7.199363862711066
 31
0.0
  0
LINE
  5
54C9
330
1E
100
AcDbEntity
  8
0
 48
0.27
100
AcDbLine
 10
334.8922479917851
 20
-2.299400058109284
 30
0.0
 11
207.3922479917851
 21
-2.299400058109284
 31
0.0
  0
LINE
  5
54CA
330
1E
100
AcDbEntity
  8
0
 48
0.27
100
AcDbLine
 10
334.8922479917851
 20
6.00062471419779
 30
0.0
 11
285.8608793416696
 21
6.000624714198004
 31
0.0
  0
LINE
  5
54CB
330
1E
100
AcDbEntity
  8
0
 48
0.27
100
AcDbLine
 10
334.8922479917851
 20
10.00062823729269
 30
0.0
 11
285.8608793416696
 21
10.00062823729269
 31
0.0
  0
LINE
  5
54CC
330
1E
100
AcDbEntity
  8
0
 48
0.27
100
AcDbLine
 10
334.8922479917851
 20
11.10027001107738
 30
0.0
 11
285.8608793416696
 21
11.10027001107738
 31
0.0
  0
LINE
  5
54CD
330
1E
100
AcDbEntity
  8
0
 48
0.27
100
AcDbLine
 10
334.8922479917851
 20
14.46848552567366
 30
0.0
 11
286.5608793416697
 21
14.46848552567366
 31
0.0
  0
LINE
  5
54CE
330
1E
100
AcDbEntity
  8
0
 48
0.27
100
AcDbLine
 10
334.8922479917851
 20
18.30063413770477
 30
0.0
 11
286.5083121151088
 21
18.30063413770477
 31
0.0
  0
LINE
  5
54CF
330
1E
100
AcDbEntity
  8
0
 48
0.27
100
AcDbLine
 10
334.8922479917851
 20
20.10060745316971
 30
0.0
 11
285.8608793416696
 21
20.10060745316991
 31
0.0
  0
LINE
  5
54D0
330
1E
100
AcDbEntity
  8
0
 48
0.27
100
AcDbLine
 10
334.8922479917851
 20
23.93388124498319
 30
0.0
 11
285.8608793416696
 21
23.93388124498319
 31
0.0
  0
LINE
  5
54D1
330
1E
100
AcDbEntity
  8
0
 48
0.27
100
AcDbLine
 10
334.8922479917851
 20
27.30086944361782
 30
0.0
 11
285.8608793416696
 21
27.30086944361803
 31
0.0
  0
LINE
  5
54D2
330
1E
100
AcDbEntity
  8
0
 48
0.27
100
AcDbLine
 10
334.8922479917851
 20
28.50064023729277
 30
0.0
 11
285.8608793416696
 21
28.50064023729277
 31
0.0
  0
LINE
  5
54D6
330
1E
100
AcDbEntity
  8
0
 48
0.27
100
AcDbLine
 10
207.3922479917851
 20
-9.499359762707143
 30
0.0
 11
79.8922479917851
 21
-9.499359762707257
 31
0.0
  0
LINE
  5
54D7
330
1E
100
AcDbEntity
  8
0
 48
0.27
100
AcDbLine
 10
92.39224799178533
 20
28.10064023729268
 30
0.0
 11
92.39224799178533
 21
11.50064023729266
 31
0.0
  0
LINE
  5
54D8
330
1E
100
AcDbEntity
  8
0
 48
0.27
100
AcDbLine
 10
112.3922479917853
 20
28.10064023729268
 30
0.0
 11
112.3922479917852
 21
11.50064023729266
 31
0.0
  0
LINE
  5
54D9
330
1E
100
AcDbEntity
  8
0
 48
0.27
100
AcDbLine
 10
79.89224799178521
 20
-9.499359762707257
 30
0.0
 11
79.8922479917851
 21
28.50064023729266
 31
0.0
  0
LINE
  5
54DA
330
1E
100
AcDbEntity
  8
中心線
 48
0.27
100
AcDbLine
 10
102.3922479917851
 20
-11.4587809229445
 30
0.0
 11
102.3922479917851
 21
30.51611440015808
 31
0.0
  0
LINE
  5
54DB
330
1E
100
AcDbEntity
  8
0
 48
0.27
100
AcDbLine
 10
92.39224799178533
 20
11.50064023729266
 30
0.0
 11
112.3922479917852
 21
11.50064023729266
 31
0.0
  0
LINE
  5
54DC
330
1E
100
AcDbEntity
  8
0
 48
0.27
100
AcDbLine
 10
95.39224799178532
 20
11.2006402372927
 30
0.0
 11
95.39224799178521
 21
-8.799359762707268
 31
0.0
  0
LINE
  5
54DD
330
1E
100
AcDbEntity
  8
0
 48
0.27
100
AcDbLine
 10
109.3922479917853
 20
11.2006402372927
 30
0.0
 11
109.3922479917853
 21
-8.799359762707268
 31
0.0
  0
LINE
  5
54DE
330
1E
100
AcDbEntity
  8
0
 48
0.27
100
AcDbLine
 10
95.39224799178521
 20
-8.799359762707268
 30
0.0
 11
109.3922479917853
 21
-8.799359762707268
 31
0.0
  0
LINE
  5
54DF
330
1E
100
AcDbEntity
  8
0
 48
0.27
100
AcDbLine
 10
95.39224799178521
 20
-8.799359762707268
 30
0.0
 11
94.69224799178528
 21
-9.499359762707314
 31
0.0
  0
LINE
  5
54E0
330
1E
100
AcDbEntity
  8
0
 48
0.27
100
AcDbLine
 10
109.3922479917853
 20
-8.799359762707268
 30
0.0
 11
110.0922479917855
 21
-9.499359762707314
 31
0.0
  0
LINE
  5
54E1
330
1E
100
AcDbEntity
  8
0
 48
0.27
100
AcDbLine
 10
95.39224799178532
 20
11.2006402372927
 30
0.0
 11
109.3922479917853
 21
11.2006402372927
 31
0.0
  0
LINE
  5
54E2
330
1E
100
AcDbEntity
  8
0
 48
0.27
100
AcDbLine
 10
95.3922479917851
 20
11.2006402372927
 30
0.0
 11
95.09224799178515
 21
11.50064023729266
 31
0.0
  0
LINE
  5
54E3
330
1E
100
AcDbEntity
  8
0
 48
0.27
100
AcDbLine
 10
109.3922479917853
 20
11.2006402372927
 30
0.0
 11
109.6922479917852
 21
11.50064023729266
 31
0.0
  0
LINE
  5
54E4
330
1E
100
AcDbEntity
  8
0
 48
0.27
100
AcDbLine
 10
92.39224799178533
 20
28.10064023729268
 30
0.0
 11
112.3922479917853
 21
28.10064023729268
 31
0.0
  0
LINE
  5
54E5
330
1E
100
AcDbEntity
  8
0
 48
0.27
100
AcDbLine
 10
92.3922479917851
 20
28.10064023729268
 30
0.0
 11
92.1613078841093
 21
28.50064023729266
 31
0.0
  0
LINE
  5
54E6
330
1E
100
AcDbEntity
  8
0
 48
0.27
100
AcDbLine
 10
112.3922479917853
 20
28.10064023729268
 30
0.0
 11
112.6231880994612
 21
28.50064023729266
 31
0.0
  0
LINE
  5
54E7
330
1E
100
AcDbEntity
  8
0
 48
0.27
100
AcDbLine
 10
207.3922479917851
 20
-2.299400058109171
 30
0.0
 11
132.3435267746035
 21
-2.299400058109167
 31
0.0
  0
LINE
  5
54F0
330
1E
100
AcDbEntity
  8
0
 48
0.27
100
AcDbLine
 10
207.392247991785
 20
-7.19934932772432
 30
0.0
 11
133.5143435402874
 21
-7.199353608172227
 31
0.0
  0
LINE
  5
54F1
330
1E
100
AcDbEntity
  8
建構線
 48
0.27
100
AcDbLine
 10
131.1992870571162
 20
16.92952512204437
 30
0.0
 11
133.6830057699699
 21
7.382289286147113
 31
0.0
  0
LINE
  5
54F2
330
1E
100
AcDbEntity
  8
建構線
 48
0.27
100
AcDbLine
 10
131.5813971088373
 20
0.8901681739429854
 30
0.0
 11
134.0639172738734
 21
-9.499359762707207
 31
0.0
  0
LINE
  5
54F3
330
1E
100
AcDbEntity
  8
建構線
 48
0.27
100
AcDbLine
 10
133.6830057699699
 20
7.382289286147113
 30
0.0
 11
131.5813971088373
 21
0.8901681739429854
 31
0.0
  0
LINE
  5
54F4
330
1E
100
AcDbEntity
  8
建構線
 48
0.27
100
AcDbLine
 10
131.5403200324646
 20
28.50064023729266
 30
0.0
 11
130.8171747542851
 21
25.71298294111983
 31
0.0
  0
LINE
  5
54F5
330
1E
100
AcDbEntity
  8
建構線
 48
0.27
100
AcDbLine
 10
132.34561946339
 20
21.32125469568376
 30
0.0
 11
131.1992870571162
 21
16.92952512204437
 31
0.0
  0
LINE
  5
54F6
330
1E
100
AcDbEntity
  8
建構線
 48
0.27
100
AcDbLine
 10
130.8171747542851
 20
25.71298294111983
 30
0.0
 11
132.34561946339
 21
21.32125469568376
 31
0.0
  0
LINE
  5
54F9
330
1E
100
AcDbEntity
  8
中心線
 48
0.27
100
AcDbLine
 10
207.3922479917851
 20
-11.4587809229445
 30
0.0
 11
207.3922479917851
 21
1.463894977507493
 31
0.0
  0
LINE
  5
54FA
330
1E
100
AcDbEntity
  8
虛線
 48
0.27
100
AcDbLine
 10
200.3922479917852
 20
-8.799359762707268
 30
0.0
 11
214.3922479917853
 21
-8.799359762707268
 31
0.0
  0
LINE
  5
54FD
330
1E
100
AcDbEntity
  8
虛線
 48
0.27
100
AcDbLine
 10
200.3922479917853
 20
0.0
 30
0.0
 11
200.3922479917852
 21
-8.799359762707268
 31
0.0
  0
LINE
  5
54FE
330
1E
100
AcDbEntity
  8
虛線
 48
0.27
100
AcDbLine
 10
200.3922479917852
 20
-8.799359762707268
 30
0.0
 11
199.6922479917853
 21
-9.499359762707314
 31
0.0
  0
LINE
  5
5500
330
1E
100
AcDbEntity
  8
虛線
 48
0.27
100
AcDbLine
 10
214.3922479917853
 20
0.0
 30
0.0
 11
214.3922479917853
 21
-8.799359762707268
 31
0.0
  0
LINE
  5
5501
330
1E
100
AcDbEntity
  8
虛線
 48
0.27
100
AcDbLine
 10
214.3922479917853
 20
-8.799359762707268
 30
0.0
 11
215.0922479917855
 21
-9.499359762707314
 31
0.0
  0
LINE
  5
5513
330
1E
100
AcDbEntity
  8
虛線
 48
0.27
100
AcDbLine
 10
302.3922479917853
 20
28.10064023729268
 30
0.0
 11
302.3922479917853
 21
11.50064023729266
 31
0.0
  0
LINE
  5
5514
330
1E
100
AcDbEntity
  8
虛線
 48
0.27
100
AcDbLine
 10
322.3922479917853
 20
28.10064023729268
 30
0.0
 11
322.3922479917852
 21
11.50064023729266
 31
0.0
  0
LINE
  5
5515
330
1E
100
AcDbEntity
  8
0
 48
0.27
100
AcDbLine
 10
334.8922479917851
 20
-9.499359762707257
 30
0.0
 11
334.8922479917851
 21
28.50064023729266
 31
0.0
  0
LINE
  5
5516
330
1E
100
AcDbEntity
  8
中心線
 48
0.27
100
AcDbLine
 10
312.3922479917851
 20
-11.4587809229445
 30
0.0
 11
312.3922479917851
 21
30.51611440015808
 31
0.0
  0
LINE
  5
5517
330
1E
100
AcDbEntity
  8
虛線
 48
0.27
100
AcDbLine
 10
305.3922479917853
 20
11.2006402372927
 30
0.0
 11
305.3922479917852
 21
-8.799359762707268
 31
0.0
  0
LINE
  5
5518
330
1E
100
AcDbEntity
  8
虛線
 48
0.27
100
AcDbLine
 10
319.3922479917853
 20
11.2006402372927
 30
0.0
 11
319.3922479917853
 21
-8.799359762707268
 31
0.0
  0
LINE
  5
5519
330
1E
100
AcDbEntity
  8
虛線
 48
0.27
100
AcDbLine
 10
305.3922479917852
 20
-8.799359762707268
 30
0.0
 11
319.3922479917853
 21
-8.799359762707268
 31
0.0
  0
LINE
  5
551A
330
1E
100
AcDbEntity
  8
虛線
 48
0.27
100
AcDbLine
 10
305.3922479917852
 20
-8.799359762707268
 30
0.0
 11
304.6922479917853
 21
-9.499359762707314
 31
0.0
  0
LINE
  5
551B
330
1E
100
AcDbEntity
  8
虛線
 48
0.27
100
AcDbLine
 10
319.3922479917853
 20
-8.799359762707268
 30
0.0
 11
320.0922479917855
 21
-9.499359762707314
 31
0.0
  0
LINE
  5
551C
330
1E
100
AcDbEntity
  8
虛線
 48
0.27
100
AcDbLine
 10
302.3922479917853
 20
11.50064023729266
 30
0.0
 11
322.3922479917852
 21
11.50064023729266
 31
0.0
  0
LINE
  5
551D
330
1E
100
AcDbEntity
  8
虛線
 48
0.27
100
AcDbLine
 10
305.3922479917853
 20
11.2006402372927
 30
0.0
 11
319.3922479917853
 21
11.2006402372927
 31
0.0
  0
LINE
  5
551E
330
1E
100
AcDbEntity
  8
虛線
 48
0.27
100
AcDbLine
 10
305.3922479917851
 20
11.2006402372927
 30
0.0
 11
305.0922479917852
 21
11.50064023729266
 31
0.0
  0
LINE
  5
551F
330
1E
100
AcDbEntity
  8
虛線
 48
0.27
100
AcDbLine
 10
319.3922479917853
 20
11.2006402372927
 30
0.0
 11
319.6922479917853
 21
11.50064023729266
 31
0.0
  0
LINE
  5
5520
330
1E
100
AcDbEntity
  8
虛線
 48
0.27
100
AcDbLine
 10
302.3922479917853
 20
28.10064023729268
 30
0.0
 11
322.3922479917853
 21
28.10064023729268
 31
0.0
  0
LINE
  5
5521
330
1E
100
AcDbEntity
  8
虛線
 48
0.27
100
AcDbLine
 10
302.3922479917851
 20
28.10064023729268
 30
0.0
 11
302.1613078841093
 21
28.50064023729266
 31
0.0
  0
LINE
  5
5522
330
1E
100
AcDbEntity
  8
虛線
 48
0.27
100
AcDbLine
 10
322.3922479917853
 20
28.10064023729268
 30
0.0
 11
322.6231880994612
 21
28.50064023729266
 31
0.0
  0
LINE
  5
5525
330
1E
100
AcDbEntity
  8
0
 48
0.27
100
AcDbLine
 10
147.8608793416694
 20
28.50064023729266
 30
0.0
 11
79.8922479917851
 21
28.50064023729266
 31
0.0
  0
LINE
  5
5526
330
1E
100
AcDbEntity
  8
0
 48
0.27
100
AcDbLine
 10
147.8608793416694
 20
27.30086944361858
 30
0.0
 11
131.229087878665
 21
27.30086944361853
 31
0.0
  0
LINE
  5
5527
330
1E
100
AcDbEntity
  8
0
 48
0.27
100
AcDbLine
 10
147.8608793416694
 20
23.93388124498324
 30
0.0
 11
131.4363520854975
 21
23.93388124498319
 31
0.0
  0
LINE
  5
5528
330
1E
100
AcDbEntity
  8
0
 48
0.27
100
AcDbLine
 10
147.8608793416694
 20
20.10060745317031
 30
0.0
 11
132.0270052438077
 21
20.10060745317031
 31
0.0
  0
LINE
  5
5529
330
1E
100
AcDbEntity
  8
0
 48
0.27
100
AcDbLine
 10
147.2134465682301
 20
18.30063413770477
 30
0.0
 11
131.5571749167467
 21
18.30063413770477
 31
0.0
  0
LINE
  5
552A
330
1E
100
AcDbEntity
  8
0
 48
0.27
100
AcDbLine
 10
147.1608793416693
 20
14.46848552567354
 30
0.0
 11
131.8395278769352
 21
14.46848552567354
 31
0.0
  0
LINE
  5
552B
330
1E
100
AcDbEntity
  8
0
 48
0.27
100
AcDbLine
 10
147.8608793416694
 20
11.10027001107745
 30
0.0
 11
132.7157710164491
 21
11.10027001107749
 31
0.0
  0
LINE
  5
552C
330
1E
100
AcDbEntity
  8
0
 48
0.27
100
AcDbLine
 10
147.8608793416694
 20
10.00062823729274
 30
0.0
 11
133.0018434355166
 21
10.00062823729269
 31
0.0
  0
LINE
  5
5533
330
1E
100
AcDbEntity
  8
0
 48
0.27
100
AcDbLine
 10
147.8608793416694
 20
6.000624714198181
 30
0.0
 11
133.2357377383045
 21
6.000624714198181
 31
0.0
  0
LINE
  5
5554
330
1E
100
AcDbEntity
  8
0
 48
0.27
100
AcDbLine
 10
281.3608793416696
 20
3.000640237291655
 30
0.0
 11
152.3608793416693
 21
3.000640237291598
 31
0.0
  0
LINE
  5
5555
330
1E
100
AcDbEntity
  8
0
 48
0.27
100
AcDbLine
 10
168.3608793416695
 20
50.50064023729171
 30
0.0
 11
265.3608793416695
 21
50.50064023729171
 31
0.0
  0
LINE
  5
5556
330
1E
100
AcDbEntity
  8
0
 48
0.27
100
AcDbLine
 10
168.3608793416693
 20
0.0006402372915986
 30
0.0
 11
265.3608793416696
 21
0.0006402372915986
 31
0.0
  0
LINE
  5
5557
330
1E
100
AcDbEntity
  8
0
 48
0.27
100
AcDbLine
 10
168.3608793416695
 20
48.50017852500585
 30
0.0
 11
265.3608793416695
 21
48.50017852500585
 31
0.0
  0
LINE
  5
555D
330
1E
100
AcDbEntity
  8
虛線
 48
0.27
100
AcDbLine
 10
191.8608793416695
 20
49.80064023729189
 30
0.0
 11
191.8608793416695
 21
33.50064023729171
 31
0.0
  0
LINE
  5
555E
330
1E
100
AcDbEntity
  8
虛線
 48
0.27
100
AcDbLine
 10
181.8608793416695
 20
49.80064023729189
 30
0.0
 11
181.8608793416695
 21
33.50064023729171
 31
0.0
  0
LINE
  5
555F
330
1E
100
AcDbEntity
  8
中心線
 48
0.27
100
AcDbLine
 10
186.8608793416695
 20
51.60064023729185
 30
0.0
 11
186.8608793416695
 21
23.65822645864116
 31
0.0
  0
LINE
  5
5560
330
1E
100
AcDbEntity
  8
虛線
 48
0.27
100
AcDbLine
 10
191.1108793416694
 20
49.80064023729189
 30
0.0
 11
191.1108793416694
 21
29.00064023729171
 31
0.0
  0
LINE
  5
5561
330
1E
100
AcDbEntity
  8
虛線
 48
0.27
100
AcDbLine
 10
182.6108793416695
 20
49.80064023729189
 30
0.0
 11
182.6108793416695
 21
29.00064023729171
 31
0.0
  0
LINE
  5
556A
330
1E
100
AcDbEntity
  8
虛線
 48
0.27
100
AcDbLine
 10
181.8608793416695
 20
33.50064023729171
 30
0.0
 11
191.8608793416695
 21
33.50064023729171
 31
0.0
  0
LINE
  5
556B
330
1E
100
AcDbEntity
  8
虛線
 48
0.27
100
AcDbLine
 10
182.6108793416695
 20
29.00064023729171
 30
0.0
 11
186.8608793416695
 21
26.54690159323607
 31
0.0
  0
LINE
  5
556C
330
1E
100
AcDbEntity
  8
虛線
 48
0.27
100
AcDbLine
 10
182.6108793416695
 20
29.00064023729171
 30
0.0
 11
191.1108793416694
 21
29.00064023729171
 31
0.0
  0
LINE
  5
556D
330
1E
100
AcDbEntity
  8
虛線
 48
0.27
100
AcDbLine
 10
186.8608793416695
 20
26.54690159323607
 30
0.0
 11
191.1108793416694
 21
29.00064023729171
 31
0.0
  0
LINE
  5
556E
330
1E
100
AcDbEntity
  8
虛線
 48
0.27
100
AcDbLine
 10
191.8608793416692
 20
49.80064023729189
 30
0.0
 11
181.8608793416692
 21
49.80064023729189
 31
0.0
  0
LINE
  5
556F
330
1E
100
AcDbEntity
  8
虛線
 48
0.27
100
AcDbLine
 10
181.160879341669
 20
50.50064023729171
 30
0.0
 11
181.8608793416692
 21
49.80064023729189
 31
0.0
  0
LINE
  5
5570
330
1E
100
AcDbEntity
  8
虛線
 48
0.27
100
AcDbLine
 10
192.5608793416693
 20
50.50064023729182
 30
0.0
 11
191.8608793416692
 21
49.80064023729189
 31
0.0
  0
LINE
  5
557B
330
1E
100
AcDbEntity
  8
虛線
 48
0.27
100
AcDbLine
 10
251.8608793416696
 20
49.80064023729189
 30
0.0
 11
251.8608793416696
 21
33.50064023729171
 31
0.0
  0
LINE
  5
557C
330
1E
100
AcDbEntity
  8
虛線
 48
0.27
100
AcDbLine
 10
241.8608793416696
 20
49.80064023729189
 30
0.0
 11
241.8608793416696
 21
33.50064023729171
 31
0.0
  0
LINE
  5
557D
330
1E
100
AcDbEntity
  8
中心線
 48
0.27
100
AcDbLine
 10
246.8608793416696
 20
51.60064023729185
 30
0.0
 11
246.8608793416696
 21
23.65822645864116
 31
0.0
  0
LINE
  5
557E
330
1E
100
AcDbEntity
  8
虛線
 48
0.27
100
AcDbLine
 10
251.1108793416696
 20
49.80064023729189
 30
0.0
 11
251.1108793416696
 21
29.00064023729171
 31
0.0
  0
LINE
  5
557F
330
1E
100
AcDbEntity
  8
虛線
 48
0.27
100
AcDbLine
 10
242.6108793416696
 20
49.80064023729189
 30
0.0
 11
242.6108793416696
 21
29.00064023729171
 31
0.0
  0
LINE
  5
5580
330
1E
100
AcDbEntity
  8
虛線
 48
0.27
100
AcDbLine
 10
241.8608793416696
 20
33.50064023729171
 30
0.0
 11
251.8608793416696
 21
33.50064023729171
 31
0.0
  0
LINE
  5
5581
330
1E
100
AcDbEntity
  8
虛線
 48
0.27
100
AcDbLine
 10
242.6108793416696
 20
29.00064023729171
 30
0.0
 11
246.8608793416696
 21
26.54690159323607
 31
0.0
  0
LINE
  5
5582
330
1E
100
AcDbEntity
  8
虛線
 48
0.27
100
AcDbLine
 10
242.6108793416696
 20
29.00064023729171
 30
0.0
 11
251.1108793416696
 21
29.00064023729171
 31
0.0
  0
LINE
  5
5583
330
1E
100
AcDbEntity
  8
虛線
 48
0.27
100
AcDbLine
 10
246.8608793416696
 20
26.54690159323607
 30
0.0
 11
251.1108793416696
 21
29.00064023729171
 31
0.0
  0
LINE
  5
5584
330
1E
100
AcDbEntity
  8
虛線
 48
0.27
100
AcDbLine
 10
251.8608793416694
 20
49.80064023729189
 30
0.0
 11
241.8608793416694
 21
49.80064023729189
 31
0.0
  0
LINE
  5
5585
330
1E
100
AcDbEntity
  8
虛線
 48
0.27
100
AcDbLine
 10
241.1608793416691
 20
50.50064023729171
 30
0.0
 11
241.8608793416694
 21
49.80064023729189
 31
0.0
  0
LINE
  5
5586
330
1E
100
AcDbEntity
  8
虛線
 48
0.27
100
AcDbLine
 10
252.5608793416694
 20
50.50064023729182
 30
0.0
 11
251.8608793416694
 21
49.80064023729189
 31
0.0
  0
LINE
  5
5971
330
1E
100
AcDbEntity
  8
中心線
100
AcDbLine
 10
147.9322829198676
 20
155.9539882108339
 30
0.0
 11
285.7894757634774
 21
155.9539882108339
 31
0.0
  0
LINE
  5
5972
330
1E
100
AcDbEntity
  8
中心線
100
AcDbLine
 10
216.8608793416725
 20
203.5782461666509
 30
0.0
 11
216.8608793416725
 21
106.9669886047668
 31
0.0
  0
LINE
  5
5980
330
1E
100
AcDbEntity
  8
0
100
AcDbLine
 10
168.3608793416725
 20
198.9539882108336
 30
0.0
 11
265.3608793416725
 21
198.9539882108336
 31
0.0
  0
LINE
  5
5981
330
1E
100
AcDbEntity
  8
0
100
AcDbLine
 10
168.3608793416725
 20
136.3782522795455
 30
0.0
 11
265.3608793416725
 21
136.3782522795455
 31
0.0
  0
LINE
  5
5982
330
1E
100
AcDbEntity
  8
0
100
AcDbLine
 10
168.3608793416725
 20
147.0297241421218
 30
0.0
 11
265.3608793416725
 21
147.0297241421218
 31
0.0
  0
LINE
  5
5983
330
1E
100
AcDbEntity
  8
0
100
AcDbLine
 10
168.3608793416725
 20
164.8782522795455
 30
0.0
 11
265.3608793416725
 21
164.8782522795455
 31
0.0
  0
LINE
  5
5984
330
1E
100
AcDbEntity
  8
0
100
AcDbLine
 10
168.3608793416725
 20
175.5297241421216
 30
0.0
 11
265.3608793416725
 21
175.5297241421217
 31
0.0
  0
LINE
  5
5985
330
1E
100
AcDbEntity
  8
0
100
AcDbLine
 10
168.3608793416724
 20
112.9539882108334
 30
0.0
 11
265.3608793416726
 21
112.9539882108334
 31
0.0
  0
LINE
  5
5986
330
1E
100
AcDbEntity
  8
0
100
AcDbLine
 10
168.3608793416725
 20
114.9539882108336
 30
0.0
 11
265.3608793416725
 21
114.9539882108336
 31
0.0
  0
LINE
  5
5987
330
1E
100
AcDbEntity
  8
0
100
AcDbLine
 10
168.3608793416725
 20
135.3782522795455
 30
0.0
 11
265.3608793416725
 21
135.3782522795455
 31
0.0
  0
LINE
  5
5988
330
1E
100
AcDbEntity
  8
0
100
AcDbLine
 10
168.3608793416725
 20
148.0297241421215
 30
0.0
 11
265.3608793416725
 21
148.0297241421215
 31
0.0
  0
LINE
  5
5989
330
1E
100
AcDbEntity
  8
0
100
AcDbLine
 10
168.3608793416725
 20
163.8782522795455
 30
0.0
 11
265.3608793416725
 21
163.8782522795455
 31
0.0
  0
LINE
  5
598A
330
1E
100
AcDbEntity
  8
0
100
AcDbLine
 10
168.3608793416725
 20
176.5297241421218
 30
0.0
 11
265.3608793416725
 21
176.5297241421218
 31
0.0
  0
LINE
  5
598B
330
1E
100
AcDbEntity
  8
0
100
AcDbLine
 10
168.3608793416725
 20
196.9539882108335
 30
0.0
 11
265.3608793416725
 21
196.9539882108335
 31
0.0
  0
LINE
  5
598C
330
1E
100
AcDbEntity
  8
0
100
AcDbLine
 10
168.3608793416725
 20
198.9539882108336
 30
0.0
 11
168.3608793416724
 21
112.9539882108334
 31
0.0
  0
LINE
  5
59B0
330
1E
100
AcDbEntity
  8
中心線
100
AcDbLine
 10
186.8608793416725
 20
192.0405037272907
 30
0.0
 11
186.8608793416725
 21
179.7668829588483
 31
0.0
  0
ARC
  5
59B1
330
1E
100
AcDbEntity
  8
指線
100
AcDbCircle
 10
186.8608793416725
 20
185.9539882108336
 30
0.0
 40
5.0
100
AcDbArc
 50
180.0
 51
89.99999999999998
  0
CIRCLE
  5
59B2
330
1E
100
AcDbEntity
  8
0
100
AcDbCircle
 10
186.8608793416725
 20
185.9539882108336
 30
0.0
 40
4.25
  0
LINE
  5
59B3
330
1E
100
AcDbEntity
  8
中心線
100
AcDbLine
 10
193.1774534919695
 20
185.9539882108335
 30
0.0
 11
180.9279148493123
 21
185.9539882108336
 31
0.0
  0
LINE
  5
59C0
330
1E
100
AcDbEntity
  8
中心線
100
AcDbLine
 10
186.8608793416725
 20
119.8674726943769
 30
0.0
 11
186.8608793416725
 21
132.1410934628193
 31
0.0
  0
ARC
  5
59C1
330
1E
100
AcDbEntity
  8
指線
100
AcDbCircle
 10
186.8608793416725
 20
125.9539882108339
 30
0.0
 40
5.0
100
AcDbArc
 50
180.0
 51
89.99999999999998
  0
LINE
  5
59CD
330
1E
100
AcDbEntity
  8
中心線
100
AcDbLine
 10
193.1774534919695
 20
125.9539882108339
 30
0.0
 11
180.9279148493123
 21
125.9539882108339
 31
0.0
  0
CIRCLE
  5
59CE
330
1E
100
AcDbEntity
  8
0
100
AcDbCircle
 10
186.8608793416725
 20
125.9539882108339
 30
0.0
 40
4.25
  0
LINE
  5
59E0
330
1E
100
AcDbEntity
  8
0
100
AcDbLine
 10
265.3608793416725
 20
198.9539882108336
 30
0.0
 11
265.3608793416726
 21
112.9539882108334
 31
0.0
  0
CIRCLE
  5
59E3
330
1E
100
AcDbEntity
  8
0
100
AcDbCircle
 10
246.8608793416725
 20
185.9539882108336
 30
0.0
 40
4.25
  0
ARC
  5
59E4
330
1E
100
AcDbEntity
  8
指線
100
AcDbCircle
 10
246.8608793416725
 20
185.9539882108336
 30
0.0
 40
5.0
100
AcDbArc
 50
180.0
 51
89.99999999999998
  0
LINE
  5
59E5
330
1E
100
AcDbEntity
  8
中心線
100
AcDbLine
 10
240.5443051913755
 20
185.9539882108335
 30
0.0
 11
252.7938438340326
 21
185.9539882108336
 31
0.0
  0
LINE
  5
59E6
330
1E
100
AcDbEntity
  8
中心線
100
AcDbLine
 10
246.8608793416725
 20
192.0405037272907
 30
0.0
 11
246.8608793416725
 21
179.7668829588483
 31
0.0
  0
CIRCLE
  5
5A0C
330
1E
100
AcDbEntity
  8
0
100
AcDbCircle
 10
246.8608793416725
 20
125.9539882108338
 30
0.0
 40
4.25
  0
ARC
  5
5A0D
330
1E
100
AcDbEntity
  8
指線
100
AcDbCircle
 10
246.8608793416725
 20
125.9539882108338
 30
0.0
 40
5.0
100
AcDbArc
 50
180.0
 51
89.99999999999998
  0
LINE
  5
5A0E
330
1E
100
AcDbEntity
  8
中心線
100
AcDbLine
 10
240.5443051913755
 20
125.9539882108339
 30
0.0
 11
252.7938438340326
 21
125.9539882108339
 31
0.0
  0
LINE
  5
5A0F
330
1E
100
AcDbEntity
  8
中心線
100
AcDbLine
 10
246.8608793416725
 20
119.8674726943769
 30
0.0
 11
246.8608793416725
 21
132.1410934628193
 31
0.0
  0
CIRCLE
  5
5B4A
330
1E
100
AcDbEntity
  8
0
100
AcDbCircle
 10
102.3922479917879
 20
155.9539882108339
 30
0.0
 40
6.999999999999829
  0
CIRCLE
  5
5B4B
330
1E
100
AcDbEntity
  8
0
100
AcDbCircle
 10
102.3922479917879
 20
155.9539882108339
 30
0.0
 40
9.999999999999772
  0
LINE
  5
5B4C
330
1E
100
AcDbEntity
  8
中心線
 48
0.27
100
AcDbLine
 10
102.3922479917879
 20
141.8603267734398
 30
0.0
 11
102.3922479917879
 21
170.047649648228
 31
0.0
  0
LINE
  5
5B4D
330
1E
100
AcDbEntity
  8
中心線
 48
0.27
100
AcDbLine
 10
88.29858655439391
 20
155.9539882108339
 30
0.0
 11
116.485909429182
 21
155.9539882108339
 31
0.0
  0
LINE
  5
5B53
330
1E
100
AcDbEntity
  8
0
100
AcDbLine
 10
334.892247991788
 20
133.4539882108363
 30
0.0
 11
334.892247991788
 21
178.4539882108363
 31
0.0
  0
LINE
  5
5B55
330
1E
100
AcDbEntity
  8
中心線
 48
0.27
100
AcDbLine
 10
312.392247991788
 20
141.8603267734398
 30
0.0
 11
312.392247991788
 21
170.047649648228
 31
0.0
  0
CIRCLE
  5
5B56
330
1E
100
AcDbEntity
  8
0
100
AcDbCircle
 10
312.392247991788
 20
155.9539882108339
 30
0.0
 40
6.999999999999829
  0
CIRCLE
  5
5B57
330
1E
100
AcDbEntity
  8
0
100
AcDbCircle
 10
312.392247991788
 20
155.9539882108339
 30
0.0
 40
9.999999999999772
  0
LINE
  5
5B58
330
1E
100
AcDbEntity
  8
中心線
 48
0.27
100
AcDbLine
 10
298.2985865543939
 20
155.9539882108339
 30
0.0
 11
326.4859094291821
 21
155.9539882108339
 31
0.0
  0
LINE
  5
5D3A
330
1E
100
AcDbEntity
  8
0
100
AcDbLine
 10
334.892247991788
 20
178.4539882108363
 30
0.0
 11
285.7895428050111
 21
178.4539882108355
 31
0.0
  0
LINE
  5
5D3B
330
1E
100
AcDbEntity
  8
0
100
AcDbLine
 10
334.892247991788
 20
133.4539882108363
 30
0.0
 11
285.7895428050134
 21
133.4539882108356
 31
0.0
  0
LINE
  5
5D3C
330
1E
100
AcDbEntity
  8
0
100
AcDbLine
 10
147.9322158783325
 20
178.4539882108334
 30
0.0
 11
79.8922479917843
 21
178.4539882108324
 31
0.0
  0
LINE
  5
5D3D
330
1E
100
AcDbEntity
  8
0
100
AcDbLine
 10
147.932215878333
 20
133.4539882108335
 30
0.0
 11
79.8922479917851
 21
133.4539882108324
 31
0.0
  0
LINE
  5
5DBB
330
1E
100
AcDbEntity
  8
0
100
AcDbLine
 10
79.89224799178558
 20
133.4539882108324
 30
0.0
 11
79.89224799178451
 21
178.4539882108324
 31
0.0
  0
LINE
  5
67E3
330
1E
100
AcDbEntity
  8
0
100
AcDbLine
 10
147.8608793416722
 20
150.1557642141006
 30
0.0
 11
147.860879341672
 21
133.5538593621531
 31
0.0
  0
LINE
  5
67E4
330
1E
100
AcDbEntity
  8
0
100
AcDbLine
 10
147.8608793416721
 20
141.595379502868
 30
0.0
 11
149.8608793416721
 21
140.4356115933284
 31
0.0
  0
LINE
  5
67E5
330
1E
100
AcDbEntity
  8
0
100
AcDbLine
 10
147.860879341672
 20
133.5538593621531
 30
0.0
 11
149.860879341672
 21
130.7538593623143
 31
0.0
  0
LINE
  5
67E6
330
1E
100
AcDbEntity
  8
0
100
AcDbLine
 10
147.8608793416722
 20
178.3541170595147
 30
0.0
 11
149.8608793416722
 21
181.1541170593535
 31
0.0
  0
LINE
  5
67E7
330
1E
100
AcDbEntity
  8
0
100
AcDbLine
 10
147.8608793416722
 20
170.3125969187998
 30
0.0
 11
149.8608793416722
 21
171.4723648283394
 31
0.0
  0
LINE
  5
67E8
330
1E
100
AcDbEntity
  8
0
100
AcDbLine
 10
147.8608793416722
 20
161.7522122075672
 30
0.0
 11
147.8608793416722
 21
178.3541170595147
 31
0.0
  0
LINE
  5
67E9
330
1E
100
AcDbEntity
  8
0
 48
0.27
100
AcDbLine
 10
146.4327620469051
 20
37.00148177487344
 30
0.0
 11
146.432762046905
 21
42.00150954481111
 31
0.0
  0
ARC
  5
67EA
330
1E
100
AcDbEntity
  8
0
 48
0.27
100
AcDbCircle
 10
150.1254020469051
 20
39.50148177487361
 30
0.0
 40
3.69263999999997
100
AcDbArc
 50
137.3880465568697
 51
222.6114019978017
  0
LINE
  5
67EB
330
1E
100
AcDbEntity
  8
0
100
AcDbLine
 10
148.7976080756713
 20
185.9689255447868
 30
0.0
 11
149.8608793416721
 21
185.9689255447868
 31
0.0
  0
ARC
  5
67EC
330
1E
100
AcDbEntity
  8
0
100
AcDbCircle
 10
149.4186011502373
 20
188.1398727471966
 30
0.0
 40
2.258017748891657
100
AcDbArc
 50
180.9276427879959
 51
254.036977831172
  0
LINE
  5
67ED
330
1E
100
AcDbEntity
  8
0
100
AcDbLine
 10
147.1608793416722
 20
188.1033160865148
 30
0.0
 11
147.1608793416722
 21
191.804949404245
 31
0.0
  0
LINE
  5
67EE
330
1E
100
AcDbEntity
  8
0
100
AcDbLine
 10
148.7976080756713
 20
193.939339945973
 30
0.0
 11
149.8608793416721
 21
193.939339945973
 31
0.0
  0
ARC
  5
67EF
330
1E
100
AcDbEntity
  8
0
100
AcDbCircle
 10
149.4186011502373
 20
191.7683927435632
 30
0.0
 40
2.258017748891657
100
AcDbArc
 50
105.963022168828
 51
179.072357212004
  0
ARC
  5
67F6
330
1E
100
AcDbEntity
  8
0
100
AcDbCircle
 10
149.4186011502373
 20
120.1397282146107
 30
0.0
 40
2.258017748891657
100
AcDbArc
 50
180.9276427879959
 51
254.036977831172
  0
LINE
  5
67F7
330
1E
100
AcDbEntity
  8
0
100
AcDbLine
 10
148.7976080756713
 20
117.9687810122007
 30
0.0
 11
149.8608793416722
 21
117.9687810122007
 31
0.0
  0
LINE
  5
67F8
330
1E
100
AcDbEntity
  8
0
100
AcDbLine
 10
147.1608793416722
 20
123.804804871659
 30
0.0
 11
147.1608793416722
 21
120.1031715539287
 31
0.0
  0
ARC
  5
67F9
330
1E
100
AcDbEntity
  8
0
100
AcDbCircle
 10
149.4186011502373
 20
123.7682482109772
 30
0.0
 40
2.258017748891657
100
AcDbArc
 50
105.963022168828
 51
179.072357212004
  0
LINE
  5
67FA
330
1E
100
AcDbEntity
  8
0
100
AcDbLine
 10
148.7976080756713
 20
125.9391954133869
 30
0.0
 11
149.8608793416721
 21
125.9391954133869
 31
0.0
  0
LINE
  5
6800
330
1E
100
AcDbEntity
  8
0
100
AcDbLine
 10
147.8608793416694
 20
19.44957051459252
 30
0.0
 11
147.8608793416694
 21
25.22839717029163
 31
0.0
  0
LINE
  5
6801
330
1E
100
AcDbEntity
  8
0
100
AcDbLine
 10
148.7976080756684
 20
19.9858474378847
 30
0.0
 11
149.8608793416692
 21
19.9858474378847
 31
0.0
  0
ARC
  5
6802
330
1E
100
AcDbEntity
  8
0
100
AcDbCircle
 10
149.4186011502344
 20
17.81490023547488
 30
0.0
 40
2.258017748891657
100
AcDbArc
 50
105.963022168828
 51
179.072357212004
  0
LINE
  5
6803
330
1E
100
AcDbEntity
  8
0
100
AcDbLine
 10
147.1608793416693
 20
17.85145689615674
 30
0.0
 11
147.1608793416693
 21
14.14982357842646
 31
0.0
  0
LINE
  5
6804
330
1E
100
AcDbEntity
  8
0
100
AcDbLine
 10
148.7976080756684
 20
12.01543303669851
 30
0.0
 11
149.8608793416694
 21
12.01543303669851
 31
0.0
  0
ARC
  5
6805
330
1E
100
AcDbEntity
  8
0
100
AcDbCircle
 10
149.4186011502344
 20
14.18638023910833
 30
0.0
 40
2.258017748891657
100
AcDbArc
 50
180.9276427879959
 51
254.036977831172
  0
LINE
  5
680C
330
1E
100
AcDbEntity
  8
0
100
AcDbLine
 10
285.8608793416696
 20
19.44957051459252
 30
0.0
 11
285.8608793416696
 21
25.22839717029163
 31
0.0
  0
LINE
  5
680D
330
1E
100
AcDbEntity
  8
0
100
AcDbLine
 10
284.9241506076705
 20
19.9858474378847
 30
0.0
 11
283.8608793416696
 21
19.9858474378847
 31
0.0
  0
LINE
  5
680E
330
1E
100
AcDbEntity
  8
0
100
AcDbLine
 10
284.9241506076705
 20
12.01543303669851
 30
0.0
 11
283.8608793416696
 21
12.01543303669851
 31
0.0
  0
LINE
  5
680F
330
1E
100
AcDbEntity
  8
0
100
AcDbLine
 10
-62.12773932852612
 20
50.50064023729345
 30
0.0
 11
-64.12773932852657
 21
48.50064023729345
 31
0.0
  0
LINE
  5
6810
330
1E
100
AcDbEntity
  8
AM3
100
AcDbLine
 10
14.57226067147421
 20
50.50064023729351
 30
0.0
 11
13.87226067147394
 21
49.80064023729358
 31
0.0
  0
LINE
  5
6811
330
1E
100
AcDbEntity
  8
0
100
AcDbLine
 10
-1.552003397237697
 20
49.50064023729339
 30
0.0
 11
-12.20347525981397
 21
49.50064023729362
 31
0.0
  0
LINE
  5
6812
330
1E
100
AcDbEntity
  8
AM3
100
AcDbLine
 10
3.17226067147412
 20
50.50064023729357
 30
0.0
 11
3.872260671473938
 21
49.80064023729358
 31
0.0
  0
LINE
  5
6813
330
1E
100
AcDbEntity
  8
0
100
AcDbLine
 10
-1.552003397237697
 20
49.50064023729339
 30
0.0
 11
-0.5520033972376979
 21
50.50064023729357
 31
0.0
  0
LINE
  5
6814
330
1E
100
AcDbEntity
  8
0
100
AcDbLine
 10
-0.5520033972376979
 20
50.50064023729357
 30
0.0
 11
19.87226067147394
 21
50.50064023729345
 31
0.0
  0
LINE
  5
6815
330
1E
100
AcDbEntity
  8
AM3
100
AcDbLine
 10
13.87226067147394
 20
49.80064023729358
 30
0.0
 11
3.872260671473938
 21
49.80064023729358
 31
0.0
  0
LINE
  5
6816
330
1E
100
AcDbEntity
  8
0
100
AcDbLine
 10
-29.0520033972377
 20
50.50064023729345
 30
0.0
 11
-13.20347525981351
 21
50.50064023729351
 31
0.0
  0
LINE
  5
6817
330
1E
100
AcDbEntity
  8
0
100
AcDbLine
 10
-29.0520033972377
 20
50.50064023729345
 30
0.0
 11
-30.0520033972377
 21
49.50064023729362
 31
0.0
  0
LINE
  5
6818
330
1E
100
AcDbEntity
  8
AM3
100
AcDbLine
 10
-45.42773932852578
 20
50.50064023729351
 30
0.0
 11
-46.12773932852561
 21
49.80064023729358
 31
0.0
  0
LINE
  5
6819
330
1E
100
AcDbEntity
  8
0
100
AcDbLine
 10
-40.70347525981351
 20
49.50064023729362
 30
0.0
 11
-41.70347525981397
 21
50.50064023729345
 31
0.0
  0
LINE
  5
681A
330
1E
100
AcDbEntity
  8
0
100
AcDbLine
 10
-40.70347525981351
 20
49.50064023729362
 30
0.0
 11
-30.0520033972377
 21
49.50064023729362
 31
0.0
  0
LINE
  5
681B
330
1E
100
AcDbEntity
  8
0
100
AcDbLine
 10
-13.20347525981351
 20
50.50064023729351
 30
0.0
 11
-12.20347525981397
 21
49.50064023729362
 31
0.0
  0
LINE
  5
681D
330
1E
100
AcDbEntity
  8
0
100
AcDbLine
 10
-64.12773932852612
 20
34.50064023729351
 30
0.0
 11
-63.12773932852657
 21
33.5006402372934
 31
0.0
  0
LINE
  5
6821
330
1E
100
AcDbEntity
  8
0
100
AcDbLine
 10
-63.12773932852659
 20
3.000640237293396
 30
0.0
 11
-63.12773932852659
 21
33.50064023729341
 31
0.0
  0
LINE
  5
6822
330
1E
100
AcDbEntity
  8
0
100
AcDbLine
 10
-64.12773932852657
 20
48.50064023729345
 30
0.0
 11
-64.12773932852612
 21
34.50064023729351
 31
0.0
  0
LINE
  5
6823
330
1E
100
AcDbEntity
  8
中心線
 48
0.27
100
AcDbLine
 10
-21.12773932852608
 20
63.70064023729344
 30
0.0
 11
-21.12773932852608
 21
-13.33482929699647
 31
0.0
  0
LINE
  5
6824
330
1E
100
AcDbEntity
  8
AM3
100
AcDbLine
 10
-46.8777393285256
 20
49.80064023729358
 30
0.0
 11
-46.8777393285256
 21
29.0006402372934
 31
0.0
  0
LINE
  5
6825
330
1E
100
AcDbEntity
  8
虛線
 48
0.27
100
AcDbLine
 10
-46.12773932852561
 20
49.80064023729358
 30
0.0
 11
-46.12773932852561
 21
33.5006402372934
 31
0.0
  0
LINE
  5
6826
330
1E
100
AcDbEntity
  8
虛線
 48
0.27
100
AcDbLine
 10
13.12226067147439
 20
49.80064023729358
 30
0.0
 11
13.12226067147439
 21
29.0006402372934
 31
0.0
  0
LINE
  5
6827
330
1E
100
AcDbEntity
  8
虛線
 48
0.27
100
AcDbLine
 10
4.622260671474393
 20
49.80064023729358
 30
0.0
 11
4.622260671474393
 21
29.0006402372934
 31
0.0
  0
LINE
  5
6828
330
1E
100
AcDbEntity
  8
虛線
 48
0.27
100
AcDbLine
 10
3.872260671474393
 20
49.80064023729358
 30
0.0
 11
3.872260671474393
 21
33.5006402372934
 31
0.0
  0
LINE
  5
6829
330
1E
100
AcDbEntity
  8
虛線
 48
0.27
100
AcDbLine
 10
13.87226067147439
 20
49.80064023729358
 30
0.0
 11
13.87226067147439
 21
33.5006402372934
 31
0.0
  0
LINE
  5
682A
330
1E
100
AcDbEntity
  8
CENTER
100
AcDbLine
 10
8.872260671474393
 20
51.60064023729353
 30
0.0
 11
8.872260671474393
 21
23.65822645864284
 31
0.0
  0
LINE
  5
682B
330
1E
100
AcDbEntity
  8
0
100
AcDbLine
 10
19.872260671473
 20
50.50064023729362
 30
0.0
 11
21.87226067147346
 21
48.50064023729339
 31
0.0
  0
LINE
  5
682C
330
1E
100
AcDbEntity
  8
AM3
100
AcDbLine
 10
-56.82773932852588
 20
50.50064023729357
 30
0.0
 11
-56.12773932852561
 21
49.80064023729358
 31
0.0
  0
LINE
  5
682D
330
1E
100
AcDbEntity
  8
虛線
 48
0.27
100
AcDbLine
 10
-51.12773932852561
 20
26.54690159323775
 30
0.0
 11
-55.37773932852561
 21
29.0006402372934
 31
0.0
  0
LINE
  5
682E
330
1E
100
AcDbEntity
  8
0
100
AcDbLine
 10
20.87226067147344
 20
3.000640237293396
 30
0.0
 11
20.87226067147344
 21
18.50064023729338
 31
0.0
  0
LINE
  5
682F
330
1E
100
AcDbEntity
  8
0
100
AcDbLine
 10
21.87226067147346
 20
19.50064023729339
 30
0.0
 11
20.87226067147346
 21
18.50064023729339
 31
0.0
  0
LINE
  5
6830
330
1E
100
AcDbEntity
  8
虛線
 48
0.27
100
AcDbLine
 10
-55.37773932852561
 20
49.80064023729358
 30
0.0
 11
-55.37773932852561
 21
29.0006402372934
 31
0.0
  0
LINE
  5
6831
330
1E
100
AcDbEntity
  8
虛線
 48
0.27
100
AcDbLine
 10
-56.12773932852561
 20
49.80064023729358
 30
0.0
 11
-56.12773932852561
 21
33.5006402372934
 31
0.0
  0
LINE
  5
6832
330
1E
100
AcDbEntity
  8
CENTER
100
AcDbLine
 10
-51.12773932852561
 20
51.60064023729353
 30
0.0
 11
-51.12773932852561
 21
23.65822645864284
 31
0.0
  0
LINE
  5
6833
330
1E
100
AcDbEntity
  8
0
100
AcDbLine
 10
21.87226067147346
 20
19.50064023729339
 30
0.0
 11
21.87226067147346
 21
48.50064023729339
 31
0.0
  0
LINE
  5
6834
330
1E
100
AcDbEntity
  8
AM3
100
AcDbLine
 10
-46.8777393285256
 20
29.0006402372934
 30
0.0
 11
-51.12773932852561
 21
26.54690159323775
 31
0.0
  0
LINE
  5
6835
330
1E
100
AcDbEntity
  8
虛線
 48
0.27
100
AcDbLine
 10
-46.12773932852561
 20
33.5006402372934
 30
0.0
 11
-56.12773932852561
 21
33.5006402372934
 31
0.0
  0
LINE
  5
6836
330
1E
100
AcDbEntity
  8
虛線
 48
0.27
100
AcDbLine
 10
-46.8777393285256
 20
29.0006402372934
 30
0.0
 11
-55.37773932852561
 21
29.0006402372934
 31
0.0
  0
LINE
  5
6837
330
1E
100
AcDbEntity
  8
0
100
AcDbLine
 10
-62.12773932852515
 20
50.50064023729362
 30
0.0
 11
-41.70347525981397
 21
50.50064023729345
 31
0.0
  0
LINE
  5
6838
330
1E
100
AcDbEntity
  8
AM3
100
AcDbLine
 10
-56.12773932852561
 20
49.80064023729358
 30
0.0
 11
-46.12773932852561
 21
49.80064023729358
 31
0.0
  0
LINE
  5
6839
330
1E
100
AcDbEntity
  8
0
100
AcDbLine
 10
17.87226067147392
 20
0.0006402372933962
 30
0.0
 11
11.31563634444845
 21
0.0006402372933962
 31
0.0
  0
LINE
  5
683A
330
1E
100
AcDbEntity
  8
0
100
AcDbLine
 10
-53.57111500149969
 20
0.0006402372933962
 30
0.0
 11
-60.12773932852562
 21
0.0006402372933962
 31
0.0
  0
LINE
  5
683B
330
1E
100
AcDbEntity
  8
0
100
AcDbLine
 10
-63.12773932852562
 20
3.000640237293396
 30
0.0
 11
-60.12773932852562
 21
0.0006402372933962
 31
0.0
  0
LINE
  5
683C
330
1E
100
AcDbEntity
  8
0
100
AcDbLine
 10
20.87226067147438
 20
3.000640237293396
 30
0.0
 11
17.87226067147392
 21
0.0006402372933962
 31
0.0
  0
LINE
  5
683D
330
1E
100
AcDbEntity
  8
0
100
AcDbLine
 10
16.8722606736645
 20
49.00064023729919
 30
0.0
 11
-59.12773933071668
 21
49.00064023730505
 31
0.0
  0
LINE
  5
683E
330
1E
100
AcDbEntity
  8
0
100
AcDbLine
 10
-0.76725792537286
 20
0.0006402372936805
 30
0.0
 11
17.87295729781044
 21
0.000640237293112
 31
0.0
  0
LINE
  5
683F
330
1E
100
AcDbEntity
  8
虛線
 48
0.27
100
AcDbLine
 10
4.62231704202513
 20
28.99972351067231
 30
0.0
 11
8.872290694767102
 21
26.54593923239293
 31
0.0
  0
LINE
  5
6840
330
1E
100
AcDbEntity
  8
虛線
 48
0.27
100
AcDbLine
 10
3.872365360807961
 20
33.49973156353616
 30
0.0
 11
13.87236536023148
 21
33.49962418855927
 31
0.0
  0
LINE
  5
6841
330
1E
100
AcDbEntity
  8
虛線
 48
0.27
100
AcDbLine
 10
4.62231704202513
 20
28.99972351067231
 30
0.0
 11
13.12231704153511
 21
28.99963224194193
 31
0.0
  0
LINE
  5
6842
330
1E
100
AcDbEntity
  8
0
100
AcDbLine
 10
-60.1283231832954
 20
0.0006402372954426
 30
0.0
 11
-41.4848661531781
 21
0.000640237294931
 31
0.0
  0
LINE
  5
6849
330
1E
100
AcDbEntity
  8
0
 48
0.27
100
AcDbLine
 10
-62.12820102939497
 20
3.001934349328109
 30
0.0
 11
-62.12773933054399
 21
46.00067244979823
 31
0.0
  0
LINE
  5
684A
330
1E
100
AcDbEntity
  8
0
 48
0.27
100
AcDbLine
 10
-59.1282332488621
 20
0.0012737287881919
 30
0.0
 11
-62.12820102939497
 21
3.001305934307083
 31
0.0
  0
LINE
  5
684B
330
1E
100
AcDbEntity
  8
指線
 48
0.27
100
AcDbLine
 10
-57.32565261004214
 20
18.27186249775195
 30
0.0
 11
-57.32544133536066
 21
16.80411589129238
 31
0.0
  0
ARC
  5
684C
330
1E
100
AcDbEntity
  8
指線
 48
0.27
100
AcDbCircle
 10
-58.12806144895671
 20
16.00126299036822
 30
0.0
 40
2.408211238907886
100
AcDbArc
 50
19.48038611139741
 51
70.53706232708925
  0
LINE
  5
684D
330
1E
100
AcDbEntity
  8
指線
 48
0.27
100
AcDbLine
 10
-58.93112393752033
 20
18.27163124478545
 30
0.0
 11
-58.93091266251764
 21
16.80388463831826
 31
0.0
  0
ARC
  5
684E
330
1E
100
AcDbEntity
  8
指線
 48
0.27
100
AcDbCircle
 10
-58.12806144895671
 20
16.00126299036822
 30
0.0
 40
2.408211238907886
100
AcDbArc
 50
109.4794325558859
 51
160.5361215893392
  0
CIRCLE
  5
684F
330
1E
100
AcDbEntity
  8
指線
 48
0.27
100
AcDbCircle
 10
-58.12806144895671
 20
16.00126299036822
 30
0.0
 40
4.0
  0
CIRCLE
  5
6850
330
1E
100
AcDbEntity
  8
指線
 48
0.27
100
AcDbCircle
 10
-58.12806144895671
 20
16.00126299036822
 30
0.0
 40
4.0
  0
ARC
  5
6851
330
1E
100
AcDbEntity
  8
0
 48
0.27
100
AcDbCircle
 10
-58.12806144895671
 20
16.00126299036816
 30
0.0
 40
4.0
100
AcDbArc
 50
269.9993847866998
 51
89.99938478669987
  0
ARC
  5
6852
330
1E
100
AcDbEntity
  8
指線
 48
0.27
100
AcDbCircle
 10
-58.12806144895671
 20
16.00126299036822
 30
0.0
 40
2.408211238907886
100
AcDbArc
 50
199.4785730991861
 51
250.5370623270885
  0
LINE
  5
6853
330
1E
100
AcDbEntity
  8
指線
 48
0.27
100
AcDbLine
 10
-58.93091266251764
 20
16.80388463831826
 30
0.0
 11
-62.06397970295729
 21
16.80350995100605
 31
0.0
  0
LINE
  5
6854
330
1E
100
AcDbEntity
  8
指線
 48
0.27
100
AcDbLine
 10
-58.93068156255321
 20
15.19841008944434
 30
0.0
 11
-62.06374860299291
 21
15.19803540213178
 31
0.0
  0
LINE
  5
6855
330
1E
100
AcDbEntity
  8
0
 48
0.27
100
AcDbLine
 10
-62.12810439871692
 20
12.00130594058953
 30
0.0
 11
-58.12810439894747
 21
12.00126299059877
 31
0.0
  0
LINE
  5
6856
330
1E
100
AcDbEntity
  8
指線
 48
0.27
100
AcDbLine
 10
-57.32544133536066
 20
16.80411589129238
 30
0.0
 11
-54.19880860608009
 21
16.80464285509936
 31
0.0
  0
LINE
  5
6857
330
1E
100
AcDbEntity
  8
指線
 48
0.27
100
AcDbLine
 10
-57.3252102353959
 20
15.19864134241811
 30
0.0
 11
-54.19857750611533
 21
15.19916830622509
 31
0.0
  0
ARC
  5
6858
330
1E
100
AcDbEntity
  8
指線
 48
0.27
100
AcDbCircle
 10
-58.12806144895671
 20
16.00126299036822
 30
0.0
 40
2.408211238907886
100
AcDbArc
 50
289.4794325558848
 51
340.5379346017803
  0
LINE
  5
6859
330
1E
100
AcDbEntity
  8
指線
 48
0.27
100
AcDbLine
 10
-57.3252102353959
 20
15.19864134241811
 30
0.0
 11
-57.3249989603932
 21
13.73089473595121
 31
0.0
  0
LINE
  5
685A
330
1E
100
AcDbEntity
  8
指線
 48
0.27
100
AcDbLine
 10
-58.93068156255321
 20
15.19841008944434
 30
0.0
 11
-58.9304702878714
 21
13.73066348298442
 31
0.0
  0
LINE
  5
685B
330
1E
100
AcDbEntity
  8
0
 48
0.27
100
AcDbLine
 10
-62.1280184987354
 20
20.00130594012836
 30
0.0
 11
-58.12801849896596
 21
20.00126299013761
 31
0.0
  0
ARC
  5
685C
330
1E
100
AcDbEntity
  8
0
100
AcDbCircle
 10
-59.1277393307169
 20
46.0006402373051
 30
0.0
 40
3.0
100
AcDbArc
 50
89.99999999999511
 51
179.9993847866998
  0
ARC
  5
6867
330
1E
100
AcDbEntity
  8
0
 48
0.27
100
AcDbCircle
 10
-1.795129486546869
 20
27.67065814645071
 30
0.0
 40
1.35
100
AcDbArc
 50
157.2038119202201
 51
292.7949576553189
  0
ARC
  5
6868
330
1E
100
AcDbEntity
  8
0
 48
0.27
100
AcDbCircle
 10
-1.795129486546869
 20
27.67065814645071
 30
0.0
 40
4.15
100
AcDbArc
 50
181.2758922368033
 51
268.7228773366027
  0
ARC
  5
6869
330
1E
100
AcDbEntity
  8
0
 48
0.27
100
AcDbCircle
 10
-1.795129486546869
 20
27.67065814645071
 30
0.0
 40
2.5
100
AcDbArc
 50
167.6595493217018
 51
282.3392202517002
  0
ARC
  5
686A
330
1E
100
AcDbEntity
  8
0
 48
0.27
100
AcDbCircle
 10
-40.4551294843182
 20
27.67107325811134
 30
0.0
 40
1.35
100
AcDbArc
 50
247.2038119180795
 51
22.79495765317917
  0
ARC
  5
686B
330
1E
100
AcDbEntity
  8
0
 48
0.27
100
AcDbCircle
 10
-40.4551294843182
 20
27.67107325811134
 30
0.0
 40
2.5
100
AcDbArc
 50
257.6595493216987
 51
12.33922025169948
  0
ARC
  5
686C
330
1E
100
AcDbEntity
  8
0
 48
0.27
100
AcDbCircle
 10
-40.4551294843182
 20
27.67107325811134
 30
0.0
 40
4.15
100
AcDbArc
 50
271.2758922367967
 51
358.7228773366011
  0
ARC
  5
686D
330
1E
100
AcDbEntity
  8
0
 48
0.27
100
AcDbCircle
 10
-1.795129486546869
 20
27.67065814645071
 30
0.0
 40
4.15
100
AcDbArc
 50
181.2758922368033
 51
268.7228773366027
  0
LINE
  5
686E
330
1E
100
AcDbEntity
  8
虛線
 48
0.27
100
AcDbLine
 10
-11.1273831442466
 20
28.10075835152765
 30
0.0
 11
-11.12756138670824
 21
11.50075835248441
 31
0.0
  0
LINE
  5
686F
330
1E
100
AcDbEntity
  8
虛線
 48
0.27
100
AcDbLine
 10
-31.12738314309365
 20
28.10097310148143
 30
0.0
 11
-31.12756138555517
 21
11.50097310243819
 31
0.0
  0
ARC
  5
6870
330
1E
100
AcDbEntity
  8
0
 48
0.27
100
AcDbCircle
 10
-40.4551294843182
 20
27.67107325811134
 30
0.0
 40
4.15
100
AcDbArc
 50
271.2758922367967
 51
358.7228773366011
  0
LINE
  5
6871
330
1E
100
AcDbEntity
  8
0
100
AcDbLine
 10
-29.37709482335896
 20
-9.499359762706262
 30
0.0
 11
-12.87755014919793
 21
-9.499359762706774
 31
0.0
  0
LINE
  5
6872
330
1E
100
AcDbEntity
  8
虛線
 48
0.27
100
AcDbLine
 10
-11.12756138670824
 20
11.50075835248441
 30
0.0
 11
-31.12756138555517
 21
11.50097310243819
 31
0.0
  0
LINE
  5
6873
330
1E
100
AcDbEntity
  8
虛線
 48
0.27
100
AcDbLine
 10
-14.12756460778462
 20
11.20079056499486
 30
0.0
 11
-28.12756460697756
 21
11.20094088996251
 31
0.0
  0
LINE
  5
6874
330
1E
100
AcDbEntity
  8
虛線
 48
0.27
100
AcDbLine
 10
-14.12777935773829
 20
-8.799209433852126
 30
0.0
 11
-28.12777935693134
 21
-8.799059108884421
 31
0.0
  0
LINE
  5
6875
330
1E
100
AcDbEntity
  8
0
 48
0.27
100
AcDbLine
 10
-35.52531877142491
 20
10.04244167946399
 30
0.0
 11
-35.52536261093911
 21
5.959598967199383
 31
0.0
  0
LINE
  5
6876
330
1E
100
AcDbEntity
  8
0
 48
0.27
100
AcDbLine
 10
-37.17535527227563
 20
6.643069061930987
 30
0.0
 11
-37.1753261098981
 21
9.359007018474528
 31
0.0
  0
LINE
  5
6877
330
1E
100
AcDbEntity
  8
0
 48
0.27
100
AcDbLine
 10
-38.32535015744958
 20
7.119427006825844
 30
0.0
 11
-38.32533122459154
 21
8.882673769924394
 31
0.0
  0
LINE
  5
6878
330
1E
100
AcDbEntity
  8
0
 48
0.27
100
AcDbLine
 10
-35.52531877142491
 20
10.04244167946399
 30
0.0
 11
-35.52536261093911
 21
5.959598967199383
 31
0.0
  0
LINE
  5
6879
330
1E
100
AcDbEntity
  8
虛線
 48
0.27
100
AcDbLine
 10
-28.12756460697756
 20
11.20094088996251
 30
0.0
 11
-28.12777935693134
 21
-8.799059108884421
 31
0.0
  0
LINE
  5
687A
330
1E
100
AcDbEntity
  8
0
100
AcDbLine
 10
-42.12770189929756
 20
-9.499359762705864
 30
0.0
 11
-36.37779775705991
 21
-9.499359762706035
 31
0.0
  0
LINE
  5
687B
330
1E
100
AcDbEntity
  8
0
 48
0.27
100
AcDbLine
 10
-35.52536261093911
 20
5.959598967199383
 30
0.0
 11
-38.32535015744958
 21
7.119427006825844
 31
0.0
  0
LINE
  5
687C
330
1E
100
AcDbEntity
  8
0
 48
0.27
100
AcDbLine
 10
-43.8174576123855
 20
0.0011093595066995
 30
0.0
 11
-37.17535527227563
 21
6.643069061930987
 31
0.0
  0
LINE
  5
687D
330
1E
100
AcDbEntity
  8
0
 48
0.27
100
AcDbLine
 10
-35.52536261093911
 20
5.959598967199383
 30
0.0
 11
-41.48400523462004
 21
0.0010843040671489
 31
0.0
  0
LINE
  5
687E
330
1E
100
AcDbEntity
  8
0
 48
0.27
100
AcDbLine
 10
-35.52536261093911
 20
5.959598967199383
 30
0.0
 11
-43.6277101768197
 21
-2.142574602537138
 31
0.0
  0
LINE
  5
687F
330
1E
100
AcDbEntity
  8
0
100
AcDbLine
 10
-43.6277393285261
 20
-2.142816195922193
 30
0.0
 11
-43.6277393285261
 21
-7.999560865552439
 31
0.0
  0
LINE
  5
6880
330
1E
100
AcDbEntity
  8
0
 48
0.27
100
AcDbLine
 10
-42.12770189929756
 20
-9.499359762705921
 30
0.0
 11
-43.62771017681967
 21
-7.999319272167383
 31
0.0
  0
LINE
  5
6881
330
1E
100
AcDbEntity
  8
0
 48
0.27
100
AcDbLine
 10
-45.44380320899171
 20
0.0011268223887555
 30
0.0
 11
-38.32535015744958
 21
7.119427006825844
 31
0.0
  0
LINE
  5
6882
330
1E
100
AcDbEntity
  8
0
 48
0.27
100
AcDbLine
 10
-30.3770781561359
 20
-8.499355739635177
 30
0.0
 11
-29.37709482335896
 21
-9.499359762706262
 31
0.0
  0
LINE
  5
6883
330
1E
100
AcDbEntity
  8
0
 48
0.27
100
AcDbLine
 10
-30.3770781561359
 20
-8.499355739635177
 30
0.0
 11
-35.37771874125986
 21
-8.49930204526845
 31
0.0
  0
LINE
  5
6884
330
1E
100
AcDbEntity
  8
0
 48
0.27
100
AcDbLine
 10
-35.37771874125986
 20
-8.49930204526845
 30
0.0
 11
-36.37779775705991
 21
-9.499359762706035
 31
0.0
  0
LINE
  5
6885
330
1E
100
AcDbEntity
  8
虛線
 48
0.27
100
AcDbLine
 10
-28.12777935693134
 20
-8.799059108884421
 30
0.0
 11
-28.82778687313953
 21
-9.499051592595719
 31
0.0
  0
LINE
  5
6886
330
1E
100
AcDbEntity
  8
0
 48
0.27
100
AcDbLine
 10
-37.1753261098981
 20
9.359007018474528
 30
0.0
 11
-38.01488081673614
 21
10.19857975493966
 31
0.0
  0
LINE
  5
6887
330
1E
100
AcDbEntity
  8
0
 48
0.27
100
AcDbLine
 10
-35.52531877142491
 20
10.04244167946399
 30
0.0
 11
-38.32533122459154
 21
8.882673769924394
 31
0.0
  0
LINE
  5
6888
330
1E
100
AcDbEntity
  8
0
 48
0.27
100
AcDbLine
 10
-36.30612526228197
 20
10.82326493831686
 30
0.0
 11
-38.01488081673614
 21
10.19857975493966
 31
0.0
  0
ARC
  5
6889
330
1E
100
AcDbEntity
  8
0
 48
0.27
100
AcDbCircle
 10
-40.45531127015408
 20
10.74107325908727
 30
0.0
 40
2.5
100
AcDbArc
 50
347.4672630968999
 51
102.5315064765005
  0
ARC
  5
688A
330
1E
100
AcDbEntity
  8
0
 48
0.27
100
AcDbCircle
 10
-40.45531127015408
 20
10.74107325908727
 30
0.0
 40
4.15
100
AcDbArc
 50
1.13482994020517
 51
88.8639396332026
  0
ARC
  5
688B
330
1E
100
AcDbEntity
  8
0
 48
0.27
100
AcDbCircle
 10
-40.45531127015408
 20
10.74107325908727
 30
0.0
 40
4.15
100
AcDbArc
 50
1.13482994020517
 51
88.8639396332026
  0
LINE
  5
688C
330
1E
100
AcDbEntity
  8
0
 48
0.27
100
AcDbLine
 10
-43.52523287098222
 20
18.04252757898433
 30
0.0
 11
-46.32524532414885
 21
16.88275966944473
 31
0.0
  0
LINE
  5
688D
330
1E
100
AcDbEntity
  8
0
 48
0.27
100
AcDbLine
 10
-43.52523287098222
 20
18.04252757898433
 30
0.0
 11
-40.37303048719315
 21
14.8902575009368
 31
0.0
  0
LINE
  5
688E
330
1E
100
AcDbEntity
  8
0
 48
0.27
100
AcDbLine
 10
-40.99775236594388
 20
13.18151536198797
 30
0.0
 11
-45.17524020945541
 21
17.35909291799487
 31
0.0
  0
LINE
  5
688F
330
1E
100
AcDbEntity
  8
0
 48
0.27
100
AcDbLine
 10
-46.32524532414885
 20
16.88275966944473
 30
0.0
 11
-46.32519553702167
 21
21.51951290597736
 31
0.0
  0
LINE
  5
6890
330
1E
100
AcDbEntity
  8
0
 48
0.27
100
AcDbLine
 10
-43.52523287098222
 20
18.04252757898433
 30
0.0
 11
-40.37303048719315
 21
14.8902575009368
 31
0.0
  0
LINE
  5
6891
330
1E
100
AcDbEntity
  8
0
 48
0.27
100
AcDbLine
 10
-41.53265112496018
 20
12.09006254821241
 30
0.0
 11
-46.32524532414885
 21
16.88275966944473
 31
0.0
  0
ARC
  5
6892
330
1E
100
AcDbEntity
  8
0
 48
0.27
100
AcDbCircle
 10
-41.1790939381085
 20
12.44361214250665
 30
0.0
 40
0.5
100
AcDbArc
 50
224.9993847866911
 51
293.0312964888001
  0
LINE
  5
6893
330
1E
100
AcDbEntity
  8
0
 48
0.27
100
AcDbLine
 10
-40.99775236594388
 20
13.18151536198797
 30
0.0
 11
-41.23975784952597
 21
11.94730589647349
 31
0.0
  0
ARC
  5
6894
330
1E
100
AcDbEntity
  8
0
 48
0.27
100
AcDbCircle
 10
-40.45531127015408
 20
10.74107325908727
 30
0.0
 40
1.35
100
AcDbArc
 50
336.9674730828481
 51
113.0312964888027
  0
ARC
  5
6895
330
1E
100
AcDbEntity
  8
0
 48
0.27
100
AcDbCircle
 10
-38.75278793037899
 20
10.0172540292329
 30
0.0
 40
0.5
100
AcDbArc
 50
156.967473082848
 51
224.9993847894454
  0
LINE
  5
6896
330
1E
100
AcDbEntity
  8
0
 48
0.27
100
AcDbLine
 10
-38.01488081673614
 20
10.19857975493966
 30
0.0
 11
-39.2490954790498
 21
9.956600775961874
 31
0.0
  0
LINE
  5
6897
330
1E
100
AcDbEntity
  8
0
 48
0.27
100
AcDbLine
 10
-38.32533122459154
 20
8.882673769924394
 30
0.0
 11
-39.10634511721372
 21
9.663704434921839
 31
0.0
  0
LINE
  5
6898
330
1E
100
AcDbEntity
  8
0
 48
0.27
100
AcDbLine
 10
-40.37303048719315
 20
14.8902575009368
 30
0.0
 11
-40.99775236594388
 21
13.18151536198797
 31
0.0
  0
LINE
  5
6899
330
1E
100
AcDbEntity
  8
0
 48
0.27
100
AcDbLine
 10
-43.5252079905112
 20
20.35968486635062
 30
0.0
 11
-46.32519553702167
 21
21.51951290597736
 31
0.0
  0
LINE
  5
689A
330
1E
100
AcDbEntity
  8
0
 48
0.27
100
AcDbLine
 10
-45.17520065184771
 20
21.04315496108245
 30
0.0
 11
-40.98942979656675
 21
25.22883592801878
 31
0.0
  0
LINE
  5
689B
330
1E
100
AcDbEntity
  8
0
 48
0.27
100
AcDbLine
 10
-46.32519553702167
 20
21.51951290597736
 30
0.0
 11
-41.52546944769404
 21
26.31913592231621
 31
0.0
  0
LINE
  5
689C
330
1E
100
AcDbEntity
  8
0
 48
0.27
100
AcDbLine
 10
-45.17524020945541
 20
17.35909291799487
 30
0.0
 11
-45.17520065184771
 21
21.04315496108245
 31
0.0
  0
LINE
  5
689D
330
1E
100
AcDbEntity
  8
0
 48
0.27
100
AcDbLine
 10
-40.36272276218028
 20
23.52210218105518
 30
0.0
 11
-43.5252079905112
 21
20.35968486635062
 31
0.0
  0
LINE
  5
689E
330
1E
100
AcDbEntity
  8
0
 48
0.27
100
AcDbLine
 10
-40.36272276218028
 20
23.52210218105518
 30
0.0
 11
-43.5252079905112
 21
20.35968486635062
 31
0.0
  0
LINE
  5
689F
330
1E
100
AcDbEntity
  8
0
 48
0.27
100
AcDbLine
 10
-43.5252079905112
 20
20.35968486635062
 30
0.0
 11
-43.52523287098222
 21
18.04252757898433
 31
0.0
  0
LINE
  5
68A0
330
1E
100
AcDbEntity
  8
0
 48
0.27
100
AcDbLine
 10
-43.5252079905112
 20
20.35968486635062
 30
0.0
 11
-43.52523287098222
 21
18.04252757898433
 31
0.0
  0
ARC
  5
68A1
330
1E
100
AcDbEntity
  8
0
 48
0.27
100
AcDbCircle
 10
-41.17191985339991
 20
25.96557873546465
 30
0.0
 40
0.5
100
AcDbArc
 50
67.20381191808025
 51
134.9993847866983
  0
LINE
  5
68A2
330
1E
100
AcDbEntity
  8
0
 48
0.27
100
AcDbLine
 10
-40.98942979656675
 20
25.22883592801878
 30
0.0
 11
-41.23382401545422
 21
26.46173181135992
 31
0.0
  0
LINE
  5
68A3
330
1E
100
AcDbEntity
  8
0
 48
0.27
100
AcDbLine
 10
-40.36272276218028
 20
23.52210218105518
 30
0.0
 11
-40.98942979656675
 21
25.22883592801878
 31
0.0
  0
LINE
  5
68A4
330
1E
100
AcDbEntity
  8
0
 48
0.27
100
AcDbLine
 10
-36.30612526228197
 20
10.82326493831686
 30
0.0
 11
-35.52531877142491
 21
10.04244167946399
 31
0.0
  0
LINE
  5
68A5
330
1E
100
AcDbEntity
  8
0
 48
0.27
100
AcDbLine
 10
-36.30612526228197
 20
10.82326493831686
 30
0.0
 11
-35.52531877142491
 21
10.04244167946399
 31
0.0
  0
LINE
  5
68A6
330
1E
100
AcDbEntity
  8
虛線
 48
0.27
100
AcDbLine
 10
-28.12756460697756
 20
11.20094088996251
 30
0.0
 11
-28.42756138571088
 21
11.50094411119448
 31
0.0
  0
LINE
  5
68A7
330
1E
100
AcDbEntity
  8
0
 48
0.27
100
AcDbLine
 10
-5.075326111748552
 20
9.358662344798688
 30
0.0
 11
-5.075355274126081
 21
6.642724388255146
 31
0.0
  0
LINE
  5
68A8
330
1E
100
AcDbEntity
  8
0
 48
0.27
100
AcDbLine
 10
-3.925331226574598
 20
8.882304400003874
 30
0.0
 11
-3.925350159432639
 21
7.119057636905324
 31
0.0
  0
LINE
  5
68A9
330
1E
100
AcDbEntity
  8
0
 48
0.27
100
AcDbLine
 10
-6.725362612599269
 20
5.959289727265911
 30
0.0
 11
-6.725318773085064
 21
10.04213243953057
 31
0.0
  0
LINE
  5
68AA
330
1E
100
AcDbEntity
  8
0
 48
0.27
100
AcDbLine
 10
-6.725362612599269
 20
5.959289727265911
 30
0.0
 11
-6.725318773085064
 21
10.04213243953057
 31
0.0
  0
LINE
  5
68AB
330
1E
100
AcDbEntity
  8
虛線
 48
0.27
100
AcDbLine
 10
-14.12756460778462
 20
11.20079056499486
 30
0.0
 11
-14.12777935773829
 21
-8.799209433852126
 31
0.0
  0
LINE
  5
68AC
330
1E
100
AcDbEntity
  8
0
 48
0.27
100
AcDbLine
 10
-6.877332866231768
 20
-8.499355736931875
 30
0.0
 11
-11.87746978887821
 21
-8.499302047973174
 31
0.0
  0
LINE
  5
68AD
330
1E
100
AcDbEntity
  8
虛線
 48
0.27
100
AcDbLine
 10
-14.12777935773829
 20
-8.799209433852126
 30
0.0
 11
-13.42778687402705
 21
-9.499216950060144
 31
0.0
  0
LINE
  5
68AE
330
1E
100
AcDbEntity
  8
0
 48
0.27
100
AcDbLine
 10
-11.87746978887821
 20
-8.499302047973174
 30
0.0
 11
-12.87755014919793
 21
-9.499359762706774
 31
0.0
  0
LINE
  5
68AF
330
1E
100
AcDbEntity
  8
0
100
AcDbLine
 10
1.372260671473895
 20
-2.142816195922023
 30
0.0
 11
1.372260671473895
 21
-7.999560865552211
 31
0.0
  0
LINE
  5
68B0
330
1E
100
AcDbEntity
  8
0
100
AcDbLine
 10
-5.877350819355399
 20
-9.499359762706944
 30
0.0
 11
-0.127420874791369
 21
-9.499359762707172
 31
0.0
  0
LINE
  5
68B1
330
1E
100
AcDbEntity
  8
0
 48
0.27
100
AcDbLine
 10
-6.877332866231768
 20
-8.499355736931875
 30
0.0
 11
-5.877350819355399
 21
-9.499359762706944
 31
0.0
  0
LINE
  5
68B2
330
1E
100
AcDbEntity
  8
0
 48
0.27
100
AcDbLine
 10
1.372289823180295
 20
-7.99968127067018
 30
0.0
 11
-0.127420874793529
 21
-9.499359762709332
 31
0.0
  0
LINE
  5
68B3
330
1E
100
AcDbEntity
  8
0
 48
0.27
100
AcDbLine
 10
-3.925350159432639
 20
7.119057636905324
 30
0.0
 11
3.192950025004535
 21
0.0006045853633054
 31
0.0
  0
LINE
  5
68B4
330
1E
100
AcDbEntity
  8
0
 48
0.27
100
AcDbLine
 10
1.566604428398221
 20
0.0006220482453614
 30
0.0
 11
-5.075355274126081
 21
6.642724388255146
 31
0.0
  0
LINE
  5
68B5
330
1E
100
AcDbEntity
  8
0
 48
0.27
100
AcDbLine
 10
1.372289823180295
 20
-2.138536607293872
 30
0.0
 11
-6.725362612599269
 21
5.959289727265911
 31
0.0
  0
LINE
  5
68B6
330
1E
100
AcDbEntity
  8
0
 48
0.27
100
AcDbLine
 10
-0.7668479493672749
 20
0.0006471036848552
 30
0.0
 11
-6.725362612599269
 21
5.959289727265911
 31
0.0
  0
LINE
  5
68B7
330
1E
100
AcDbEntity
  8
0
 48
0.27
100
AcDbLine
 10
-6.725362612599269
 20
5.959289727265911
 30
0.0
 11
-3.925350159432639
 21
7.119057636905324
 31
0.0
  0
LINE
  5
68B8
330
1E
100
AcDbEntity
  8
虛線
 48
0.27
100
AcDbLine
 10
-14.12756460778439
 20
11.20079056499486
 30
0.0
 11
-13.82756138655242
 21
11.50078734372818
 31
0.0
  0
LINE
  5
68B9
330
1E
100
AcDbEntity
  8
0
 48
0.27
100
AcDbLine
 10
1.274767126435136
 20
18.04204653908783
 30
0.0
 11
4.074754672945744
 21
16.88221849956119
 31
0.0
  0
LINE
  5
68BA
330
1E
100
AcDbEntity
  8
0
 48
0.27
100
AcDbLine
 10
4.074804460072897
 20
21.51897173609382
 30
0.0
 11
4.074754672945744
 21
16.88221849956119
 31
0.0
  0
LINE
  5
68BB
330
1E
100
AcDbEntity
  8
0
 48
0.27
100
AcDbLine
 10
2.92475978777179
 20
17.358576444356
 30
0.0
 11
-1.252817768235132
 21
13.18108860084453
 31
0.0
  0
LINE
  5
68BC
330
1E
100
AcDbEntity
  8
0
 48
0.27
100
AcDbLine
 10
-1.87750295171233
 20
14.88984415529882
 30
0.0
 11
1.274767126435136
 21
18.04204653908783
 31
0.0
  0
LINE
  5
68BD
330
1E
100
AcDbEntity
  8
0
 48
0.27
100
AcDbLine
 10
-1.87750295171233
 20
14.88984415529882
 30
0.0
 11
1.274767126435136
 21
18.04204653908783
 31
0.0
  0
LINE
  5
68BE
330
1E
100
AcDbEntity
  8
0
 48
0.27
100
AcDbLine
 10
4.074754672945744
 20
16.88221849956119
 30
0.0
 11
-0.7179424482864363
 21
12.08962430037229
 31
0.0
  0
ARC
  5
68BF
330
1E
100
AcDbEntity
  8
0
 48
0.27
100
AcDbCircle
 10
-1.071492042580672
 20
12.44318148722397
 30
0.0
 40
0.5
100
AcDbArc
 50
246.9674730846032
 51
314.9993847866983
  0
LINE
  5
68C0
330
1E
100
AcDbEntity
  8
0
 48
0.27
100
AcDbLine
 10
-1.252817768235132
 20
13.18108860084453
 30
0.0
 11
-1.010838789351396
 21
11.94687393854798
 31
0.0
  0
ARC
  5
68C1
330
1E
100
AcDbEntity
  8
0
 48
0.27
100
AcDbCircle
 10
-1.795311272382747
 20
10.74065814742658
 30
0.0
 40
4.15
100
AcDbArc
 50
91.13482994019701
 51
178.8639396332026
  0
ARC
  5
68C2
330
1E
100
AcDbEntity
  8
0
 48
0.27
100
AcDbCircle
 10
-1.795311272382747
 20
10.74065814742658
 30
0.0
 40
1.35
100
AcDbArc
 50
66.96747308460318
 51
203.0312964905668
  0
ARC
  5
68C3
330
1E
100
AcDbEntity
  8
0
 48
0.27
100
AcDbCircle
 10
-1.795311272382747
 20
10.74065814742658
 30
0.0
 40
2.5
100
AcDbArc
 50
77.46726309690096
 51
192.5315064765006
  0
ARC
  5
68C4
330
1E
100
AcDbEntity
  8
0
 48
0.27
100
AcDbCircle
 10
-1.795311272382747
 20
10.74065814742658
 30
0.0
 40
4.15
100
AcDbArc
 50
91.13482994019701
 51
178.8639396332026
  0
LINE
  5
68C5
330
1E
100
AcDbEntity
  8
0
 48
0.27
100
AcDbLine
 10
-4.235753375283451
 20
10.19821705163673
 30
0.0
 11
-5.075326111748552
 21
9.358662344798688
 31
0.0
  0
LINE
  5
68C6
330
1E
100
AcDbEntity
  8
0
 48
0.27
100
AcDbLine
 10
-5.944495514232187
 20
10.82293893038758
 30
0.0
 11
-4.235753375283451
 21
10.19821705163673
 31
0.0
  0
LINE
  5
68C7
330
1E
100
AcDbEntity
  8
0
 48
0.27
100
AcDbLine
 10
-6.725318773085064
 20
10.04213243953057
 30
0.0
 11
-3.925331226574598
 21
8.882304400003874
 31
0.0
  0
LINE
  5
68C8
330
1E
100
AcDbEntity
  8
0
 48
0.27
100
AcDbLine
 10
-6.725318773085064
 20
10.04213243953057
 30
0.0
 11
-5.944495514232187
 21
10.82293893038758
 31
0.0
  0
LINE
  5
68C9
330
1E
100
AcDbEntity
  8
0
 48
0.27
100
AcDbLine
 10
-6.725318773085064
 20
10.04213243953057
 30
0.0
 11
-5.944495514232187
 21
10.82293893038758
 31
0.0
  0
ARC
  5
68CA
330
1E
100
AcDbEntity
  8
0
 48
0.27
100
AcDbCircle
 10
-3.4978501557799
 20
10.01687547941986
 30
0.0
 40
0.5
100
AcDbArc
 50
314.9993847839716
 51
23.03129649055254
  0
LINE
  5
68CB
330
1E
100
AcDbEntity
  8
0
 48
0.27
100
AcDbLine
 10
-3.144300561502603
 20
9.66331829255148
 30
0.0
 11
-3.925331226574598
 21
8.882304400003874
 31
0.0
  0
LINE
  5
68CC
330
1E
100
AcDbEntity
  8
0
 48
0.27
100
AcDbLine
 10
-4.235753375283451
 20
10.19821705163673
 30
0.0
 11
-3.001543909751802
 21
9.956211567960565
 31
0.0
  0
LINE
  5
68CD
330
1E
100
AcDbEntity
  8
0
 48
0.27
100
AcDbLine
 10
-1.87750295171233
 20
14.88984415529882
 30
0.0
 11
-1.252817768235132
 21
13.18108860084453
 31
0.0
  0
LINE
  5
68CE
330
1E
100
AcDbEntity
  8
0
 48
0.27
100
AcDbLine
 10
-0.7248185562658592
 20
26.31869782542151
 30
0.0
 11
4.074804460072897
 21
21.51897173609382
 31
0.0
  0
LINE
  5
68CF
330
1E
100
AcDbEntity
  8
0
 48
0.27
100
AcDbLine
 10
-1.260881621556961
 20
25.22840934282454
 30
0.0
 11
2.924799345379483
 21
21.04263848744358
 31
0.0
  0
LINE
  5
68D0
330
1E
100
AcDbEntity
  8
0
 48
0.27
100
AcDbLine
 10
1.274792006906153
 20
20.35920382645412
 30
0.0
 11
-1.887625307798288
 21
23.52168905478515
 31
0.0
  0
LINE
  5
68D1
330
1E
100
AcDbEntity
  8
0
 48
0.27
100
AcDbLine
 10
1.274792006906153
 20
20.35920382645412
 30
0.0
 11
-1.887625307798288
 21
23.52168905478515
 31
0.0
  0
LINE
  5
68D2
330
1E
100
AcDbEntity
  8
0
 48
0.27
100
AcDbLine
 10
-1.260881621556961
 20
25.22840934282454
 30
0.0
 11
-1.016460926201347
 21
26.46129997751774
 31
0.0
  0
ARC
  5
68D3
330
1E
100
AcDbEntity
  8
0
 48
0.27
100
AcDbCircle
 10
-1.078375743117533
 20
25.96514823112727
 30
0.0
 40
0.5
100
AcDbArc
 50
44.99938478669109
 51
112.7949576553185
  0
LINE
  5
68D4
330
1E
100
AcDbEntity
  8
0
 48
0.27
100
AcDbLine
 10
-1.887625307798288
 20
23.52168905478515
 30
0.0
 11
-1.260881621556961
 21
25.22840934282454
 31
0.0
  0
LINE
  5
68D5
330
1E
100
AcDbEntity
  8
0
 48
0.27
100
AcDbLine
 10
1.274792006906153
 20
20.35920382645412
 30
0.0
 11
4.074804460072897
 21
21.51897173609382
 31
0.0
  0
LINE
  5
68D6
330
1E
100
AcDbEntity
  8
0
 48
0.27
100
AcDbLine
 10
2.924799345379483
 20
21.04263848744358
 30
0.0
 11
2.92475978777179
 21
17.358576444356
 31
0.0
  0
LINE
  5
68D7
330
1E
100
AcDbEntity
  8
0
 48
0.27
100
AcDbLine
 10
1.274767126435136
 20
18.04204653908783
 30
0.0
 11
1.274792006906153
 21
20.35920382645412
 31
0.0
  0
LINE
  5
68D8
330
1E
100
AcDbEntity
  8
0
 48
0.27
100
AcDbLine
 10
1.274767126435136
 20
18.04204653908783
 30
0.0
 11
1.274792006906153
 21
20.35920382645412
 31
0.0
  0
LINE
  5
68D9
330
1E
100
AcDbEntity
  8
中心線
 48
0.27
100
AcDbLine
 10
-7.431591752519466
 20
42.00086570145487
 30
0.0
 11
-29.19024042446381
 21
42.00086570145487
 31
0.0
  0
LINE
  5
68DA
330
1E
100
AcDbEntity
  8
0
 48
0.27
100
AcDbLine
 10
-18.24098640743841
 20
37.00086403145457
 30
0.0
 11
-24.01449057961361
 21
37.00086403145457
 31
0.0
  0
LINE
  5
68DB
330
1E
100
AcDbEntity
  8
0
 48
0.27
100
AcDbLine
 10
-24.01449057961361
 20
47.00086570145487
 30
0.0
 11
-18.24098807743865
 21
47.00086570145487
 31
0.0
  0
ARC
  5
68DC
330
1E
100
AcDbEntity
  8
0
 48
0.27
100
AcDbCircle
 10
-21.1277393285261
 20
42.00086570145487
 30
0.0
 40
5.0
100
AcDbArc
 50
48.59037799889873
 51
311.4096220031994
  0
ARC
  5
68DD
330
1E
100
AcDbEntity
  8
0
 48
0.27
100
AcDbCircle
 10
-21.1277393285261
 20
42.00086570145487
 30
0.0
 40
6.562501095937681
100
AcDbArc
 50
30.24329777399846
 51
329.7566907592986
  0
LINE
  5
68DE
330
1E
100
AcDbEntity
  8
0
 48
0.27
100
AcDbLine
 10
-6.766543004086997
 20
28.40071152703393
 30
0.0
 11
-35.48370029003155
 21
28.40101987744396
 31
0.0
  0
LINE
  5
68DF
330
1E
100
AcDbEntity
  8
0
 48
0.27
100
AcDbLine
 10
-36.1671349510209
 20
30.05102721591703
 30
0.0
 11
-6.083072909355166
 21
30.05070418837039
 31
0.0
  0
LINE
  5
68E0
330
1E
100
AcDbEntity
  8
0
 48
0.27
100
AcDbLine
 10
-36.64346819957117
 20
31.20103233061059
 30
0.0
 11
-5.606714964560353
 21
31.2006990735444
 31
0.0
  0
LINE
  5
68E1
330
1E
100
AcDbEntity
  8
虛線
 48
0.27
100
AcDbLine
 10
-11.1273831442466
 20
28.10075835152765
 30
0.0
 11
-31.12738314309365
 21
28.10097310148143
 31
0.0
  0
LINE
  5
68E2
330
1E
100
AcDbEntity
  8
0
 48
0.27
100
AcDbLine
 10
-6.766543004086997
 20
28.40071152703393
 30
0.0
 11
-35.48370029003155
 21
28.40101987744396
 31
0.0
  0
LINE
  5
68E3
330
1E
100
AcDbEntity
  8
0
 48
0.27
100
AcDbLine
 10
-24.01449057961361
 20
47.00086570145487
 30
0.0
 11
-26.90124183070106
 21
42.00086570145487
 31
0.0
  0
LINE
  5
68E4
330
1E
100
AcDbEntity
  8
0
 48
0.27
100
AcDbLine
 10
-38.01288068069226
 20
28.20532112310116
 30
0.0
 11
-36.1671349510209
 21
30.05102721591703
 31
0.0
  0
LINE
  5
68E5
330
1E
100
AcDbEntity
  8
0
 48
0.27
100
AcDbLine
 10
-36.30616039275273
 20
27.57857743685986
 30
0.0
 11
-38.01288068069226
 21
28.20532112310116
 31
0.0
  0
LINE
  5
68E6
330
1E
100
AcDbEntity
  8
0
 48
0.27
100
AcDbLine
 10
-39.10316916326889
 20
28.74138418832212
 30
0.0
 11
-36.64346819957117
 21
31.20103233061059
 31
0.0
  0
ARC
  5
68E7
330
1E
100
AcDbEntity
  8
0
 48
0.27
100
AcDbCircle
 10
-38.74961956896817
 20
28.38782700147703
 30
0.0
 40
0.5
100
AcDbArc
 50
134.9993847877484
 51
202.7949576531792
  0
LINE
  5
68E8
330
1E
100
AcDbEntity
  8
0
 48
0.27
100
AcDbLine
 10
-38.01288068069226
 20
28.20532112310116
 30
0.0
 11
-39.24577131536251
 21
28.44974181836148
 31
0.0
  0
LINE
  5
68E9
330
1E
100
AcDbEntity
  8
0
 48
0.27
100
AcDbLine
 10
-35.48370029003155
 20
28.40101987744396
 30
0.0
 11
-36.30616039275273
 21
27.57857743685986
 31
0.0
  0
LINE
  5
68EA
330
1E
100
AcDbEntity
  8
0
 48
0.27
100
AcDbLine
 10
-35.48370029003155
 20
28.40101987744396
 30
0.0
 11
-36.64346819957117
 21
31.20103233061059
 31
0.0
  0
LINE
  5
68EB
330
1E
100
AcDbEntity
  8
0
 48
0.27
100
AcDbLine
 10
-35.48370029003155
 20
28.40101987744396
 30
0.0
 11
-36.30616039275273
 21
27.57857743685986
 31
0.0
  0
LINE
  5
68EC
330
1E
100
AcDbEntity
  8
虛線
 48
0.27
100
AcDbLine
 10
-31.12738314309365
 20
28.10097310148143
 30
0.0
 11
-31.30058500259128
 21
28.40097496125321
 31
0.0
  0
LINE
  5
68ED
330
1E
100
AcDbEntity
  8
0
 48
0.27
100
AcDbLine
 10
-26.90124183070106
 20
42.00086570145487
 30
0.0
 11
-24.01449057961361
 21
37.00086403145457
 31
0.0
  0
LINE
  5
68EE
330
1E
100
AcDbEntity
  8
0
 48
0.27
100
AcDbLine
 10
-17.51929901216661
 20
45.7508652839548
 30
0.0
 11
-18.24098807743865
 21
47.00086570145487
 31
0.0
  0
LINE
  5
68EF
330
1E
100
AcDbEntity
  8
虛線
 48
0.27
100
AcDbLine
 10
-11.12738314424638
 20
28.10075835152765
 30
0.0
 11
-10.95417484225021
 21
28.40075649172116
 31
0.0
  0
LINE
  5
68F0
330
1E
100
AcDbEntity
  8
0
 48
0.27
100
AcDbLine
 10
-16.28183695876044
 20
45.67880977042148
 30
0.0
 11
-13.77957828300822
 21
44.5465410513326
 31
0.0
  0
LINE
  5
68F1
330
1E
100
AcDbEntity
  8
0
 48
0.27
100
AcDbLine
 10
-16.28183695876044
 20
38.32291996248796
 30
0.0
 11
-13.77957828300822
 21
39.45518868157683
 31
0.0
  0
LINE
  5
68F2
330
1E
100
AcDbEntity
  8
0
 48
0.27
100
AcDbLine
 10
-17.96929234881548
 20
41.26927687290453
 30
0.0
 11
-17.99686739779551
 21
42.00086570145487
 31
0.0
  0
LINE
  5
68F3
330
1E
100
AcDbEntity
  8
0
 48
0.27
100
AcDbLine
 10
-17.39033823013011
 20
38.25086444895465
 30
0.0
 11
-18.21887226024535
 21
42.00086570145487
 31
0.0
  0
LINE
  5
68F4
330
1E
100
AcDbEntity
  8
0
 48
0.27
100
AcDbLine
 10
-19.5008565280867
 20
38.25086444895465
 30
0.0
 11
-20.32939055820191
 21
42.00086570145487
 31
0.0
  0
LINE
  5
68F5
330
1E
100
AcDbEntity
  8
0
 48
0.27
100
AcDbLine
 10
-19.5008565280867
 20
38.25086444895465
 30
0.0
 11
-15.73327016989981
 21
38.25086444895465
 31
0.0
  0
LINE
  5
68F6
330
1E
100
AcDbEntity
  8
0
 48
0.27
100
AcDbLine
 10
-17.88762932217776
 20
40.56580250367431
 30
0.0
 11
-17.96929234881548
 21
41.26927687290453
 31
0.0
  0
LINE
  5
68F7
330
1E
100
AcDbEntity
  8
0
 48
0.27
100
AcDbLine
 10
-17.75501624903137
 20
39.91747656227886
 30
0.0
 11
-17.88762932217776
 21
40.56580250367431
 31
0.0
  0
LINE
  5
68F8
330
1E
100
AcDbEntity
  8
0
 48
0.27
100
AcDbLine
 10
-17.57654663085196
 20
39.34921378700398
 30
0.0
 11
-17.75501624903137
 21
39.91747656227886
 31
0.0
  0
LINE
  5
68F9
330
1E
100
AcDbEntity
  8
0
 48
0.27
100
AcDbLine
 10
-17.35908249991041
 20
38.88285277499671
 30
0.0
 11
-17.57654663085196
 21
39.34921378700398
 31
0.0
  0
LINE
  5
68FA
330
1E
100
AcDbEntity
  8
0
 48
0.27
100
AcDbLine
 10
-17.11097886910215
 20
38.53631597200007
 30
0.0
 11
-17.35908249991041
 21
38.88285277499671
 31
0.0
  0
LINE
  5
68FB
330
1E
100
AcDbEntity
  8
0
 48
0.27
100
AcDbLine
 10
-17.11097886910215
 20
38.53631597200007
 30
0.0
 11
-16.84177144126948
 21
38.32291996248796
 31
0.0
  0
LINE
  5
68FC
330
1E
100
AcDbEntity
  8
0
 48
0.27
100
AcDbLine
 10
-16.84177144126948
 20
38.32291996248796
 30
0.0
 11
-16.56180420001499
 21
38.25086444895465
 31
0.0
  0
LINE
  5
68FD
330
1E
100
AcDbEntity
  8
0
 48
0.27
100
AcDbLine
 10
-16.56180420001499
 20
38.25086444895465
 30
0.0
 11
-16.28183695876044
 21
38.32291996248796
 31
0.0
  0
LINE
  5
68FE
330
1E
100
AcDbEntity
  8
0
 48
0.27
100
AcDbLine
 10
-15.73327016989981
 20
38.25086444895465
 30
0.0
 11
-15.65464654426964
 21
38.60672319500805
 31
0.0
  0
LINE
  5
68FF
330
1E
100
AcDbEntity
  8
0
 48
0.27
100
AcDbLine
 10
-17.51929901216661
 20
38.25086444895465
 30
0.0
 11
-18.24098640743841
 21
37.00086403145457
 31
0.0
  0
LINE
  5
6900
330
1E
100
AcDbEntity
  8
0
 48
0.27
100
AcDbLine
 10
-20.32939055820191
 20
42.00086570145487
 30
0.0
 11
-18.21887226024535
 21
42.00086570145487
 31
0.0
  0
LINE
  5
6901
330
1E
100
AcDbEntity
  8
0
 48
0.27
100
AcDbLine
 10
-19.5008565280867
 20
45.7508652839548
 30
0.0
 11
-15.73327016989981
 21
45.7508652839548
 31
0.0
  0
LINE
  5
6902
330
1E
100
AcDbEntity
  8
0
 48
0.27
100
AcDbLine
 10
-20.32939055820191
 20
42.00086570145487
 30
0.0
 11
-19.5008565280867
 21
45.7508652839548
 31
0.0
  0
LINE
  5
6903
330
1E
100
AcDbEntity
  8
0
 48
0.27
100
AcDbLine
 10
-17.99686739779551
 20
42.00086570145487
 30
0.0
 11
-17.96929234881548
 21
42.73245452988021
 31
0.0
  0
LINE
  5
6904
330
1E
100
AcDbEntity
  8
0
 48
0.27
100
AcDbLine
 10
-17.96929234881548
 20
42.73245452988021
 30
0.0
 11
-17.88762932217776
 21
43.43592889923536
 31
0.0
  0
LINE
  5
6905
330
1E
100
AcDbEntity
  8
0
 48
0.27
100
AcDbLine
 10
-17.88762932217776
 20
43.43592889923536
 30
0.0
 11
-17.75501624903137
 21
44.08425317063057
 31
0.0
  0
LINE
  5
6906
330
1E
100
AcDbEntity
  8
0
 48
0.27
100
AcDbLine
 10
-17.75501624903137
 20
44.08425317063057
 30
0.0
 11
-17.57654663085196
 21
44.6525159459054
 31
0.0
  0
LINE
  5
6907
330
1E
100
AcDbEntity
  8
0
 48
0.27
100
AcDbLine
 10
-18.21887226024535
 20
42.00086570145487
 30
0.0
 11
-17.39033823013011
 21
45.7508652839548
 31
0.0
  0
LINE
  5
6908
330
1E
100
AcDbEntity
  8
0
 48
0.27
100
AcDbLine
 10
-17.57654663085196
 20
44.6525159459054
 30
0.0
 11
-17.35908249991041
 21
45.11887695791273
 31
0.0
  0
LINE
  5
6909
330
1E
100
AcDbEntity
  8
0
 48
0.27
100
AcDbLine
 10
-17.35908249991041
 20
45.11887695791273
 30
0.0
 11
-17.11097886910215
 21
45.46541376090937
 31
0.0
  0
LINE
  5
690A
330
1E
100
AcDbEntity
  8
0
 48
0.27
100
AcDbLine
 10
-17.11097886910215
 20
45.46541376090937
 30
0.0
 11
-16.84177144126948
 21
45.67880977042148
 31
0.0
  0
LINE
  5
690B
330
1E
100
AcDbEntity
  8
0
 48
0.27
100
AcDbLine
 10
-16.84177144126948
 20
45.67880977042148
 30
0.0
 11
-16.56180420001499
 21
45.7508652839548
 31
0.0
  0
LINE
  5
690C
330
1E
100
AcDbEntity
  8
0
 48
0.27
100
AcDbLine
 10
-16.56180420001499
 20
45.7508652839548
 30
0.0
 11
-16.28183695876044
 21
45.67880977042148
 31
0.0
  0
LINE
  5
690D
330
1E
100
AcDbEntity
  8
0
 48
0.27
100
AcDbLine
 10
-15.65464654426964
 20
45.39500653790139
 30
0.0
 11
-15.73327016989981
 21
45.7508652839548
 31
0.0
  0
LINE
  5
690E
330
1E
100
AcDbEntity
  8
0
 48
0.27
100
AcDbLine
 10
-10.6292241260241
 20
41.56394512898907
 30
0.0
 11
-10.6456920013992
 21
42.00086570145487
 31
0.0
  0
LINE
  5
690F
330
1E
100
AcDbEntity
  8
0
 48
0.27
100
AcDbLine
 10
-12.62077659523837
 20
41.37818762846762
 30
0.0
 11
-12.64424678290788
 21
42.00086570145487
 31
0.0
  0
LINE
  5
6910
330
1E
100
AcDbEntity
  8
0
 48
0.27
100
AcDbLine
 10
-14.00634097687759
 20
41.52501574636289
 30
0.0
 11
-14.0242751127476
 21
42.00086570145487
 31
0.0
  0
LINE
  5
6911
330
1E
100
AcDbEntity
  8
0
 48
0.27
100
AcDbLine
 10
-8.94805962789465
 20
41.56394512898907
 30
0.0
 11
-8.931591752519466
 21
42.00086570145487
 31
0.0
  0
LWPOLYLINE
  5
6912
330
1E
100
AcDbEntity
  8
0
 48
0.27
100
AcDbPolyline
 90
       17
 70
     0
 43
0.0
 10
-9.938127800736026
 20
42.00086570145487
 10
-9.896192416982756
 20
41.72956910302332
 10
-9.855078673616787
 20
41.65093879739209
 10
-9.809365748732773
 20
41.61401174535024
 10
-9.766894294889993
 20
41.61439584541438
 10
-9.721278230022107
 20
41.65215121771956
 10
-9.682098347229043
 20
41.72686370207151
 10
-9.645365015219596
 20
41.88945495509926
 10
-9.639155953182665
 20
42.00086570145487
 10
-9.681089666935605
 20
42.27216062988611
 10
-9.722205080301932
 20
42.35079093551735
 10
-9.767918005185947
 20
42.38771798755919
 10
-9.810387789028396
 20
42.38733388737
 10
-9.856005523896584
 20
42.34957851506488
 10
-9.895183736689347
 20
42.27486603071293
 10
-9.931918738699096
 20
42.11227477781017
 10
-9.938127800736026
 20
42.00086570145487
  0
LINE
  5
6913
330
1E
100
AcDbEntity
  8
0
 48
0.27
100
AcDbLine
 10
-11.89023986711373
 20
39.05208228013305
 30
0.0
 11
-11.66110911234892
 21
38.87045469092624
 31
0.0
  0
LINE
  5
6914
330
1E
100
AcDbEntity
  8
0
 48
0.27
100
AcDbLine
 10
-11.87386050175337
 20
38.84398017225499
 30
0.0
 11
-11.42282007467963
 21
38.80912559093429
 31
0.0
  0
LINE
  5
6915
330
1E
100
AcDbEntity
  8
0
 48
0.27
100
AcDbLine
 10
-13.53861724439275
 20
39.5807593625471
 30
0.0
 11
-13.4781749147989
 21
39.5781925716185
 31
0.0
  0
LINE
  5
6916
330
1E
100
AcDbEntity
  8
0
 48
0.27
100
AcDbLine
 10
-13.27296357790357
 20
39.60861163157347
 30
0.0
 11
-13.20952025718355
 21
39.56678312796305
 31
0.0
  0
LINE
  5
6917
330
1E
100
AcDbEntity
  8
0
 48
0.27
100
AcDbLine
 10
-12.55127117263095
 20
40.77943899322656
 30
0.0
 11
-12.62077659523837
 21
41.37818762846762
 31
0.0
  0
LINE
  5
6918
330
1E
100
AcDbEntity
  8
0
 48
0.27
100
AcDbLine
 10
-12.43839917578134
 20
40.22762906332434
 30
0.0
 11
-12.55127117263095
 21
40.77943899322656
 31
0.0
  0
LINE
  5
6919
330
1E
100
AcDbEntity
  8
0
 48
0.27
100
AcDbLine
 10
-12.28649926628904
 20
39.74396517567743
 30
0.0
 11
-12.43839917578134
 21
40.22762906332434
 31
0.0
  0
LINE
  5
691A
330
1E
100
AcDbEntity
  8
0
 48
0.27
100
AcDbLine
 10
-12.10140809587884
 20
39.34703109626446
 30
0.0
 11
-12.28649926628904
 21
39.74396517567743
 31
0.0
  0
LINE
  5
691B
330
1E
100
AcDbEntity
  8
0
 48
0.27
100
AcDbLine
 10
-13.95322326963196
 20
41.06745396720009
 30
0.0
 11
-14.00634097687759
 21
41.52501574636289
 31
0.0
  0
LINE
  5
691C
330
1E
100
AcDbEntity
  8
0
 48
0.27
100
AcDbLine
 10
-13.86696774147725
 20
40.64576212965255
 30
0.0
 11
-13.95322326963196
 21
41.06745396720009
 31
0.0
  0
LINE
  5
691D
330
1E
100
AcDbEntity
  8
0
 48
0.27
100
AcDbLine
 10
-11.89023986711373
 20
39.05208228013305
 30
0.0
 11
-12.10140809587884
 21
39.34703109626446
 31
0.0
  0
LINE
  5
691E
330
1E
100
AcDbEntity
  8
0
 48
0.27
100
AcDbLine
 10
-13.75088600359163
 20
40.27614591917665
 30
0.0
 11
-13.86696774147725
 21
40.64576212965255
 31
0.0
  0
LINE
  5
691F
330
1E
100
AcDbEntity
  8
0
 48
0.27
100
AcDbLine
 10
-13.6094402975952
 20
39.97281036026959
 30
0.0
 11
-13.75088600359163
 21
40.27614591917665
 31
0.0
  0
LINE
  5
6920
330
1E
100
AcDbEntity
  8
0
 48
0.27
100
AcDbLine
 10
-13.44806480489549
 20
39.74741205687809
 30
0.0
 11
-13.6094402975952
 21
39.97281036026959
 31
0.0
  0
LINE
  5
6921
330
1E
100
AcDbEntity
  8
0
 48
0.27
100
AcDbLine
 10
-12.10954600861288
 20
38.90463793213485
 30
0.0
 11
-11.87386050175337
 21
38.84398017225499
 31
0.0
  0
LINE
  5
6922
330
1E
100
AcDbEntity
  8
0
 48
0.27
100
AcDbLine
 10
-12.51708626142209
 20
39.11026175909899
 30
0.0
 11
-12.10954600861288
 21
38.90463793213485
 31
0.0
  0
LINE
  5
6923
330
1E
100
AcDbEntity
  8
0
 48
0.27
100
AcDbLine
 10
-13.44806480489549
 20
39.74741205687809
 30
0.0
 11
-13.27296357790357
 21
39.60861163157347
 31
0.0
  0
LINE
  5
6924
330
1E
100
AcDbEntity
  8
0
 48
0.27
100
AcDbLine
 10
-13.20952025718355
 20
39.56678312796305
 30
0.0
 11
-12.51708626142209
 21
39.11026175909899
 31
0.0
  0
LINE
  5
6925
330
1E
100
AcDbEntity
  8
0
 48
0.27
100
AcDbLine
 10
-13.4781749147989
 20
39.5781925716185
 30
0.0
 11
-13.20952025718355
 21
39.56678312796305
 31
0.0
  0
LINE
  5
6926
330
1E
100
AcDbEntity
  8
0
 48
0.27
100
AcDbLine
 10
-13.77957828300822
 20
39.45518868157683
 30
0.0
 11
-13.4781749147989
 21
39.5781925716185
 31
0.0
  0
LINE
  5
6927
330
1E
100
AcDbEntity
  8
0
 48
0.27
100
AcDbLine
 10
-10.58045176012911
 20
41.14381474207732
 30
0.0
 11
-10.6292241260241
 21
41.56394512898907
 31
0.0
  0
LINE
  5
6928
330
1E
100
AcDbEntity
  8
0
 48
0.27
100
AcDbLine
 10
-10.50125198427775
 20
40.75662177579113
 30
0.0
 11
-10.58045176012911
 21
41.14381474207732
 31
0.0
  0
LINE
  5
6929
330
1E
100
AcDbEntity
  8
0
 48
0.27
100
AcDbLine
 10
-10.39466753947817
 20
40.41724259523983
 30
0.0
 11
-10.50125198427775
 21
40.75662177579113
 31
0.0
  0
LINE
  5
692A
330
1E
100
AcDbEntity
  8
0
 48
0.27
100
AcDbLine
 10
-10.26479326716412
 20
40.13872157435179
 30
0.0
 11
-10.39466753947817
 21
40.41724259523983
 31
0.0
  0
LINE
  5
692B
330
1E
100
AcDbEntity
  8
0
 48
0.27
100
AcDbLine
 10
-10.11662079891937
 20
39.9317634169148
 30
0.0
 11
-10.26479326716412
 21
40.13872157435179
 31
0.0
  0
LINE
  5
692C
330
1E
100
AcDbEntity
  8
0
 48
0.27
100
AcDbLine
 10
-10.11662079891937
 20
39.9317634169148
 30
0.0
 11
-9.955843166444481
 21
39.80431732538125
 31
0.0
  0
LINE
  5
692D
330
1E
100
AcDbEntity
  8
0
 48
0.27
100
AcDbLine
 10
-9.955843166444481
 20
39.80431732538125
 30
0.0
 11
-9.788641042021708
 21
39.76128475131986
 31
0.0
  0
LINE
  5
692E
330
1E
100
AcDbEntity
  8
0
 48
0.27
100
AcDbLine
 10
-11.66110911234892
 20
38.87045469092624
 30
0.0
 11
-11.42282007467963
 21
38.80912559093429
 31
0.0
  0
LINE
  5
692F
330
1E
100
AcDbEntity
  8
0
 48
0.27
100
AcDbLine
 10
-9.788641042021708
 20
39.76128475131986
 30
0.0
 11
-9.621438917473994
 21
39.80431732538125
 31
0.0
  0
LINE
  5
6930
330
1E
100
AcDbEntity
  8
0
 48
0.27
100
AcDbLine
 10
-11.42282007467963
 20
38.80912559093429
 30
0.0
 11
-11.18453270701059
 21
38.87045469092624
 31
0.0
  0
LINE
  5
6931
330
1E
100
AcDbEntity
  8
0
 48
0.27
100
AcDbLine
 10
-9.621438917473994
 20
39.80431732538125
 30
0.0
 11
-9.460662954999378
 21
39.9317634169148
 31
0.0
  0
LINE
  5
6932
330
1E
100
AcDbEntity
  8
0
 48
0.27
100
AcDbLine
 10
-11.18453270701059
 20
38.87045469092624
 30
0.0
 11
-9.621438917473994
 21
39.80431732538125
 31
0.0
  0
LINE
  5
6933
330
1E
100
AcDbEntity
  8
0
 48
0.27
100
AcDbLine
 10
-9.460662954999378
 20
39.9317634169148
 30
0.0
 11
-9.312490486754569
 21
40.13872157435179
 31
0.0
  0
LINE
  5
6934
330
1E
100
AcDbEntity
  8
0
 48
0.27
100
AcDbLine
 10
-9.312490486754569
 20
40.13872157435179
 30
0.0
 11
-9.182616214440599
 21
40.41724259523983
 31
0.0
  0
LINE
  5
6935
330
1E
100
AcDbEntity
  8
0
 48
0.27
100
AcDbLine
 10
-10.13180945383087
 20
39.95297910383283
 30
0.0
 11
-10.12943638305955
 21
39.95413975415159
 31
0.0
  0
LINE
  5
6936
330
1E
100
AcDbEntity
  8
0
 48
0.27
100
AcDbLine
 10
-9.182616214440599
 20
40.41724259523983
 30
0.0
 11
-9.076030099640661
 21
40.75662177579113
 31
0.0
  0
LINE
  5
6937
330
1E
100
AcDbEntity
  8
0
 48
0.27
100
AcDbLine
 10
-9.076030099640661
 20
40.75662177579113
 30
0.0
 11
-8.996830323789311
 21
41.14381474207732
 31
0.0
  0
LINE
  5
6938
330
1E
100
AcDbEntity
  8
0
 48
0.27
100
AcDbLine
 10
-8.996830323789311
 20
41.14381474207732
 30
0.0
 11
-8.94805962789465
 21
41.56394512898907
 31
0.0
  0
LINE
  5
6939
330
1E
100
AcDbEntity
  8
0
 48
0.27
100
AcDbLine
 10
-11.89023986711373
 20
44.94964745277639
 30
0.0
 11
-11.66110911234892
 21
45.1312767119835
 31
0.0
  0
LINE
  5
693A
330
1E
100
AcDbEntity
  8
0
 48
0.27
100
AcDbLine
 10
-11.87386050175337
 20
45.15775123052975
 30
0.0
 11
-11.42282007467963
 21
45.19260414197515
 31
0.0
  0
LINE
  5
693B
330
1E
100
AcDbEntity
  8
0
 48
0.27
100
AcDbLine
 10
-13.27296357790357
 20
44.39311810133602
 30
0.0
 11
-13.20952025718355
 21
44.43494660494638
 31
0.0
  0
LINE
  5
693C
330
1E
100
AcDbEntity
  8
0
 48
0.27
100
AcDbLine
 10
-12.64424678290788
 20
42.00086570145487
 30
0.0
 11
-12.62077659523837
 21
42.62354210444186
 31
0.0
  0
LINE
  5
693D
330
1E
100
AcDbEntity
  8
0
 48
0.27
100
AcDbLine
 10
-12.62077659523837
 20
42.62354210444186
 30
0.0
 11
-12.55127117263095
 21
43.22229073968287
 31
0.0
  0
LINE
  5
693E
330
1E
100
AcDbEntity
  8
0
 48
0.27
100
AcDbLine
 10
-12.55127117263095
 20
43.22229073968287
 30
0.0
 11
-12.43839917578134
 21
43.77410066946009
 31
0.0
  0
LINE
  5
693F
330
1E
100
AcDbEntity
  8
0
 48
0.27
100
AcDbLine
 10
-12.43839917578134
 20
43.77410066946009
 30
0.0
 11
-12.28649926628904
 21
44.25776622723225
 31
0.0
  0
LINE
  5
6940
330
1E
100
AcDbEntity
  8
0
 48
0.27
100
AcDbLine
 10
-12.28649926628904
 20
44.25776622723225
 30
0.0
 11
-12.10140809587884
 21
44.65469863664497
 31
0.0
  0
LINE
  5
6941
330
1E
100
AcDbEntity
  8
0
 48
0.27
100
AcDbLine
 10
-14.0242751127476
 20
42.00086570145487
 30
0.0
 11
-14.00634097687759
 21
42.47671398654654
 31
0.0
  0
LINE
  5
6942
330
1E
100
AcDbEntity
  8
0
 48
0.27
100
AcDbLine
 10
-14.00634097687759
 20
42.47671398654654
 30
0.0
 11
-13.95322326963196
 21
42.93427576570934
 31
0.0
  0
LINE
  5
6943
330
1E
100
AcDbEntity
  8
0
 48
0.27
100
AcDbLine
 10
-13.95322326963196
 20
42.93427576570934
 30
0.0
 11
-13.86696774147725
 21
43.35596760325688
 31
0.0
  0
LINE
  5
6944
330
1E
100
AcDbEntity
  8
0
 48
0.27
100
AcDbLine
 10
-12.10140809587884
 20
44.65469863664497
 30
0.0
 11
-11.89023986711373
 21
44.94964745277639
 31
0.0
  0
LINE
  5
6945
330
1E
100
AcDbEntity
  8
0
 48
0.27
100
AcDbLine
 10
-13.86696774147725
 20
43.35596760325688
 30
0.0
 11
-13.75088600359163
 21
43.72558381373278
 31
0.0
  0
LINE
  5
6946
330
1E
100
AcDbEntity
  8
0
 48
0.27
100
AcDbLine
 10
-13.75088600359163
 20
43.72558381373278
 30
0.0
 11
-13.6094402975952
 21
44.02891937263984
 31
0.0
  0
LINE
  5
6947
330
1E
100
AcDbEntity
  8
0
 48
0.27
100
AcDbLine
 10
-13.6094402975952
 20
44.02891937263984
 30
0.0
 11
-13.44806480489549
 21
44.25431767603135
 31
0.0
  0
LINE
  5
6948
330
1E
100
AcDbEntity
  8
0
 48
0.27
100
AcDbLine
 10
-12.72866531038079
 20
44.72375315905208
 30
0.0
 11
-12.51708626142209
 21
44.89146797381045
 31
0.0
  0
LINE
  5
6949
330
1E
100
AcDbEntity
  8
0
 48
0.27
100
AcDbLine
 10
-12.51708626142209
 20
44.89146797381045
 30
0.0
 11
-12.10954600861288
 21
45.09709180077459
 31
0.0
  0
LINE
  5
694A
330
1E
100
AcDbEntity
  8
0
 48
0.27
100
AcDbLine
 10
-12.10954600861288
 20
45.09709180077459
 30
0.0
 11
-11.87386050175337
 21
45.15775123052975
 31
0.0
  0
LINE
  5
694B
330
1E
100
AcDbEntity
  8
0
 48
0.27
100
AcDbLine
 10
-13.44806480489549
 20
44.25431767603135
 30
0.0
 11
-13.27296357790357
 21
44.39311810133602
 31
0.0
  0
LINE
  5
694C
330
1E
100
AcDbEntity
  8
0
 48
0.27
100
AcDbLine
 10
-13.20952025718355
 20
44.43494660494638
 30
0.0
 11
-12.51708626142209
 21
44.89146797381045
 31
0.0
  0
LINE
  5
694D
330
1E
100
AcDbEntity
  8
0
 48
0.27
100
AcDbLine
 10
-13.4781749147989
 20
44.42353883129124
 30
0.0
 11
-13.20952025718355
 21
44.43494660494638
 31
0.0
  0
LINE
  5
694E
330
1E
100
AcDbEntity
  8
0
 48
0.27
100
AcDbLine
 10
-13.77957828300822
 20
44.5465410513326
 30
0.0
 11
-13.4781749147989
 21
44.42353883129124
 31
0.0
  0
POINT
  5
694F
330
1E
100
AcDbEntity
  8
0
100
AcDbPoint
 10
-8.931591752519466
 20
42.00086570145487
 30
0.0
1001
pntflag
1000
endpoint
  0
LINE
  5
6950
330
1E
100
AcDbEntity
  8
0
 48
0.27
100
AcDbLine
 10
-10.6456920013992
 20
42.00086570145487
 30
0.0
 11
-10.6292241260241
 21
42.4377862739206
 31
0.0
  0
LINE
  5
6951
330
1E
100
AcDbEntity
  8
0
 48
0.27
100
AcDbLine
 10
-10.6292241260241
 20
42.4377862739206
 30
0.0
 11
-10.58045176012911
 21
42.85791499083211
 31
0.0
  0
LINE
  5
6952
330
1E
100
AcDbEntity
  8
0
 48
0.27
100
AcDbLine
 10
-10.58045176012911
 20
42.85791499083211
 30
0.0
 11
-10.50125198427775
 21
43.24510962711861
 31
0.0
  0
LINE
  5
6953
330
1E
100
AcDbEntity
  8
0
 48
0.27
100
AcDbLine
 10
-10.50125198427775
 20
43.24510962711861
 30
0.0
 11
-10.39466753947817
 21
43.58448713766961
 31
0.0
  0
LINE
  5
6954
330
1E
100
AcDbEntity
  8
0
 48
0.27
100
AcDbLine
 10
-10.39466753947817
 20
43.58448713766961
 30
0.0
 11
-10.26479326716412
 21
43.8630081585577
 31
0.0
  0
LINE
  5
6955
330
1E
100
AcDbEntity
  8
0
 48
0.27
100
AcDbLine
 10
-10.26479326716412
 20
43.8630081585577
 30
0.0
 11
-10.11662079891937
 21
44.06996631599463
 31
0.0
  0
LINE
  5
6956
330
1E
100
AcDbEntity
  8
0
 48
0.27
100
AcDbLine
 10
-10.11662079891937
 20
44.06996631599463
 30
0.0
 11
-9.955843166444481
 21
44.19741240752819
 31
0.0
  0
LINE
  5
6957
330
1E
100
AcDbEntity
  8
0
 48
0.27
100
AcDbLine
 10
-9.955843166444481
 20
44.19741240752819
 30
0.0
 11
-9.788641042021708
 21
44.24044498158957
 31
0.0
  0
LINE
  5
6958
330
1E
100
AcDbEntity
  8
0
 48
0.27
100
AcDbLine
 10
-11.66110911234892
 20
45.1312767119835
 30
0.0
 11
-11.42282007467963
 21
45.19260414197515
 31
0.0
  0
LINE
  5
6959
330
1E
100
AcDbEntity
  8
0
 48
0.27
100
AcDbLine
 10
-9.788641042021708
 20
44.24044498158957
 30
0.0
 11
-9.621438917473994
 21
44.19741240752819
 31
0.0
  0
LINE
  5
695A
330
1E
100
AcDbEntity
  8
0
 48
0.27
100
AcDbLine
 10
-11.42282007467963
 20
45.19260414197515
 30
0.0
 11
-11.18453270701059
 21
45.1312767119835
 31
0.0
  0
LINE
  5
695B
330
1E
100
AcDbEntity
  8
0
 48
0.27
100
AcDbLine
 10
-9.621438917473994
 20
44.19741240752819
 30
0.0
 11
-9.460662954999378
 21
44.06996631599463
 31
0.0
  0
LINE
  5
695C
330
1E
100
AcDbEntity
  8
0
 48
0.27
100
AcDbLine
 10
-11.18453270701059
 20
45.1312767119835
 30
0.0
 11
-9.621438917473994
 21
44.19741240752819
 31
0.0
  0
LINE
  5
695D
330
1E
100
AcDbEntity
  8
0
 48
0.27
100
AcDbLine
 10
-9.312490486754569
 20
43.8630081585577
 30
0.0
 11
-9.460662954999378
 21
44.06996631599463
 31
0.0
  0
LINE
  5
695E
330
1E
100
AcDbEntity
  8
0
 48
0.27
100
AcDbLine
 10
-9.182616214440599
 20
43.58448713766961
 30
0.0
 11
-9.312490486754569
 21
43.8630081585577
 31
0.0
  0
LINE
  5
695F
330
1E
100
AcDbEntity
  8
0
 48
0.27
100
AcDbLine
 10
-9.076030099640661
 20
43.24510962711861
 30
0.0
 11
-9.182616214440599
 21
43.58448713766961
 31
0.0
  0
LINE
  5
6960
330
1E
100
AcDbEntity
  8
0
 48
0.27
100
AcDbLine
 10
-8.996830323789311
 20
42.85791499083211
 30
0.0
 11
-9.076030099640661
 21
43.24510962711861
 31
0.0
  0
LINE
  5
6961
330
1E
100
AcDbEntity
  8
0
 48
0.27
100
AcDbLine
 10
-8.94805962789465
 20
42.4377862739206
 30
0.0
 11
-8.996830323789311
 21
42.85791499083211
 31
0.0
  0
LINE
  5
6962
330
1E
100
AcDbEntity
  8
0
 48
0.27
100
AcDbLine
 10
-8.931591752519466
 20
42.00086570145487
 30
0.0
 11
-8.94805962789465
 21
42.4377862739206
 31
0.0
  0
LINE
  5
6963
330
1E
100
AcDbEntity
  8
0
 48
0.27
100
AcDbLine
 10
-5.944100563502956
 20
27.57825142431256
 30
0.0
 11
-4.237366816639337
 21
28.20495845859904
 31
0.0
  0
LINE
  5
6964
330
1E
100
AcDbEntity
  8
0
 48
0.27
100
AcDbLine
 10
-6.083072909355166
 20
30.05070418837039
 30
0.0
 11
-4.237366816639337
 21
28.20495845859904
 31
0.0
  0
LINE
  5
6965
330
1E
100
AcDbEntity
  8
0
 48
0.27
100
AcDbLine
 10
-5.606714964560353
 20
31.2006990735444
 30
0.0
 11
-3.147066822362262
 21
28.74099810975639
 31
0.0
  0
LINE
  5
6966
330
1E
100
AcDbEntity
  8
0
 48
0.27
100
AcDbLine
 10
-5.944100563502956
 20
27.57825142431256
 30
0.0
 11
-6.766543004086997
 21
28.40071152703393
 31
0.0
  0
LINE
  5
6967
330
1E
100
AcDbEntity
  8
0
 48
0.27
100
AcDbLine
 10
-6.766543004086997
 20
28.40071152703393
 30
0.0
 11
-5.606714964560353
 21
31.2006990735444
 31
0.0
  0
LINE
  5
6968
330
1E
100
AcDbEntity
  8
0
 48
0.27
100
AcDbLine
 10
-5.944100563502956
 20
27.57825142431256
 30
0.0
 11
-6.766543004086997
 21
28.40071152703393
 31
0.0
  0
ARC
  5
6969
330
1E
100
AcDbEntity
  8
0
 48
0.27
100
AcDbCircle
 10
-3.500624009220274
 20
28.38744851546875
 30
0.0
 40
0.5
100
AcDbArc
 50
337.2038119202202
 51
44.99938478565015
  0
LINE
  5
696A
330
1E
100
AcDbEntity
  8
0
 48
0.27
100
AcDbLine
 10
-4.237366816639337
 20
28.20495845859904
 30
0.0
 11
-3.004470933319879
 21
28.44935267748235
 31
0.0
  0
LINE
  5
696B
330
1E
100
AcDbEntity
  8
0
 48
0.27
100
AcDbLine
 10
19.8722606734913
 20
46.00060802480629
 30
0.0
 11
19.8717989658781
 21
3.00105388811994
 31
0.0
  0
LINE
  5
696C
330
1E
100
AcDbEntity
  8
0
 48
0.27
100
AcDbLine
 10
19.8717989658781
 20
3.000425473098914
 30
0.0
 11
16.87176674675672
 21
0.0004576789638122
 31
0.0
  0
LINE
  5
696D
330
1E
100
AcDbEntity
  8
指線
 48
0.27
100
AcDbLine
 10
16.67434738569196
 20
18.27106792292295
 30
0.0
 11
16.67455866037346
 21
16.80332131646338
 31
0.0
  0
ARC
  5
696E
330
1E
100
AcDbEntity
  8
指線
 48
0.27
100
AcDbCircle
 10
15.87193854677738
 20
16.00046841553921
 30
0.0
 40
2.408211238907886
100
AcDbArc
 50
19.48038611139741
 51
70.53706232708925
  0
LINE
  5
696F
330
1E
100
AcDbEntity
  8
指線
 48
0.27
100
AcDbLine
 10
15.06887605821376
 20
18.27083666995645
 30
0.0
 11
15.06908733321649
 21
16.80309006348926
 31
0.0
  0
ARC
  5
6970
330
1E
100
AcDbEntity
  8
指線
 48
0.27
100
AcDbCircle
 10
15.87193854677738
 20
16.00046841553921
 30
0.0
 40
2.408211238907886
100
AcDbArc
 50
109.4794325558859
 51
160.5361215893392
  0
CIRCLE
  5
6971
330
1E
100
AcDbEntity
  8
指線
 48
0.27
100
AcDbCircle
 10
15.87193854677738
 20
16.00046841553921
 30
0.0
 40
4.0
  0
CIRCLE
  5
6972
330
1E
100
AcDbEntity
  8
指線
 48
0.27
100
AcDbCircle
 10
15.87193854677738
 20
16.00046841553921
 30
0.0
 40
4.0
  0
ARC
  5
6973
330
1E
100
AcDbEntity
  8
0
 48
0.27
100
AcDbCircle
 10
15.87193854677738
 20
16.00046841553916
 30
0.0
 40
4.0
100
AcDbArc
 50
89.99938478669987
 51
269.9993847866998
  0
ARC
  5
6974
330
1E
100
AcDbEntity
  8
指線
 48
0.27
100
AcDbCircle
 10
15.87193854677738
 20
16.00046841553921
 30
0.0
 40
2.408211238907886
100
AcDbArc
 50
199.4785730991861
 51
250.5370623270885
  0
LINE
  5
6975
330
1E
100
AcDbEntity
  8
指線
 48
0.27
100
AcDbLine
 10
15.06908733321649
 20
16.80309006348926
 30
0.0
 11
11.93602029277681
 21
16.80271537617705
 31
0.0
  0
LINE
  5
6976
330
1E
100
AcDbEntity
  8
指線
 48
0.27
100
AcDbLine
 10
15.06931843318091
 20
15.19761551461533
 30
0.0
 11
11.93625139274121
 21
15.19724082730277
 31
0.0
  0
LINE
  5
6977
330
1E
100
AcDbEntity
  8
0
 48
0.27
100
AcDbLine
 10
19.87189559655604
 20
12.00042546577902
 30
0.0
 11
15.87189559678663
 21
12.00046841576977
 31
0.0
  0
LINE
  5
6978
330
1E
100
AcDbEntity
  8
指線
 48
0.27
100
AcDbLine
 10
16.67455866037346
 20
16.80332131646338
 30
0.0
 11
19.80119138965406
 21
16.80384828027036
 31
0.0
  0
LINE
  5
6979
330
1E
100
AcDbEntity
  8
指線
 48
0.27
100
AcDbLine
 10
16.67478976033823
 20
15.19784676758911
 30
0.0
 11
19.80142248961883
 21
15.19837373139609
 31
0.0
  0
ARC
  5
697A
330
1E
100
AcDbEntity
  8
指線
 48
0.27
100
AcDbCircle
 10
15.87193854677738
 20
16.00046841553921
 30
0.0
 40
2.408211238907886
100
AcDbArc
 50
289.4794325558848
 51
340.5379346017803
  0
LINE
  5
697B
330
1E
100
AcDbEntity
  8
指線
 48
0.27
100
AcDbLine
 10
16.67478976033823
 20
15.19784676758911
 30
0.0
 11
16.67500103534095
 21
13.73010016112221
 31
0.0
  0
LINE
  5
697C
330
1E
100
AcDbEntity
  8
指線
 48
0.27
100
AcDbLine
 10
15.06931843318091
 20
15.19761551461533
 30
0.0
 11
15.06952970786275
 21
13.72986890815542
 31
0.0
  0
LINE
  5
697D
330
1E
100
AcDbEntity
  8
0
 48
0.27
100
AcDbLine
 10
19.87198149653756
 20
20.00042546531785
 30
0.0
 11
15.87198149676814
 21
20.0004684153086
 31
0.0
  0
ARC
  5
697E
330
1E
100
AcDbEntity
  8
0
100
AcDbCircle
 10
16.87226067366424
 20
46.0006402372993
 30
0.0
 40
3.0
100
AcDbArc
 50
359.9993847866999
 51
89.99999999999511
  0
LINE
  5
697F
330
1E
100
AcDbEntity
  8
虛線
 48
0.27
100
AcDbLine
 10
8.872290694767102
 20
26.54593923239293
 30
0.0
 11
13.12231704153511
 21
28.99963224194193
 31
0.0
  0
LINE
  5
698E
330
1E
100
AcDbEntity
  8
0
 48
0.27
100
AcDbLine
 10
283.8608793416728
 20
196.9540717689977
 30
0.0
 11
265.3608793416725
 21
196.9539882084703
 31
0.0
  0
LINE
  5
699D
330
1E
100
AcDbEntity
  8
0
 48
0.27
100
AcDbLine
 10
265.3608793416725
 20
114.9539882131974
 30
0.0
 11
283.8608793416727
 21
114.9540717730049
 31
0.0
  0
LINE
  5
69A1
330
1E
100
AcDbEntity
  8
0
100
AcDbLine
 10
283.8608793416727
 20
114.9540717730049
 30
0.0
 11
283.8608793416728
 21
196.9540717689977
 31
0.0
  0
LINE
  5
69A2
330
1E
100
AcDbEntity
  8
0
 48
0.27
100
AcDbLine
 10
281.3608793416727
 20
114.9540604811391
 30
0.0
 11
281.3608793416729
 21
196.9540604770346
 31
0.0
  0
LINE
  5
69AA
330
1E
100
AcDbEntity
  8
0
 48
0.27
100
AcDbLine
 10
149.8608793416721
 20
196.9540717689977
 30
0.0
 11
168.3608793416725
 21
196.9539882084703
 31
0.0
  0
LINE
  5
69B0
330
1E
100
AcDbEntity
  8
中心線
100
AcDbLine
 10
144.922801596157
 20
189.9539882088739
 30
0.0
 11
155.568027124086
 21
189.9539882088739
 31
0.0
  0
LINE
  5
69B1
330
1E
100
AcDbEntity
  8
0
  6
Continuous
100
AcDbLine
 10
148.046549397818
 20
162.0873215441673
 30
0.0
 11
149.8608793416722
 21
162.0873215441673
 31
0.0
  0
LINE
  5
69B2
330
1E
100
AcDbEntity
  8
0
  6
Continuous
100
AcDbLine
 10
148.046549397818
 20
159.0206546119194
 30
0.0
 11
149.8608793416722
 21
159.0206546119194
 31
0.0
  0
ARC
  5
69B3
330
1E
100
AcDbEntity
  8
0
  6
Continuous
100
AcDbCircle
 10
150.4195593110669
 20
160.5539883436244
 30
0.0
 40
2.825346636061327
100
AcDbArc
 50
147.1327799989379
 51
212.8672200010621
  0
LINE
  5
69BC
330
1E
100
AcDbEntity
  8
0
  6
Continuous
100
AcDbLine
 10
148.046549397818
 20
152.8873218097483
 30
0.0
 11
149.8608793416722
 21
152.8873218097483
 31
0.0
  0
LINE
  5
69BD
330
1E
100
AcDbEntity
  8
0
  6
Continuous
100
AcDbLine
 10
145.2028418144786
 20
147.7405974109247
 30
0.0
 11
145.9656683389663
 21
149.5822235520811
 31
0.0
  0
LINE
  5
69BE
330
1E
100
AcDbEntity
  8
0
  6
Continuous
100
AcDbLine
 10
148.046549397818
 20
149.8206548775005
 30
0.0
 11
149.8608793416722
 21
149.8206548775006
 31
0.0
  0
ARC
  5
69BF
330
1E
100
AcDbEntity
  8
0
  6
Continuous
100
AcDbCircle
 10
150.4195593110669
 20
151.3539880780434
 30
0.0
 40
2.825346636061327
100
AcDbArc
 50
147.1327799989379
 51
212.8672200010621
  0
LINE
  5
69C1
330
1E
100
AcDbEntity
  8
中心線
100
AcDbLine
 10
144.922801596157
 20
121.9539882127938
 30
0.0
 11
155.5680271240861
 21
121.9539882127938
 31
0.0
  0
LINE
  5
69C2
330
1E
100
AcDbEntity
  8
0
 48
0.27
100
AcDbLine
 10
168.3608793416724
 20
114.9539882131974
 30
0.0
 11
149.8608793416722
 21
114.9540717730051
 31
0.0
  0
LINE
  5
69C5
330
1E
100
AcDbEntity
  8
0
 48
0.27
100
AcDbLine
 10
152.3608793416722
 20
114.9540604811391
 30
0.0
 11
152.3608793416721
 21
196.9540604770346
 31
0.0
  0
LINE
  5
69C6
330
1E
100
AcDbEntity
  8
0
100
AcDbLine
 10
149.8608793416722
 20
114.9540717730051
 30
0.0
 11
149.8608793416722
 21
196.9540717689977
 31
0.0
  0
LINE
  5
69C7
330
1E
100
AcDbEntity
  8
0
  6
Continuous
100
AcDbLine
 10
147.5942126750055
 20
151.3539880780434
 30
0.0
 11
147.5942126750055
 21
160.5539883436244
 31
0.0
  0
ARC
  5
69C8
330
1E
100
AcDbEntity
  8
0
  6
Continuous
100
AcDbCircle
 10
158.2174579811838
 20
155.9539882108339
 30
0.0
 40
10.62324530617824
100
AcDbArc
 50
163.2213499979121
 51
196.7786500020878
  0
LINE
  5
69D9
330
1E
100
AcDbEntity
  8
0
100
AcDbLine
 10
281.3608793416696
 20
49.00064023729161
 30
0.0
 11
283.8608793416696
 21
49.00064023729161
 31
0.0
  0
LINE
  5
69DA
330
1E
100
AcDbEntity
  8
0
 48
0.27
100
AcDbLine
 10
281.3608793416696
 20
49.00064023729161
 30
0.0
 11
265.3608793416696
 21
49.00064023729161
 31
0.0
  0
LINE
  5
69DB
330
1E
100
AcDbEntity
  8
0
100
AcDbLine
 10
281.3608793416696
 20
46.0006402372916
 30
0.0
 11
283.8608793416696
 21
46.0006402372916
 31
0.0
  0
LINE
  5
69DC
330
1E
100
AcDbEntity
  8
0
100
AcDbLine
 10
285.8608793416696
 20
30.05064023729156
 30
0.0
 11
283.8608793416696
 21
31.20064023729165
 31
0.0
  0
CIRCLE
  5
69DD
330
1E
100
AcDbEntity
  8
0
 48
0.27
100
AcDbCircle
 10
275.3608793416696
 20
30.00064023729161
 30
0.0
 40
0.75
  0
LINE
  5
69DF
330
1E
100
AcDbEntity
  8
中心線
 48
0.27
100
AcDbLine
 10
269.247094070493
 20
30.00064023729161
 30
0.0
 11
281.4746646128461
 21
30.00064023729161
 31
0.0
  0
LINE
  5
69E0
330
1E
100
AcDbEntity
  8
0
 48
0.27
100
AcDbLine
 10
281.3608793416696
 20
46.0006402372916
 30
0.0
 11
265.3608793416696
 21
46.0006402372916
 31
0.0
  0
LINE
  5
69E1
330
1E
100
AcDbEntity
  8
虛線
 48
0.27
100
AcDbLine
 10
287.5922479917812
 20
11.20064023729267
 30
0.0
 11
287.8922479917812
 21
11.50064023729263
 31
0.0
  0
LINE
  5
69E3
330
1E
100
AcDbEntity
  8
虛線
 48
0.27
100
AcDbLine
 10
285.8608793416696
 20
11.20064023729267
 30
0.0
 11
287.5922479917812
 21
11.20064023729267
 31
0.0
  0
ARC
  5
69E9
330
1E
100
AcDbEntity
  8
0
100
AcDbCircle
 10
284.3031575331045
 20
17.81490023547488
 30
0.0
 40
2.258017748891657
100
AcDbArc
 50
0.9276427879959484
 51
74.03697783117194
  0
ARC
  5
69EA
330
1E
100
AcDbEntity
  8
0
100
AcDbCircle
 10
284.3031575331045
 20
14.18638023910833
 30
0.0
 40
2.258017748891657
100
AcDbArc
 50
285.9630221688281
 51
359.0723572120041
  0
LINE
  5
69EB
330
1E
100
AcDbEntity
  8
0
100
AcDbLine
 10
286.5608793416696
 20
17.85145689615674
 30
0.0
 11
286.5608793416696
 21
14.14982357842646
 31
0.0
  0
LINE
  5
69EC
330
1E
100
AcDbEntity
  8
中心線
100
AcDbLine
 10
287.8047869997838
 20
16.0006402372916
 30
0.0
 11
277.1595614718548
 21
16.0006402372916
 31
0.0
  0
LINE
  5
69ED
330
1E
100
AcDbEntity
  8
0
100
AcDbLine
 10
281.3608793416696
 20
3.000640237291548
 30
0.0
 11
283.8608793416696
 21
3.000640237291548
 31
0.0
  0
LINE
  5
69EE
330
1E
100
AcDbEntity
  8
0
100
AcDbLine
 10
285.8608793416696
 20
0.0006402372915488
 30
0.0
 11
281.3608793416696
 21
0.0006402372915488
 31
0.0
  0
LINE
  5
69EF
330
1E
100
AcDbEntity
  8
0
 48
0.27
100
AcDbLine
 10
265.3608793416696
 20
0.0006402372915488
 30
0.0
 11
281.3608793416696
 21
0.0006402372915488
 31
0.0
  0
LINE
  5
69F0
330
1E
100
AcDbEntity
  8
0
100
AcDbLine
 10
285.8608793416696
 20
0.0006402372915488
 30
0.0
 11
285.8608793416696
 21
12.55170995999069
 31
0.0
  0
LINE
  5
69F3
330
1E
100
AcDbEntity
  8
0
100
AcDbLine
 10
283.8608793416696
 20
0.0006402372915488
 30
0.0
 11
283.8608793416696
 21
49.00064023729161
 31
0.0
  0
LINE
  5
69F4
330
1E
100
AcDbEntity
  8
0
100
AcDbLine
 10
285.8608793416696
 20
25.30603934219167
 30
0.0
 11
285.8608793416696
 21
30.05064023729156
 31
0.0
  0
LINE
  5
69F5
330
1E
100
AcDbEntity
  8
0
 48
0.27
100
AcDbLine
 10
281.3608793416696
 20
0.0006402372915488
 30
0.0
 11
281.3608793416696
 21
49.00064023729161
 31
0.0
  0
LINE
  5
69F6
330
1E
100
AcDbEntity
  8
0
 48
0.27
100
AcDbLine
 10
265.3608793416696
 20
50.50064023729172
 30
0.0
 11
265.3608793416696
 21
0.0006402372915488
 31
0.0
  0
LINE
  5
69F7
330
1E
100
AcDbEntity
  8
0
 48
0.27
100
AcDbLine
 10
265.3608793416696
 20
0.0006402372915488
 30
0.0
 11
265.3608793416696
 21
49.00064023729161
 31
0.0
  0
CIRCLE
  5
69F8
330
1E
100
AcDbEntity
  8
0
 48
0.27
100
AcDbCircle
 10
275.3608793416696
 20
30.00064023729161
 30
0.0
 40
4.25
  0
CIRCLE
  5
69F9
330
1E
100
AcDbEntity
  8
0
 48
0.27
100
AcDbCircle
 10
275.3608793416696
 20
30.00064023729161
 30
0.0
 40
3.9375
  0
CIRCLE
  5
69FA
330
1E
100
AcDbEntity
  8
0
 48
0.27
100
AcDbCircle
 10
275.3608793416696
 20
30.00064023729161
 30
0.0
 40
4.549999999999999
  0
LINE
  5
69FB
330
1E
100
AcDbEntity
  8
中心線
 48
0.27
100
AcDbLine
 10
275.3608793416696
 20
24.39037760203885
 30
0.0
 11
275.3608793416696
 21
35.61090287254436
 31
0.0
  0
LINE
  5
6A20
330
1E
100
AcDbEntity
  8
0
100
AcDbLine
 10
152.3608793416693
 20
49.00064023729161
 30
0.0
 11
149.8608793416694
 21
49.00064023729161
 31
0.0
  0
LINE
  5
6A21
330
1E
100
AcDbEntity
  8
0
 48
0.27
100
AcDbLine
 10
152.3608793416693
 20
49.00064023729161
 30
0.0
 11
168.3608793416693
 21
49.00064023729161
 31
0.0
  0
LINE
  5
6A22
330
1E
100
AcDbEntity
  8
0
100
AcDbLine
 10
152.3608793416693
 20
46.0006402372916
 30
0.0
 11
149.8608793416694
 21
46.0006402372916
 31
0.0
  0
CIRCLE
  5
6A24
330
1E
100
AcDbEntity
  8
0
 48
0.27
100
AcDbCircle
 10
158.3608793416694
 20
30.00064023729161
 30
0.0
 40
0.75
  0
LINE
  5
6A25
330
1E
100
AcDbEntity
  8
0
100
AcDbLine
 10
147.8608793416694
 20
30.05064023729156
 30
0.0
 11
149.8608793416694
 21
31.20064023729165
 31
0.0
  0
LINE
  5
6A26
330
1E
100
AcDbEntity
  8
0
 48
0.27
100
AcDbLine
 10
152.3608793416693
 20
46.0006402372916
 30
0.0
 11
168.3608793416693
 21
46.0006402372916
 31
0.0
  0
LINE
  5
6A27
330
1E
100
AcDbEntity
  8
中心線
 48
0.27
100
AcDbLine
 10
152.2470940704928
 20
30.00064023729161
 30
0.0
 11
164.4746646128458
 21
30.00064023729161
 31
0.0
  0
ARC
  5
6A28
330
1E
100
AcDbEntity
  8
0
 48
0.27
100
AcDbCircle
 10
150.125402046905
 20
44.50153010262332
 30
0.0
 40
3.69263999999997
100
AcDbArc
 50
137.3885980021985
 51
222.6119083260538
  0
LINE
  5
6A29
330
1E
100
AcDbEntity
  8
0
 48
0.27
100
AcDbLine
 10
146.432762046905
 20
47.00153010262343
 30
0.0
 11
146.432762046905
 21
42.00150954481111
 31
0.0
  0
LINE
  5
6A2C
330
1E
100
AcDbEntity
  8
中心線
100
AcDbLine
 10
146.5593004216323
 20
16.0006402372916
 30
0.0
 11
157.2045259495613
 21
16.0006402372916
 31
0.0
  0
LINE
  5
6A2D
330
1E
100
AcDbEntity
  8
0
100
AcDbLine
 10
152.3608793416693
 20
3.000640237291548
 30
0.0
 11
149.8608793416694
 21
3.000640237291548
 31
0.0
  0
LINE
  5
6A2E
330
1E
100
AcDbEntity
  8
0
100
AcDbLine
 10
147.8608793416694
 20
0.0006402372915488
 30
0.0
 11
152.3608793416693
 21
0.0006402372915488
 31
0.0
  0
LINE
  5
6A2F
330
1E
100
AcDbEntity
  8
0
 48
0.27
100
AcDbLine
 10
168.3608793416693
 20
0.0006402372915488
 30
0.0
 11
152.3608793416693
 21
0.0006402372915488
 31
0.0
  0
LINE
  5
6A30
330
1E
100
AcDbEntity
  8
0
100
AcDbLine
 10
147.8608793416694
 20
0.0006402372915488
 30
0.0
 11
147.8608793416692
 21
12.55170995999074
 31
0.0
  0
LINE
  5
6A31
330
1E
100
AcDbEntity
  8
0
100
AcDbLine
 10
149.8608793416694
 20
0.0006402372915488
 30
0.0
 11
149.8608793416694
 21
49.00064023729161
 31
0.0
  0
LINE
  5
6A32
330
1E
100
AcDbEntity
  8
0
100
AcDbLine
 10
147.8608793416694
 20
25.30603934219167
 30
0.0
 11
147.8608793416694
 21
30.05064023729156
 31
0.0
  0
LINE
  5
6A33
330
1E
100
AcDbEntity
  8
0
 48
0.27
100
AcDbLine
 10
152.3608793416693
 20
0.0006402372915488
 30
0.0
 11
152.3608793416693
 21
49.00064023729161
 31
0.0
  0
LINE
  5
6A34
330
1E
100
AcDbEntity
  8
0
 48
0.27
100
AcDbLine
 10
168.3608793416695
 20
50.50064023729172
 30
0.0
 11
168.3608793416693
 21
0.0006402372915488
 31
0.0
  0
LINE
  5
6A35
330
1E
100
AcDbEntity
  8
0
 48
0.27
100
AcDbLine
 10
152.3608793416693
 20
0.0006402372915488
 30
0.0
 11
152.3608793416693
 21
49.00064023729161
 31
0.0
  0
LINE
  5
6A36
330
1E
100
AcDbEntity
  8
0
 48
0.27
100
AcDbLine
 10
168.3608793416693
 20
0.0006402372915488
 30
0.0
 11
168.3608793416693
 21
49.00064023729161
 31
0.0
  0
LINE
  5
6A37
330
1E
100
AcDbEntity
  8
中心線
 48
0.27
100
AcDbLine
 10
158.3608793416694
 20
24.39037760203897
 30
0.0
 11
158.3608793416694
 21
35.61090287254447
 31
0.0
  0
CIRCLE
  5
6A38
330
1E
100
AcDbEntity
  8
0
 48
0.27
100
AcDbCircle
 10
158.3608793416694
 20
30.00064023729161
 30
0.0
 40
3.9375
  0
CIRCLE
  5
6A39
330
1E
100
AcDbEntity
  8
0
 48
0.27
100
AcDbCircle
 10
158.3608793416694
 20
30.00064023729161
 30
0.0
 40
4.25
  0
CIRCLE
  5
6A3A
330
1E
100
AcDbEntity
  8
0
 48
0.27
100
AcDbCircle
 10
158.3608793416694
 20
30.00064023729161
 30
0.0
 40
4.549999999999999
  0
LINE
  5
6A43
330
1E
100
AcDbEntity
  8
0
  6
Continuous
100
AcDbLine
 10
142.7238211902743
 20
148.7675217490611
 30
0.0
 11
143.4865908816284
 21
150.6090106828955
 31
0.0
  0
ARC
  5
6A44
330
1E
100
AcDbEntity
  8
0
  6
Continuous
100
AcDbCircle
 10
137.6018059196661
 20
143.4137703203328
 30
0.0
 40
9.295339642905963
100
AcDbArc
 50
50.72134999791278
 51
84.27865000208958
  0
LINE
  5
6A45
330
1E
100
AcDbEntity
  8
0
  6
Continuous
100
AcDbLine
 10
137.765668128519
 20
150.8212559915618
 30
0.0
 11
138.5284378198732
 21
152.6627449253962
 31
0.0
  0
LINE
  5
6A46
330
1E
100
AcDbEntity
  8
0
  6
Continuous
100
AcDbLine
 10
135.2865911682527
 20
151.8481232906708
 30
0.0
 11
136.0493608596069
 21
153.6896122245052
 31
0.0
  0
ARC
  5
6A47
330
1E
100
AcDbEntity
  8
0
  6
Continuous
100
AcDbCircle
 10
133.5885778401473
 20
149.608666041514
 30
0.0
 40
2.746231479756806
100
AcDbArc
 50
335.8479011650615
 51
45.84790116506233
  0
ARC
  5
6A48
330
1E
100
AcDbEntity
  8
0
  6
Continuous
100
AcDbCircle
 10
136.4943014937371
 20
151.2578502857452
 30
0.0
 40
2.472178306553662
100
AcDbArc
 50
34.63277999893714
 51
100.367220001063
  0
LINE
  5
6A49
330
1E
100
AcDbEntity
  8
0
  6
Continuous
100
AcDbLine
 10
137.4403631735076
 20
153.5418452238885
 30
0.0
 11
144.8775936249178
 21
150.4612435044202
 31
0.0
  0
LINE
  5
6A4A
330
1E
100
AcDbEntity
  8
0
  6
Continuous
100
AcDbLine
 10
136.3746653852297
 20
150.9690231700371
 30
0.0
 11
143.8118958366399
 21
147.8884214505688
 31
0.0
  0
ARC
  5
6A4B
330
1E
100
AcDbEntity
  8
0
  6
Continuous
100
AcDbCircle
 10
143.6504530904814
 20
158.0164963541245
 30
0.0
 40
9.295339642905963
100
AcDbArc
 50
230.7213499979131
 51
264.2786500020895
  0
ARC
  5
6A4C
330
1E
100
AcDbEntity
  8
0
  6
Continuous
100
AcDbCircle
 10
137.3207270650002
 20
153.2530181081805
 30
0.0
 40
2.472178306553662
100
AcDbArc
 50
214.6327799989371
 51
280.367220001063
  0
ARC
  5
6A4D
330
1E
100
AcDbEntity
  8
0
  6
Continuous
100
AcDbCircle
 10
138.5952316815455
 20
144.8561377867838
 30
0.0
 40
3.813798694049015
100
AcDbArc
 50
331.4135141737375
 51
16.41351417373954
  0
LINE
  5
6A4E
330
1E
100
AcDbEntity
  8
0
  6
Continuous
100
AcDbLine
 10
139.0855193126958
 20
140.1727000358707
 30
0.0
 11
141.9441125200735
 21
143.0312932432485
 31
0.0
  0
LINE
  5
6A4F
330
1E
100
AcDbEntity
  8
0
  6
Continuous
100
AcDbLine
 10
134.2608793416722
 20
142.1711313454359
 30
0.0
 11
134.2608793416722
 21
146.2137926286172
 31
0.0
  0
LINE
  5
6A50
330
1E
100
AcDbEntity
  8
0
  6
Continuous
100
AcDbLine
 10
134.2608793416722
 20
146.2137926286172
 30
0.0
 11
141.9441125200735
 21
143.0312932432485
 31
0.0
  0
LINE
  5
6A51
330
1E
100
AcDbEntity
  8
0
  6
Continuous
100
AcDbLine
 10
134.2608793416722
 20
142.1711313454359
 30
0.0
 11
139.0855193126958
 21
140.1727000358707
 31
0.0
  0
LINE
  5
6A52
330
1E
100
AcDbEntity
  8
0
  6
Continuous
100
AcDbLine
 10
136.3407789751272
 20
148.3829681528839
 30
0.0
 11
142.007240107863
 21
146.0358431010448
 31
0.0
  0
ARC
  5
6A53
330
1E
100
AcDbEntity
  8
0
  6
Continuous
100
AcDbCircle
 10
137.9192556433261
 20
145.1361362296534
 30
0.0
 40
3.813798694049016
100
AcDbArc
 50
118.5864858262641
 51
163.5864858262638
  0
ARC
  5
6A54
330
1E
100
AcDbEntity
  8
0
  6
Continuous
100
AcDbCircle
 10
144.8200394823329
 20
144.9564423040476
 30
0.0
 40
2.746231479756806
100
AcDbArc
 50
89.1520988349392
 51
159.1520988349398
  0
ARC
  5
6A56
330
1E
100
AcDbEntity
  8
0
  6
Continuous
100
AcDbCircle
 10
142.7961342450254
 20
155.9539882108339
 30
0.0
 40
5.333333333333332
100
AcDbArc
 50
90.0
 51
210.8352048940846
  0
LINE
  5
6A5B
330
1E
100
AcDbEntity
  8
0
 48
0.27
100
AcDbLine
 10
140.6641232969051
 20
45.46607760262341
 30
0.0
 11
141.2630982969051
 21
45.11954135262342
 31
0.0
  0
LINE
  5
6A5C
330
1E
100
AcDbEntity
  8
0
 48
0.27
100
AcDbLine
 10
141.2630982969051
 20
45.11954135262342
 30
0.0
 11
141.7881032969051
 21
44.65318010262345
 31
0.0
  0
LINE
  5
6A5D
330
1E
100
AcDbEntity
  8
0
 48
0.27
100
AcDbLine
 10
141.3385557969051
 20
45.75153010262337
 30
0.0
 11
143.338813296905
 21
42.00153010262343
 31
0.0
  0
LINE
  5
6A5E
330
1E
100
AcDbEntity
  8
0
 48
0.27
100
AcDbLine
 10
141.7881032969051
 20
44.65318010262345
 30
0.0
 11
142.2189645469051
 21
44.08491760262339
 31
0.0
  0
LINE
  5
6A5F
330
1E
100
AcDbEntity
  8
0
 48
0.27
100
AcDbLine
 10
142.2189645469051
 20
44.08491760262339
 30
0.0
 11
142.5391232969051
 21
43.43659260262339
 31
0.0
  0
LINE
  5
6A60
330
1E
100
AcDbEntity
  8
0
 48
0.27
100
AcDbLine
 10
142.5391232969051
 20
43.43659260262339
 30
0.0
 11
142.7362757969051
 21
42.73311885262344
 31
0.0
  0
LINE
  5
6A61
330
1E
100
AcDbEntity
  8
0
 48
0.27
100
AcDbLine
 10
142.7362757969051
 20
42.73311885262344
 30
0.0
 11
142.8028457969051
 21
42.00153010262343
 31
0.0
  0
LINE
  5
6A62
330
1E
100
AcDbEntity
  8
0
 48
0.27
100
AcDbLine
 10
140.2570282969051
 20
42.61740760262344
 30
0.0
 11
140.3130695469051
 21
42.00153010262343
 31
0.0
  0
LINE
  5
6A63
330
1E
100
AcDbEntity
  8
0
 48
0.27
100
AcDbLine
 10
137.3380407969051
 20
45.75153010262337
 30
0.0
 11
137.0300495469051
 21
45.17412135262341
 31
0.0
  0
LINE
  5
6A64
330
1E
100
AcDbEntity
  8
0
 48
0.27
100
AcDbLine
 10
137.4893895469051
 20
45.16344760262339
 30
0.0
 11
138.0124732969051
 21
45.46607760262341
 31
0.0
  0
LINE
  5
6A65
330
1E
100
AcDbEntity
  8
0
 48
0.27
100
AcDbLine
 10
138.0124732969051
 20
45.46607760262341
 30
0.0
 11
138.6623982969051
 21
45.67947510262334
 31
0.0
  0
LINE
  5
6A66
330
1E
100
AcDbEntity
  8
0
 48
0.27
100
AcDbLine
 10
138.6623982969051
 20
45.67947510262334
 30
0.0
 11
139.3382982969051
 21
45.75153010262337
 31
0.0
  0
LINE
  5
6A67
330
1E
100
AcDbEntity
  8
0
 48
0.27
100
AcDbLine
 10
139.3382982969051
 20
45.75153010262337
 30
0.0
 11
140.0141982969051
 21
45.67947510262334
 31
0.0
  0
LINE
  5
6A68
330
1E
100
AcDbEntity
  8
0
 48
0.27
100
AcDbLine
 10
136.6343832969052
 20
45.1319401026233
 30
0.0
 11
137.2096620469051
 21
45.19326885262339
 31
0.0
  0
LINE
  5
6A69
330
1E
100
AcDbEntity
  8
0
 48
0.27
100
AcDbLine
 10
137.9654857969051
 20
45.0977563526234
 30
0.0
 11
138.5126157969051
 21
44.91811135262335
 31
0.0
  0
LINE
  5
6A6A
330
1E
100
AcDbEntity
  8
0
 48
0.27
100
AcDbLine
 10
137.7849407969051
 20
45.1319401026233
 30
0.0
 11
137.9654857969051
 21
45.0977563526234
 31
0.0
  0
LINE
  5
6A6B
330
1E
100
AcDbEntity
  8
0
 48
0.27
100
AcDbLine
 10
137.2096620469051
 20
45.19326885262339
 30
0.0
 11
137.7849407969051
 21
45.1319401026233
 31
0.0
  0
LINE
  5
6A6C
330
1E
100
AcDbEntity
  8
0
 48
0.27
100
AcDbLine
 10
138.5126157969051
 20
44.91811135262335
 30
0.0
 11
139.0168545469052
 21
44.62638385262337
 31
0.0
  0
LINE
  5
6A6D
330
1E
100
AcDbEntity
  8
0
 48
0.27
100
AcDbLine
 10
139.0168545469052
 20
44.62638385262337
 30
0.0
 11
139.4588232969051
 21
44.23378510262338
 31
0.0
  0
LINE
  5
6A6E
330
1E
100
AcDbEntity
  8
0
 48
0.27
100
AcDbLine
 10
137.7849407969051
 20
45.1319401026233
 30
0.0
 11
138.3381120469051
 21
44.95031260262337
 31
0.0
  0
LINE
  5
6A6F
330
1E
100
AcDbEntity
  8
0
 48
0.27
100
AcDbLine
 10
139.4588232969051
 20
44.23378510262338
 30
0.0
 11
139.8215370469052
 21
43.7554013526234
 31
0.0
  0
LINE
  5
6A70
330
1E
100
AcDbEntity
  8
0
 48
0.27
100
AcDbLine
 10
138.3381120469051
 20
44.95031260262337
 30
0.0
 11
138.8479170469051
 21
44.65536385262342
 31
0.0
  0
LINE
  5
6A71
330
1E
100
AcDbEntity
  8
0
 48
0.27
100
AcDbLine
 10
139.8215370469052
 20
43.7554013526234
 30
0.0
 11
140.0910582969051
 21
43.20961760262341
 31
0.0
  0
LINE
  5
6A72
330
1E
100
AcDbEntity
  8
0
 48
0.27
100
AcDbLine
 10
138.8479170469051
 20
44.65536385262342
 30
0.0
 11
139.2947657969051
 21
44.25843010262346
 31
0.0
  0
LINE
  5
6A73
330
1E
100
AcDbEntity
  8
0
 48
0.27
100
AcDbLine
 10
136.9364245469051
 20
44.19807635262341
 30
0.0
 11
137.3245732969051
 21
44.07063135262333
 31
0.0
  0
LINE
  5
6A74
330
1E
100
AcDbEntity
  8
0
 48
0.27
100
AcDbLine
 10
139.2947657969051
 20
44.25843010262346
 30
0.0
 11
139.6614845469051
 21
43.77476510262343
 31
0.0
  0
LINE
  5
6A75
330
1E
100
AcDbEntity
  8
0
 48
0.27
100
AcDbLine
 10
137.3245732969051
 20
44.07063135262333
 30
0.0
 11
137.6822945469051
 21
43.86367260262338
 31
0.0
  0
LINE
  5
6A76
330
1E
100
AcDbEntity
  8
0
 48
0.27
100
AcDbLine
 10
139.6614845469051
 20
43.77476510262343
 30
0.0
 11
139.9339807969051
 21
43.22295510262338
 31
0.0
  0
LINE
  5
6A77
330
1E
100
AcDbEntity
  8
0
 48
0.27
100
AcDbLine
 10
139.9339807969051
 20
43.22295510262338
 30
0.0
 11
140.1017845469051
 21
42.62420760262344
 31
0.0
  0
LINE
  5
6A78
330
1E
100
AcDbEntity
  8
0
 48
0.27
100
AcDbLine
 10
137.6822945469051
 20
43.86367260262338
 30
0.0
 11
137.9958382969051
 21
43.58515135262339
 31
0.0
  0
LINE
  5
6A79
330
1E
100
AcDbEntity
  8
0
 48
0.27
100
AcDbLine
 10
140.1017845469051
 20
42.62420760262344
 30
0.0
 11
140.1584445469051
 21
42.00153010262343
 31
0.0
  0
LINE
  5
6A7A
330
1E
100
AcDbEntity
  8
0
 48
0.27
100
AcDbLine
 10
137.9958382969051
 20
43.58515135262339
 30
0.0
 11
138.2531582969051
 21
43.24577385262339
 31
0.0
  0
LINE
  5
6A7B
330
1E
100
AcDbEntity
  8
0
 48
0.27
100
AcDbLine
 10
138.2531582969051
 20
43.24577385262339
 30
0.0
 11
138.4443632969051
 21
42.85858010262339
 31
0.0
  0
LINE
  5
6A7C
330
1E
100
AcDbEntity
  8
0
 48
0.27
100
AcDbLine
 10
138.4443632969051
 20
42.85858010262339
 30
0.0
 11
138.5621070469051
 21
42.43845010262342
 31
0.0
  0
LINE
  5
6A7D
330
1E
100
AcDbEntity
  8
0
 48
0.27
100
AcDbLine
 10
138.5621070469051
 20
42.43845010262342
 30
0.0
 11
138.6018645469051
 21
42.00153010262343
 31
0.0
  0
LINE
  5
6A7E
330
1E
100
AcDbEntity
  8
0
 48
0.27
100
AcDbLine
 10
137.3380407969051
 20
45.75153010262337
 30
0.0
 11
142.212760796905
 21
45.75153010262337
 31
0.0
  0
LINE
  5
6A7F
330
1E
100
AcDbEntity
  8
0
 48
0.27
100
AcDbLine
 10
140.0141982969051
 20
45.67947510262334
 30
0.0
 11
140.6641232969051
 21
45.46607760262341
 31
0.0
  0
LINE
  5
6A80
330
1E
100
AcDbEntity
  8
0
 48
0.27
100
AcDbLine
 10
140.0910582969051
 20
43.20961760262341
 30
0.0
 11
140.2570282969051
 21
42.61740760262344
 31
0.0
  0
LINE
  5
6A81
330
1E
100
AcDbEntity
  8
0
 48
0.27
100
AcDbLine
 10
140.6641232969051
 20
38.53698135262343
 30
0.0
 11
141.2630982969051
 21
38.88351885262344
 31
0.0
  0
LINE
  5
6A82
330
1E
100
AcDbEntity
  8
0
 48
0.27
100
AcDbLine
 10
141.2630982969051
 20
38.88351885262344
 30
0.0
 11
141.7881032969051
 21
39.34987885262339
 31
0.0
  0
LINE
  5
6A83
330
1E
100
AcDbEntity
  8
0
 48
0.27
100
AcDbLine
 10
142.2189645469051
 20
39.9181413526234
 30
0.0
 11
141.7881032969051
 21
39.34987885262339
 31
0.0
  0
LINE
  5
6A84
330
1E
100
AcDbEntity
  8
0
 48
0.27
100
AcDbLine
 10
142.5391232969051
 20
40.5664663526235
 30
0.0
 11
142.2189645469051
 21
39.9181413526234
 31
0.0
  0
LINE
  5
6A85
330
1E
100
AcDbEntity
  8
0
 48
0.27
100
AcDbLine
 10
142.7362757969051
 20
41.26994135262336
 30
0.0
 11
142.5391232969051
 21
40.5664663526235
 31
0.0
  0
LINE
  5
6A86
330
1E
100
AcDbEntity
  8
0
 48
0.27
100
AcDbLine
 10
137.0300495469051
 20
38.82893885262345
 30
0.0
 11
137.3380407969051
 21
38.25153010262344
 31
0.0
  0
LINE
  5
6A87
330
1E
100
AcDbEntity
  8
0
 48
0.27
100
AcDbLine
 10
137.4893895469051
 20
38.83961135262351
 30
0.0
 11
138.0124732969051
 21
38.53698135262343
 31
0.0
  0
LINE
  5
6A88
330
1E
100
AcDbEntity
  8
0
 48
0.27
100
AcDbLine
 10
138.0124732969051
 20
38.53698135262343
 30
0.0
 11
138.6623982969051
 21
38.32358510262352
 31
0.0
  0
LINE
  5
6A89
330
1E
100
AcDbEntity
  8
0
 48
0.27
100
AcDbLine
 10
138.6623982969051
 20
38.32358510262352
 30
0.0
 11
139.3382982969051
 21
38.25153010262344
 31
0.0
  0
LINE
  5
6A8A
330
1E
100
AcDbEntity
  8
0
 48
0.27
100
AcDbLine
 10
139.3382982969051
 20
38.25153010262344
 30
0.0
 11
140.0141982969051
 21
38.32358510262352
 31
0.0
  0
LINE
  5
6A8B
330
1E
100
AcDbEntity
  8
0
 48
0.27
100
AcDbLine
 10
136.6343832969052
 20
38.87111885262337
 30
0.0
 11
137.2096620469051
 21
38.80979135262342
 31
0.0
  0
LINE
  5
6A8C
330
1E
100
AcDbEntity
  8
0
 48
0.27
100
AcDbLine
 10
137.9654857969051
 20
38.90530385262346
 30
0.0
 11
138.5126157969051
 21
39.08494885262351
 31
0.0
  0
LINE
  5
6A8D
330
1E
100
AcDbEntity
  8
0
 48
0.27
100
AcDbLine
 10
138.5126157969051
 20
39.08494885262351
 30
0.0
 11
139.0168545469052
 21
39.37667635262343
 31
0.0
  0
LINE
  5
6A8E
330
1E
100
AcDbEntity
  8
0
 48
0.27
100
AcDbLine
 10
137.7849407969051
 20
38.87111885262337
 30
0.0
 11
137.9654857969051
 21
38.90530385262346
 31
0.0
  0
LINE
  5
6A8F
330
1E
100
AcDbEntity
  8
0
 48
0.27
100
AcDbLine
 10
137.2096620469051
 20
38.80979135262342
 30
0.0
 11
137.7849407969051
 21
38.87111885262337
 31
0.0
  0
LINE
  5
6A90
330
1E
100
AcDbEntity
  8
0
 48
0.27
100
AcDbLine
 10
139.0168545469052
 20
39.37667635262343
 30
0.0
 11
139.4588232969051
 21
39.76927510262342
 31
0.0
  0
LINE
  5
6A91
330
1E
100
AcDbEntity
  8
0
 48
0.27
100
AcDbLine
 10
137.7849407969051
 20
38.87111885262337
 30
0.0
 11
138.3381120469051
 21
39.05274760262344
 31
0.0
  0
LINE
  5
6A92
330
1E
100
AcDbEntity
  8
0
 48
0.27
100
AcDbLine
 10
139.8215370469052
 20
40.24765885262346
 30
0.0
 11
139.4588232969051
 21
39.76927510262342
 31
0.0
  0
LINE
  5
6A93
330
1E
100
AcDbEntity
  8
0
 48
0.27
100
AcDbLine
 10
140.0910582969051
 20
40.7934426026234
 30
0.0
 11
139.8215370469052
 21
40.24765885262346
 31
0.0
  0
LINE
  5
6A94
330
1E
100
AcDbEntity
  8
0
 48
0.27
100
AcDbLine
 10
138.3381120469051
 20
39.05274760262344
 30
0.0
 11
138.8479170469051
 21
39.34769635262345
 31
0.0
  0
LINE
  5
6A95
330
1E
100
AcDbEntity
  8
0
 48
0.27
100
AcDbLine
 10
138.8479170469051
 20
39.34769635262345
 30
0.0
 11
139.2947657969051
 21
39.74463010262335
 31
0.0
  0
LINE
  5
6A96
330
1E
100
AcDbEntity
  8
0
 48
0.27
100
AcDbLine
 10
136.9364245469051
 20
39.80498260262343
 30
0.0
 11
137.3245732969051
 21
39.93242760262345
 31
0.0
  0
LINE
  5
6A97
330
1E
100
AcDbEntity
  8
0
 48
0.27
100
AcDbLine
 10
139.6614845469051
 20
40.22829510262343
 30
0.0
 11
139.2947657969051
 21
39.74463010262335
 31
0.0
  0
LINE
  5
6A98
330
1E
100
AcDbEntity
  8
0
 48
0.27
100
AcDbLine
 10
139.9339807969051
 20
40.7801038526234
 30
0.0
 11
139.6614845469051
 21
40.22829510262343
 31
0.0
  0
LINE
  5
6A99
330
1E
100
AcDbEntity
  8
0
 48
0.27
100
AcDbLine
 10
137.3245732969051
 20
39.93242760262345
 30
0.0
 11
137.6822945469051
 21
40.13938760262343
 31
0.0
  0
LINE
  5
6A9A
330
1E
100
AcDbEntity
  8
0
 48
0.27
100
AcDbLine
 10
140.1017845469051
 20
41.37885260262343
 30
0.0
 11
139.9339807969051
 21
40.7801038526234
 31
0.0
  0
LINE
  5
6A9B
330
1E
100
AcDbEntity
  8
0
 48
0.27
100
AcDbLine
 10
137.6822945469051
 20
40.13938760262343
 30
0.0
 11
137.9958382969051
 21
40.4179076026235
 31
0.0
  0
LINE
  5
6A9C
330
1E
100
AcDbEntity
  8
0
 48
0.27
100
AcDbLine
 10
138.2531582969051
 20
40.75728635262342
 30
0.0
 11
137.9958382969051
 21
40.4179076026235
 31
0.0
  0
LINE
  5
6A9D
330
1E
100
AcDbEntity
  8
0
 48
0.27
100
AcDbLine
 10
138.4443632969051
 20
41.14448010262342
 30
0.0
 11
138.2531582969051
 21
40.75728635262342
 31
0.0
  0
LINE
  5
6A9E
330
1E
100
AcDbEntity
  8
0
 48
0.27
100
AcDbLine
 10
138.5621070469051
 20
41.56461010262344
 30
0.0
 11
138.4443632969051
 21
41.14448010262342
 31
0.0
  0
LINE
  5
6A9F
330
1E
100
AcDbEntity
  8
0
 48
0.27
100
AcDbLine
 10
142.212760796905
 20
38.25153010262344
 30
0.0
 11
137.3380407969051
 21
38.25153010262344
 31
0.0
  0
LINE
  5
6AA0
330
1E
100
AcDbEntity
  8
0
 48
0.27
100
AcDbLine
 10
140.0141982969051
 20
38.32358510262352
 30
0.0
 11
140.6641232969051
 21
38.53698135262343
 31
0.0
  0
LINE
  5
6AA1
330
1E
100
AcDbEntity
  8
0
 48
0.27
100
AcDbLine
 10
140.2570282969051
 20
41.38565260262342
 30
0.0
 11
140.0910582969051
 21
40.7934426026234
 31
0.0
  0
LINE
  5
6AA2
330
1E
100
AcDbEntity
  8
0
 48
0.27
100
AcDbLine
 10
143.338813296905
 20
42.00153010262343
 30
0.0
 11
141.3385557969051
 21
38.25153010262344
 31
0.0
  0
LINE
  5
6AA3
330
1E
100
AcDbEntity
  8
0
 48
0.27
100
AcDbLine
 10
142.8028457969051
 20
42.00153010262343
 30
0.0
 11
142.7362757969051
 21
41.26994135262336
 31
0.0
  0
LINE
  5
6AA4
330
1E
100
AcDbEntity
  8
0
 48
0.27
100
AcDbLine
 10
140.3130695469051
 20
42.00153010262343
 30
0.0
 11
140.2570282969051
 21
41.38565260262342
 31
0.0
  0
LINE
  5
6AA5
330
1E
100
AcDbEntity
  8
0
 48
0.27
100
AcDbLine
 10
140.1584445469051
 20
42.00153010262343
 30
0.0
 11
140.1017845469051
 21
41.37885260262343
 31
0.0
  0
LINE
  5
6AA6
330
1E
100
AcDbEntity
  8
0
 48
0.27
100
AcDbLine
 10
138.6018645469051
 20
42.00153010262343
 30
0.0
 11
138.5621070469051
 21
41.56461010262344
 31
0.0
  0
LINE
  5
6AA7
330
1E
100
AcDbEntity
  8
0
 48
0.27
100
AcDbLine
 10
135.7084270469052
 20
44.05181385262338
 30
0.0
 11
135.7121407969051
 21
44.04979510262345
 31
0.0
  0
LINE
  5
6AA8
330
1E
100
AcDbEntity
  8
0
 48
0.27
100
AcDbLine
 10
134.3175395469052
 20
42.62420760262344
 30
0.0
 11
134.2608795469052
 21
42.00153010262343
 31
0.0
  0
LINE
  5
6AA9
330
1E
100
AcDbEntity
  8
0
 48
0.27
100
AcDbLine
 10
134.4853420469051
 20
43.22295510262338
 30
0.0
 11
134.3175395469052
 21
42.62420760262344
 31
0.0
  0
LINE
  5
6AAA
330
1E
100
AcDbEntity
  8
0
 48
0.27
100
AcDbLine
 10
134.7578382969051
 20
43.77476510262343
 30
0.0
 11
134.4853420469051
 21
43.22295510262338
 31
0.0
  0
LINE
  5
6AAB
330
1E
100
AcDbEntity
  8
0
 48
0.27
100
AcDbLine
 10
135.1245582969052
 20
44.25843010262346
 30
0.0
 11
134.7578382969051
 21
43.77476510262343
 31
0.0
  0
LINE
  5
6AAC
330
1E
100
AcDbEntity
  8
0
 48
0.27
100
AcDbLine
 10
135.1245582969052
 20
44.25843010262346
 30
0.0
 11
135.5714057969052
 21
44.65536385262342
 31
0.0
  0
LINE
  5
6AAD
330
1E
100
AcDbEntity
  8
0
 48
0.27
100
AcDbLine
 10
134.5034182969051
 20
42.43845010262342
 30
0.0
 11
134.4636607969051
 21
42.00153010262343
 31
0.0
  0
LINE
  5
6AAE
330
1E
100
AcDbEntity
  8
0
 48
0.27
100
AcDbLine
 10
134.6211620469051
 20
42.85858010262339
 30
0.0
 11
134.5034182969051
 21
42.43845010262342
 31
0.0
  0
LINE
  5
6AAF
330
1E
100
AcDbEntity
  8
0
 48
0.27
100
AcDbLine
 10
134.8123670469051
 20
43.24577385262339
 30
0.0
 11
134.6211620469051
 21
42.85858010262339
 31
0.0
  0
LINE
  5
6AB0
330
1E
100
AcDbEntity
  8
0
 48
0.27
100
AcDbLine
 10
135.5714057969052
 20
44.65536385262342
 30
0.0
 11
136.0812120469052
 21
44.95031260262337
 31
0.0
  0
LINE
  5
6AB1
330
1E
100
AcDbEntity
  8
0
 48
0.27
100
AcDbLine
 10
135.0696870469052
 20
43.58515135262339
 30
0.0
 11
134.8123670469051
 21
43.24577385262339
 31
0.0
  0
LINE
  5
6AB2
330
1E
100
AcDbEntity
  8
0
 48
0.27
100
AcDbLine
 10
135.0696870469052
 20
43.58515135262339
 30
0.0
 11
135.3832307969052
 21
43.86367260262338
 31
0.0
  0
LINE
  5
6AB3
330
1E
100
AcDbEntity
  8
0
 48
0.27
100
AcDbLine
 10
135.3832307969052
 20
43.86367260262338
 30
0.0
 11
135.7409520469051
 21
44.07063135262333
 31
0.0
  0
LINE
  5
6AB4
330
1E
100
AcDbEntity
  8
0
 48
0.27
100
AcDbLine
 10
135.7409520469051
 20
44.07063135262333
 30
0.0
 11
136.1291007969051
 21
44.19807635262341
 31
0.0
  0
LINE
  5
6AB5
330
1E
100
AcDbEntity
  8
0
 48
0.27
100
AcDbLine
 10
136.1291007969051
 20
44.19807635262341
 30
0.0
 11
136.5327632969051
 21
44.24110885262339
 31
0.0
  0
LINE
  5
6AB6
330
1E
100
AcDbEntity
  8
0
 48
0.27
100
AcDbLine
 10
135.7084270469052
 20
39.95124510262341
 30
0.0
 11
135.7121407969051
 21
39.95326510262342
 31
0.0
  0
LINE
  5
6AB7
330
1E
100
AcDbEntity
  8
0
 48
0.27
100
AcDbLine
 10
134.3175395469052
 20
41.37885260262343
 30
0.0
 11
134.4853420469051
 21
40.7801038526234
 31
0.0
  0
LINE
  5
6AB8
330
1E
100
AcDbEntity
  8
0
 48
0.27
100
AcDbLine
 10
134.4853420469051
 20
40.7801038526234
 30
0.0
 11
134.7578382969051
 21
40.22829510262343
 31
0.0
  0
LINE
  5
6AB9
330
1E
100
AcDbEntity
  8
0
 48
0.27
100
AcDbLine
 10
134.7578382969051
 20
40.22829510262343
 30
0.0
 11
135.1245582969052
 21
39.74463010262335
 31
0.0
  0
LINE
  5
6ABA
330
1E
100
AcDbEntity
  8
0
 48
0.27
100
AcDbLine
 10
134.5034182969051
 20
41.56461010262344
 30
0.0
 11
134.6211620469051
 21
41.14448010262342
 31
0.0
  0
LINE
  5
6ABB
330
1E
100
AcDbEntity
  8
0
 48
0.27
100
AcDbLine
 10
135.1245582969052
 20
39.74463010262335
 30
0.0
 11
135.5714057969052
 21
39.34769635262345
 31
0.0
  0
LINE
  5
6ABC
330
1E
100
AcDbEntity
  8
0
 48
0.27
100
AcDbLine
 10
134.6211620469051
 20
41.14448010262342
 30
0.0
 11
134.8123670469051
 21
40.75728635262342
 31
0.0
  0
LINE
  5
6ABD
330
1E
100
AcDbEntity
  8
0
 48
0.27
100
AcDbLine
 10
135.5714057969052
 20
39.34769635262345
 30
0.0
 11
136.0812120469052
 21
39.05274760262344
 31
0.0
  0
LINE
  5
6ABE
330
1E
100
AcDbEntity
  8
0
 48
0.27
100
AcDbLine
 10
134.8123670469051
 20
40.75728635262342
 30
0.0
 11
135.0696870469052
 21
40.4179076026235
 31
0.0
  0
LINE
  5
6ABF
330
1E
100
AcDbEntity
  8
0
 48
0.27
100
AcDbLine
 10
135.0696870469052
 20
40.4179076026235
 30
0.0
 11
135.3832307969052
 21
40.13938760262343
 31
0.0
  0
LINE
  5
6AC0
330
1E
100
AcDbEntity
  8
0
 48
0.27
100
AcDbLine
 10
135.3832307969052
 20
40.13938760262343
 30
0.0
 11
135.7409520469051
 21
39.93242760262345
 31
0.0
  0
LINE
  5
6AC1
330
1E
100
AcDbEntity
  8
0
 48
0.27
100
AcDbLine
 10
135.7409520469051
 20
39.93242760262345
 30
0.0
 11
136.1291007969051
 21
39.80498260262343
 31
0.0
  0
LINE
  5
6AC2
330
1E
100
AcDbEntity
  8
0
 48
0.27
100
AcDbLine
 10
136.1291007969051
 20
39.80498260262343
 30
0.0
 11
136.5327632969051
 21
39.76195010262344
 31
0.0
  0
LINE
  5
6AC3
330
1E
100
AcDbEntity
  8
0
 48
0.27
100
AcDbLine
 10
134.2608795469052
 20
42.00153010262343
 30
0.0
 11
134.3175395469052
 21
41.37885260262343
 31
0.0
  0
LINE
  5
6AC4
330
1E
100
AcDbEntity
  8
0
 48
0.27
100
AcDbLine
 10
134.4636607969051
 20
42.00153010262343
 30
0.0
 11
134.5034182969051
 21
41.56461010262344
 31
0.0
  0
LWPOLYLINE
  5
6AC5
330
1E
100
AcDbEntity
  8
0
 48
0.27
100
AcDbPolyline
 90
       31
 70
     0
 43
0.0
 10
137.2718657969051
 20
42.00153010262337
 10
137.2308432969051
 20
42.26434885262338
 10
137.1756595469051
 20
42.39620760262337
 10
137.0968682969051
 20
42.51843135262336
 10
136.9975232969051
 20
42.6235726026234
 10
136.8831595469051
 20
42.70591385262341
 10
136.7607595469051
 20
42.76251510262333
 10
136.5949645469051
 20
42.79869135262337
 10
136.4412032969051
 20
42.79536760262337
 10
136.3075482969051
 20
42.76348510262337
 10
136.1622920469051
 20
42.69377510262339
 10
136.0240795469051
 20
42.58191385262344
 10
135.9137920469052
 20
42.43872635262337
 10
135.8429995469051
 20
42.28892760262342
 10
135.8081857969051
 20
42.15935760262337
 10
135.7936595469051
 20
42.00153010262337
 10
135.8346820469051
 20
41.73871135262342
 10
135.8898670469051
 20
41.6068513526234
 10
135.9686570469051
 20
41.48462885262339
 10
136.0680020469052
 20
41.37948760262341
 10
136.1823657969051
 20
41.2971463526234
 10
136.3047657969051
 20
41.24054510262337
 10
136.4705607969051
 20
41.20436760262331
 10
136.6243220469051
 20
41.20769260262344
 10
136.7579770469051
 20
41.23957385262341
 10
136.9032332969051
 20
41.30928385262339
 10
137.0414457969052
 20
41.42114635262337
 10
137.1517332969051
 20
41.56433260262341
 10
137.2225257969051
 20
41.71413135262335
 10
137.2573407969051
 20
41.84370260262349
 10
137.2718657969051
 20
42.00153010262337
  0
LINE
  5
6AC6
330
1E
100
AcDbEntity
  8
0
 48
0.27
100
AcDbLine
 10
136.0812120469052
 20
44.95031260262337
 30
0.0
 11
136.6343832969052
 21
45.1319401026233
 31
0.0
  0
LINE
  5
6AC7
330
1E
100
AcDbEntity
  8
0
 48
0.27
100
AcDbLine
 10
136.0812120469052
 20
39.05274760262344
 30
0.0
 11
136.6343832969052
 21
38.87111885262337
 31
0.0
  0
LINE
  5
6AC8
330
1E
100
AcDbEntity
  8
0
 48
0.27
100
AcDbLine
 10
136.5327632969051
 20
44.24110885262339
 30
0.0
 11
136.9364245469051
 21
44.19807635262341
 31
0.0
  0
LINE
  5
6AC9
330
1E
100
AcDbEntity
  8
0
 48
0.27
100
AcDbLine
 10
136.5327632969051
 20
39.76195010262344
 30
0.0
 11
136.9364245469051
 21
39.80498260262343
 31
0.0
  0
ARC
  5
6ACA
330
1E
100
AcDbEntity
  8
0
 48
0.27
100
AcDbCircle
 10
141.7473370469051
 20
42.00153010262343
 30
0.0
 40
4.99999999999996
100
AcDbArc
 50
228.5903779972988
 51
270.0
  0
ARC
  5
6ACB
330
1E
100
AcDbEntity
  8
0
 48
0.27
100
AcDbCircle
 10
141.7473370469051
 20
42.00153010262343
 30
0.0
 40
4.99999999999996
100
AcDbArc
 50
90.0
 51
131.4096219996
  0
LINE
  5
6AEE
330
1E
100
AcDbEntity
  8
中心線
 48
0.27
100
AcDbLine
 10
132.7608795469052
 20
42.00153010262343
 30
0.0
 11
150.4313015269722
 21
42.00150593874854
 31
0.0
  0
LINE
  5
6AEF
330
1E
100
AcDbEntity
  8
0
 48
0.27
100
AcDbLine
 10
149.8608793416694
 20
47.00153010262343
 30
0.0
 11
141.7473370469051
 21
47.00153010262343
 31
0.0
  0
LINE
  5
6AF0
330
1E
100
AcDbEntity
  8
0
 48
0.27
100
AcDbLine
 10
141.7473370469051
 20
37.00153010262344
 30
0.0
 11
149.8608793416694
 21
37.00153010262327
 31
0.0
  0
LINE
  5
6AF1
330
1E
100
AcDbEntity
  8
0
 48
0.27
100
AcDbLine
 10
143.338813296905
 20
42.00153010262343
 30
0.0
 11
144.2130182969051
 21
42.00153010262343
 31
0.0
  0
LINE
  5
6AF2
330
1E
100
AcDbEntity
  8
0
 48
0.27
100
AcDbLine
 10
142.212760796905
 20
45.75153010262337
 30
0.0
 11
144.2130182969051
 21
42.00153010262343
 31
0.0
  0
LINE
  5
6AF3
330
1E
100
AcDbEntity
  8
0
 48
0.27
100
AcDbLine
 10
144.2130182969051
 20
42.00153010262343
 30
0.0
 11
142.212760796905
 21
38.25153010262344
 31
0.0
  0
ARC
  5
6AF4
330
1E
100
AcDbEntity
  8
0
  6
Continuous
100
AcDbCircle
 10
144.7579575164104
 20
150.1724163887122
 30
0.0
 40
2.472178306553662
100
AcDbArc
 50
214.6327799989371
 51
280.367220001063
  0
LINE
  5
6AF5
330
1E
100
AcDbEntity
  8
0
  6
Continuous
100
AcDbLine
 10
144.3076053125464
 20
150.6206548775006
 30
0.0
 11
147.6910421256922
 21
150.6206548775006
 31
0.0
  0
ARC
  5
6AF6
330
1E
100
AcDbEntity
  8
0
  6
Continuous
100
AcDbCircle
 10
143.9315319451473
 20
148.1772485662769
 30
0.0
 40
2.472178306553662
100
AcDbArc
 50
34.63277999893714
 51
100.367220001063
  0
LINE
  5
6AF7
330
1E
100
AcDbEntity
  8
0
  6
Continuous
100
AcDbLine
 10
142.7961342450254
 20
161.2873215441672
 30
0.0
 11
147.6910421256922
 21
161.2873215441672
 31
0.0
  0
LINE
  5
6B96
330
1E
100
AcDbEntity
  8
中心線
100
AcDbLine
 10
288.798957087188
 20
189.9539882088739
 30
0.0
 11
278.153731559259
 21
189.9539882088739
 31
0.0
  0
ARC
  5
6B9B
330
1E
100
AcDbEntity
  8
0
100
AcDbCircle
 10
284.3031575331078
 20
191.7683927435632
 30
0.0
 40
2.258017748891657
100
AcDbArc
 50
0.9276427879959481
 51
74.03697783117195
  0
LINE
  5
6B9C
330
1E
100
AcDbEntity
  8
0
100
AcDbLine
 10
284.9241506076737
 20
193.939339945973
 30
0.0
 11
283.8608793416729
 21
193.939339945973
 31
0.0
  0
LINE
  5
6B9D
330
1E
100
AcDbEntity
  8
0
100
AcDbLine
 10
286.5608793416728
 20
188.1033160865148
 30
0.0
 11
286.5608793416728
 21
191.804949404245
 31
0.0
  0
ARC
  5
6B9E
330
1E
100
AcDbEntity
  8
0
100
AcDbCircle
 10
284.3031575331078
 20
188.1398727471966
 30
0.0
 40
2.258017748891657
100
AcDbArc
 50
285.9630221688281
 51
359.0723572120041
  0
LINE
  5
6B9F
330
1E
100
AcDbEntity
  8
0
100
AcDbLine
 10
284.9241506076737
 20
185.9689255447868
 30
0.0
 11
283.8608793416729
 21
185.9689255447868
 31
0.0
  0
LINE
  5
6BA0
330
1E
100
AcDbEntity
  8
中心線
100
AcDbLine
 10
288.798957087188
 20
121.9539882127938
 30
0.0
 11
278.153731559259
 21
121.9539882127938
 31
0.0
  0
LINE
  5
6BA2
330
1E
100
AcDbEntity
  8
0
100
AcDbLine
 10
284.9241506076737
 20
125.9391954133869
 30
0.0
 11
283.8608793416729
 21
125.9391954133869
 31
0.0
  0
ARC
  5
6BA3
330
1E
100
AcDbEntity
  8
0
100
AcDbCircle
 10
284.3031575331078
 20
123.7682482109772
 30
0.0
 40
2.258017748891657
100
AcDbArc
 50
0.9276427879959481
 51
74.03697783117195
  0
LINE
  5
6BA4
330
1E
100
AcDbEntity
  8
0
100
AcDbLine
 10
286.5608793416728
 20
123.804804871659
 30
0.0
 11
286.5608793416728
 21
120.1031715539287
 31
0.0
  0
LINE
  5
6BA5
330
1E
100
AcDbEntity
  8
0
100
AcDbLine
 10
284.9241506076737
 20
117.9687810122007
 30
0.0
 11
283.8608793416728
 21
117.9687810122007
 31
0.0
  0
ARC
  5
6BA6
330
1E
100
AcDbEntity
  8
0
100
AcDbCircle
 10
284.3031575331078
 20
120.1397282146107
 30
0.0
 40
2.258017748891657
100
AcDbArc
 50
285.9630221688281
 51
359.0723572120041
  0
LINE
  5
6BC7
330
1E
100
AcDbEntity
  8
0
100
AcDbLine
 10
285.8608793416728
 20
161.7522122075674
 30
0.0
 11
285.860879341673
 21
133.5538593621533
 31
0.0
  0
LINE
  5
6BC8
330
1E
100
AcDbEntity
  8
0
100
AcDbLine
 10
285.8608793416729
 20
141.5953795028683
 30
0.0
 11
283.8608793416729
 21
140.4356115933287
 31
0.0
  0
LINE
  5
6BC9
330
1E
100
AcDbEntity
  8
0
100
AcDbLine
 10
285.860879341673
 20
133.5538593621533
 30
0.0
 11
283.860879341673
 21
130.7538593623146
 31
0.0
  0
LINE
  5
6BCA
330
1E
100
AcDbEntity
  8
0
100
AcDbLine
 10
285.8608793416729
 20
178.354117059515
 30
0.0
 11
283.8608793416728
 21
181.1541170593537
 31
0.0
  0
LINE
  5
6BCB
330
1E
100
AcDbEntity
  8
0
100
AcDbLine
 10
285.8608793416728
 20
170.3125969188
 30
0.0
 11
283.8608793416728
 21
171.4723648283396
 31
0.0
  0
LINE
  5
6BCC
330
1E
100
AcDbEntity
  8
0
100
AcDbLine
 10
285.8608793416728
 20
161.7522122075674
 30
0.0
 11
285.8608793416729
 21
178.354117059515
 31
0.0
  0
LINE
  5
6BDD
330
1E
100
AcDbEntity
  8
0
100
AcDbLine
 10
147.4077800441899
 20
42.00150593874843
 30
0.0
 11
149.8608793416694
 21
42.00150593874843
 31
0.0
  0
ENDSEC
  0
SECTION
  2
OBJECTS
  0
DICTIONARY
  5
C
330
0
100
AcDbDictionary
281
     1
  3
ACAD_COLOR
350
3D97
  3
ACAD_GROUP
350
D
  3
ACAD_LAYOUT
350
19
  3
ACAD_MATERIAL
350
3D96
  3
ACAD_MLINESTYLE
350
16
  3
ACAD_PLOTSETTINGS
350
18
  3
ACAD_PLOTSTYLENAME
350
E
  3
ACAD_TABLESTYLE
350
5DC4
  3
ACAD_VISUALSTYLE
350
6BEC
  3
AcDbVariableDictionary
350
3E63
  3
DWGPROPS
350
6C30
  0
DICTIONARY
  5
43C2
330
2
100
AcDbDictionary
280
     1
281
     1
  3
ACAD_LAYERSTATES
360
43C3
  0
DICTIONARY
  5
3D1E
330
1E
100
AcDbDictionary
280
     1
281
     1
  3
ACAD_LAYOUTSELFREF
360
3D92
  0
DICTIONARY
  5
3D20
330
1A
100
AcDbDictionary
280
     1
281
     1
  3
ACAD_LAYOUTSELFREF
360
3D91
  0
DICTIONARY
  5
3D97
102
{ACAD_REACTORS
330
C
102
}
330
C
100
AcDbDictionary
281
     1
  0
DICTIONARY
  5
D
102
{ACAD_REACTORS
330
C
102
}
330
C
100
AcDbDictionary
281
     1
  3
*A1
350
4143
  3
*A10
350
4145
  3
*A11
350
4376
  3
*A12
350
4237
  3
*A13
350
437A
  3
*A14
350
437D
  3
*A15
350
437F
  3
*A16
350
414B
  3
*A17
350
437B
  3
*A18
350
414D
  3
*A19
350
437C
  3
*A2
350
423E
  3
*A20
350
4146
  3
*A21
350
43B7
  3
*A22
350
43B9
  3
*A23
350
4238
  3
*A24
350
43B5
  3
*A25
350
423A
  3
*A26
350
43B6
  3
*A27
350
414E
  3
*A28
350
43BC
  3
*A29
350
43BE
  3
*A3
350
423F
  3
*A30
350
43BA
  3
*A31
350
4241
  3
*A32
350
43BB
  3
*A33
350
4144
  3
*A34
350
43C0
  3
*A35
350
4148
  3
*A36
350
4147
  3
*A37
350
4378
  3
*A38
350
43BF
  3
*A39
350
414C
  3
*A4
350
414A
  3
*A40
350
4235
  3
*A41
350
414F
  3
*A42
350
437E
  3
*A43
350
4149
  3
*A44
350
4239
  3
*A45
350
423C
  3
*A46
350
423B
  3
*A47
350
43B8
  3
*A48
350
4236
  3
*A49
350
4240
  3
*A5
350
4374
  3
*A50
350
4373
  3
*A51
350
43BD
  3
*A52
350
423D
  3
*A6
350
4377
  3
*A7
350
4379
  3
*A8
350
43C1
  3
*A9
350
4375
  0
DICTIONARY
  5
19
102
{ACAD_REACTORS
330
C
102
}
330
C
100
AcDbDictionary
281
     1
  3
Model
350
21
  3
配置1
350
1D
  0
DICTIONARY
  5
3D96
102
{ACAD_REACTORS
330
C
102
}
330
C
100
AcDbDictionary
281
     1
  3
ByBlock
350
6BEA
  3
ByLayer
350
6BE9
  3
Global
350
6BEB
  0
DICTIONARY
  5
16
102
{ACAD_REACTORS
330
C
102
}
330
C
100
AcDbDictionary
281
     1
  3
Standard
350
17
  0
DICTIONARY
  5
18
102
{ACAD_REACTORS
330
C
102
}
330
C
100
AcDbDictionary
281
     1
  3
LANSRO
350
4150
  0
ACDBDICTIONARYWDFLT
  5
E
102
{ACAD_REACTORS
330
C
102
}
330
C
100
AcDbDictionary
281
     1
  3
Normal
350
F
100
AcDbDictionaryWithDefault
340
F
  0
DICTIONARY
  5
5DC4
102
{ACAD_REACTORS
330
C
102
}
330
C
100
AcDbDictionary
281
     1
  3
Standard
350
5DC5
  0
DICTIONARY
  5
6BEC
102
{ACAD_REACTORS
330
C
102
}
330
C
100
AcDbDictionary
281
     1
  3
2dWireframe
350
6BF2
  3
3D Hidden
350
6BF4
  3
3dWireframe
350
6BF3
  3
Basic
350
6BF1
  3
Brighten
350
6BF8
  3
ColorChange
350
6BFC
  3
Conceptual
350
6BF5
  3
Dim
350
6BF7
  3
Facepattern
350
6BFB
  3
Flat
350
6BED
  3
FlatWithEdges
350
6BEE
  3
Gouraud
350
6BEF
  3
GouraudWithEdges
350
6BF0
  3
Linepattern
350
6BFA
  3
Realistic
350
6BF6
  3
Thicken
350
6BF9
  0
DICTIONARY
  5
3E63
102
{ACAD_REACTORS
330
C
102
}
330
C
100
AcDbDictionary
281
     1
  3
CTABLESTYLE
350
5E5F
  3
DIMASSOC
350
3E64
  3
INDEXCTL
350
6C2F
  3
PROJECTNAME
350
3E65
  3
SORTENTS
350
6C2E
  0
XRECORD
  5
6C30
102
{ACAD_REACTORS
330
C
102
}
330
C
100
AcDbXrecord
280
     1
  1
DWGPROPS COOKIE
  2

  3

  4

  6

  7

  8
tony4321
  9

300
=
301
=
302
=
303
=
304
=
305
=
306
=
307
=
308
=
309
=
 40
0.1642110532407407
 41
2444975.333333334
 42
2454358.476549676
  1

 90
        0
  0
DICTIONARY
  5
43C3
102
{ACAD_REACTORS
330
43C2
102
}
330
43C2
100
AcDbDictionary
281
     1
  0
XRECORD
  5
3D92
102
{ACAD_REACTORS
330
3D1E
102
}
330
3D1E
100
AcDbXrecord
280
     1
340
1E
  0
XRECORD
  5
3D91
102
{ACAD_REACTORS
330
3D20
102
}
330
3D20
100
AcDbXrecord
280
     1
340
1A
  0
GROUP
  5
4143
102
{ACAD_REACTORS
330
D
102
}
330
D
100
AcDbGroup
300

 70
     1
 71
     1
  0
GROUP
  5
4145
102
{ACAD_REACTORS
330
D
102
}
330
D
100
AcDbGroup
300

 70
     1
 71
     1
  0
GROUP
  5
4376
102
{ACAD_REACTORS
330
D
102
}
330
D
100
AcDbGroup
300

 70
     1
 71
     1
  0
GROUP
  5
4237
102
{ACAD_REACTORS
330
D
102
}
330
D
100
AcDbGroup
300

 70
     1
 71
     1
  0
GROUP
  5
437A
102
{ACAD_REACTORS
330
D
102
}
330
D
100
AcDbGroup
300

 70
     1
 71
     1
  0
GROUP
  5
437D
102
{ACAD_REACTORS
330
D
102
}
330
D
100
AcDbGroup
300

 70
     1
 71
     1
  0
GROUP
  5
437F
102
{ACAD_REACTORS
330
D
102
}
330
D
100
AcDbGroup
300

 70
     1
 71
     1
  0
GROUP
  5
414B
102
{ACAD_REACTORS
330
D
102
}
330
D
100
AcDbGroup
300

 70
     1
 71
     1
  0
GROUP
  5
437B
102
{ACAD_REACTORS
330
D
102
}
330
D
100
AcDbGroup
300

 70
     1
 71
     1
  0
GROUP
  5
414D
102
{ACAD_REACTORS
330
D
102
}
330
D
100
AcDbGroup
300

 70
     1
 71
     1
  0
GROUP
  5
437C
102
{ACAD_REACTORS
330
D
102
}
330
D
100
AcDbGroup
300

 70
     1
 71
     1
  0
GROUP
  5
423E
102
{ACAD_REACTORS
330
D
102
}
330
D
100
AcDbGroup
300

 70
     1
 71
     1
  0
GROUP
  5
4146
102
{ACAD_REACTORS
330
D
102
}
330
D
100
AcDbGroup
300

 70
     1
 71
     1
  0
GROUP
  5
43B7
102
{ACAD_REACTORS
330
D
102
}
330
D
100
AcDbGroup
300

 70
     1
 71
     1
  0
GROUP
  5
43B9
102
{ACAD_REACTORS
330
D
102
}
330
D
100
AcDbGroup
300

 70
     1
 71
     1
  0
GROUP
  5
4238
102
{ACAD_REACTORS
330
D
102
}
330
D
100
AcDbGroup
300

 70
     1
 71
     1
  0
GROUP
  5
43B5
102
{ACAD_REACTORS
330
D
102
}
330
D
100
AcDbGroup
300

 70
     1
 71
     1
  0
GROUP
  5
423A
102
{ACAD_REACTORS
330
D
102
}
330
D
100
AcDbGroup
300

 70
     1
 71
     1
  0
GROUP
  5
43B6
102
{ACAD_REACTORS
330
D
102
}
330
D
100
AcDbGroup
300

 70
     1
 71
     1
  0
GROUP
  5
414E
102
{ACAD_REACTORS
330
D
102
}
330
D
100
AcDbGroup
300

 70
     1
 71
     1
  0
GROUP
  5
43BC
102
{ACAD_REACTORS
330
D
102
}
330
D
100
AcDbGroup
300

 70
     1
 71
     1
  0
GROUP
  5
43BE
102
{ACAD_REACTORS
330
D
102
}
330
D
100
AcDbGroup
300

 70
     1
 71
     1
  0
GROUP
  5
423F
102
{ACAD_REACTORS
330
D
102
}
330
D
100
AcDbGroup
300

 70
     1
 71
     1
  0
GROUP
  5
43BA
102
{ACAD_REACTORS
330
D
102
}
330
D
100
AcDbGroup
300

 70
     1
 71
     1
  0
GROUP
  5
4241
102
{ACAD_REACTORS
330
D
102
}
330
D
100
AcDbGroup
300

 70
     1
 71
     1
  0
GROUP
  5
43BB
102
{ACAD_REACTORS
330
D
102
}
330
D
100
AcDbGroup
300

 70
     1
 71
     1
  0
GROUP
  5
4144
102
{ACAD_REACTORS
330
D
102
}
330
D
100
AcDbGroup
300

 70
     1
 71
     1
  0
GROUP
  5
43C0
102
{ACAD_REACTORS
330
D
102
}
330
D
100
AcDbGroup
300

 70
     1
 71
     1
  0
GROUP
  5
4148
102
{ACAD_REACTORS
330
D
102
}
330
D
100
AcDbGroup
300

 70
     1
 71
     1
  0
GROUP
  5
4147
102
{ACAD_REACTORS
330
D
102
}
330
D
100
AcDbGroup
300

 70
     1
 71
     1
  0
GROUP
  5
4378
102
{ACAD_REACTORS
330
D
102
}
330
D
100
AcDbGroup
300

 70
     1
 71
     1
  0
GROUP
  5
43BF
102
{ACAD_REACTORS
330
D
102
}
330
D
100
AcDbGroup
300

 70
     1
 71
     1
  0
GROUP
  5
414C
102
{ACAD_REACTORS
330
D
102
}
330
D
100
AcDbGroup
300

 70
     1
 71
     1
  0
GROUP
  5
414A
102
{ACAD_REACTORS
330
D
102
}
330
D
100
AcDbGroup
300

 70
     1
 71
     1
  0
GROUP
  5
4235
102
{ACAD_REACTORS
330
D
102
}
330
D
100
AcDbGroup
300

 70
     1
 71
     1
  0
GROUP
  5
414F
102
{ACAD_REACTORS
330
D
102
}
330
D
100
AcDbGroup
300

 70
     1
 71
     1
  0
GROUP
  5
437E
102
{ACAD_REACTORS
330
D
102
}
330
D
100
AcDbGroup
300

 70
     1
 71
     1
  0
GROUP
  5
4149
102
{ACAD_REACTORS
330
D
102
}
330
D
100
AcDbGroup
300

 70
     1
 71
     1
  0
GROUP
  5
4239
102
{ACAD_REACTORS
330
D
102
}
330
D
100
AcDbGroup
300

 70
     1
 71
     1
  0
GROUP
  5
423C
102
{ACAD_REACTORS
330
D
102
}
330
D
100
AcDbGroup
300

 70
     1
 71
     1
  0
GROUP
  5
423B
102
{ACAD_REACTORS
330
D
102
}
330
D
100
AcDbGroup
300

 70
     1
 71
     1
  0
GROUP
  5
43B8
102
{ACAD_REACTORS
330
D
102
}
330
D
100
AcDbGroup
300

 70
     1
 71
     1
  0
GROUP
  5
4236
102
{ACAD_REACTORS
330
D
102
}
330
D
100
AcDbGroup
300

 70
     1
 71
     1
  0
GROUP
  5
4240
102
{ACAD_REACTORS
330
D
102
}
330
D
100
AcDbGroup
300

 70
     1
 71
     1
  0
GROUP
  5
4374
102
{ACAD_REACTORS
330
D
102
}
330
D
100
AcDbGroup
300

 70
     1
 71
     1
  0
GROUP
  5
4373
102
{ACAD_REACTORS
330
D
102
}
330
D
100
AcDbGroup
300

 70
     1
 71
     1
  0
GROUP
  5
43BD
102
{ACAD_REACTORS
330
D
102
}
330
D
100
AcDbGroup
300

 70
     1
 71
     1
  0
GROUP
  5
423D
102
{ACAD_REACTORS
330
D
102
}
330
D
100
AcDbGroup
300

 70
     1
 71
     1
  0
GROUP
  5
4377
102
{ACAD_REACTORS
330
D
102
}
330
D
100
AcDbGroup
300

 70
     1
 71
     1
  0
GROUP
  5
4379
102
{ACAD_REACTORS
330
D
102
}
330
D
100
AcDbGroup
300

 70
     1
 71
     1
  0
GROUP
  5
43C1
102
{ACAD_REACTORS
330
D
102
}
330
D
100
AcDbGroup
300

 70
     1
 71
     1
  0
GROUP
  5
4375
102
{ACAD_REACTORS
330
D
102
}
330
D
100
AcDbGroup
300

 70
     1
 71
     1
  0
LAYOUT
  5
21
102
{ACAD_XDICTIONARY
360
6C33
102
}
102
{ACAD_REACTORS
330
19
102
}
330
19
100
AcDbPlotSettings
  1

  2
HP 2200
  4

  6

 40
0.0
 41
0.0
 42
0.0
 43
0.0
 44
0.0
 45
0.0
 46
0.0
 47
0.0
 48
0.0
 49
0.0
140
0.0
141
0.0
142
1.0
143
1.0
 70
  1712
 72
     0
 73
     0
 74
     0
  7
AAA.ctb
 75
     0
147
1.0
148
0.0
149
0.0
100
AcDbLayout
  1
Model
 70
     1
 71
     0
 10
0.0
 20
0.0
 11
12.0
 21
9.0
 12
0.0
 22
0.0
 32
0.0
 14
0.0
 24
0.0
 34
0.0
 15
0.0
 25
0.0
 35
0.0
146
0.0
 13
0.0
 23
0.0
 33
0.0
 16
1.0
 26
0.0
 36
0.0
 17
0.0
 27
1.0
 37
0.0
 76
     0
330
1E
331
6BDE
  0
LAYOUT
  5
1D
102
{ACAD_XDICTIONARY
360
6C31
102
}
102
{ACAD_REACTORS
330
19
102
}
330
19
100
AcDbPlotSettings
  1

  2
HP 2200
  4

  6

 40
0.0
 41
0.0
 42
0.0
 43
0.0
 44
0.0
 45
0.0
 46
0.0
 47
0.0
 48
0.0
 49
0.0
140
0.0
141
0.0
142
1.0
143
1.0
 70
   688
 72
     0
 73
     0
 74
     5
  7
AAA.ctb
 75
    16
147
1.0
148
0.0
149
0.0
100
AcDbLayout
  1
配置1
 70
     0
 71
     1
 10
0.0
 20
0.0
 11
12.0
 21
9.0
 12
0.0
 22
0.0
 32
0.0
 14
1.000000000000000E+20
 24
1.000000000000000E+20
 34
1.000000000000000E+20
 15
-1.000000000000000E+20
 25
-1.000000000000000E+20
 35
-1.000000000000000E+20
146
0.0
 13
0.0
 23
0.0
 33
0.0
 16
1.0
 26
0.0
 36
0.0
 17
0.0
 27
1.0
 37
0.0
 76
     0
330
1A
  0
MATERIAL
  5
6BEA
102
{ACAD_XDICTIONARY
360
6C3B
102
}
102
{ACAD_REACTORS
330
3D96
102
}
330
3D96
100
AcDbMaterial
  1
ByBlock
  0
MATERIAL
  5
6BE9
102
{ACAD_XDICTIONARY
360
6C39
102
}
102
{ACAD_REACTORS
330
3D96
102
}
330
3D96
100
AcDbMaterial
  1
ByLayer
  0
MATERIAL
  5
6BEB
102
{ACAD_XDICTIONARY
360
6C3D
102
}
102
{ACAD_REACTORS
330
3D96
102
}
330
3D96
100
AcDbMaterial
  1
Global
  0
MLINESTYLE
  5
17
102
{ACAD_REACTORS
330
16
102
}
330
16
100
AcDbMlineStyle
  2
STANDARD
 70
     0
  3

 62
   256
 51
90.0
 52
90.0
 71
     2
 49
0.5
 62
   256
  6
BYLAYER
 49
-0.5
 62
   256
  6
BYLAYER
  0
PLOTSETTINGS
  5
4150
102
{ACAD_XDICTIONARY
360
6C35
102
}
102
{ACAD_REACTORS
330
18
102
}
330
18
100
AcDbPlotSettings
  1
LANSRO
  2
\\1260\HP2200
  4
A4
  6

 40
6.043083190917968
 41
6.762742042541503
 42
7.736419677734375
 43
5.027069091796875
 44
209.9733276367187
 45
296.9683227539062
 46
5.15
 47
0.0
 48
0.0
 49
0.0
140
0.0
141
0.0
142
1.0
143
0.8829829263240881
 70
  1716
 72
     1
 73
     1
 74
     0
  7
AAA.ctb
 75
     0
147
1.132524729739748
148
-132.297014905803
149
-71.78507365635891
  0
ACDBPLACEHOLDER
  5
F
102
{ACAD_REACTORS
330
E
102
}
330
E
  0
TABLESTYLE
  5
5DC5
102
{ACAD_XDICTIONARY
360
6C37
102
}
102
{ACAD_REACTORS
330
5DC4
102
}
330
5DC4
100
AcDbTableStyle
  3
Standard
 70
     0
 71
     0
 40
0.06
 41
0.06
280
     0
281
     0
  7
STANDARD
140
0.18
170
     2
 62
     0
 63
     7
283
     0
274
    -2
284
     1
 64
     0
275
    -2
285
     1
 65
     0
276
    -2
286
     1
 66
     0
277
    -2
287
     1
 67
     0
278
    -2
288
     1
 68
     0
279
    -2
289
     1
 69
     0
  7
STANDARD
140
0.25
170
     5
 62
     0
 63
     7
283
     0
274
    -2
284
     1
 64
     0
275
    -2
285
     1
 65
     0
276
    -2
286
     1
 66
     0
277
    -2
287
     1
 67
     0
278
    -2
288
     1
 68
     0
279
    -2
289
     1
 69
     0
  7
STANDARD
140
0.18
170
     5
 62
     0
 63
     7
283
     0
274
    -2
284
     1
 64
     0
275
    -2
285
     1
 65
     0
276
    -2
286
     1
 66
     0
277
    -2
287
     1
 67
     0
278
    -2
288
     1
 68
     0
279
    -2
289
     1
 69
     0
1001
ACAD
1000
AcRTDxfName
1000
TABLESTYLE
1000
AcRTDxfName
1000
TABLESTYLE
1000
AcRTDxfName
1000
TABLESTYLE
  0
VISUALSTYLE
  5
6BF2
102
{ACAD_REACTORS
330
6BEC
102
}
330
6BEC
100
AcDbVisualStyle
  2
2dWireframe
 70
     4
 71
     0
 72
     2
 73
     0
 90
        0
 40
-0.6
 41
-30.0
 62
     5
 63
     7
 74
     1
 91
        4
 64
     7
 65
   257
 75
     1
175
     1
 42
1.0
 92
        0
 66
   257
 43
1.0
 76
     1
 77
     6
 78
     2
 67
     7
 79
     5
170
     0
171
     0
290
     0
174
     0
 93
        1
 44
0.0
173
     0
291
     0
 45
0.0
1001
ACAD
1000
AcDbSavedByObjectVersion
1070
     0
  0
VISUALSTYLE
  5
6BF4
102
{ACAD_REACTORS
330
6BEC
102
}
330
6BEC
100
AcDbVisualStyle
  2
3D Hidden
 70
     6
 71
     1
 72
     2
 73
     2
 90
        0
 40
-0.6
 41
-30.0
 62
     5
 63
     7
 74
     2
 91
        2
 64
     7
 65
   257
 75
     2
175
     1
 42
40.0
 92
        0
 66
   257
 43
1.0
 76
     1
 77
     6
 78
     2
 67
     7
 79
     3
170
     0
171
     0
290
     0
174
     0
 93
        1
 44
0.0
173
     0
291
     0
 45
0.0
1001
ACAD
1000
AcDbSavedByObjectVersion
1070
     0
  0
VISUALSTYLE
  5
6BF3
102
{ACAD_REACTORS
330
6BEC
102
}
330
6BEC
100
AcDbVisualStyle
  2
3dWireframe
 70
     5
 71
     0
 72
     2
 73
     0
 90
        0
 40
-0.6
 41
-30.0
 62
     5
 63
     7
 74
     1
 91
        4
 64
     7
 65
   257
 75
     1
175
     1
 42
1.0
 92
        0
 66
   257
 43
1.0
 76
     1
 77
     6
 78
     2
 67
     7
 79
     5
170
     0
171
     0
290
     0
174
     0
 93
        1
 44
0.0
173
     0
291
     0
 45
0.0
1001
ACAD
1000
AcDbSavedByObjectVersion
1070
     0
  0
VISUALSTYLE
  5
6BF1
102
{ACAD_REACTORS
330
6BEC
102
}
330
6BEC
100
AcDbVisualStyle
  2
Basic
 70
     7
 71
     1
 72
     0
 73
     1
 90
        0
 40
-0.6
 41
-30.0
 62
     5
 63
     7
 74
     0
 91
        4
 64
     7
 65
   257
 75
     1
175
     1
 42
1.0
 92
        8
 66
     7
 43
1.0
 76
     1
 77
     6
 78
     2
 67
     7
 79
     5
170
     0
171
     0
290
     0
174
     0
 93
        1
 44
0.0
173
     0
291
     1
 45
0.0
1001
ACAD
1000
AcDbSavedByObjectVersion
1070
     0
  0
VISUALSTYLE
  5
6BF8
102
{ACAD_REACTORS
330
6BEC
102
}
330
6BEC
100
AcDbVisualStyle
  2
Brighten
 70
    12
 71
     2
 72
     2
 73
     0
 90
        0
 40
-0.6
 41
-30.0
 62
     5
 63
     7
 74
     1
 91
        4
 64
     7
 65
   257
 75
     1
175
     1
 42
1.0
 92
        8
 66
     7
 43
1.0
 76
     1
 77
     6
 78
     2
 67
     7
 79
     5
170
     0
171
     0
290
     0
174
     0
 93
        1
 44
50.0
173
     0
291
     1
 45
0.0
1001
ACAD
1000
AcDbSavedByObjectVersion
1070
     0
  0
VISUALSTYLE
  5
6BFC
102
{ACAD_REACTORS
330
6BEC
102
}
330
6BEC
100
AcDbVisualStyle
  2
ColorChange
 70
    16
 71
     2
 72
     2
 73
     3
 90
        0
 40
-0.6
 41
-30.0
 62
     5
 63
     8
 74
     1
 91
        4
 64
     7
 65
   257
 75
     1
175
     1
 42
1.0
 92
        8
 66
     8
 43
1.0
 76
     1
 77
     6
 78
     2
 67
     7
 79
     5
170
     0
171
     0
290
     0
174
     0
 93
        1
 44
0.0
173
     0
291
     1
 45
0.0
1001
ACAD
1000
AcDbSavedByObjectVersion
1070
     0
  0
VISUALSTYLE
  5
6BF5
102
{ACAD_REACTORS
330
6BEC
102
}
330
6BEC
100
AcDbVisualStyle
  2
Conceptual
 70
     9
 71
     3
 72
     2
 73
     0
 90
        0
 40
-0.6
 41
-30.0
 62
     5
 63
     7
 74
     2
 91
        2
 64
     7
 65
   257
 75
     1
175
     1
 42
40.0
 92
        8
 66
     7
 43
1.0
 76
     1
 77
     6
 78
     2
 67
     7
 79
     3
170
     0
171
     0
290
     0
174
     0
 93
        1
 44
0.0
173
     0
291
     0
 45
0.0
1001
ACAD
1000
AcDbSavedByObjectVersion
1070
     0
  0
VISUALSTYLE
  5
6BF7
102
{ACAD_REACTORS
330
6BEC
102
}
330
6BEC
100
AcDbVisualStyle
  2
Dim
 70
    11
 71
     2
 72
     2
 73
     0
 90
        0
 40
-0.6
 41
-30.0
 62
     5
 63
     7
 74
     1
 91
        4
 64
     7
 65
   257
 75
     1
175
     1
 42
1.0
 92
        8
 66
     7
 43
1.0
 76
     1
 77
     6
 78
     2
 67
     7
 79
     5
170
     0
171
     0
290
     0
174
     0
 93
        1
 44
-50.0
173
     0
291
     1
 45
0.0
1001
ACAD
1000
AcDbSavedByObjectVersion
1070
     0
  0
VISUALSTYLE
  5
6BFB
102
{ACAD_REACTORS
330
6BEC
102
}
330
6BEC
100
AcDbVisualStyle
  2
Facepattern
 70
    15
 71
     2
 72
     2
 73
     0
 90
        0
 40
-0.6
 41
-30.0
 62
     5
 63
     7
 74
     1
 91
        4
 64
     7
 65
   257
 75
     1
175
     1
 42
1.0
 92
        8
 66
     7
 43
1.0
 76
     1
 77
     6
 78
     2
 67
     7
 79
     5
170
     0
171
     0
290
     0
174
     0
 93
        1
 44
0.0
173
     0
291
     1
 45
0.0
1001
ACAD
1000
AcDbSavedByObjectVersion
1070
     0
  0
VISUALSTYLE
  5
6BED
102
{ACAD_REACTORS
330
6BEC
102
}
330
6BEC
100
AcDbVisualStyle
  2
Flat
 70
     0
 71
     2
 72
     1
 73
     1
 90
        2
 40
-0.6
 41
30.0
 62
     5
 63
     7
 74
     0
 91
        4
 64
     7
 65
   257
 75
     1
175
     1
 42
1.0
 92
        8
 66
     7
 43
1.0
 76
     1
 77
     6
 78
     2
 67
     7
 79
     5
170
     0
171
     0
290
     0
174
     0
 93
       13
 44
0.0
173
     0
291
     1
 45
0.0
1001
ACAD
1000
AcDbSavedByObjectVersion
1070
     0
  0
VISUALSTYLE
  5
6BEE
102
{ACAD_REACTORS
330
6BEC
102
}
330
6BEC
100
AcDbVisualStyle
  2
FlatWithEdges
 70
     1
 71
     2
 72
     1
 73
     1
 90
        2
 40
-0.6
 41
30.0
 62
     5
 63
     7
 74
     1
 91
        4
 64
     7
 65
   257
 75
     1
175
     1
 42
1.0
 92
        0
 66
   257
 43
1.0
 76
     1
 77
     6
 78
     2
 67
     7
 79
     5
170
     0
171
     0
290
     0
174
     0
 93
       13
 44
0.0
173
     0
291
     1
 45
0.0
1001
ACAD
1000
AcDbSavedByObjectVersion
1070
     0
  0
VISUALSTYLE
  5
6BEF
102
{ACAD_REACTORS
330
6BEC
102
}
330
6BEC
100
AcDbVisualStyle
  2
Gouraud
 70
     2
 71
     2
 72
     2
 73
     1
 90
        2
 40
-0.6
 41
30.0
 62
     5
 63
     7
 74
     0
 91
        4
 64
     7
 65
   257
 75
     1
175
     1
 42
1.0
 92
        0
 66
     7
 43
1.0
 76
     1
 77
     6
 78
     2
 67
     7
 79
     5
170
     0
171
     0
290
     0
174
     0
 93
       13
 44
0.0
173
     0
291
     1
 45
0.0
1001
ACAD
1000
AcDbSavedByObjectVersion
1070
     0
  0
VISUALSTYLE
  5
6BF0
102
{ACAD_REACTORS
330
6BEC
102
}
330
6BEC
100
AcDbVisualStyle
  2
GouraudWithEdges
 70
     3
 71
     2
 72
     2
 73
     1
 90
        2
 40
-0.6
 41
30.0
 62
     5
 63
     7
 74
     1
 91
        4
 64
     7
 65
   257
 75
     1
175
     1
 42
1.0
 92
        0
 66
   257
 43
1.0
 76
     1
 77
     6
 78
     2
 67
     7
 79
     5
170
     0
171
     0
290
     0
174
     0
 93
       13
 44
0.0
173
     0
291
     1
 45
0.0
1001
ACAD
1000
AcDbSavedByObjectVersion
1070
     0
  0
VISUALSTYLE
  5
6BFA
102
{ACAD_REACTORS
330
6BEC
102
}
330
6BEC
100
AcDbVisualStyle
  2
Linepattern
 70
    14
 71
     2
 72
     2
 73
     0
 90
        0
 40
-0.6
 41
-30.0
 62
     5
 63
     7
 74
     1
 91
        4
 64
     7
 65
   257
 75
     7
175
     7
 42
1.0
 92
        8
 66
     7
 43
1.0
 76
     1
 77
     6
 78
     2
 67
     7
 79
     5
170
     0
171
     0
290
     0
174
     0
 93
        1
 44
0.0
173
     0
291
     1
 45
0.0
1001
ACAD
1000
AcDbSavedByObjectVersion
1070
     0
  0
VISUALSTYLE
  5
6BF6
102
{ACAD_REACTORS
330
6BEC
102
}
330
6BEC
100
AcDbVisualStyle
  2
Realistic
 70
     8
 71
     2
 72
     2
 73
     0
 90
        0
 40
-0.6
 41
-30.0
 62
     5
 63
     7
 74
     1
 91
        0
 64
     7
 65
   257
 75
     1
175
     1
 42
1.0
 92
        8
 66
     8
 43
1.0
 76
     1
 77
     6
 78
     2
 67
     7
 79
     5
170
     0
171
     0
290
     0
174
     0
 93
       13
 44
0.0
173
     0
291
     0
 45
0.0
1001
ACAD
1000
AcDbSavedByObjectVersion
1070
     0
  0
VISUALSTYLE
  5
6BF9
102
{ACAD_REACTORS
330
6BEC
102
}
330
6BEC
100
AcDbVisualStyle
  2
Thicken
 70
    13
 71
     2
 72
     2
 73
     0
 90
        0
 40
-0.6
 41
-30.0
 62
     5
 63
     7
 74
     1
 91
        4
 64
     7
 65
   257
 75
     1
175
     1
 42
1.0
 92
       12
 66
     7
 43
1.0
 76
     1
 77
     6
 78
     2
 67
     7
 79
     5
170
     0
171
     0
290
     0
174
     0
 93
        1
 44
0.0
173
     0
291
     1
 45
0.0
1001
ACAD
1000
AcDbSavedByObjectVersion
1070
     0
  0
DICTIONARYVAR
  5
5E5F
102
{ACAD_REACTORS
330
3E63
102
}
330
3E63
100
DictionaryVariables
280
     0
  1
STANDARD
  0
DICTIONARYVAR
  5
3E64
102
{ACAD_REACTORS
330
3E63
102
}
330
3E63
100
DictionaryVariables
280
     0
  1
1
  0
DICTIONARYVAR
  5
6C2F
102
{ACAD_REACTORS
330
3E63
102
}
330
3E63
100
DictionaryVariables
280
     0
  1
0
  0
DICTIONARYVAR
  5
3E65
102
{ACAD_REACTORS
330
3E63
102
}
330
3E63
100
DictionaryVariables
280
     0
  1

  0
DICTIONARYVAR
  5
6C2E
102
{ACAD_REACTORS
330
3E63
102
}
330
3E63
100
DictionaryVariables
280
     0
  1
127
  0
DICTIONARY
  5
6C33
330
21
100
AcDbDictionary
280
     1
281
     1
  3
ACAD_XREC_ROUNDTRIP
360
6C34
  0
DICTIONARY
  5
6C31
330
1D
100
AcDbDictionary
280
     1
281
     1
  3
ACAD_XREC_ROUNDTRIP
360
6C32
  0
DICTIONARY
  5
6C3B
330
6BEA
100
AcDbDictionary
280
     1
281
     1
  3
ACAD_XREC_ROUNDTRIP
360
6C3C
  0
DICTIONARY
  5
6C39
330
6BE9
100
AcDbDictionary
280
     1
281
     1
  3
ACAD_XREC_ROUNDTRIP
360
6C3A
  0
DICTIONARY
  5
6C3D
330
6BEB
100
AcDbDictionary
280
     1
281
     1
  3
ACAD_XREC_ROUNDTRIP
360
6C3E
  0
DICTIONARY
  5
6C35
330
4150
100
AcDbDictionary
280
     1
281
     1
  3
ACAD_XREC_ROUNDTRIP
360
6C36
  0
DICTIONARY
  5
6C37
330
5DC5
100
AcDbDictionary
280
     1
281
     1
  3
ACAD_XREC_ROUNDTRIP
360
6C38
  0
XRECORD
  5
6C34
102
{ACAD_REACTORS
330
6C33
102
}
330
6C33
100
AcDbXrecord
280
     1
102
SHADEPLOT
 70
     0
102
SHADEPLOTRESLEVEL
 70
     2
102
SHADEPLOTCUSTOMDPI
 70
   300
  0
XRECORD
  5
6C32
102
{ACAD_REACTORS
330
6C31
102
}
330
6C31
100
AcDbXrecord
280
     1
102
SHADEPLOT
 70
     0
102
SHADEPLOTRESLEVEL
 70
     2
102
SHADEPLOTCUSTOMDPI
 70
   300
  0
XRECORD
  5
6C3C
102
{ACAD_REACTORS
330
6C3B
102
}
330
6C3B
100
AcDbXrecord
280
     1
102
MATERIAL
148
0.0
149
0.0
149
0.0
 93
        0
 94
       63
282
     0
 72
     1
 77
     1
171
     1
175
     1
179
     1
273
     0
  0
XRECORD
  5
6C3A
102
{ACAD_REACTORS
330
6C39
102
}
330
6C39
100
AcDbXrecord
280
     1
102
MATERIAL
148
0.0
149
0.0
149
0.0
 93
        0
 94
       63
282
     0
 72
     1
 77
     1
171
     1
175
     1
179
     1
273
     0
  0
XRECORD
  5
6C3E
102
{ACAD_REACTORS
330
6C3D
102
}
330
6C3D
100
AcDbXrecord
280
     1
102
MATERIAL
148
0.0
149
0.0
149
0.0
 93
        0
 94
       63
282
     0
 72
     1
 77
     1
171
     1
175
     1
179
     1
273
     0
  0
XRECORD
  5
6C36
102
{ACAD_REACTORS
330
6C35
102
}
330
6C35
100
AcDbXrecord
280
     1
102
SHADEPLOT
 70
     0
102
SHADEPLOTRESLEVEL
 70
     2
102
SHADEPLOTCUSTOMDPI
 70
   300
  0
XRECORD
  5
6C38
102
{ACAD_REACTORS
330
6C37
102
}
330
6C37
100
AcDbXrecord
280
     1
102
ACAD_ROUNDTRIP_PRE2007_TABLESTYLE
 90
        4
 91
        0
  1

 92
        4
 93
        0
  2

 94
        4
 95
        0
  3

  0
ENDSEC
  0
EOF
