  0
SECTION
  2
HEADER
  9
$ACADVER
  1
AC1015
  9
$ACADMAINTVER
 70
    20
  9
$DWGCODEPAGE
  3
ANSI_950
  9
$INSBASE
 10
0.0
 20
0.0
 30
0.0
  9
$EXTMIN
 10
-33.3248636717276
 20
-54.31222833775939
 30
-0.0015258207003583
  9
$EXTMAX
 10
252.3049131288721
 20
152.348708711344
 30
0.0000000349246037
  9
$LIMMIN
 10
-10.0
 20
-15.0
  9
$LIMMAX
 10
120.0
 20
90.0
  9
$ORTHOMODE
 70
     1
  9
$REGENMODE
 70
     0
  9
$FILLMODE
 70
     1
  9
$QTEXTMODE
 70
     0
  9
$MIRRTEXT
 70
     0
  9
$LTSCALE
 40
2.0
  9
$ATTMODE
 70
     1
  9
$TEXTSIZE
 40
3.0
  9
$TRACEWID
 40
1.0
  9
$TEXTSTYLE
  7
STANDARD
  9
$CLAYER
  8
0
  9
$CELTYPE
  6
ByLayer
  9
$CECOLOR
 62
   256
  9
$CELTSCALE
 40
1.0
  9
$DISPSILH
 70
     0
  9
$DIMSCALE
 40
1.0
  9
$DIMASZ
 40
3.0
  9
$DIMEXO
 40
1.0
  9
$DIMDLI
 40
6.0
  9
$DIMRND
 40
0.0
  9
$DIMDLE
 40
0.0
  9
$DIMEXE
 40
1.0
  9
$DIMTP
 40
0.0
  9
$DIMTM
 40
0.0
  9
$DIMTXT
 40
3.0
  9
$DIMCEN
 40
1.5
  9
$DIMTSZ
 40
0.0
  9
$DIMTOL
 70
     0
  9
$DIMLIM
 70
     0
  9
$DIMTIH
 70
     1
  9
$DIMTOH
 70
     1
  9
$DIMSE1
 70
     0
  9
$DIMSE2
 70
     0
  9
$DIMTAD
 70
     0
  9
$DIMZIN
 70
     0
  9
$DIMBLK
  1

  9
$DIMASO
 70
     1
  9
$DIMSHO
 70
     0
  9
$DIMPOST
  1

  9
$DIMAPOST
  1

  9
$DIMALT
 70
     0
  9
$DIMALTD
 70
     2
  9
$DIMALTF
 40
25.4
  9
$DIMLFAC
 40
1.0
  9
$DIMTOFL
 70
     1
  9
$DIMTVP
 40
0.0
  9
$DIMTIX
 70
     0
  9
$DIMSOXD
 70
     0
  9
$DIMSAH
 70
     0
  9
$DIMBLK1
  1

  9
$DIMBLK2
  1

  9
$DIMSTYLE
  2
Standard
  9
$DIMCLRD
 70
     0
  9
$DIMCLRE
 70
     0
  9
$DIMCLRT
 70
     0
  9
$DIMTFAC
 40
1.0
  9
$DIMGAP
 40
0.09
  9
$DIMJUST
 70
     0
  9
$DIMSD1
 70
     0
  9
$DIMSD2
 70
     0
  9
$DIMTOLJ
 70
     1
  9
$DIMTZIN
 70
     0
  9
$DIMALTZ
 70
     0
  9
$DIMALTTZ
 70
     0
  9
$DIMUPT
 70
     0
  9
$DIMDEC
 70
     8
  9
$DIMTDEC
 70
     8
  9
$DIMALTU
 70
     2
  9
$DIMALTTD
 70
     2
  9
$DIMTXSTY
  7
STANDARD
  9
$DIMAUNIT
 70
     0
  9
$DIMADEC
 70
     0
  9
$DIMALTRND
 40
0.0
  9
$DIMAZIN
 70
     0
  9
$DIMDSEP
 70
    46
  9
$DIMATFIT
 70
     3
  9
$DIMFRAC
 70
     0
  9
$DIMLDRBLK
  1

  9
$DIMLUNIT
 70
     2
  9
$DIMLWD
 70
    -2
  9
$DIMLWE
 70
    -2
  9
$DIMTMOVE
 70
     2
  9
$LUNITS
 70
     2
  9
$LUPREC
 70
     4
  9
$SKETCHINC
 40
0.5
  9
$FILLETRAD
 40
0.0
  9
$AUNITS
 70
     0
  9
$AUPREC
 70
     0
  9
$MENU
  1
ACAD
  9
$ELEVATION
 40
0.0
  9
$PELEVATION
 40
0.0
  9
$THICKNESS
 40
0.0
  9
$LIMCHECK
 70
     0
  9
$CHAMFERA
 40
0.0
  9
$CHAMFERB
 40
0.0
  9
$CHAMFERC
 40
0.0
  9
$CHAMFERD
 40
0.0
  9
$SKPOLY
 70
     0
  9
$TDCREATE
 40
2444975.333333334
  9
$TDUCREATE
 40
2444975.000000000
  9
$TDUPDATE
 40
2454358.439820914
  9
$TDUUPDATE
 40
2454358.106487581
  9
$TDINDWG
 40
0.1371623380
  9
$TDUSRTIMER
 40
0.0000000000
  9
$USRTIMER
 70
     0
  9
$ANGBASE
 50
0.0
  9
$ANGDIR
 70
     0
  9
$PDMODE
 70
   171
  9
$PDSIZE
 40
0.001
  9
$PLINEWID
 40
0.0
  9
$SPLFRAME
 70
     0
  9
$SPLINETYPE
 70
     6
  9
$SPLINESEGS
 70
     8
  9
$HANDSEED
  5
5688
  9
$SURFTAB1
 70
     6
  9
$SURFTAB2
 70
     6
  9
$SURFTYPE
 70
     6
  9
$SURFU
 70
     6
  9
$SURFV
 70
     6
  9
$UCSBASE
  2

  9
$UCSNAME
  2

  9
$UCSORG
 10
0.0
 20
0.0
 30
0.0
  9
$UCSXDIR
 10
1.0
 20
0.0
 30
0.0
  9
$UCSYDIR
 10
0.0
 20
1.0
 30
0.0
  9
$UCSORTHOREF
  2

  9
$UCSORTHOVIEW
 70
     0
  9
$UCSORGTOP
 10
0.0
 20
0.0
 30
0.0
  9
$UCSORGBOTTOM
 10
0.0
 20
0.0
 30
0.0
  9
$UCSORGLEFT
 10
0.0
 20
0.0
 30
0.0
  9
$UCSORGRIGHT
 10
0.0
 20
0.0
 30
0.0
  9
$UCSORGFRONT
 10
0.0
 20
0.0
 30
0.0
  9
$UCSORGBACK
 10
0.0
 20
0.0
 30
0.0
  9
$PUCSBASE
  2

  9
$PUCSNAME
  2

  9
$PUCSORG
 10
0.0
 20
0.0
 30
0.0
  9
$PUCSXDIR
 10
1.0
 20
0.0
 30
0.0
  9
$PUCSYDIR
 10
0.0
 20
1.0
 30
0.0
  9
$PUCSORTHOREF
  2

  9
$PUCSORTHOVIEW
 70
     0
  9
$PUCSORGTOP
 10
0.0
 20
0.0
 30
0.0
  9
$PUCSORGBOTTOM
 10
0.0
 20
0.0
 30
0.0
  9
$PUCSORGLEFT
 10
0.0
 20
0.0
 30
0.0
  9
$PUCSORGRIGHT
 10
0.0
 20
0.0
 30
0.0
  9
$PUCSORGFRONT
 10
0.0
 20
0.0
 30
0.0
  9
$PUCSORGBACK
 10
0.0
 20
0.0
 30
0.0
  9
$USERI1
 70
     0
  9
$USERI2
 70
     0
  9
$USERI3
 70
     0
  9
$USERI4
 70
     0
  9
$USERI5
 70
     0
  9
$USERR1
 40
0.0
  9
$USERR2
 40
0.0
  9
$USERR3
 40
0.0
  9
$USERR4
 40
0.0
  9
$USERR5
 40
0.0
  9
$WORLDVIEW
 70
     1
  9
$SHADEDGE
 70
     3
  9
$SHADEDIF
 70
    70
  9
$TILEMODE
 70
     1
  9
$MAXACTVP
 70
    48
  9
$PINSBASE
 10
0.0
 20
0.0
 30
0.0
  9
$PLIMCHECK
 70
     0
  9
$PEXTMIN
 10
1.000000000000000E+20
 20
1.000000000000000E+20
 30
1.000000000000000E+20
  9
$PEXTMAX
 10
-1.000000000000000E+20
 20
-1.000000000000000E+20
 30
-1.000000000000000E+20
  9
$PLIMMIN
 10
0.0
 20
0.0
  9
$PLIMMAX
 10
12.0
 20
9.0
  9
$UNITMODE
 70
     0
  9
$VISRETAIN
 70
     1
  9
$PLINEGEN
 70
     0
  9
$PSLTSCALE
 70
     0
  9
$TREEDEPTH
 70
  3020
  9
$CMLSTYLE
  2
Standard
  9
$CMLJUST
 70
     0
  9
$CMLSCALE
 40
1.0
  9
$PROXYGRAPHICS
 70
     1
  9
$MEASUREMENT
 70
     0
  9
$CELWEIGHT
370
    -1
  9
$ENDCAPS
280
     0
  9
$JOINSTYLE
280
     0
  9
$LWDISPLAY
290
     0
  9
$INSUNITS
 70
     0
  9
$HYPERLINKBASE
  1

  9
$STYLESHEET
  1

  9
$XEDIT
290
     1
  9
$CEPSNTYPE
380
     0
  9
$PSTYLEMODE
290
     1
  9
$FINGERPRINTGUID
  2
{77095E5F-9CE7-11D7-970D-0040F4541FA8}
  9
$VERSIONGUID
  2
{064D0FC0-4355-46C4-8CB0-ECEC1123599B}
  9
$EXTNAMES
290
     1
  9
$PSVPSCALE
 40
0.0
  9
$OLESTARTUP
290
     0
  0
ENDSEC
  0
SECTION
  2
CLASSES
  0
CLASS
  1
ACDBDICTIONARYWDFLT
  2
AcDbDictionaryWithDefault
  3
ObjectDBX Classes
 90
        0
280
     0
281
     0
  0
CLASS
  1
ACDBPLACEHOLDER
  2
AcDbPlaceHolder
  3
ObjectDBX Classes
 90
        0
280
     0
281
     0
  0
CLASS
  1
LAYOUT
  2
AcDbLayout
  3
ObjectDBX Classes
 90
        0
280
     0
281
     0
  0
CLASS
  1
DICTIONARYVAR
  2
AcDbDictionaryVar
  3
ObjectDBX Classes
 90
        0
280
     0
281
     0
  0
CLASS
  1
PLOTSETTINGS
  2
AcDbPlotSettings
  3
ObjectDBX Classes
 90
        0
280
     0
281
     0
  0
CLASS
  1
TABLESTYLE
  2
AcDbTableStyle
  3
ObjectDBX Classes
 90
     4095
280
     0
281
     0
  0
CLASS
  1
SORTENTSTABLE
  2
AcDbSortentsTable
  3
ObjectDBX Classes
 90
    32768
280
     0
281
     0
  0
CLASS
  1
MATERIAL
  2
AcDbMaterial
  3
ObjectDBX Classes
 90
     1024
280
     0
281
     0
  0
CLASS
  1
VISUALSTYLE
  2
AcDbVisualStyle
  3
ObjectDBX Classes
 90
     4095
280
     0
281
     0
  0
ENDSEC
  0
SECTION
  2
TABLES
  0
TABLE
  2
VPORT
  5
8
330
0
100
AcDbSymbolTable
 70
     1
  0
VPORT
  5
5613
330
8
100
AcDbSymbolTableRecord
100
AcDbViewportTableRecord
  2
*Active
 70
     0
 10
0.0
 20
0.0
 11
1.0
 21
1.0
 12
109.4900247285722
 22
49.01824018679228
 13
457.9999999999997
 23
1082.0
 14
10.0
 24
10.0
 15
10.0
 25
10.0
 16
0.0
 26
0.0
 36
1.0
 17
0.0
 27
0.0
 37
0.0
 40
208.936103328543
 41
1.981617647058823
 42
1.0
 43
0.0
 44
0.0
 50
0.0
 51
0.0
 71
     0
 72
 20000
 73
     1
 74
     1
 75
     0
 76
     0
 77
     0
 78
     0
281
     0
 65
     1
110
0.0
120
0.0
130
0.0
111
1.0
121
0.0
131
0.0
112
0.0
122
1.0
132
0.0
 79
     0
146
0.0
  0
ENDTAB
  0
TABLE
  2
LTYPE
  5
5
330
0
100
AcDbSymbolTable
 70
     6
  0
LTYPE
  5
13
330
5
100
AcDbSymbolTableRecord
100
AcDbLinetypeTableRecord
  2
ByBlock
 70
     0
  3

 72
    65
 73
     0
 40
0.0
  0
LTYPE
  5
14
330
5
100
AcDbSymbolTableRecord
100
AcDbLinetypeTableRecord
  2
ByLayer
 70
     0
  3

 72
    65
 73
     0
 40
0.0
  0
LTYPE
  5
15
330
5
100
AcDbSymbolTableRecord
100
AcDbLinetypeTableRecord
  2
CONTINUOUS
 70
     0
  3
連續線 ________________________
 72
    65
 73
     2
 40
200000.0
 49
200000.0
 74
     0
 49
0.0
 74
     0
  0
LTYPE
  5
225
330
5
100
AcDbSymbolTableRecord
100
AcDbLinetypeTableRecord
  2
BYBLOCK
 70
     0
  3
Solid line
 72
    65
 73
     0
 40
0.0
  0
LTYPE
  5
226
330
5
100
AcDbSymbolTableRecord
100
AcDbLinetypeTableRecord
  2
BYLAYER
 70
     0
  3
Solid line
 72
    65
 73
     0
 40
0.0
  0
LTYPE
  5
413C
330
5
100
AcDbSymbolTableRecord
100
AcDbLinetypeTableRecord
  2
CENTER2
 70
     0
  3
Center (.5x) ___ _ ___ _ ___ _ ___ _ ___ _ ___
 72
    65
 73
     4
 40
28.575
 49
19.05
 74
     0
 49
-3.174999999999999
 74
     0
 49
3.174999999999999
 74
     0
 49
-3.174999999999999
 74
     0
  0
LTYPE
  5
413D
330
5
100
AcDbSymbolTableRecord
100
AcDbLinetypeTableRecord
  2
DASHED2
 70
     0
  3
Dashed (.5x) _ _ _ _ _ _ _ _ _ _ _ _ _ _ _ _ _
 72
    65
 73
     2
 40
9.524999999999998
 49
6.349999999999999
 74
     0
 49
-3.174999999999999
 74
     0
  0
ENDTAB
  0
TABLE
  2
LAYER
  5
2
102
{ACAD_XDICTIONARY
360
43C2
102
}
330
0
100
AcDbSymbolTable
 70
     8
  0
LAYER
  5
10
330
2
100
AcDbSymbolTableRecord
100
AcDbLayerTableRecord
  2
0
 70
     0
 62
     7
  6
CONTINUOUS
370
    -3
390
F
  0
LAYER
  5
413E
330
2
100
AcDbSymbolTableRecord
100
AcDbLayerTableRecord
  2
指線
 70
     0
 62
     3
  6
CONTINUOUS
370
    15
390
F
  0
LAYER
  5
413F
330
2
100
AcDbSymbolTableRecord
100
AcDbLayerTableRecord
  2
中心線
 70
     0
 62
     4
  6
CENTER2
370
    20
390
F
  0
LAYER
  5
4140
330
2
100
AcDbSymbolTableRecord
100
AcDbLayerTableRecord
  2
虛線
 70
     0
 62
     6
  6
DASHED2
290
     0
370
    -3
390
F
  0
LAYER
  5
43B4
330
2
100
AcDbSymbolTableRecord
100
AcDbLayerTableRecord
  2
建構線
 70
     0
 62
     1
  6
CONTINUOUS
370
    -3
390
F
  0
LAYER
  5
4EE7
330
2
100
AcDbSymbolTableRecord
100
AcDbLayerTableRecord
  2
AM5
 70
     0
 62
     3
  6
CONTINUOUS
370
    15
390
F
  0
LAYER
  5
4EE8
330
2
100
AcDbSymbolTableRecord
100
AcDbLayerTableRecord
  2
AM7
 70
     0
 62
     4
  6
CENTER2
370
    20
390
F
  0
LAYER
  5
4EE9
330
2
100
AcDbSymbolTableRecord
100
AcDbLayerTableRecord
  2
Defpoints
 70
     0
 62
     7
  6
CONTINUOUS
290
     0
370
    -3
390
F
  0
ENDTAB
  0
TABLE
  2
STYLE
  5
3
330
0
100
AcDbSymbolTable
 70
     1
  0
STYLE
  5
11
330
3
100
AcDbSymbolTableRecord
100
AcDbTextStyleTableRecord
  2
STANDARD
 70
     0
 40
0.0
 41
1.0
 50
0.0
 71
     0
 42
3.0
  3

  4

  0
ENDTAB
  0
TABLE
  2
VIEW
  5
6
330
0
100
AcDbSymbolTable
 70
     0
  0
ENDTAB
  0
TABLE
  2
UCS
  5
7
330
0
100
AcDbSymbolTable
 70
     0
  0
ENDTAB
  0
TABLE
  2
APPID
  5
9
330
0
100
AcDbSymbolTable
 70
     5
  0
APPID
  5
12
330
9
100
AcDbSymbolTableRecord
100
AcDbRegAppTableRecord
  2
ACAD
 70
     0
  0
APPID
  5
230
330
9
100
AcDbSymbolTableRecord
100
AcDbRegAppTableRecord
  2
TCAD
 70
     0
  0
APPID
  5
4142
330
9
100
AcDbSymbolTableRecord
100
AcDbRegAppTableRecord
  2
CONTENTBLOCKICON
 70
     0
  0
APPID
  5
4CC3
330
9
100
AcDbSymbolTableRecord
100
AcDbRegAppTableRecord
  2
pntflag
 70
     0
  0
APPID
  5
5636
330
9
100
AcDbSymbolTableRecord
100
AcDbRegAppTableRecord
  2
ACAD_EXEMPT_FROM_CAD_STANDARDS
 70
     0
  0
ENDTAB
  0
TABLE
  2
DIMSTYLE
  5
A
330
0
100
AcDbSymbolTable
 70
     2
100
AcDbDimStyleTable
 71
     1
340
3C9D
  0
DIMSTYLE
105
3C9D
330
A
100
AcDbSymbolTableRecord
100
AcDbDimStyleTableRecord
  2
Standard
 70
     0
271
     8
272
     8
340
11
  0
ENDTAB
  0
TABLE
  2
BLOCK_RECORD
  5
1
330
0
100
AcDbSymbolTable
 70
     1
  0
BLOCK_RECORD
  5
1E
102
{ACAD_XDICTIONARY
360
3D1E
102
}
330
1
100
AcDbSymbolTableRecord
100
AcDbBlockTableRecord
  2
*Model_Space
340
21
  0
BLOCK_RECORD
  5
1A
102
{ACAD_XDICTIONARY
360
3D20
102
}
330
1
100
AcDbSymbolTableRecord
100
AcDbBlockTableRecord
  2
*Paper_Space
340
1D
  0
ENDTAB
  0
ENDSEC
  0
SECTION
  2
BLOCKS
  0
BLOCK
  5
254
330
1E
100
AcDbEntity
  8
0
100
AcDbBlockBegin
  2
*Model_Space
 70
     0
 10
0.0
 20
0.0
 30
0.0
  3
*Model_Space
  1

  0
ENDBLK
  5
255
330
1E
100
AcDbEntity
  8
0
100
AcDbBlockEnd
  0
BLOCK
  5
252
330
1A
100
AcDbEntity
 67
     1
  8
0
100
AcDbBlockBegin
  2
*Paper_Space
 70
     0
 10
0.0
 20
0.0
 30
0.0
  3
*Paper_Space
  1

  0
ENDBLK
  5
253
330
1A
100
AcDbEntity
 67
     1
  8
0
100
AcDbBlockEnd
  0
ENDSEC
  0
SECTION
  2
ENTITIES
  0
LINE
  5
4BB0
330
1E
100
AcDbEntity
  8
0
 48
0.27
100
AcDbLine
 10
252.3033634017257
 20
20.00000000000044
 30
0.0
 11
197.7816854228214
 21
20.00000000000044
 31
0.0
  0
LINE
  5
4BB1
330
1E
100
AcDbEntity
  8
0
 48
0.27
100
AcDbLine
 10
252.3033634017258
 20
-5.999999999999557
 30
0.0
 11
52.30336340172579
 21
-5.999999999999557
 31
0.0
  0
LINE
  5
4BB2
330
1E
100
AcDbEntity
  8
0
 48
0.27
100
AcDbLine
 10
65.30336340172579
 20
19.10000000000058
 30
0.0
 11
64.78374815945534
 21
20.00000000000044
 31
0.0
  0
LINE
  5
4BB3
330
1E
100
AcDbEntity
  8
0
 48
0.27
100
AcDbLine
 10
52.30336340172579
 20
-5.999999999999557
 30
0.0
 11
52.30336340172579
 21
20.00000000000044
 31
0.0
  0
LINE
  5
4BC0
330
1E
100
AcDbEntity
  8
虛線
 48
0.27
100
AcDbLine
 10
239.3033634017258
 20
19.10000000000058
 30
0.0
 11
225.3033634017258
 21
19.10000000000058
 31
0.0
  0
LINE
  5
4BC1
330
1E
100
AcDbEntity
  8
虛線
 48
0.27
100
AcDbLine
 10
236.8033634017258
 20
-5.599999999999495
 30
0.0
 11
227.8033634017258
 21
-5.599999999999495
 31
0.0
  0
LINE
  5
4BC2
330
1E
100
AcDbEntity
  8
虛線
 48
0.27
100
AcDbLine
 10
236.8033634017258
 20
7.200000000000516
 30
0.0
 11
227.8033634017258
 21
7.200000000000516
 31
0.0
  0
LINE
  5
4BC3
330
1E
100
AcDbEntity
  8
虛線
 48
0.27
100
AcDbLine
 10
239.3033634017258
 20
7.500000000000527
 30
0.0
 11
225.3033634017258
 21
7.500000000000527
 31
0.0
  0
LINE
  5
4BC4
330
1E
100
AcDbEntity
  8
0
 48
0.27
100
AcDbLine
 10
252.3033634017258
 20
-4.499999999999557
 30
0.0
 11
90.76965151728382
 21
-4.499999999999557
 31
0.0
  0
LINE
  5
4BC5
330
1E
100
AcDbEntity
  8
0
 48
0.27
100
AcDbLine
 10
252.3033634017258
 20
-0.7003216999947722
 30
0.0
 11
89.72835741268154
 21
-0.7003216999947722
 31
0.0
  0
LINE
  5
4BC6
330
1E
100
AcDbEntity
  8
0
 48
0.27
100
AcDbLine
 10
252.3033634017258
 20
3.999678200000447
 30
0.0
 11
197.7816854228213
 21
3.999678200000447
 31
0.0
  0
LINE
  5
4BC7
330
1E
100
AcDbEntity
  8
0
 48
0.27
100
AcDbLine
 10
252.3033634017258
 20
8.179743035260104
 30
0.0
 11
197.7816854228213
 21
8.179743035260104
 31
0.0
  0
LINE
  5
4BC8
330
1E
100
AcDbEntity
  8
0
 48
0.27
100
AcDbLine
 10
252.3033634017258
 20
8.793627225054011
 30
0.0
 11
197.7816854228213
 21
8.793627225054011
 31
0.0
  0
LINE
  5
4BC9
330
1E
100
AcDbEntity
  8
0
 48
0.27
100
AcDbLine
 10
252.3033634017257
 20
11.29519764578877
 30
0.0
 11
197.7816854228213
 21
11.29519764578877
 31
0.0
  0
LINE
  5
4BCA
330
1E
100
AcDbEntity
  8
0
 48
0.27
100
AcDbLine
 10
252.3033634017257
 20
12.87974066066893
 30
0.0
 11
197.7816854228213
 21
12.87974066066893
 31
0.0
  0
LINE
  5
4BCB
330
1E
100
AcDbEntity
  8
0
 48
0.27
100
AcDbLine
 10
252.3033634017257
 20
15.11440931332488
 30
0.0
 11
197.7816854228213
 21
15.11440931332488
 31
0.0
  0
LINE
  5
4BCC
330
1E
100
AcDbEntity
  8
0
 48
0.27
100
AcDbLine
 10
252.3033634017257
 20
16.70526282356316
 30
0.0
 11
197.7816854228214
 21
16.70526282356316
 31
0.0
  0
LINE
  5
4BCD
330
1E
100
AcDbEntity
  8
0
 48
0.27
100
AcDbLine
 10
252.3033634017257
 20
19.199816180458
 30
0.0
 11
197.7816854228214
 21
19.199816180458
 31
0.0
  0
LINE
  5
4BCE
330
1E
100
AcDbEntity
  8
中心線
 48
0.27
100
AcDbLine
 10
72.30336340172579
 20
-8.599999999999438
 30
0.0
 11
72.30336340172579
 21
21.00000000000056
 31
0.0
  0
LINE
  5
4BCF
330
1E
100
AcDbEntity
  8
建構線
 48
0.27
100
AcDbLine
 10
89.67076792708855
 20
10.11645753038202
 30
0.0
 11
90.45725447526143
 21
7.379743035260235
 31
0.0
  0
LINE
  5
4BD0
330
1E
100
AcDbEntity
  8
0
 48
0.27
100
AcDbLine
 10
65.30336340172579
 20
7.500000000000527
 30
0.0
 11
65.30336340172579
 21
19.10000000000058
 31
0.0
  0
LINE
  5
4BD1
330
1E
100
AcDbEntity
  8
0
 48
0.27
100
AcDbLine
 10
79.30336340172579
 20
7.500000000000527
 30
0.0
 11
79.30336340172579
 21
19.10000000000058
 31
0.0
  0
LINE
  5
4BD2
330
1E
100
AcDbEntity
  8
中心線
 48
0.27
100
AcDbLine
 10
72.30336340172579
 20
-8.599999999999438
 30
0.0
 11
72.30336340172579
 21
21.00000000000056
 31
0.0
  0
LINE
  5
4BD3
330
1E
100
AcDbEntity
  8
0
 48
0.27
100
AcDbLine
 10
67.80336340172579
 20
-5.599999999999495
 30
0.0
 11
67.80336340172579
 21
7.200000000000516
 31
0.0
  0
LINE
  5
4BD4
330
1E
100
AcDbEntity
  8
0
 48
0.27
100
AcDbLine
 10
76.80336340172579
 20
-5.599999999999495
 30
0.0
 11
76.80336340172579
 21
7.200000000000516
 31
0.0
  0
LINE
  5
4BD5
330
1E
100
AcDbEntity
  8
0
 48
0.27
100
AcDbLine
 10
76.80336340172579
 20
-5.599999999999495
 30
0.0
 11
67.80336340172579
 21
-5.599999999999495
 31
0.0
  0
LINE
  5
4BD6
330
1E
100
AcDbEntity
  8
0
 48
0.27
100
AcDbLine
 10
67.40336340172581
 20
-5.999999999999472
 30
0.0
 11
67.80336340172579
 21
-5.599999999999495
 31
0.0
  0
LINE
  5
4BD7
330
1E
100
AcDbEntity
  8
0
 48
0.27
100
AcDbLine
 10
77.20336340172576
 20
-5.999999999999472
 30
0.0
 11
76.80336340172579
 21
-5.599999999999495
 31
0.0
  0
LINE
  5
4BD8
330
1E
100
AcDbEntity
  8
0
 48
0.27
100
AcDbLine
 10
76.80336340172579
 20
7.200000000000516
 30
0.0
 11
67.80336340172579
 21
7.200000000000516
 31
0.0
  0
LINE
  5
4BD9
330
1E
100
AcDbEntity
  8
0
 48
0.27
100
AcDbLine
 10
79.30336340172579
 20
7.500000000000527
 30
0.0
 11
65.30336340172579
 21
7.500000000000527
 31
0.0
  0
LINE
  5
4BDA
330
1E
100
AcDbEntity
  8
0
 48
0.27
100
AcDbLine
 10
67.50336340172584
 20
7.500000000000527
 30
0.0
 11
67.80336340172579
 21
7.200000000000516
 31
0.0
  0
LINE
  5
4BDB
330
1E
100
AcDbEntity
  8
0
 48
0.27
100
AcDbLine
 10
77.10336340172574
 20
7.500000000000527
 30
0.0
 11
76.80336340172579
 21
7.200000000000516
 31
0.0
  0
LINE
  5
4BDC
330
1E
100
AcDbEntity
  8
建構線
 48
0.27
100
AcDbLine
 10
88.65957037778713
 20
3.199678200000578
 30
0.0
 11
90.90667549963001
 21
-4.999999999999472
 31
0.0
  0
LINE
  5
4BDD
330
1E
100
AcDbEntity
  8
建構線
 48
0.27
100
AcDbLine
 10
90.90667549963001
 20
-4.9999999999995
 30
0.0
 11
89.89547795032851
 21
-5.999999999999559
 31
0.0
  0
LINE
  5
4BDE
330
1E
100
AcDbEntity
  8
建構線
 48
0.27
100
AcDbLine
 10
90.45725447526143
 20
7.379743035260235
 30
0.0
 11
88.65957037778713
 21
3.199678200000578
 31
0.0
  0
LINE
  5
4BDF
330
1E
100
AcDbEntity
  8
0
 48
0.27
100
AcDbLine
 10
79.30336340172579
 20
19.10000000000058
 30
0.0
 11
65.30336340172579
 21
19.10000000000058
 31
0.0
  0
LINE
  5
4BE0
330
1E
100
AcDbEntity
  8
0
 48
0.27
100
AcDbLine
 10
79.82297864399623
 20
20.00000000000044
 30
0.0
 11
79.30336340172579
 21
19.10000000000058
 31
0.0
  0
LINE
  5
4BE1
330
1E
100
AcDbEntity
  8
建構線
 48
0.27
100
AcDbLine
 10
90.38811788307436
 20
20.00000000000044
 30
0.0
 11
90.00783345089287
 21
18.01954533482147
 31
0.0
  0
LINE
  5
4BE2
330
1E
100
AcDbEntity
  8
建構線
 48
0.27
100
AcDbLine
 10
90.79431999906551
 20
12.37974002271592
 30
0.0
 11
89.67076792708855
 21
10.11645753038202
 31
0.0
  0
LINE
  5
4BE3
330
1E
100
AcDbEntity
  8
建構線
 48
0.27
100
AcDbLine
 10
91.58080752512711
 20
16.28553399966468
 30
0.0
 11
89.97501184396156
 21
14.01440994409934
 31
0.0
  0
LINE
  5
4BE4
330
1E
100
AcDbEntity
  8
建構線
 48
0.27
100
AcDbLine
 10
89.97501184396156
 20
14.01440994409934
 30
0.0
 11
90.79431999906551
 21
12.37974002271592
 31
0.0
  0
LINE
  5
4BE5
330
1E
100
AcDbEntity
  8
建構線
 48
0.27
100
AcDbLine
 10
90.00783345089287
 20
18.01954533482147
 30
0.0
 11
91.58080752512711
 21
16.28553399966468
 31
0.0
  0
LINE
  5
4BE8
330
1E
100
AcDbEntity
  8
中心線
 48
0.27
100
AcDbLine
 10
152.3033634017258
 20
-8.599999999999438
 30
0.0
 11
152.3033634017258
 21
1.17498976524722
 31
0.0
  0
LINE
  5
4BEA
330
1E
100
AcDbEntity
  8
虛線
 48
0.27
100
AcDbLine
 10
147.8033634017258
 20
-5.599999999999495
 30
0.0
 11
147.8033634017258
 21
0.0004742372079338
 31
0.0
  0
LINE
  5
4BEB
330
1E
100
AcDbEntity
  8
虛線
 48
0.27
100
AcDbLine
 10
156.8033634017258
 20
-5.599999999999495
 30
0.0
 11
156.8033634017258
 21
0.0004742372078805
 31
0.0
  0
LINE
  5
4BEC
330
1E
100
AcDbEntity
  8
虛線
 48
0.27
100
AcDbLine
 10
156.8033634017258
 20
-5.599999999999495
 30
0.0
 11
147.8033634017258
 21
-5.599999999999495
 31
0.0
  0
LINE
  5
4BED
330
1E
100
AcDbEntity
  8
虛線
 48
0.27
100
AcDbLine
 10
147.4033634017258
 20
-5.999999999999472
 30
0.0
 11
147.8033634017258
 21
-5.599999999999495
 31
0.0
  0
LINE
  5
4BEE
330
1E
100
AcDbEntity
  8
虛線
 48
0.27
100
AcDbLine
 10
157.2033634017257
 20
-5.999999999999472
 30
0.0
 11
156.8033634017258
 21
-5.599999999999495
 31
0.0
  0
LINE
  5
4BF5
330
1E
100
AcDbEntity
  8
虛線
 48
0.27
100
AcDbLine
 10
225.3033634017258
 20
7.500000000000527
 30
0.0
 11
225.3033634017258
 21
19.10000000000058
 31
0.0
  0
LINE
  5
4BF9
330
1E
100
AcDbEntity
  8
虛線
 48
0.27
100
AcDbLine
 10
227.8033634017258
 20
-5.599999999999495
 30
0.0
 11
227.8033634017258
 21
7.200000000000516
 31
0.0
  0
LINE
  5
4BFA
330
1E
100
AcDbEntity
  8
虛線
 48
0.27
100
AcDbLine
 10
227.4033634017258
 20
-5.999999999999472
 30
0.0
 11
227.8033634017258
 21
-5.599999999999495
 31
0.0
  0
LINE
  5
4BFB
330
1E
100
AcDbEntity
  8
虛線
 48
0.27
100
AcDbLine
 10
227.5033634017258
 20
7.500000000000527
 30
0.0
 11
227.8033634017258
 21
7.200000000000516
 31
0.0
  0
LINE
  5
4BFC
330
1E
100
AcDbEntity
  8
虛線
 48
0.27
100
AcDbLine
 10
225.3033634017258
 20
19.10000000000058
 30
0.0
 11
225.07242329405
 21
19.50000000000055
 31
0.0
  0
LINE
  5
4BFD
330
1E
100
AcDbEntity
  8
虛線
 48
0.27
100
AcDbLine
 10
239.3033634017258
 20
7.500000000000527
 30
0.0
 11
239.3033634017258
 21
19.10000000000058
 31
0.0
  0
LINE
  5
4BFE
330
1E
100
AcDbEntity
  8
0
 48
0.27
100
AcDbLine
 10
252.3033634017258
 20
-5.9999999999995
 30
0.0
 11
252.3033634017257
 21
20.00000000000044
 31
0.0
  0
LINE
  5
4BFF
330
1E
100
AcDbEntity
  8
虛線
 48
0.27
100
AcDbLine
 10
236.8033634017258
 20
-5.599999999999495
 30
0.0
 11
236.8033634017258
 21
7.200000000000516
 31
0.0
  0
LINE
  5
4C00
330
1E
100
AcDbEntity
  8
虛線
 48
0.27
100
AcDbLine
 10
237.2033634017258
 20
-5.999999999999472
 30
0.0
 11
236.8033634017258
 21
-5.599999999999495
 31
0.0
  0
LINE
  5
4C01
330
1E
100
AcDbEntity
  8
虛線
 48
0.27
100
AcDbLine
 10
237.1033634017257
 20
7.500000000000527
 30
0.0
 11
236.8033634017258
 21
7.200000000000516
 31
0.0
  0
LINE
  5
4C02
330
1E
100
AcDbEntity
  8
虛線
 48
0.27
100
AcDbLine
 10
239.5343035094016
 20
19.50000000000055
 30
0.0
 11
239.3033634017258
 21
19.10000000000058
 31
0.0
  0
LINE
  5
4C03
330
1E
100
AcDbEntity
  8
中心線
 48
0.27
100
AcDbLine
 10
232.3033634017258
 20
-8.599999999999438
 30
0.0
 11
232.3033634017258
 21
21.00000000000056
 31
0.0
  0
LINE
  5
4C04
330
1E
100
AcDbEntity
  8
0
 48
0.27
100
AcDbLine
 10
100.381685422821
 20
19.199816180458
 30
0.0
 11
90.23446758508686
 21
19.199816180458
 31
0.0
  0
LINE
  5
4C05
330
1E
100
AcDbEntity
  8
0
 48
0.27
100
AcDbLine
 10
100.381685422821
 20
20.00000000000044
 30
0.0
 11
52.30336340172579
 21
20.00000000000044
 31
0.0
  0
LINE
  5
4C06
330
1E
100
AcDbEntity
  8
0
 48
0.27
100
AcDbLine
 10
100.381685422821
 20
16.70526282356316
 30
0.0
 11
91.20005882711387
 21
16.70526282356316
 31
0.0
  0
LINE
  5
4C07
330
1E
100
AcDbEntity
  8
0
 48
0.27
100
AcDbLine
 10
100.381685422821
 20
15.11440931332488
 30
0.0
 11
90.75276514724709
 21
15.11440931332488
 31
0.0
  0
LINE
  5
4C08
330
1E
100
AcDbEntity
  8
0
 48
0.27
100
AcDbLine
 10
100.3816854228211
 20
12.87974066066893
 30
0.0
 11
90.54371613410586
 21
12.87974066066893
 31
0.0
  0
LINE
  5
4C09
330
1E
100
AcDbEntity
  8
0
 48
0.27
100
AcDbLine
 10
100.3816854228211
 20
11.29519764578877
 30
0.0
 11
90.25592506212291
 21
11.29519764578877
 31
0.0
  0
LINE
  5
4C0A
330
1E
100
AcDbEntity
  8
0
 48
0.27
100
AcDbLine
 10
100.3816854228211
 20
8.793627225054011
 30
0.0
 11
90.05092750986944
 21
8.793627225054011
 31
0.0
  0
LINE
  5
4C0B
330
1E
100
AcDbEntity
  8
0
 48
0.27
100
AcDbLine
 10
100.3816854228211
 20
8.179743035260104
 30
0.0
 11
90.22734768752025
 21
8.179743035260104
 31
0.0
  0
LINE
  5
4C0C
330
1E
100
AcDbEntity
  8
0
 48
0.27
100
AcDbLine
 10
100.3816854228211
 20
3.999678200000447
 30
0.0
 11
89.00361941402412
 21
3.999678200000447
 31
0.0
  0
LINE
  5
4C0D
330
1E
100
AcDbEntity
  8
0
100
AcDbLine
 10
197.7816854228214
 20
21.27373870972783
 30
0.0
 11
197.7816854228213
 21
0.0000000000005045
 31
0.0
  0
LINE
  5
4C0E
330
1E
100
AcDbEntity
  8
0
100
AcDbLine
 10
196.2816854228214
 20
22.13976411351225
 30
0.0
 11
196.2816854228213
 21
0.0000000000005045
 31
0.0
  0
LINE
  5
4C0F
330
1E
100
AcDbEntity
  8
0
100
AcDbLine
 10
197.7816854228212
 20
21.27373870972794
 30
0.0
 11
197.7816854228212
 21
0.0000000000006466
 31
0.0
  0
LINE
  5
4C10
330
1E
100
AcDbEntity
  8
0
100
AcDbLine
 10
196.2816854228212
 20
22.13976411351236
 30
0.0
 11
196.2816854228212
 21
0.0000000000006466
 31
0.0
  0
LINE
  5
4C11
330
1E
100
AcDbEntity
  8
中心線
100
AcDbLine
 10
198.0655352191925
 20
2.650000000000993
 30
0.0
 11
192.3138982448115
 21
2.650000000000993
 31
0.0
  0
LINE
  5
4C12
330
1E
100
AcDbEntity
  8
中心線
100
AcDbLine
 10
198.0655352191925
 20
2.650000000000993
 30
0.0
 11
192.3138982448115
 21
2.650000000000993
 31
0.0
  0
LINE
  5
4C13
330
1E
100
AcDbEntity
  8
0
100
AcDbLine
 10
197.1660132821797
 20
3.650000000000993
 30
0.0
 11
197.1660132821797
 21
1.650000000000993
 31
0.0
  0
LINE
  5
4C14
330
1E
100
AcDbEntity
  8
0
100
AcDbLine
 10
197.1660132821797
 20
3.650000000000993
 30
0.0
 11
197.1660132821797
 21
1.650000000000993
 31
0.0
  0
ARC
  5
4C15
330
1E
100
AcDbEntity
  8
0
100
AcDbCircle
 10
195.9461616033272
 20
1.669751638018105
 30
0.0
 40
1.220011576012179
100
AcDbArc
 50
285.9630221688287
 51
359.0723572120024
  0
ARC
  5
4C16
330
1E
100
AcDbEntity
  8
0
100
AcDbCircle
 10
195.9461616033272
 20
1.669751638018105
 30
0.0
 40
1.220011576012179
100
AcDbArc
 50
285.9630221688287
 51
359.0723572120024
  0
LINE
  5
4C17
330
1E
100
AcDbEntity
  8
0
100
AcDbLine
 10
194.5816854228212
 20
0.0000000000005045
 30
0.0
 11
197.7816854228213
 21
0.0000000000005045
 31
0.0
  0
LINE
  5
4C18
330
1E
100
AcDbEntity
  8
0
100
AcDbLine
 10
194.5816854228212
 20
0.0000000000006466
 30
0.0
 11
197.7816854228212
 21
0.0000000000006466
 31
0.0
  0
ARC
  5
4C19
330
1E
100
AcDbEntity
  8
0
100
AcDbCircle
 10
195.9461616033272
 20
3.630248361983881
 30
0.0
 40
1.220011576012179
100
AcDbArc
 50
0.9276427879976095
 51
74.03697783117127
  0
ARC
  5
4C1A
330
1E
100
AcDbEntity
  8
0
100
AcDbCircle
 10
195.9461616033272
 20
3.630248361983881
 30
0.0
 40
1.220011576012179
100
AcDbArc
 50
0.9276427879976095
 51
74.03697783117127
  0
LINE
  5
4C1B
330
1E
100
AcDbEntity
  8
0
100
AcDbLine
 10
196.2816854228213
 20
35.00000000000048
 30
0.0
 11
196.2816854228214
 21
22.13976411351225
 31
0.0
  0
LINE
  5
4C1C
330
1E
100
AcDbEntity
  8
0
100
AcDbLine
 10
196.2816854228212
 20
35.00000000000059
 30
0.0
 11
196.2816854228212
 21
22.13976411351236
 31
0.0
  0
LINE
  5
4C1F
330
1E
100
AcDbEntity
  8
0
100
AcDbLine
 10
196.2816854228214
 20
22.13976411351225
 30
0.0
 11
197.7816854228214
 21
21.27373870972783
 31
0.0
  0
LINE
  5
4C20
330
1E
100
AcDbEntity
  8
0
100
AcDbLine
 10
196.2816854228212
 20
22.13976411351236
 30
0.0
 11
197.7816854228212
 21
21.27373870972794
 31
0.0
  0
LINE
  5
4C29
330
1E
100
AcDbEntity
  8
0
100
AcDbLine
 10
194.5816854228213
 20
35.00000000000048
 30
0.0
 11
196.2816854228213
 21
35.00000000000048
 31
0.0
  0
LINE
  5
4C2A
330
1E
100
AcDbEntity
  8
0
100
AcDbLine
 10
194.5816854228212
 20
35.00000000000059
 30
0.0
 11
196.2816854228212
 21
35.00000000000059
 31
0.0
  0
LINE
  5
4C2B
330
1E
100
AcDbEntity
  8
0
100
AcDbLine
 10
100.381685422821
 20
21.27373870972784
 30
0.0
 11
100.3816854228211
 21
0.0000000000005116
 31
0.0
  0
LINE
  5
4C2C
330
1E
100
AcDbEntity
  8
0
100
AcDbLine
 10
101.881685422821
 20
22.13976411351226
 30
0.0
 11
101.8816854228211
 21
0.0000000000005116
 31
0.0
  0
LINE
  5
4C2D
330
1E
100
AcDbEntity
  8
0
100
AcDbLine
 10
100.3816854228212
 20
21.27373870972795
 30
0.0
 11
100.3816854228212
 21
0.0000000000006537
 31
0.0
  0
LINE
  5
4C2E
330
1E
100
AcDbEntity
  8
0
100
AcDbLine
 10
101.8816854228212
 20
22.13976411351237
 30
0.0
 11
101.8816854228212
 21
0.0000000000006537
 31
0.0
  0
LINE
  5
4C2F
330
1E
100
AcDbEntity
  8
中心線
100
AcDbLine
 10
100.0978356264498
 20
2.650000000001
 30
0.0
 11
105.8494726008308
 21
2.650000000001
 31
0.0
  0
LINE
  5
4C30
330
1E
100
AcDbEntity
  8
中心線
100
AcDbLine
 10
100.0978356264498
 20
2.650000000001
 30
0.0
 11
105.8494726008308
 21
2.650000000001
 31
0.0
  0
LINE
  5
4C31
330
1E
100
AcDbEntity
  8
0
100
AcDbLine
 10
100.9973575634627
 20
3.650000000001
 30
0.0
 11
100.9973575634627
 21
1.650000000001
 31
0.0
  0
LINE
  5
4C32
330
1E
100
AcDbEntity
  8
0
100
AcDbLine
 10
100.9973575634627
 20
3.650000000001
 30
0.0
 11
100.9973575634627
 21
1.650000000001
 31
0.0
  0
ARC
  5
4C33
330
1E
100
AcDbEntity
  8
0
100
AcDbCircle
 10
102.2172092423152
 20
1.669751638018112
 30
0.0
 40
1.220011576012179
100
AcDbArc
 50
180.9276427879976
 51
254.0369778311712
  0
ARC
  5
4C34
330
1E
100
AcDbEntity
  8
0
100
AcDbCircle
 10
102.2172092423152
 20
1.669751638018112
 30
0.0
 40
1.220011576012179
100
AcDbArc
 50
180.9276427879976
 51
254.0369778311712
  0
LINE
  5
4C35
330
1E
100
AcDbEntity
  8
0
100
AcDbLine
 10
103.5816854228212
 20
0.0000000000005116
 30
0.0
 11
100.3816854228211
 21
0.0000000000005116
 31
0.0
  0
LINE
  5
4C36
330
1E
100
AcDbEntity
  8
0
100
AcDbLine
 10
103.5816854228212
 20
0.0000000000006537
 30
0.0
 11
100.3816854228212
 21
0.0000000000006537
 31
0.0
  0
ARC
  5
4C37
330
1E
100
AcDbEntity
  8
0
100
AcDbCircle
 10
102.2172092423152
 20
3.630248361983888
 30
0.0
 40
1.220011576012179
100
AcDbArc
 50
105.9630221688287
 51
179.0723572120024
  0
ARC
  5
4C38
330
1E
100
AcDbEntity
  8
0
100
AcDbCircle
 10
102.2172092423152
 20
3.630248361983888
 30
0.0
 40
1.220011576012179
100
AcDbArc
 50
105.9630221688287
 51
179.0723572120024
  0
LINE
  5
4C39
330
1E
100
AcDbEntity
  8
0
100
AcDbLine
 10
101.881685422821
 20
35.00000000000048
 30
0.0
 11
101.881685422821
 21
22.13976411351226
 31
0.0
  0
LINE
  5
4C3A
330
1E
100
AcDbEntity
  8
0
100
AcDbLine
 10
101.8816854228212
 20
35.0000000000006
 30
0.0
 11
101.8816854228212
 21
22.13976411351237
 31
0.0
  0
LINE
  5
4C3D
330
1E
100
AcDbEntity
  8
0
100
AcDbLine
 10
101.881685422821
 20
22.13976411351226
 30
0.0
 11
100.381685422821
 21
21.27373870972784
 31
0.0
  0
LINE
  5
4C3E
330
1E
100
AcDbEntity
  8
0
100
AcDbLine
 10
101.8816854228212
 20
22.13976411351237
 30
0.0
 11
100.3816854228212
 21
21.27373870972795
 31
0.0
  0
LINE
  5
4C47
330
1E
100
AcDbEntity
  8
0
100
AcDbLine
 10
103.581685422821
 20
35.00000000000048
 30
0.0
 11
101.881685422821
 21
35.00000000000048
 31
0.0
  0
LINE
  5
4C48
330
1E
100
AcDbEntity
  8
0
100
AcDbLine
 10
103.5816854228212
 20
35.0000000000006
 30
0.0
 11
101.8816854228212
 21
35.0000000000006
 31
0.0
  0
LINE
  5
4C49
330
1E
100
AcDbEntity
  8
0
 48
0.27
100
AcDbLine
 10
114.0816854228212
 20
34.50000000000074
 30
0.0
 11
184.0816854228213
 21
34.50000000000074
 31
0.0
  0
LINE
  5
4C4B
330
1E
100
AcDbEntity
  8
0
 48
0.27
100
AcDbLine
 10
184.0816854228212
 20
-0.000000000000199
 30
0.0
 11
114.0816854228212
 21
0.0000000000002274
 31
0.0
  0
LINE
  5
4C4C
330
1E
100
AcDbEntity
  8
0
 48
0.27
100
AcDbLine
 10
114.0816854228211
 20
2.500000000000596
 30
0.0
 11
184.0816854228212
 21
2.500000000000596
 31
0.0
  0
LINE
  5
4C4D
330
1E
100
AcDbEntity
  8
0
 48
0.27
100
AcDbLine
 10
184.0816854228213
 20
2.500000000000596
 30
0.0
 11
114.0816854228212
 21
2.500000000000596
 31
0.0
  0
LINE
  5
4C4E
330
1E
100
AcDbEntity
  8
0
 48
0.27
100
AcDbLine
 10
114.0816854228212
 20
-0.000000000000199
 30
0.0
 11
184.0816854228212
 21
0.0000000000002274
 31
0.0
  0
LINE
  5
4C4F
330
1E
100
AcDbEntity
  8
0
 48
0.27
100
AcDbLine
 10
184.0816854228212
 20
36.00000000000063
 30
0.0
 11
114.0816854228211
 21
36.00000000000063
 31
0.0
  0
LINE
  5
4C50
330
1E
100
AcDbEntity
  8
0
 48
0.27
100
AcDbLine
 10
114.0816854228212
 20
36.00000000000063
 30
0.0
 11
114.0816854228212
 21
0.0000000000002274
 31
0.0
  0
LINE
  5
4C51
330
1E
100
AcDbEntity
  8
0
 48
0.27
100
AcDbLine
 10
114.0816854228212
 20
0.0000000000002274
 30
0.0
 11
114.0816854228212
 21
35.00000000000023
 31
0.0
  0
LINE
  5
4C52
330
1E
100
AcDbEntity
  8
0
 48
0.27
100
AcDbLine
 10
114.0816854228212
 20
-0.000000000000199
 30
0.0
 11
114.0816854228212
 21
34.99999999999983
 31
0.0
  0
LINE
  5
4C53
330
1E
100
AcDbEntity
  8
0
 48
0.27
100
AcDbLine
 10
114.0816854228211
 20
36.00000000000063
 30
0.0
 11
114.0816854228211
 21
-0.000000000000199
 31
0.0
  0
LINE
  5
4C54
330
1E
100
AcDbEntity
  8
0
 48
0.27
100
AcDbLine
 10
103.5816854228212
 20
0.0000000000002274
 30
0.0
 11
103.5816854228212
 21
35.00000000000023
 31
0.0
  0
LINE
  5
4C55
330
1E
100
AcDbEntity
  8
0
 48
0.27
100
AcDbLine
 10
103.5816854228212
 20
35.00000000000017
 30
0.0
 11
103.5816854228212
 21
0.0000000000002274
 31
0.0
  0
LINE
  5
4C56
330
1E
100
AcDbEntity
  8
0
 48
0.27
100
AcDbLine
 10
103.5816854228212
 20
34.99999999999983
 30
0.0
 11
103.5816854228212
 21
-0.000000000000199
 31
0.0
  0
LINE
  5
4C57
330
1E
100
AcDbEntity
  8
0
 48
0.27
100
AcDbLine
 10
103.5816854228212
 20
2.000000000000227
 30
0.0
 11
114.0816854228212
 21
2.000000000000227
 31
0.0
  0
LINE
  5
4C58
330
1E
100
AcDbEntity
  8
0
 48
0.27
100
AcDbLine
 10
103.5816854228212
 20
0.0000000000002274
 30
0.0
 11
114.0816854228212
 21
0.0000000000002274
 31
0.0
  0
LINE
  5
4C59
330
1E
100
AcDbEntity
  8
0
 48
0.27
100
AcDbLine
 10
103.5816854228212
 20
-0.000000000000199
 30
0.0
 11
114.0816854228212
 21
-0.000000000000199
 31
0.0
  0
LINE
  5
4C5A
330
1E
100
AcDbEntity
  8
0
 48
0.27
100
AcDbLine
 10
103.5816854228212
 20
1.999999999999801
 30
0.0
 11
114.0816854228212
 21
1.999999999999801
 31
0.0
  0
LINE
  5
4C5D
330
1E
100
AcDbEntity
  8
中心線
 48
0.27
100
AcDbLine
 10
103.2402481912778
 20
25.19999999999982
 30
0.0
 11
112.9231226543649
 21
25.19999999999982
 31
0.0
  0
LINE
  5
4C5E
330
1E
100
AcDbEntity
  8
中心線
 48
0.27
100
AcDbLine
 10
103.2402481912777
 20
25.19999999999982
 30
0.0
 11
112.9231226543647
 21
25.19999999999982
 31
0.0
  0
CIRCLE
  5
4C5F
330
1E
100
AcDbEntity
  8
0
 48
0.27
100
AcDbCircle
 10
108.0816854228212
 20
25.20000000000022
 30
0.0
 40
0.7185553324000001
  0
CIRCLE
  5
4C60
330
1E
100
AcDbEntity
  8
0
 48
0.27
100
AcDbCircle
 10
108.0816854228212
 20
25.19999999999982
 30
0.0
 40
0.7185553324000001
  0
CIRCLE
  5
4C61
330
1E
100
AcDbEntity
  8
0
 48
0.27
100
AcDbCircle
 10
108.0816854228212
 20
25.20000000000022
 30
0.0
 40
2.185553324299999
  0
CIRCLE
  5
4C62
330
1E
100
AcDbEntity
  8
0
 48
0.27
100
AcDbCircle
 10
108.0816854228212
 20
25.19999999999982
 30
0.0
 40
2.185553324299999
  0
CIRCLE
  5
4C63
330
1E
100
AcDbEntity
  8
0
 48
0.27
100
AcDbCircle
 10
108.0816854228212
 20
25.20000000000022
 30
0.0
 40
2.75
  0
CIRCLE
  5
4C64
330
1E
100
AcDbEntity
  8
0
 48
0.27
100
AcDbCircle
 10
108.0816854228212
 20
25.20000000000022
 30
0.0
 40
2.486916010899999
  0
CIRCLE
  5
4C65
330
1E
100
AcDbEntity
  8
0
 48
0.27
100
AcDbCircle
 10
108.0816854228212
 20
25.19999999999982
 30
0.0
 40
2.486916010899999
  0
CIRCLE
  5
4C66
330
1E
100
AcDbEntity
  8
0
 48
0.27
100
AcDbCircle
 10
108.0816854228212
 20
25.19999999999982
 30
0.0
 40
2.75
  0
LINE
  5
4C67
330
1E
100
AcDbEntity
  8
0
 48
0.27
100
AcDbLine
 10
103.5816854228212
 20
33.00000000000023
 30
0.0
 11
114.0816854228212
 21
33.00000000000023
 31
0.0
  0
LINE
  5
4C68
330
1E
100
AcDbEntity
  8
0
 48
0.27
100
AcDbLine
 10
103.5816854228212
 20
32.99999999999983
 30
0.0
 11
114.0816854228212
 21
32.99999999999983
 31
0.0
  0
LINE
  5
4C69
330
1E
100
AcDbEntity
  8
中心線
 48
0.27
100
AcDbLine
 10
108.0816854228213
 20
20.35856276845629
 30
0.0
 11
108.0816854228213
 21
30.04143723154334
 31
0.0
  0
LINE
  5
4C6A
330
1E
100
AcDbEntity
  8
中心線
 48
0.27
100
AcDbLine
 10
108.0816854228212
 20
20.35856276845629
 30
0.0
 11
108.0816854228212
 21
30.04143723154334
 31
0.0
  0
LINE
  5
4C6B
330
1E
100
AcDbEntity
  8
0
 48
0.27
100
AcDbLine
 10
114.0816854228212
 20
33.00340749110024
 30
0.0
 11
112.0816854228212
 21
33.00340749110024
 31
0.0
  0
LINE
  5
4C6C
330
1E
100
AcDbEntity
  8
0
 48
0.27
100
AcDbLine
 10
103.5816854228212
 20
35.00000000000023
 30
0.0
 11
114.0816854228212
 21
35.00000000000023
 31
0.0
  0
LINE
  5
4C6D
330
1E
100
AcDbEntity
  8
0
 48
0.27
100
AcDbLine
 10
103.5816854228212
 20
34.99999999999983
 30
0.0
 11
114.0816854228212
 21
34.99999999999983
 31
0.0
  0
LINE
  5
4C76
330
1E
100
AcDbEntity
  8
中心線
 48
0.27
100
AcDbLine
 10
129.0816854228213
 20
20.87325448610938
 30
0.0
 11
129.0816854228213
 21
37.02880689605019
 31
0.0
  0
LINE
  5
4C77
330
1E
100
AcDbEntity
  8
中心線
 48
0.27
100
AcDbLine
 10
129.0816854228211
 20
20.87325448610926
 30
0.0
 11
129.0816854228211
 21
37.02880689605019
 31
0.0
  0
LINE
  5
4C84
330
1E
100
AcDbEntity
  8
0
 48
0.27
100
AcDbLine
 10
184.0816854228213
 20
36.00000000000063
 30
0.0
 11
184.0816854228213
 21
-0.000000000000199
 31
0.0
  0
LINE
  5
4C85
330
1E
100
AcDbEntity
  8
0
 48
0.27
100
AcDbLine
 10
184.0816854228212
 20
-0.000000000000199
 30
0.0
 11
184.0816854228212
 21
34.99999999999983
 31
0.0
  0
LINE
  5
4C86
330
1E
100
AcDbEntity
  8
0
 48
0.27
100
AcDbLine
 10
194.5816854228212
 20
34.99999999999983
 30
0.0
 11
194.5816854228212
 21
-0.000000000000199
 31
0.0
  0
LINE
  5
4C87
330
1E
100
AcDbEntity
  8
0
 48
0.27
100
AcDbLine
 10
194.5816854228212
 20
35.00000000000017
 30
0.0
 11
194.5816854228212
 21
0.0000000000002274
 31
0.0
  0
LINE
  5
4C88
330
1E
100
AcDbEntity
  8
0
 48
0.27
100
AcDbLine
 10
194.5816854228212
 20
0.0000000000002274
 30
0.0
 11
194.5816854228212
 21
35.00000000000023
 31
0.0
  0
LINE
  5
4C89
330
1E
100
AcDbEntity
  8
0
 48
0.27
100
AcDbLine
 10
184.0816854228212
 20
0.0000000000002274
 30
0.0
 11
184.0816854228212
 21
35.00000000000023
 31
0.0
  0
LINE
  5
4C8A
330
1E
100
AcDbEntity
  8
0
 48
0.27
100
AcDbLine
 10
184.0816854228212
 20
36.00000000000063
 30
0.0
 11
184.0816854228212
 21
0.0000000000002274
 31
0.0
  0
LINE
  5
4C8B
330
1E
100
AcDbEntity
  8
0
 48
0.27
100
AcDbLine
 10
194.5816854228212
 20
1.999999999999801
 30
0.0
 11
184.0816854228212
 21
1.999999999999801
 31
0.0
  0
LINE
  5
4C8C
330
1E
100
AcDbEntity
  8
0
 48
0.27
100
AcDbLine
 10
194.5816854228212
 20
-0.000000000000199
 30
0.0
 11
184.0816854228212
 21
-0.000000000000199
 31
0.0
  0
LINE
  5
4C8D
330
1E
100
AcDbEntity
  8
0
 48
0.27
100
AcDbLine
 10
194.5816854228212
 20
0.0000000000002274
 30
0.0
 11
184.0816854228212
 21
0.0000000000002274
 31
0.0
  0
LINE
  5
4C8E
330
1E
100
AcDbEntity
  8
0
 48
0.27
100
AcDbLine
 10
194.5816854228212
 20
2.000000000000227
 30
0.0
 11
184.0816854228212
 21
2.000000000000227
 31
0.0
  0
LINE
  5
4C8F
330
1E
100
AcDbEntity
  8
中心線
 48
0.27
100
AcDbLine
 10
194.9231226543647
 20
25.19999999999982
 30
0.0
 11
185.2402481912777
 21
25.19999999999982
 31
0.0
  0
LINE
  5
4C90
330
1E
100
AcDbEntity
  8
中心線
 48
0.27
100
AcDbLine
 10
194.9231226543646
 20
25.19999999999982
 30
0.0
 11
185.2402481912776
 21
25.19999999999982
 31
0.0
  0
LINE
  5
4C91
330
1E
100
AcDbEntity
  8
0
 48
0.27
100
AcDbLine
 10
194.5816854228212
 20
34.99999999999983
 30
0.0
 11
184.0816854228212
 21
34.99999999999983
 31
0.0
  0
LINE
  5
4C92
330
1E
100
AcDbEntity
  8
0
 48
0.27
100
AcDbLine
 10
194.5816854228212
 20
35.00000000000023
 30
0.0
 11
184.0816854228212
 21
35.00000000000023
 31
0.0
  0
LINE
  5
4C93
330
1E
100
AcDbEntity
  8
0
 48
0.27
100
AcDbLine
 10
194.5816854228212
 20
32.99999999999983
 30
0.0
 11
184.0816854228212
 21
32.99999999999983
 31
0.0
  0
LINE
  5
4C9C
330
1E
100
AcDbEntity
  8
中心線
 48
0.27
100
AcDbLine
 10
169.0816854228213
 20
20.87325448610926
 30
0.0
 11
169.0816854228213
 21
37.02880689605019
 31
0.0
  0
LINE
  5
4C9D
330
1E
100
AcDbEntity
  8
中心線
 48
0.27
100
AcDbLine
 10
169.0816854228212
 20
20.87325448610938
 30
0.0
 11
169.0816854228212
 21
37.02880689605019
 31
0.0
  0
LINE
  5
4CA6
330
1E
100
AcDbEntity
  8
中心線
 48
0.27
100
AcDbLine
 10
190.0816854228212
 20
20.35856276845629
 30
0.0
 11
190.0816854228212
 21
30.04143723154334
 31
0.0
  0
LINE
  5
4CA7
330
1E
100
AcDbEntity
  8
中心線
 48
0.27
100
AcDbLine
 10
190.0816854228211
 20
20.35856276845629
 30
0.0
 11
190.0816854228211
 21
30.04143723154334
 31
0.0
  0
CIRCLE
  5
4CA8
330
1E
100
AcDbEntity
  8
0
 48
0.27
100
AcDbCircle
 10
190.0816854228212
 20
25.19999999999982
 30
0.0
 40
2.75
  0
CIRCLE
  5
4CA9
330
1E
100
AcDbEntity
  8
0
 48
0.27
100
AcDbCircle
 10
190.0816854228212
 20
25.20000000000022
 30
0.0
 40
2.75
  0
CIRCLE
  5
4CAA
330
1E
100
AcDbEntity
  8
0
 48
0.27
100
AcDbCircle
 10
190.0816854228212
 20
25.19999999999982
 30
0.0
 40
0.7185553324000001
  0
CIRCLE
  5
4CAB
330
1E
100
AcDbEntity
  8
0
 48
0.27
100
AcDbCircle
 10
190.0816854228212
 20
25.20000000000022
 30
0.0
 40
0.7185553324000001
  0
CIRCLE
  5
4CAC
330
1E
100
AcDbEntity
  8
0
 48
0.27
100
AcDbCircle
 10
190.0816854228212
 20
25.19999999999982
 30
0.0
 40
2.185553324299999
  0
CIRCLE
  5
4CAD
330
1E
100
AcDbEntity
  8
0
 48
0.27
100
AcDbCircle
 10
190.0816854228212
 20
25.20000000000022
 30
0.0
 40
2.185553324299999
  0
CIRCLE
  5
4CAE
330
1E
100
AcDbEntity
  8
0
 48
0.27
100
AcDbCircle
 10
190.0816854228212
 20
25.19999999999982
 30
0.0
 40
2.486916010899999
  0
CIRCLE
  5
4CAF
330
1E
100
AcDbEntity
  8
0
 48
0.27
100
AcDbCircle
 10
190.0816854228212
 20
25.20000000000022
 30
0.0
 40
2.486916010899999
  0
TEXT
  5
4CBB
330
1E
100
AcDbEntity
  8
0
100
AcDbText
 10
-10.65198975286327
 20
-43.46879058931199
 30
0.0
 40
5.460000111539303
  1

100
AcDbText
  0
ARC
  5
4D45
330
1E
100
AcDbEntity
  8
0
 48
0.27
100
AcDbCircle
 10
101.0733024228211
 20
27.50001933110017
 30
0.0
 40
2.954110999999976
100
AcDbArc
 50
137.3885930045003
 51
222.6114069976006
  0
ARC
  5
4D46
330
1E
100
AcDbEntity
  8
0
 48
0.27
100
AcDbCircle
 10
101.0733034228211
 20
31.50001933110005
 30
0.0
 40
2.954111999999976
100
AcDbArc
 50
137.388598002199
 51
222.6114019998988
  0
LWPOLYLINE
  5
4D47
330
1E
100
AcDbEntity
  8
0
 48
0.27
100
AcDbPolyline
 90
       31
 70
     0
 43
0.0
 10
90.79047442282123
 20
29.50001933110008
 10
90.75765642282119
 20
29.7102743311001
 10
90.71350942282119
 20
29.81576133110008
 10
90.6504764228212
 20
29.91354033110008
 10
90.57100042282121
 20
29.99765333110009
 10
90.4795094228212
 20
30.0635263311001
 10
90.38158942282121
 20
30.10880733110003
 10
90.24895342282119
 20
30.13774833110006
 10
90.1259444228212
 20
30.13508933110007
 10
90.01902042282122
 20
30.10958333110006
 10
89.9028154228212
 20
30.05381533110006
 10
89.79224542282121
 20
29.9643263311001
 10
89.70401542282123
 20
29.84977633110009
 10
89.64738142282122
 20
29.72993733110014
 10
89.61953042282123
 20
29.62628133110008
 10
89.60790942282121
 20
29.50001933110008
 10
89.6407274228212
 20
29.28976433110012
 10
89.68487542282121
 20
29.18427633110008
 10
89.7479074228212
 20
29.08649833110008
 10
89.82738342282123
 20
29.00238533110007
 10
89.91887442282122
 20
28.93651233110007
 10
90.01679442282121
 20
28.89123133110008
 10
90.14943042282123
 20
28.86228933110005
 10
90.27243942282122
 20
28.86494933110009
 10
90.37936342282121
 20
28.89045433110011
 10
90.49556842282122
 20
28.94622233110011
 10
90.60613842282121
 20
29.03571233110006
 10
90.6943684228212
 20
29.15026133110007
 10
90.7510024228212
 20
29.27010033110009
 10
90.77885442282122
 20
29.37375733110014
 10
90.79047442282123
 20
29.50001933110008
  0
ARC
  5
4D48
330
1E
100
AcDbEntity
  8
0
 48
0.27
100
AcDbCircle
 10
94.37085142282118
 20
29.50001933110011
 30
0.0
 40
3.999999999999968
100
AcDbArc
 50
90.0
 51
131.4096219995999
  0
ARC
  5
4D49
330
1E
100
AcDbEntity
  8
0
 48
0.27
100
AcDbCircle
 10
94.37085142282118
 20
29.50001933110011
 30
0.0
 40
3.999999999999968
100
AcDbArc
 50
228.5903779973006
 51
270.0
  0
LINE
  5
4D4A
330
1E
100
AcDbEntity
  8
0
 48
0.27
100
AcDbLine
 10
101.8816854228212
 20
33.50001933110011
 30
0.0
 11
94.37085142282118
 21
33.50001933110011
 31
0.0
  0
LINE
  5
4D4C
330
1E
100
AcDbEntity
  8
0
 48
0.27
100
AcDbLine
 10
94.37085142282118
 20
25.50001933110011
 30
0.0
 11
101.8816854228212
 21
25.50001933110011
 31
0.0
  0
LINE
  5
4D4D
330
1E
100
AcDbEntity
  8
0
 48
0.27
100
AcDbLine
 10
98.11919142282116
 20
33.50001933110011
 30
0.0
 11
98.11919142282116
 21
25.50001933110011
 31
0.0
  0
LINE
  5
4D4E
330
1E
100
AcDbEntity
  8
0
 48
0.27
100
AcDbLine
 10
90.84341442282122
 20
32.50001933110008
 30
0.0
 11
94.74319042282116
 21
32.50001933110008
 31
0.0
  0
LINE
  5
4D4F
330
1E
100
AcDbEntity
  8
0
 48
0.27
100
AcDbLine
 10
90.5970214228212
 20
26.96194633110011
 30
0.0
 11
90.84341442282122
 21
26.50001933110014
 31
0.0
  0
LINE
  5
4D50
330
1E
100
AcDbEntity
  8
0
 48
0.27
100
AcDbLine
 10
90.84341442282122
 20
32.50001933110008
 30
0.0
 11
90.5970214228212
 21
32.0380923311001
 31
0.0
  0
LINE
  5
4D51
330
1E
100
AcDbEntity
  8
0
 48
0.27
100
AcDbLine
 10
95.64403242282116
 20
29.50001933110011
 30
0.0
 11
96.34339642282117
 21
29.50001933110011
 31
0.0
  0
LINE
  5
4D52
330
1E
100
AcDbEntity
  8
0
 48
0.27
100
AcDbLine
 10
94.74319042282116
 20
32.50001933110008
 30
0.0
 11
96.34339642282117
 21
29.50001933110011
 31
0.0
  0
LINE
  5
4D53
330
1E
100
AcDbEntity
  8
0
 48
0.27
100
AcDbLine
 10
94.74319042282116
 20
26.50001933110014
 30
0.0
 11
90.84341442282122
 21
26.50001933110014
 31
0.0
  0
LINE
  5
4D54
330
1E
100
AcDbEntity
  8
0
 48
0.27
100
AcDbLine
 10
96.34339642282117
 20
29.50001933110011
 30
0.0
 11
94.74319042282116
 21
26.50001933110014
 31
0.0
  0
LINE
  5
4D55
330
1E
100
AcDbEntity
  8
0
 48
0.27
100
AcDbLine
 10
90.96449342282118
 20
32.02955333110009
 30
0.0
 11
91.38296042282119
 21
32.27165733110008
 31
0.0
  0
LINE
  5
4D56
330
1E
100
AcDbEntity
  8
0
 48
0.27
100
AcDbLine
 10
90.96449342282118
 20
26.97048433110016
 30
0.0
 11
91.38296042282119
 21
26.72838033110012
 31
0.0
  0
LINE
  5
4D57
330
1E
100
AcDbEntity
  8
0
 48
0.27
100
AcDbLine
 10
91.38296042282119
 20
32.27165733110008
 30
0.0
 11
91.9029004228212
 21
32.44237533110004
 31
0.0
  0
LINE
  5
4D58
330
1E
100
AcDbEntity
  8
0
 48
0.27
100
AcDbLine
 10
91.38296042282119
 20
26.72838033110012
 30
0.0
 11
91.9029004228212
 21
26.55766333110018
 31
0.0
  0
LINE
  5
4D59
330
1E
100
AcDbEntity
  8
0
 48
0.27
100
AcDbLine
 10
91.9029004228212
 20
32.44237533110004
 30
0.0
 11
92.44362042282119
 21
32.50001933110008
 31
0.0
  0
LINE
  5
4D5A
330
1E
100
AcDbEntity
  8
0
 48
0.27
100
AcDbLine
 10
91.9029004228212
 20
26.55766333110018
 30
0.0
 11
92.44362042282119
 21
26.50001933110014
 31
0.0
  0
LINE
  5
4D5B
330
1E
100
AcDbEntity
  8
0
 48
0.27
100
AcDbLine
 10
92.44362042282119
 20
32.50001933110008
 30
0.0
 11
92.98434042282119
 21
32.44237533110004
 31
0.0
  0
LINE
  5
4D5C
330
1E
100
AcDbEntity
  8
0
 48
0.27
100
AcDbLine
 10
92.44362042282119
 20
26.50001933110014
 30
0.0
 11
92.98434042282119
 21
26.55766333110018
 31
0.0
  0
LINE
  5
4D5D
330
1E
100
AcDbEntity
  8
0
 48
0.27
100
AcDbLine
 10
92.98434042282119
 20
32.44237533110004
 30
0.0
 11
93.50428042282116
 21
32.27165733110008
 31
0.0
  0
LINE
  5
4D5E
330
1E
100
AcDbEntity
  8
0
 48
0.27
100
AcDbLine
 10
92.98434042282119
 20
26.55766333110018
 30
0.0
 11
93.50428042282116
 21
26.72838033110012
 31
0.0
  0
LINE
  5
4D5F
330
1E
100
AcDbEntity
  8
0
 48
0.27
100
AcDbLine
 10
93.50428042282116
 20
32.27165733110008
 30
0.0
 11
93.98346042282119
 21
31.9944283311001
 31
0.0
  0
LINE
  5
4D60
330
1E
100
AcDbEntity
  8
0
 48
0.27
100
AcDbLine
 10
93.50428042282116
 20
26.72838033110012
 30
0.0
 11
93.98346042282119
 21
27.00561033110012
 31
0.0
  0
LINE
  5
4D61
330
1E
100
AcDbEntity
  8
0
 48
0.27
100
AcDbLine
 10
93.98346042282119
 20
31.9944283311001
 30
0.0
 11
94.40346442282118
 21
31.62133933110011
 31
0.0
  0
LINE
  5
4D62
330
1E
100
AcDbEntity
  8
0
 48
0.27
100
AcDbLine
 10
93.98346042282119
 20
27.00561033110012
 30
0.0
 11
94.40346442282118
 21
27.37869833110009
 31
0.0
  0
LINE
  5
4D63
330
1E
100
AcDbEntity
  8
0
 48
0.27
100
AcDbLine
 10
94.04382642282119
 20
32.50001933110008
 30
0.0
 11
95.64403242282116
 21
29.50001933110011
 31
0.0
  0
LINE
  5
4D64
330
1E
100
AcDbEntity
  8
0
 48
0.27
100
AcDbLine
 10
95.64403242282116
 20
29.50001933110011
 30
0.0
 11
94.04382642282119
 21
26.50001933110014
 31
0.0
  0
LINE
  5
4D65
330
1E
100
AcDbEntity
  8
0
 48
0.27
100
AcDbLine
 10
94.40346442282118
 20
31.62133933110011
 30
0.0
 11
94.74815342282116
 21
31.1667293311001
 31
0.0
  0
LINE
  5
4D66
330
1E
100
AcDbEntity
  8
0
 48
0.27
100
AcDbLine
 10
94.74815342282116
 20
27.83330833110009
 30
0.0
 11
94.40346442282118
 21
27.37869833110009
 31
0.0
  0
LINE
  5
4D67
330
1E
100
AcDbEntity
  8
0
 48
0.27
100
AcDbLine
 10
94.74815342282116
 20
31.1667293311001
 30
0.0
 11
95.00428042282118
 21
30.6480693311001
 31
0.0
  0
LINE
  5
4D68
330
1E
100
AcDbEntity
  8
0
 48
0.27
100
AcDbLine
 10
95.00428042282118
 20
28.35196833110016
 30
0.0
 11
94.74815342282116
 21
27.83330833110009
 31
0.0
  0
LINE
  5
4D69
330
1E
100
AcDbEntity
  8
0
 48
0.27
100
AcDbLine
 10
95.00428042282118
 20
30.6480693311001
 30
0.0
 11
95.16200242282115
 21
30.08529033110014
 31
0.0
  0
LINE
  5
4D6A
330
1E
100
AcDbEntity
  8
0
 48
0.27
100
AcDbLine
 10
95.16200242282115
 20
28.91474833110008
 30
0.0
 11
95.00428042282118
 21
28.35196833110016
 31
0.0
  0
LINE
  5
4D6B
330
1E
100
AcDbEntity
  8
0
 48
0.27
100
AcDbLine
 10
95.16200242282115
 20
30.08529033110014
 30
0.0
 11
95.21525842282118
 21
29.50001933110011
 31
0.0
  0
LINE
  5
4D6C
330
1E
100
AcDbEntity
  8
0
 48
0.27
100
AcDbLine
 10
95.21525842282118
 20
29.50001933110011
 30
0.0
 11
95.16200242282115
 21
28.91474833110008
 31
0.0
  0
LINE
  5
4D6D
330
1E
100
AcDbEntity
  8
0
 48
0.27
100
AcDbLine
 10
89.53972342282122
 20
31.14024633110006
 30
0.0
 11
89.54269442282122
 21
31.1386313311001
 31
0.0
  0
LINE
  5
4D6E
330
1E
100
AcDbEntity
  8
0
 48
0.27
100
AcDbLine
 10
89.53972342282122
 20
27.85979133110013
 30
0.0
 11
89.54269442282122
 21
27.86140733110011
 31
0.0
  0
LINE
  5
4D6F
330
1E
100
AcDbEntity
  8
0
 48
0.27
100
AcDbLine
 10
88.42701342282124
 20
29.99816133110011
 30
0.0
 11
88.38168542282124
 21
29.50001933110011
 31
0.0
  0
LINE
  5
4D70
330
1E
100
AcDbEntity
  8
0
 48
0.27
100
AcDbLine
 10
88.56125542282121
 20
30.4771593311001
 30
0.0
 11
88.42701342282124
 21
29.99816133110011
 31
0.0
  0
LINE
  5
4D71
330
1E
100
AcDbEntity
  8
0
 48
0.27
100
AcDbLine
 10
88.38168542282124
 20
29.50001933110011
 30
0.0
 11
88.42701342282124
 21
29.00187733110011
 31
0.0
  0
LINE
  5
4D72
330
1E
100
AcDbEntity
  8
0
 48
0.27
100
AcDbLine
 10
88.77925242282122
 20
30.91860733110011
 30
0.0
 11
88.56125542282121
 21
30.4771593311001
 31
0.0
  0
LINE
  5
4D73
330
1E
100
AcDbEntity
  8
0
 48
0.27
100
AcDbLine
 10
88.42701342282124
 20
29.00187733110011
 30
0.0
 11
88.56125542282121
 21
28.52287833110009
 31
0.0
  0
LINE
  5
4D74
330
1E
100
AcDbEntity
  8
0
 48
0.27
100
AcDbLine
 10
89.07262842282122
 20
31.30553933110014
 30
0.0
 11
88.77925242282122
 21
30.91860733110011
 31
0.0
  0
LINE
  5
4D75
330
1E
100
AcDbEntity
  8
0
 48
0.27
100
AcDbLine
 10
88.56125542282121
 20
28.52287833110009
 30
0.0
 11
88.77925242282122
 21
28.08143133110011
 31
0.0
  0
LINE
  5
4D76
330
1E
100
AcDbEntity
  8
0
 48
0.27
100
AcDbLine
 10
89.07262842282122
 20
31.30553933110014
 30
0.0
 11
89.43010642282123
 21
31.6230863311001
 31
0.0
  0
LINE
  5
4D77
330
1E
100
AcDbEntity
  8
0
 48
0.27
100
AcDbLine
 10
88.77925242282122
 20
28.08143133110011
 30
0.0
 11
89.07262842282122
 21
27.69449933110008
 31
0.0
  0
LINE
  5
4D78
330
1E
100
AcDbEntity
  8
0
 48
0.27
100
AcDbLine
 10
88.57571642282122
 20
29.84955533110011
 30
0.0
 11
88.54391042282122
 21
29.50001933110011
 31
0.0
  0
LINE
  5
4D79
330
1E
100
AcDbEntity
  8
0
 48
0.27
100
AcDbLine
 10
88.66991142282122
 20
30.18565933110012
 30
0.0
 11
88.57571642282122
 21
29.84955533110011
 31
0.0
  0
LINE
  5
4D7A
330
1E
100
AcDbEntity
  8
0
 48
0.27
100
AcDbLine
 10
88.54391042282122
 20
29.50001933110011
 30
0.0
 11
88.57571642282122
 21
29.15048333110011
 31
0.0
  0
LINE
  5
4D7B
330
1E
100
AcDbEntity
  8
0
 48
0.27
100
AcDbLine
 10
88.82287542282123
 20
30.49541433110008
 30
0.0
 11
88.66991142282122
 21
30.18565933110012
 31
0.0
  0
LINE
  5
4D7C
330
1E
100
AcDbEntity
  8
0
 48
0.27
100
AcDbLine
 10
88.57571642282122
 20
29.15048333110011
 30
0.0
 11
88.66991142282122
 21
28.8143793311001
 31
0.0
  0
LINE
  5
4D7D
330
1E
100
AcDbEntity
  8
0
 48
0.27
100
AcDbLine
 10
89.43010642282123
 20
31.6230863311001
 30
0.0
 11
89.83795142282122
 21
31.85904533110008
 31
0.0
  0
LINE
  5
4D7E
330
1E
100
AcDbEntity
  8
0
 48
0.27
100
AcDbLine
 10
89.07262842282122
 20
27.69449933110008
 30
0.0
 11
89.43010642282123
 21
27.37695233110012
 31
0.0
  0
LINE
  5
4D7F
330
1E
100
AcDbEntity
  8
0
 48
0.27
100
AcDbLine
 10
89.02873142282123
 20
30.76691633110011
 30
0.0
 11
88.82287542282123
 21
30.49541433110008
 31
0.0
  0
LINE
  5
4D80
330
1E
100
AcDbEntity
  8
0
 48
0.27
100
AcDbLine
 10
88.66991142282122
 20
28.8143793311001
 30
0.0
 11
88.82287542282123
 21
28.50462433110014
 31
0.0
  0
LINE
  5
4D81
330
1E
100
AcDbEntity
  8
0
 48
0.27
100
AcDbLine
 10
89.83795142282122
 20
31.85904533110008
 30
0.0
 11
90.28048842282123
 21
32.00434733110004
 31
0.0
  0
LINE
  5
4D82
330
1E
100
AcDbEntity
  8
0
 48
0.27
100
AcDbLine
 10
89.43010642282123
 20
27.37695233110012
 30
0.0
 11
89.83795142282122
 21
27.14099333110011
 31
0.0
  0
LINE
  5
4D83
330
1E
100
AcDbEntity
  8
0
 48
0.27
100
AcDbLine
 10
89.02873142282123
 20
30.76691633110011
 30
0.0
 11
89.27956642282124
 21
30.98973333110007
 31
0.0
  0
LINE
  5
4D84
330
1E
100
AcDbEntity
  8
0
 48
0.27
100
AcDbLine
 10
88.82287542282123
 20
28.50462433110014
 30
0.0
 11
89.02873142282123
 21
28.23312133110017
 31
0.0
  0
LINE
  5
4D85
330
1E
100
AcDbEntity
  8
0
 48
0.27
100
AcDbLine
 10
90.28048842282123
 20
32.00434733110004
 30
0.0
 11
90.7407114228212
 21
32.05341033110008
 31
0.0
  0
LINE
  5
4D86
330
1E
100
AcDbEntity
  8
0
 48
0.27
100
AcDbLine
 10
89.83795142282122
 20
27.14099333110011
 30
0.0
 11
90.28048842282123
 21
26.9956903311001
 31
0.0
  0
LINE
  5
4D87
330
1E
100
AcDbEntity
  8
0
 48
0.27
100
AcDbLine
 10
89.27956642282124
 20
30.98973333110007
 30
0.0
 11
89.56574342282122
 21
31.15530033110005
 31
0.0
  0
LINE
  5
4D88
330
1E
100
AcDbEntity
  8
0
 48
0.27
100
AcDbLine
 10
89.02873142282123
 20
28.23312133110017
 30
0.0
 11
89.27956642282124
 21
28.01030533110015
 31
0.0
  0
LINE
  5
4D89
330
1E
100
AcDbEntity
  8
0
 48
0.27
100
AcDbLine
 10
91.34537042282119
 20
31.97700033110008
 30
0.0
 11
91.78307442282122
 21
31.83328433110006
 31
0.0
  0
LINE
  5
4D8A
330
1E
100
AcDbEntity
  8
0
 48
0.27
100
AcDbLine
 10
89.56574342282122
 20
31.15530033110005
 30
0.0
 11
89.87626242282122
 21
31.25725633110008
 31
0.0
  0
LINE
  5
4D8B
330
1E
100
AcDbEntity
  8
0
 48
0.27
100
AcDbLine
 10
89.27956642282124
 20
28.01030533110015
 30
0.0
 11
89.56574342282122
 21
27.84473733110014
 31
0.0
  0
LINE
  5
4D8C
330
1E
100
AcDbEntity
  8
0
 48
0.27
100
AcDbLine
 10
91.2009344228212
 20
32.00434733110004
 30
0.0
 11
91.34537042282119
 21
31.97700033110008
 31
0.0
  0
LINE
  5
4D8D
330
1E
100
AcDbEntity
  8
0
 48
0.27
100
AcDbLine
 10
90.7407114228212
 20
32.05341033110008
 30
0.0
 11
91.2009344228212
 21
32.00434733110004
 31
0.0
  0
LINE
  5
4D8E
330
1E
100
AcDbEntity
  8
0
 48
0.27
100
AcDbLine
 10
90.28048842282123
 20
26.9956903311001
 30
0.0
 11
90.7407114228212
 21
26.94662833110013
 31
0.0
  0
LINE
  5
4D8F
330
1E
100
AcDbEntity
  8
0
 48
0.27
100
AcDbLine
 10
91.78307442282122
 20
31.83328433110006
 30
0.0
 11
92.18646542282119
 21
31.59990233110009
 31
0.0
  0
LINE
  5
4D90
330
1E
100
AcDbEntity
  8
0
 48
0.27
100
AcDbLine
 10
91.34537042282119
 20
27.02303833110014
 30
0.0
 11
91.78307442282122
 21
27.16675433110016
 31
0.0
  0
LINE
  5
4D91
330
1E
100
AcDbEntity
  8
0
 48
0.27
100
AcDbLine
 10
92.18646542282119
 20
31.59990233110009
 30
0.0
 11
92.54004042282121
 21
31.28582333110009
 31
0.0
  0
LINE
  5
4D92
330
1E
100
AcDbEntity
  8
0
 48
0.27
100
AcDbLine
 10
91.78307442282122
 20
27.16675433110016
 30
0.0
 11
92.18646542282119
 21
27.40013633110014
 31
0.0
  0
LINE
  5
4D93
330
1E
100
AcDbEntity
  8
0
 48
0.27
100
AcDbLine
 10
89.87626242282122
 20
31.25725633110008
 30
0.0
 11
90.19919242282119
 21
31.29168233110011
 31
0.0
  0
LINE
  5
4D94
330
1E
100
AcDbEntity
  8
0
 48
0.27
100
AcDbLine
 10
89.56574342282122
 20
27.84473733110014
 30
0.0
 11
89.87626242282122
 21
27.74278133110011
 31
0.0
  0
LINE
  5
4D95
330
1E
100
AcDbEntity
  8
0
 48
0.27
100
AcDbLine
 10
91.2009344228212
 20
32.00434733110004
 30
0.0
 11
91.64347142282119
 21
31.85904533110008
 31
0.0
  0
LINE
  5
4D96
330
1E
100
AcDbEntity
  8
0
 48
0.27
100
AcDbLine
 10
91.2009344228212
 20
26.9956903311001
 30
0.0
 11
91.34537042282119
 21
27.02303833110014
 31
0.0
  0
LINE
  5
4D97
330
1E
100
AcDbEntity
  8
0
 48
0.27
100
AcDbLine
 10
90.7407114228212
 20
26.94662833110013
 30
0.0
 11
91.2009344228212
 21
26.9956903311001
 31
0.0
  0
LINE
  5
4D98
330
1E
100
AcDbEntity
  8
0
 48
0.27
100
AcDbLine
 10
92.54004042282121
 20
31.28582333110009
 30
0.0
 11
92.83021142282121
 21
30.90311633110009
 31
0.0
  0
LINE
  5
4D99
330
1E
100
AcDbEntity
  8
0
 48
0.27
100
AcDbLine
 10
92.18646542282119
 20
27.40013633110014
 30
0.0
 11
92.54004042282121
 21
27.7142153311001
 31
0.0
  0
LINE
  5
4D9A
330
1E
100
AcDbEntity
  8
0
 48
0.27
100
AcDbLine
 10
90.19919242282119
 20
31.29168233110011
 30
0.0
 11
90.52212142282121
 21
31.25725633110008
 31
0.0
  0
LINE
  5
4D9B
330
1E
100
AcDbEntity
  8
0
 48
0.27
100
AcDbLine
 10
89.87626242282122
 20
27.74278133110011
 30
0.0
 11
90.19919242282119
 21
27.70835533110014
 31
0.0
  0
LINE
  5
4D9C
330
1E
100
AcDbEntity
  8
0
 48
0.27
100
AcDbLine
 10
91.64347142282119
 20
31.85904533110008
 30
0.0
 11
92.05131542282121
 21
31.6230863311001
 31
0.0
  0
LINE
  5
4D9D
330
1E
100
AcDbEntity
  8
0
 48
0.27
100
AcDbLine
 10
91.2009344228212
 20
26.9956903311001
 30
0.0
 11
91.64347142282119
 21
27.14099333110011
 31
0.0
  0
LINE
  5
4D9E
330
1E
100
AcDbEntity
  8
0
 48
0.27
100
AcDbLine
 10
92.83021142282121
 20
30.90311633110009
 30
0.0
 11
93.04582842282119
 21
30.4664893311001
 31
0.0
  0
LINE
  5
4D9F
330
1E
100
AcDbEntity
  8
0
 48
0.27
100
AcDbLine
 10
92.83021142282121
 20
28.09692233110014
 30
0.0
 11
92.54004042282121
 21
27.7142153311001
 31
0.0
  0
LINE
  5
4DA0
330
1E
100
AcDbEntity
  8
0
 48
0.27
100
AcDbLine
 10
93.04582842282119
 20
30.4664893311001
 30
0.0
 11
93.17860442282118
 21
29.99272133110012
 31
0.0
  0
LINE
  5
4DA1
330
1E
100
AcDbEntity
  8
0
 48
0.27
100
AcDbLine
 10
93.04582842282119
 20
28.53354933110012
 30
0.0
 11
92.83021142282121
 21
28.09692233110014
 31
0.0
  0
LINE
  5
4DA2
330
1E
100
AcDbEntity
  8
0
 48
0.27
100
AcDbLine
 10
92.05131542282121
 20
31.6230863311001
 30
0.0
 11
92.40879442282118
 21
31.30553933110014
 31
0.0
  0
LINE
  5
4DA3
330
1E
100
AcDbEntity
  8
0
 48
0.27
100
AcDbLine
 10
91.64347142282119
 20
27.14099333110011
 30
0.0
 11
92.05131542282121
 21
27.37695233110012
 31
0.0
  0
LINE
  5
4DA4
330
1E
100
AcDbEntity
  8
0
 48
0.27
100
AcDbLine
 10
93.17860442282118
 20
29.99272133110012
 30
0.0
 11
93.2234374228212
 21
29.50001933110011
 31
0.0
  0
LINE
  5
4DA5
330
1E
100
AcDbEntity
  8
0
 48
0.27
100
AcDbLine
 10
93.17860442282118
 20
29.0073173311001
 30
0.0
 11
93.04582842282119
 21
28.53354933110012
 31
0.0
  0
LINE
  5
4DA6
330
1E
100
AcDbEntity
  8
0
 48
0.27
100
AcDbLine
 10
90.52212142282121
 20
31.25725633110008
 30
0.0
 11
90.8326404228212
 21
31.15530033110005
 31
0.0
  0
LINE
  5
4DA7
330
1E
100
AcDbEntity
  8
0
 48
0.27
100
AcDbLine
 10
90.19919242282119
 20
27.70835533110014
 30
0.0
 11
90.52212142282121
 21
27.74278133110011
 31
0.0
  0
LINE
  5
4DA8
330
1E
100
AcDbEntity
  8
0
 48
0.27
100
AcDbLine
 10
93.2234374228212
 20
29.50001933110011
 30
0.0
 11
93.17860442282118
 21
29.0073173311001
 31
0.0
  0
LINE
  5
4DA9
330
1E
100
AcDbEntity
  8
0
 48
0.27
100
AcDbLine
 10
92.40879442282118
 20
31.30553933110014
 30
0.0
 11
92.70216942282118
 21
30.91860733110011
 31
0.0
  0
LINE
  5
4DAA
330
1E
100
AcDbEntity
  8
0
 48
0.27
100
AcDbLine
 10
92.05131542282121
 20
27.37695233110012
 30
0.0
 11
92.40879442282118
 21
27.69449933110008
 31
0.0
  0
LINE
  5
4DAB
330
1E
100
AcDbEntity
  8
0
 48
0.27
100
AcDbLine
 10
90.8326404228212
 20
31.15530033110005
 30
0.0
 11
91.1188174228212
 21
30.98973333110007
 31
0.0
  0
LINE
  5
4DAC
330
1E
100
AcDbEntity
  8
0
 48
0.27
100
AcDbLine
 10
90.52212142282121
 20
27.74278133110011
 30
0.0
 11
90.8326404228212
 21
27.84473733110014
 31
0.0
  0
LINE
  5
4DAD
330
1E
100
AcDbEntity
  8
0
 48
0.27
100
AcDbLine
 10
92.70216942282118
 20
30.91860733110011
 30
0.0
 11
92.92016642282119
 21
30.4771593311001
 31
0.0
  0
LINE
  5
4DAE
330
1E
100
AcDbEntity
  8
0
 48
0.27
100
AcDbLine
 10
92.70216942282118
 20
28.08143133110011
 30
0.0
 11
92.40879442282118
 21
27.69449933110008
 31
0.0
  0
LINE
  5
4DAF
330
1E
100
AcDbEntity
  8
0
 48
0.27
100
AcDbLine
 10
92.92016642282119
 20
30.4771593311001
 30
0.0
 11
93.05440942282118
 21
29.99816133110011
 31
0.0
  0
LINE
  5
4DB0
330
1E
100
AcDbEntity
  8
0
 48
0.27
100
AcDbLine
 10
92.92016642282119
 20
28.52287833110009
 30
0.0
 11
92.70216942282118
 21
28.08143133110011
 31
0.0
  0
LINE
  5
4DB1
330
1E
100
AcDbEntity
  8
0
 48
0.27
100
AcDbLine
 10
91.1188174228212
 20
30.98973333110007
 30
0.0
 11
91.36965242282121
 21
30.76691633110011
 31
0.0
  0
LINE
  5
4DB2
330
1E
100
AcDbEntity
  8
0
 48
0.27
100
AcDbLine
 10
90.8326404228212
 20
27.84473733110014
 30
0.0
 11
91.1188174228212
 21
28.01030533110015
 31
0.0
  0
LINE
  5
4DB3
330
1E
100
AcDbEntity
  8
0
 48
0.27
100
AcDbLine
 10
93.05440942282118
 20
29.99816133110011
 30
0.0
 11
93.09973742282117
 21
29.50001933110011
 31
0.0
  0
LINE
  5
4DB4
330
1E
100
AcDbEntity
  8
0
 48
0.27
100
AcDbLine
 10
93.05440942282118
 20
29.00187733110011
 30
0.0
 11
92.92016642282119
 21
28.52287833110009
 31
0.0
  0
LINE
  5
4DB5
330
1E
100
AcDbEntity
  8
0
 48
0.27
100
AcDbLine
 10
93.09973742282117
 20
29.50001933110011
 30
0.0
 11
93.05440942282118
 21
29.00187733110011
 31
0.0
  0
LINE
  5
4DB6
330
1E
100
AcDbEntity
  8
0
 48
0.27
100
AcDbLine
 10
91.36965242282121
 20
30.76691633110011
 30
0.0
 11
91.57550842282118
 21
30.49541433110008
 31
0.0
  0
LINE
  5
4DB7
330
1E
100
AcDbEntity
  8
0
 48
0.27
100
AcDbLine
 10
91.1188174228212
 20
28.01030533110015
 30
0.0
 11
91.36965242282121
 21
28.23312133110017
 31
0.0
  0
LINE
  5
4DB8
330
1E
100
AcDbEntity
  8
0
 48
0.27
100
AcDbLine
 10
91.57550842282118
 20
30.49541433110008
 30
0.0
 11
91.7284724228212
 21
30.18565933110012
 31
0.0
  0
LINE
  5
4DB9
330
1E
100
AcDbEntity
  8
0
 48
0.27
100
AcDbLine
 10
91.57550842282118
 20
28.50462433110014
 30
0.0
 11
91.36965242282121
 21
28.23312133110017
 31
0.0
  0
LINE
  5
4DBA
330
1E
100
AcDbEntity
  8
0
 48
0.27
100
AcDbLine
 10
91.7284724228212
 20
30.18565933110012
 30
0.0
 11
91.8226674228212
 21
29.84955533110011
 31
0.0
  0
LINE
  5
4DBB
330
1E
100
AcDbEntity
  8
0
 48
0.27
100
AcDbLine
 10
91.7284724228212
 20
28.8143793311001
 30
0.0
 11
91.57550842282118
 21
28.50462433110014
 31
0.0
  0
LINE
  5
4DBC
330
1E
100
AcDbEntity
  8
0
 48
0.27
100
AcDbLine
 10
91.8226674228212
 20
29.84955533110011
 30
0.0
 11
91.8544734228212
 21
29.50001933110011
 31
0.0
  0
LINE
  5
4DBD
330
1E
100
AcDbEntity
  8
0
 48
0.27
100
AcDbLine
 10
91.8226674228212
 20
29.15048333110011
 30
0.0
 11
91.7284724228212
 21
28.8143793311001
 31
0.0
  0
LINE
  5
4DBE
330
1E
100
AcDbEntity
  8
0
 48
0.27
100
AcDbLine
 10
91.8544734228212
 20
29.50001933110011
 30
0.0
 11
91.8226674228212
 21
29.15048333110011
 31
0.0
  0
POINT
  5
4DBF
330
1E
100
AcDbEntity
  8
0
100
AcDbPoint
 10
88.38168542282124
 20
29.50001933110011
 30
0.0
1001
pntflag
1000
endpoint
  0
MTEXT
  5
4EC6
330
1E
100
AcDbEntity
  8
0
100
AcDbMText
 10
-31.17041685378069
 20
-15.91196059430393
 30
0.0
 40
7.800000159341863
 41
100.6095
 71
     1
 72
     5
  1
\A1;{\fTimes New Roman|b0|i0|c0|p18;HG\fTimes New Roman|b0|i0|c238|p18;L\fTimes New Roman|b0|i0|c0|p18;30CA\PC : 3950 kgf\PC\fProxy 1|b0|i0|c0|p2;\H0.7x;\S^ 0;\fTimes New Roman|b0|i0|c0|p18;\H1.429x;: 8470 kgf}
 73
     1
 44
1.0
1001
ACAD
1000
MTEXTBEGIN
1070
    73
1070
     1
1070
    44
1040
1.0
1070
    74
1070
     0
1000
MTEXTEND
  0
LINE
  5
4F67
330
1E
100
AcDbEntity
  8
0
100
AcDbLine
 10
184.0816854228212
 20
151.2629070147912
 30
0.0
 11
184.0816854228212
 21
91.26290701479122
 31
0.0
  0
LINE
  5
4F68
330
1E
100
AcDbEntity
  8
AM7
100
AcDbLine
 10
149.0816854228213
 20
90.14840510781432
 30
0.0
 11
149.0816854228213
 21
152.3484051078142
 31
0.0
  0
LINE
  5
4F69
330
1E
100
AcDbEntity
  8
0
100
AcDbLine
 10
114.0816854228213
 20
151.2629070147912
 30
0.0
 11
114.0816854228212
 21
91.26290701479112
 31
0.0
  0
LINE
  5
4F75
330
1E
100
AcDbEntity
  8
AM7
100
AcDbLine
 10
198.4077771490147
 20
121.2629070147911
 30
0.0
 11
100.2224699496503
 21
121.2629070147911
 31
0.0
  0
LINE
  5
4F76
330
1E
100
AcDbEntity
  8
0
100
AcDbLine
 10
114.0816854228212
 20
107.8140619824107
 30
0.0
 11
184.0816854228212
 21
107.8140619824107
 31
0.0
  0
LINE
  5
4F77
330
1E
100
AcDbEntity
  8
0
100
AcDbLine
 10
114.0816854228212
 20
107.3140619824107
 30
0.0
 11
184.0816854228212
 21
107.3140619824107
 31
0.0
  0
LINE
  5
4F78
330
1E
100
AcDbEntity
  8
0
100
AcDbLine
 10
114.0816854228212
 20
116.3140619824106
 30
0.0
 11
184.0816854228212
 21
116.3140619824106
 31
0.0
  0
LINE
  5
4F79
330
1E
100
AcDbEntity
  8
0
100
AcDbLine
 10
114.0816854228212
 20
115.8140619824106
 30
0.0
 11
184.0816854228212
 21
115.8140619824106
 31
0.0
  0
LINE
  5
4F7A
330
1E
100
AcDbEntity
  8
0
100
AcDbLine
 10
114.0816854228212
 20
126.8140619824106
 30
0.0
 11
184.0816854228212
 21
126.8140619824106
 31
0.0
  0
LINE
  5
4F7B
330
1E
100
AcDbEntity
  8
0
100
AcDbLine
 10
114.0816854228212
 20
126.3140619824106
 30
0.0
 11
184.0816854228212
 21
126.3140619824106
 31
0.0
  0
LINE
  5
4F7C
330
1E
100
AcDbEntity
  8
0
100
AcDbLine
 10
114.0816854228212
 20
134.8140619824105
 30
0.0
 11
184.0816854228212
 21
134.8140619824105
 31
0.0
  0
LINE
  5
4F7D
330
1E
100
AcDbEntity
  8
0
100
AcDbLine
 10
114.0816854228212
 20
135.3140619824106
 30
0.0
 11
184.0816854228212
 21
135.3140619824106
 31
0.0
  0
LINE
  5
4F7E
330
1E
100
AcDbEntity
  8
0
100
AcDbLine
 10
114.0816854228213
 20
149.8140619824106
 30
0.0
 11
184.0816854228212
 21
149.8140619824106
 31
0.0
  0
LINE
  5
4F7F
330
1E
100
AcDbEntity
  8
0
100
AcDbLine
 10
114.0816854228213
 20
151.2629070147912
 30
0.0
 11
184.0816854228212
 21
151.2629070147912
 31
0.0
  0
LINE
  5
4F80
330
1E
100
AcDbEntity
  8
AM7
100
AcDbLine
 10
133.346506524005
 20
141.2629070147899
 30
0.0
 11
124.5117332574298
 21
141.2629070147899
 31
0.0
  0
ARC
  5
4F81
330
1E
100
AcDbEntity
  8
AM5
100
AcDbCircle
 10
129.0816854228213
 20
141.2629070147899
 30
0.0
 40
4.0
100
AcDbArc
 50
193.7845635793824
 51
102.5781507675689
  0
CIRCLE
  5
4F82
330
1E
100
AcDbEntity
  8
0
100
AcDbCircle
 10
129.0816854228213
 20
141.2629070147899
 30
0.0
 40
3.399999999999977
  0
LINE
  5
4F92
330
1E
100
AcDbEntity
  8
AM7
100
AcDbLine
 10
129.0816854228213
 20
137.0944109678488
 30
0.0
 11
129.0816854228213
 21
145.4785219765843
 31
0.0
  0
CIRCLE
  5
4F93
330
1E
100
AcDbEntity
  8
0
100
AcDbCircle
 10
129.0816854228213
 20
101.26290701479
 30
0.0
 40
3.399999999999977
  0
LINE
  5
4F94
330
1E
100
AcDbEntity
  8
AM7
100
AcDbLine
 10
133.346506524005
 20
101.26290701479
 30
0.0
 11
124.5117332574298
 21
101.26290701479
 31
0.0
  0
ARC
  5
4F95
330
1E
100
AcDbEntity
  8
AM5
100
AcDbCircle
 10
129.0816854228213
 20
101.26290701479
 30
0.0
 40
4.0
100
AcDbArc
 50
257.5437551003004
 51
166.3373422884878
  0
LINE
  5
4F9B
330
1E
100
AcDbEntity
  8
AM7
100
AcDbLine
 10
129.0816854228213
 20
97.0944109678488
 30
0.0
 11
129.0816854228213
 21
105.4785219765843
 31
0.0
  0
LINE
  5
4FA6
330
1E
100
AcDbEntity
  8
AM7
100
AcDbLine
 10
169.0816854228212
 20
137.094410967846
 30
0.0
 11
169.0816854228212
 21
145.4785219765816
 31
0.0
  0
LINE
  5
4FA7
330
1E
100
AcDbEntity
  8
AM7
100
AcDbLine
 10
173.346506524005
 20
141.2629070147872
 30
0.0
 11
164.5117332574297
 21
141.2629070147872
 31
0.0
  0
ARC
  5
4FA8
330
1E
100
AcDbEntity
  8
AM5
100
AcDbCircle
 10
169.0816854228212
 20
141.2629070147872
 30
0.0
 40
4.0
100
AcDbArc
 50
77.42184923243025
 51
346.2154364206175
  0
CIRCLE
  5
4FA9
330
1E
100
AcDbEntity
  8
0
100
AcDbCircle
 10
169.0816854228212
 20
141.2629070147872
 30
0.0
 40
3.399999999999977
  0
LINE
  5
4FAF
330
1E
100
AcDbEntity
  8
AM7
100
AcDbLine
 10
169.0816854228212
 20
97.09441096784605
 30
0.0
 11
169.0816854228212
 21
105.4785219765816
 31
0.0
  0
ARC
  5
4FB0
330
1E
100
AcDbEntity
  8
AM5
100
AcDbCircle
 10
169.0816854228212
 20
101.2629070147872
 30
0.0
 40
4.0
100
AcDbArc
 50
13.66265771151219
 51
282.4562448996996
  0
CIRCLE
  5
4FB1
330
1E
100
AcDbEntity
  8
0
100
AcDbCircle
 10
169.0816854228212
 20
101.2629070147872
 30
0.0
 40
3.399999999999977
  0
LINE
  5
4FB2
330
1E
100
AcDbEntity
  8
AM7
100
AcDbLine
 10
173.346506524005
 20
101.2629070147872
 30
0.0
 11
164.5117332574298
 21
101.2629070147872
 31
0.0
  0
LINE
  5
4FBA
330
1E
100
AcDbEntity
  8
0
100
AcDbLine
 10
114.0816854228212
 20
92.8140619824107
 30
0.0
 11
184.0816854228212
 21
92.8140619824107
 31
0.0
  0
LINE
  5
4FBB
330
1E
100
AcDbEntity
  8
0
100
AcDbLine
 10
114.0816854228212
 20
91.26290701479122
 30
0.0
 11
184.0816854228212
 21
91.26290701479122
 31
0.0
  0
LINE
  5
4FD9
330
1E
100
AcDbEntity
  8
中心線
100
AcDbLine
 10
87.39393514667369
 20
29.49999830642969
 30
0.0
 11
105.8494726008309
 21
29.49999830642972
 31
0.0
  0
LINE
  5
4FDA
330
1E
100
AcDbEntity
  8
0
 48
0.27
100
AcDbLine
 10
103.5816854228212
 20
150.348239447973
 30
0.0
 11
103.5816854228212
 21
92.3482394466421
 31
0.0
  0
LINE
  5
4FDB
330
1E
100
AcDbEntity
  8
0
100
AcDbLine
 10
101.8816854228213
 20
150.3482509647233
 30
0.0
 11
101.8816854228211
 21
92.34825096339243
 31
0.0
  0
LINE
  5
4FE6
330
1E
100
AcDbEntity
  8
0
 48
0.27
100
AcDbLine
 10
52.30336340172584
 20
135.2629070147912
 30
0.0
 11
52.30336340172579
 21
107.2629070147912
 31
0.0
  0
LINE
  5
4FEF
330
1E
100
AcDbEntity
  8
0
 48
0.27
100
AcDbLine
 10
114.0816854228212
 20
92.34816831377244
 30
0.0
 11
101.881685422821
 21
92.34825096339243
 31
0.0
  0
LINE
  5
4FF0
330
1E
100
AcDbEntity
  8
0
 48
0.27
100
AcDbLine
 10
101.8816854228213
 20
150.3482509647234
 30
0.0
 11
114.0816854228213
 21
150.3481683151034
 31
0.0
  0
LINE
  5
501A
330
1E
100
AcDbEntity
  8
0
  6
Continuous
100
AcDbLine
 10
96.32566327742592
 20
115.188207864126
 30
0.0
 11
96.89778317079174
 21
116.5694274699933
 31
0.0
  0
ARC
  5
501B
330
1E
100
AcDbEntity
  8
0
  6
Continuous
100
AcDbCircle
 10
95.37218087542745
 20
115.5156962306401
 30
0.0
 40
1.854133729915247
100
AcDbArc
 50
34.63277999893714
 51
100.3672200010619
  0
LINE
  5
501C
330
1E
100
AcDbEntity
  8
0
  6
Continuous
100
AcDbLine
 10
95.6542359009768
 20
117.3482509640579
 30
0.0
 11
98.19181351083617
 21
117.3482509640579
 31
0.0
  0
LINE
  5
501D
330
1E
100
AcDbEntity
  8
0
  6
Continuous
100
AcDbLine
 10
94.52063260033606
 20
125.3482509640579
 30
0.0
 11
98.19181351083617
 21
125.3482509640579
 31
0.0
  0
ARC
  5
501E
330
1E
100
AcDbEntity
  8
0
  6
Continuous
100
AcDbCircle
 10
96.03856152831667
 20
113.1000915339681
 30
0.0
 40
2.059673609817604
100
AcDbArc
 50
89.15209883494084
 51
159.1520988349398
  0
LINE
  5
501F
330
1E
100
AcDbEntity
  8
0
  6
Continuous
100
AcDbLine
 10
89.67911614791237
 20
115.6699859205955
 30
0.0
 11
93.92896199746429
 21
113.9096421317161
 31
0.0
  0
ARC
  5
5020
330
1E
100
AcDbEntity
  8
0
  6
Continuous
100
AcDbCircle
 10
91.36995567772613
 20
113.0248631460203
 30
0.0
 40
2.860349020536762
100
AcDbArc
 50
331.4135141737375
 51
16.41351417373787
  0
ARC
  5
5021
330
1E
100
AcDbEntity
  8
0
  6
Continuous
100
AcDbCircle
 10
94.52063260033606
 20
121.3482509640579
 30
0.0
 40
4.0
100
AcDbArc
 50
90.0
 51
210.8352048940856
  0
LINE
  5
5022
330
1E
100
AcDbEntity
  8
0
  6
Continuous
100
AcDbLine
 10
90.74778301295626
 20
117.4987017996038
 30
0.0
 11
91.3198602814719
 21
118.8798184999796
 31
0.0
  0
ARC
  5
5023
330
1E
100
AcDbEntity
  8
0
  6
Continuous
100
AcDbCircle
 10
89.79425803686982
 20
117.8261475202414
 30
0.0
 40
1.854133729915247
100
AcDbArc
 50
34.63277999893714
 51
100.3672200010619
  0
LINE
  5
5024
330
1E
100
AcDbEntity
  8
0
  6
Continuous
100
AcDbLine
 10
90.50380429669766
 20
119.5391437238489
 30
0.0
 11
96.08172713525533
 21
117.2286924342476
 31
0.0
  0
LINE
  5
5025
330
1E
100
AcDbEntity
  8
0
  6
Continuous
100
AcDbLine
 10
89.70453095548927
 20
117.6095271834603
 30
0.0
 11
95.28245379404692
 21
115.2990758938591
 31
0.0
  0
ARC
  5
5026
330
1E
100
AcDbEntity
  8
0
  6
Continuous
100
AcDbCircle
 10
95.161371734428
 20
122.8951320715259
 30
0.0
 40
6.971504732179473
100
AcDbArc
 50
230.7213499979131
 51
264.2786500020895
  0
ARC
  5
5027
330
1E
100
AcDbEntity
  8
0
  6
Continuous
100
AcDbCircle
 10
90.41407721531712
 20
119.3225233870678
 30
0.0
 40
1.854133729915247
100
AcDbArc
 50
214.6327799989371
 51
280.3672200010619
  0
ARC
  5
5028
330
1E
100
AcDbEntity
  8
0
  6
Continuous
100
AcDbCircle
 10
90.62488635631657
 20
111.9430875461821
 30
0.0
 40
6.971504732179473
100
AcDbArc
 50
50.7213499979131
 51
84.27865000208788
  0
ARC
  5
5029
330
1E
100
AcDbEntity
  8
0
  6
Continuous
100
AcDbCircle
 10
95.99200005387476
 20
117.0120720974666
 30
0.0
 40
1.854133729915247
100
AcDbArc
 50
214.6327799989371
 51
280.3672200010619
  0
LINE
  5
502A
330
1E
100
AcDbEntity
  8
0
  6
Continuous
100
AcDbLine
 10
94.46639780927268
 20
115.9584011177283
 30
0.0
 11
95.03847507778832
 21
117.3395178181041
 31
0.0
  0
ARC
  5
502C
330
1E
100
AcDbEntity
  8
0
  6
Continuous
100
AcDbCircle
 10
106.0866254024548
 20
121.3482509640579
 30
0.0
 40
7.96743397963368
100
AcDbArc
 50
163.2213499979121
 51
196.7786500020878
  0
LINE
  5
502D
330
1E
100
AcDbEntity
  8
0
  6
Continuous
100
AcDbLine
 10
98.11919142282116
 20
117.898250864465
 30
0.0
 11
98.11919142282116
 21
124.7982510636508
 31
0.0
  0
ARC
  5
502E
330
1E
100
AcDbEntity
  8
0
  6
Continuous
100
AcDbCircle
 10
100.2382013998671
 20
117.898250864465
 30
0.0
 40
2.119009977045996
100
AcDbArc
 50
147.1327799989379
 51
212.8672200010621
  0
LINE
  5
502F
330
1E
100
AcDbEntity
  8
0
  6
Continuous
100
AcDbLine
 10
98.45844396493056
 20
116.7482509640579
 30
0.0
 11
101.8816854228212
 21
116.7482509640579
 31
0.0
  0
LINE
  5
5030
330
1E
100
AcDbEntity
  8
0
  6
Continuous
100
AcDbLine
 10
98.45844396493056
 20
119.0482511632437
 30
0.0
 11
101.8816854228212
 21
119.0482511632437
 31
0.0
  0
LINE
  5
5031
330
1E
100
AcDbEntity
  8
0
  6
Continuous
100
AcDbLine
 10
98.45844396493056
 20
125.9482509640579
 30
0.0
 11
101.8816854228212
 21
125.9482509640579
 31
0.0
  0
LINE
  5
5032
330
1E
100
AcDbEntity
  8
0
  6
Continuous
100
AcDbLine
 10
98.45844396493056
 20
123.648250764872
 30
0.0
 11
101.8816854228212
 21
123.648250764872
 31
0.0
  0
ARC
  5
5033
330
1E
100
AcDbEntity
  8
0
  6
Continuous
100
AcDbCircle
 10
100.2382013998671
 20
124.7982510636508
 30
0.0
 40
2.119009977045996
100
AcDbArc
 50
147.1327799989379
 51
212.8672200010621
  0
ARC
  5
5036
330
1E
100
AcDbEntity
  8
0
  6
Continuous
100
AcDbCircle
 10
90.86297364906156
 20
113.2348619781726
 30
0.0
 40
2.860349020536762
100
AcDbArc
 50
118.5864858262623
 51
163.5864858262621
  0
LINE
  5
5037
330
1E
100
AcDbEntity
  8
0
  6
Continuous
100
AcDbLine
 10
88.11919142282116
 20
111.0111083150094
 30
0.0
 11
91.73767140108878
 21
109.5122848328355
 31
0.0
  0
LINE
  5
5038
330
1E
100
AcDbEntity
  8
0
  6
Continuous
100
AcDbLine
 10
88.11919142282116
 20
114.0431042773953
 30
0.0
 11
93.8816163066221
 21
111.6562297383688
 31
0.0
  0
LINE
  5
5039
330
1E
100
AcDbEntity
  8
0
  6
Continuous
100
AcDbLine
 10
88.11919142282116
 20
111.0111083150094
 30
0.0
 11
88.11919142282116
 21
114.0431042773953
 31
0.0
  0
LINE
  5
503A
330
1E
100
AcDbEntity
  8
0
  6
Continuous
100
AcDbLine
 10
91.73767140108878
 20
109.5122848328355
 30
0.0
 11
93.8816163066221
 21
111.6562297383688
 31
0.0
  0
ARC
  5
503B
330
1E
100
AcDbEntity
  8
0
  6
Continuous
100
AcDbCircle
 10
87.61496529667747
 20
116.589259337068
 30
0.0
 40
2.059673609817605
100
AcDbArc
 50
335.8479011650597
 51
45.84790116506002
  0
LINE
  5
503C
330
1E
100
AcDbEntity
  8
0
  6
Continuous
100
AcDbLine
 10
88.88847529275654
 20
118.2688522739355
 30
0.0
 11
89.46055256127218
 21
119.6499689743113
 31
0.0
  0
LINE
  5
5053
330
1E
100
AcDbEntity
  8
中心線
100
AcDbLine
 10
100.0978356264499
 20
97.54840510836046
 30
0.0
 11
105.8494726008309
 21
97.54840510836046
 31
0.0
  0
LINE
  5
5054
330
1E
100
AcDbEntity
  8
0
100
AcDbLine
 10
100.9973575634628
 20
98.54840510836046
 30
0.0
 11
100.9973575634628
 21
96.54840510836045
 31
0.0
  0
LINE
  5
5055
330
1E
100
AcDbEntity
  8
0
100
AcDbLine
 10
100.9973575634626
 20
98.54840510836028
 30
0.0
 11
100.9973575634626
 21
96.54840510836029
 31
0.0
  0
ARC
  5
5056
330
1E
100
AcDbEntity
  8
0
100
AcDbCircle
 10
102.2172092423153
 20
96.56815674637751
 30
0.0
 40
1.220011576012179
100
AcDbArc
 50
180.9276427879976
 51
254.0369778311712
  0
ARC
  5
5057
330
1E
100
AcDbEntity
  8
0
100
AcDbCircle
 10
102.2172092423151
 20
96.56815674637741
 30
0.0
 40
1.220011576012179
100
AcDbArc
 50
180.9276427879976
 51
254.0369778311712
  0
ARC
  5
5058
330
1E
100
AcDbEntity
  8
0
100
AcDbCircle
 10
102.2172092423153
 20
98.52865347034329
 30
0.0
 40
1.220011576012179
100
AcDbArc
 50
105.9630221688287
 51
179.0723572120024
  0
LINE
  5
5059
330
1E
100
AcDbEntity
  8
中心線
100
AcDbLine
 10
100.0978356264499
 20
145.148405107268
 30
0.0
 11
105.8494726008309
 21
145.148405107268
 31
0.0
  0
LINE
  5
505A
330
1E
100
AcDbEntity
  8
0
100
AcDbLine
 10
100.9973575634628
 20
146.148405107268
 30
0.0
 11
100.9973575634628
 21
144.148405107268
 31
0.0
  0
LINE
  5
505B
330
1E
100
AcDbEntity
  8
0
100
AcDbLine
 10
100.9973575634626
 20
146.1484051072678
 30
0.0
 11
100.9973575634626
 21
144.1484051072678
 31
0.0
  0
ARC
  5
505C
330
1E
100
AcDbEntity
  8
0
100
AcDbCircle
 10
102.2172092423153
 20
144.1681567452851
 30
0.0
 40
1.220011576012179
100
AcDbArc
 50
180.9276427879976
 51
254.0369778311712
  0
ARC
  5
505D
330
1E
100
AcDbEntity
  8
0
100
AcDbCircle
 10
102.2172092423151
 20
144.168156745285
 30
0.0
 40
1.220011576012179
100
AcDbArc
 50
180.9276427879976
 51
254.0369778311712
  0
ARC
  5
505E
330
1E
100
AcDbEntity
  8
0
100
AcDbCircle
 10
102.2172092423153
 20
146.1286534692509
 30
0.0
 40
1.220011576012179
100
AcDbArc
 50
105.9630221688287
 51
179.0723572120024
  0
LINE
  5
505F
330
1E
100
AcDbEntity
  8
0
 48
0.27
100
AcDbLine
 10
184.0816854228212
 20
92.34816831377244
 30
0.0
 11
196.2816854228214
 21
92.34825096339243
 31
0.0
  0
LINE
  5
5060
330
1E
100
AcDbEntity
  8
0
 48
0.27
100
AcDbLine
 10
194.5816854228212
 20
150.348239447973
 30
0.0
 11
194.5816854228212
 21
92.3482394466421
 31
0.0
  0
LINE
  5
5061
330
1E
100
AcDbEntity
  8
0
100
AcDbLine
 10
196.2816854228212
 20
150.3482509647233
 30
0.0
 11
196.2816854228214
 21
92.34825096339243
 31
0.0
  0
LINE
  5
5062
330
1E
100
AcDbEntity
  8
中心線
100
AcDbLine
 10
198.0655352191926
 20
97.54840510836046
 30
0.0
 11
192.3138982448116
 21
97.54840510836046
 31
0.0
  0
LINE
  5
5063
330
1E
100
AcDbEntity
  8
0
100
AcDbLine
 10
197.1660132821799
 20
98.54840510836028
 30
0.0
 11
197.1660132821799
 21
96.54840510836029
 31
0.0
  0
LINE
  5
5064
330
1E
100
AcDbEntity
  8
0
100
AcDbLine
 10
197.1660132821797
 20
98.54840510836046
 30
0.0
 11
197.1660132821797
 21
96.54840510836045
 31
0.0
  0
ARC
  5
5065
330
1E
100
AcDbEntity
  8
0
100
AcDbCircle
 10
195.9461616033274
 20
96.56815674637741
 30
0.0
 40
1.220011576012179
100
AcDbArc
 50
285.9630221688287
 51
359.0723572120024
  0
ARC
  5
5066
330
1E
100
AcDbEntity
  8
0
100
AcDbCircle
 10
195.9461616033272
 20
96.56815674637751
 30
0.0
 40
1.220011576012179
100
AcDbArc
 50
285.9630221688287
 51
359.0723572120024
  0
ARC
  5
5067
330
1E
100
AcDbEntity
  8
0
100
AcDbCircle
 10
195.9461616033272
 20
98.52865347034329
 30
0.0
 40
1.220011576012179
100
AcDbArc
 50
0.927642787997602
 51
74.03697783117128
  0
LINE
  5
5068
330
1E
100
AcDbEntity
  8
0
 48
0.27
100
AcDbLine
 10
196.2816854228212
 20
150.3482509647234
 30
0.0
 11
184.0816854228212
 21
150.3481683151034
 31
0.0
  0
LINE
  5
5069
330
1E
100
AcDbEntity
  8
0
100
AcDbLine
 10
197.1660132821799
 20
146.1484051072678
 30
0.0
 11
197.1660132821799
 21
144.1484051072678
 31
0.0
  0
LINE
  5
506A
330
1E
100
AcDbEntity
  8
0
100
AcDbLine
 10
197.1660132821797
 20
146.148405107268
 30
0.0
 11
197.1660132821797
 21
144.148405107268
 31
0.0
  0
LINE
  5
506B
330
1E
100
AcDbEntity
  8
中心線
100
AcDbLine
 10
198.0655352191926
 20
145.148405107268
 30
0.0
 11
192.3138982448116
 21
145.148405107268
 31
0.0
  0
ARC
  5
506C
330
1E
100
AcDbEntity
  8
0
100
AcDbCircle
 10
195.9461616033274
 20
144.168156745285
 30
0.0
 40
1.220011576012179
100
AcDbArc
 50
285.9630221688287
 51
359.0723572120024
  0
ARC
  5
506D
330
1E
100
AcDbEntity
  8
0
100
AcDbCircle
 10
195.9461616033272
 20
144.1681567452851
 30
0.0
 40
1.220011576012179
100
AcDbArc
 50
285.9630221688287
 51
359.0723572120024
  0
ARC
  5
506E
330
1E
100
AcDbEntity
  8
0
100
AcDbCircle
 10
195.9461616033272
 20
146.1286534692509
 30
0.0
 40
1.220011576012179
100
AcDbArc
 50
0.927642787997602
 51
74.03697783117128
  0
LINE
  5
506F
330
1E
100
AcDbEntity
  8
0
100
AcDbLine
 10
52.30336340172579
 20
107.2629070147912
 30
0.0
 11
100.4486288040605
 21
107.2629070147911
 31
0.0
  0
LINE
  5
5070
330
1E
100
AcDbEntity
  8
0
100
AcDbLine
 10
52.30336340172584
 20
135.2629070147912
 30
0.0
 11
100.4486288040605
 21
135.262907014791
 31
0.0
  0
LINE
  5
5071
330
1E
100
AcDbEntity
  8
0
 48
0.27
100
AcDbLine
 10
252.3033634017256
 20
135.2629070147911
 30
0.0
 11
252.3033634017256
 21
107.2629070147911
 31
0.0
  0
LINE
  5
5073
330
1E
100
AcDbEntity
  8
0
100
AcDbLine
 10
252.3033634017256
 20
107.2629070147911
 30
0.0
 11
197.7147420415821
 21
107.2629070147909
 31
0.0
  0
LINE
  5
5074
330
1E
100
AcDbEntity
  8
0
100
AcDbLine
 10
252.3033634017256
 20
135.2629070147911
 30
0.0
 11
197.714742041582
 21
135.2629070147909
 31
0.0
  0
LINE
  5
5075
330
1E
100
AcDbEntity
  8
中心線
 48
0.27
100
AcDbLine
 10
72.30336340172627
 20
109.4164507195559
 30
0.0
 11
72.30336340172627
 21
133.2780397290495
 31
0.0
  0
LINE
  5
5077
330
1E
100
AcDbEntity
  8
中心線
 48
0.27
100
AcDbLine
 10
82.95502671717216
 20
121.2629070147911
 30
0.0
 11
61.55085779280424
 21
121.2629070147911
 31
0.0
  0
CIRCLE
  5
507A
330
1E
100
AcDbEntity
  8
0
100
AcDbCircle
 10
72.30336340172627
 20
121.2629070147911
 30
0.0
 40
4.500000000000369
  0
CIRCLE
  5
507B
330
1E
100
AcDbEntity
  8
0
100
AcDbCircle
 10
72.30336340172627
 20
121.2629070147911
 30
0.0
 40
7.000000000000383
  0
LINE
  5
5087
330
1E
100
AcDbEntity
  8
中心線
 48
0.27
100
AcDbLine
 10
232.3033634017258
 20
109.4164507195559
 30
0.0
 11
232.3033634017258
 21
133.2780397290495
 31
0.0
  0
CIRCLE
  5
5088
330
1E
100
AcDbEntity
  8
0
100
AcDbCircle
 10
232.3033634017258
 20
121.2629070147911
 30
0.0
 40
7.000000000000383
  0
LINE
  5
5089
330
1E
100
AcDbEntity
  8
中心線
 48
0.27
100
AcDbLine
 10
242.9550267171717
 20
121.2629070147911
 30
0.0
 11
221.5508577928038
 21
121.2629070147911
 31
0.0
  0
CIRCLE
  5
508A
330
1E
100
AcDbEntity
  8
0
100
AcDbCircle
 10
232.3033634017258
 20
121.2629070147911
 30
0.0
 40
4.500000000000369
  0
LINE
  5
533F
330
1E
100
AcDbEntity
  8
0
 48
0.27
100
AcDbLine
 10
-8.815577130540045
 20
35.49984418515459
 30
0.0
 11
-16.81557713035647
 21
35.49989838162668
 31
0.0
  0
LINE
  5
5340
330
1E
100
AcDbEntity
  8
0
 48
0.27
100
AcDbLine
 10
-13.12079033598218
 20
19.29857659396543
 30
0.0
 11
-14.52167274120171
 21
19.84649134412245
 31
0.0
  0
LINE
  5
5341
330
1E
100
AcDbEntity
  8
0
 48
0.27
100
AcDbLine
 10
-13.45336610519038
 20
22.13950692514885
 30
0.0
 11
-15.2880344768393
 21
20.30483855349996
 31
0.0
  0
LINE
  5
5342
330
1E
100
AcDbEntity
  8
0
 48
0.27
100
AcDbLine
 10
-13.09465716017533
 20
21.27350692514887
 30
0.0
 11
-14.52167274120142
 21
19.84649134412274
 31
0.0
  0
LINE
  5
5343
330
1E
100
AcDbEntity
  8
0
 48
0.27
100
AcDbLine
 10
-13.45334754469846
 20
22.13957560362854
 30
0.0
 11
-15.28802834537441
 21
20.30491966109088
 31
0.0
  0
LINE
  5
5344
330
1E
100
AcDbEntity
  8
0
 48
0.27
100
AcDbLine
 10
-13.09464446645973
 20
21.27357317355347
 30
0.0
 11
-14.52166971485434
 21
19.84656725996132
 31
0.0
  0
LINE
  5
5345
330
1E
100
AcDbEntity
  8
0
 48
0.27
100
AcDbLine
 10
-13.12030728711625
 20
19.30521869080866
 30
0.0
 11
-14.52166971485462
 21
19.84656725996109
 31
0.0
  0
ARC
  5
5346
330
1E
100
AcDbEntity
  8
0
 48
0.27
100
AcDbCircle
 10
-16.0426519895434
 20
19.51680692514884
 30
0.0
 40
2.93
100
AcDbArc
 50
274.1424881063005
 51
355.8575118936963
  0
ARC
  5
5347
330
1E
100
AcDbEntity
  8
0
 48
0.27
100
AcDbCircle
 10
-16.04265119662796
 20
19.51689314495871
 30
0.0
 40
2.93
100
AcDbArc
 50
274.1420999526608
 51
355.8571237400605
  0
LINE
  5
5348
330
1E
100
AcDbEntity
  8
0
 48
0.27
100
AcDbLine
 10
-12.51565198954341
 20
8.079806925148744
 30
0.0
 11
-13.88935198954343
 21
7.510801754516904
 31
0.0
  0
LINE
  5
5349
330
1E
100
AcDbEntity
  8
0
 48
0.27
100
AcDbLine
 10
-13.11962130264211
 20
8.683776238247219
 30
0.0
 11
-14.52329146403139
 21
8.144741229004949
 31
0.0
  0
LINE
  5
534A
330
1E
100
AcDbEntity
  8
0
 48
0.27
100
AcDbLine
 10
-13.1196938987994
 20
8.683842656061813
 30
0.0
 11
-14.52336771188095
 21
8.144817156078232
 31
0.0
  0
LINE
  5
534B
330
1E
100
AcDbEntity
  8
0
 48
0.27
100
AcDbLine
 10
-12.51572867734035
 20
8.079869251351482
 30
0.0
 11
-13.88943253206793
 21
7.510873386944354
 31
0.0
  0
LINE
  5
534C
330
1E
100
AcDbEntity
  8
0
 48
0.27
100
AcDbLine
 10
-12.51565198954344
 20
4.099806925148897
 30
0.0
 11
-13.88935198954343
 21
4.668812095780765
 31
0.0
  0
LINE
  5
534D
330
1E
100
AcDbEntity
  8
0
 48
0.27
100
AcDbLine
 10
-12.51575564008519
 20
4.099869251442868
 30
0.0
 11
-13.88945178529459
 21
4.668883728273414
 31
0.0
  0
LINE
  5
534E
330
1E
100
AcDbEntity
  8
0
 48
0.27
100
AcDbLine
 10
-12.51565198954344
 20
4.099806925148897
 30
0.0
 11
-16.61545891469183
 21
0.0000000000004547
 31
0.0
  0
ARC
  5
534F
330
1E
100
AcDbEntity
  8
0
 48
0.27
100
AcDbCircle
 10
-16.0426519895434
 20
8.481806925148845
 30
0.0
 40
2.93
100
AcDbArc
 50
3.952618783122219
 51
86.04738121491896
  0
ARC
  5
5350
330
1E
100
AcDbEntity
  8
0
 48
0.27
100
AcDbCircle
 10
-16.04272595388664
 20
8.481893145211927
 30
0.0
 40
2.93
100
AcDbArc
 50
3.952230629485491
 51
86.04699306128011
  0
LINE
  5
5351
330
1E
100
AcDbEntity
  8
0
 48
0.27
100
AcDbLine
 10
23.68440254565661
 20
34.99980692514885
 30
0.0
 11
-30.31559745434333
 21
34.99980692514885
 31
0.0
  0
LINE
  5
5352
330
1E
100
AcDbEntity
  8
0
 48
0.27
100
AcDbLine
 10
-30.31560084100323
 20
34.99998983825361
 30
0.0
 11
23.68439915775758
 21
34.99962401206705
 31
0.0
  0
LINE
  5
5353
330
1E
100
AcDbEntity
  8
0
 48
0.27
100
AcDbLine
 10
-16.37971768558859
 20
10.0011674506824
 30
0.0
 11
-16.29836272974097
 21
9.122998088022825
 31
0.0
  0
LINE
  5
5354
330
1E
100
AcDbEntity
  8
0
 48
0.27
100
AcDbLine
 10
-16.83713322896969
 20
9.233874049058243
 30
0.0
 11
-16.37971768558898
 21
10.00116745068232
 31
0.0
  0
LINE
  5
5355
330
1E
100
AcDbEntity
  8
0
 48
0.27
100
AcDbLine
 10
-16.83720209837162
 20
9.233965651364087
 30
0.0
 11
-16.37978135692697
 21
10.00125595418197
 31
0.0
  0
LINE
  5
5356
330
1E
100
AcDbEntity
  8
0
 48
0.27
100
AcDbLine
 10
-16.37978135692657
 20
10.00125595418206
 30
0.0
 11
-16.29843235029099
 21
9.123086040398703
 31
0.0
  0
ARC
  5
5357
330
1E
100
AcDbEntity
  8
0
 48
0.27
100
AcDbCircle
 10
-16.0426519895434
 20
8.481806925148845
 30
0.0
 40
1.5563
100
AcDbArc
 50
347.4916764945706
 51
102.5083235017145
  0
ARC
  5
5358
330
1E
100
AcDbEntity
  8
0
 48
0.27
100
AcDbCircle
 10
-16.04272595388664
 20
8.481893145211927
 30
0.0
 40
1.5563
100
AcDbArc
 50
347.4912883409318
 51
102.5079353480754
  0
LINE
  5
5359
330
1E
100
AcDbEntity
  8
0
 48
0.27
100
AcDbLine
 10
-32.81559745434328
 20
2.499806925148874
 30
0.0
 11
-32.81559745434328
 21
29.9998069251489
 31
0.0
  0
LINE
  5
535A
330
1E
100
AcDbEntity
  8
0
 48
0.27
100
AcDbLine
 10
-32.31559745434334
 20
32.99980692514885
 30
0.0
 11
-32.31559745434334
 21
1.999806925148845
 31
0.0
  0
LINE
  5
535B
330
1E
100
AcDbEntity
  8
0
 48
0.27
100
AcDbLine
 10
-32.31582440140474
 20
2.000003388128902
 30
0.0
 11
-32.31561439007538
 21
33.00000338741751
 31
0.0
  0
LINE
  5
535C
330
1E
100
AcDbEntity
  8
0
 48
0.27
100
AcDbLine
 10
-32.81582101411371
 20
2.500006775396869
 30
0.0
 11
-32.8156990720515
 21
20.50000677498389
 31
0.0
  0
LINE
  5
535D
330
1E
100
AcDbEntity
  8
0
 48
0.27
100
AcDbLine
 10
-19.45535198954334
 20
11.85209280946674
 30
0.0
 11
-16.83713322896969
 21
9.233874049058243
 31
0.0
  0
LINE
  5
535E
330
1E
100
AcDbEntity
  8
0
 48
0.27
100
AcDbLine
 10
-19.45540312160767
 20
11.85220214899004
 30
0.0
 11
-16.83720209837162
 21
9.233965651364087
 31
0.0
  0
LINE
  5
535F
330
1E
100
AcDbEntity
  8
0
 48
0.27
100
AcDbLine
 10
-30.31579052919494
 20
0.0000000000004547
 30
0.0
 11
-32.31559745434334
 21
1.999806925148845
 31
0.0
  0
LINE
  5
5360
330
1E
100
AcDbEntity
  8
0
 48
0.27
100
AcDbLine
 10
-32.81582101411371
 20
2.500006775396869
 30
0.0
 11
-30.31584811137463
 21
0.0000000000004547
 31
0.0
  0
LINE
  5
5361
330
1E
100
AcDbEntity
  8
0
 48
0.27
100
AcDbLine
 10
-13.88945178529459
 20
4.668883728273414
 30
0.0
 11
-18.5583987732528
 21
0.0000000000004547
 31
0.0
  0
LINE
  5
5362
330
1E
100
AcDbEntity
  8
0
 48
0.27
100
AcDbLine
 10
-13.88935198954343
 20
4.668812095780765
 30
0.0
 11
-18.55816408532376
 21
0.0000000000004547
 31
0.0
  0
LINE
  5
5363
330
1E
100
AcDbEntity
  8
0
 48
0.27
100
AcDbLine
 10
-14.75535198954341
 20
5.027521040795875
 30
0.0
 11
-19.78287303033886
 21
0.0000000000004547
 31
0.0
  0
LINE
  5
5364
330
1E
100
AcDbEntity
  8
0
 48
0.27
100
AcDbLine
 10
-14.75544935517979
 20
5.027598540048415
 30
0.0
 11
-19.78311601521523
 21
0.0000000000004547
 31
0.0
  0
LINE
  5
5365
330
1E
100
AcDbEntity
  8
0
 48
0.27
100
AcDbLine
 10
-14.52329146403139
 20
8.144741229004949
 30
0.0
 11
-15.29058486565998
 21
7.687325685618446
 31
0.0
  0
LINE
  5
5366
330
1E
100
AcDbEntity
  8
0
 48
0.27
100
AcDbLine
 10
-14.52329146403139
 20
8.144741229004949
 30
0.0
 11
-13.88935198954343
 21
7.510801754516904
 31
0.0
  0
LINE
  5
5367
330
1E
100
AcDbEntity
  8
0
 48
0.27
100
AcDbLine
 10
-15.29058486565998
 20
7.687325685618446
 30
0.0
 11
-14.75535198954344
 21
7.152092809501823
 31
0.0
  0
LINE
  5
5368
330
1E
100
AcDbEntity
  8
0
 48
0.27
100
AcDbLine
 10
-13.88935198954343
 20
7.510801754516904
 30
0.0
 11
-14.75535198954344
 21
7.152092809501823
 31
0.0
  0
LINE
  5
5369
330
1E
100
AcDbEntity
  8
0
 48
0.27
100
AcDbLine
 10
-14.75535198954344
 20
7.152092809501823
 30
0.0
 11
-14.75535198954341
 21
5.027521040795875
 31
0.0
  0
LINE
  5
536A
330
1E
100
AcDbEntity
  8
0
 48
0.27
100
AcDbLine
 10
-15.29066421228051
 20
7.68740681077665
 30
0.0
 11
-14.755434962143
 21
7.152170308705592
 31
0.0
  0
LINE
  5
536B
330
1E
100
AcDbEntity
  8
0
 48
0.27
100
AcDbLine
 10
-14.755434962143
 20
7.152170308705592
 30
0.0
 11
-14.75544935517979
 21
5.027598540048415
 31
0.0
  0
LINE
  5
536C
330
1E
100
AcDbEntity
  8
0
 48
0.27
100
AcDbLine
 10
-13.88943253206793
 20
7.510873386944354
 30
0.0
 11
-14.755434962143
 21
7.152170308705592
 31
0.0
  0
LINE
  5
536D
330
1E
100
AcDbEntity
  8
0
 48
0.27
100
AcDbLine
 10
-14.52336771188095
 20
8.144817156078232
 30
0.0
 11
-15.29066421228051
 21
7.68740681077665
 31
0.0
  0
LINE
  5
536E
330
1E
100
AcDbEntity
  8
0
 48
0.27
100
AcDbLine
 10
-14.52336771188095
 20
8.144817156078232
 30
0.0
 11
-13.88943253206793
 21
7.510873386944354
 31
0.0
  0
ARC
  5
536F
330
1E
100
AcDbEntity
  8
0
 48
0.27
100
AcDbCircle
 10
-16.48357983838761
 20
9.587427439662633
 30
0.0
 40
0.5
100
AcDbArc
 50
225.0000000018073
 51
291.7423990752127
  0
ARC
  5
5370
330
1E
100
AcDbEntity
  8
0
 48
0.27
100
AcDbCircle
 10
-16.48364631262933
 20
9.587516646792067
 30
0.0
 40
0.5
100
AcDbArc
 50
224.9996118481683
 51
291.742010921573
  0
ARC
  5
5371
330
1E
100
AcDbEntity
  8
0
 48
0.27
100
AcDbCircle
 10
-16.0426519895434
 20
8.481806925148845
 30
0.0
 40
0.6903000000000003
100
AcDbArc
 50
338.257600919975
 51
111.7423990752109
  0
ARC
  5
5372
330
1E
100
AcDbEntity
  8
0
 48
0.27
100
AcDbCircle
 10
-16.04272595388664
 20
8.481893145211927
 30
0.0
 40
0.6903000000000003
100
AcDbArc
 50
338.2572127663349
 51
111.7420109215711
  0
ARC
  5
5373
330
1E
100
AcDbEntity
  8
0
 48
0.27
100
AcDbCircle
 10
-14.93703147506667
 20
8.040879076211723
 30
0.0
 40
0.5
100
AcDbArc
 50
158.2576009199749
 51
224.9999999999971
  0
LINE
  5
5374
330
1E
100
AcDbEntity
  8
0
 48
0.27
100
AcDbLine
 10
-14.52329146403139
 20
8.144741229004949
 30
0.0
 11
-15.40146082669093
 21
8.226096184897386
 31
0.0
  0
LINE
  5
5375
330
1E
100
AcDbEntity
  8
0
 48
0.27
100
AcDbLine
 10
-14.52336771188095
 20
8.144817156078232
 30
0.0
 11
-15.40153652337639
 21
8.226178061178956
 31
0.0
  0
ARC
  5
5376
330
1E
100
AcDbEntity
  8
0
 48
0.27
100
AcDbCircle
 10
-14.93710842652703
 20
8.040957806193517
 30
0.0
 40
0.5
100
AcDbArc
 50
158.2572127663348
 51
224.9996118463582
  0
LINE
  5
5377
330
1E
100
AcDbEntity
  8
0
 48
0.27
100
AcDbLine
 10
-13.88935198954343
 20
4.668812095780765
 30
0.0
 11
-14.75535198954341
 21
5.027521040795875
 31
0.0
  0
LINE
  5
5378
330
1E
100
AcDbEntity
  8
0
 48
0.27
100
AcDbLine
 10
-13.88935198954343
 20
7.510801754516904
 30
0.0
 11
-13.88935198954343
 21
4.668812095780765
 31
0.0
  0
LINE
  5
5379
330
1E
100
AcDbEntity
  8
0
 48
0.27
100
AcDbLine
 10
-13.88943253206793
 20
7.510873386944354
 30
0.0
 11
-13.88945178529459
 21
4.668883728273414
 31
0.0
  0
LINE
  5
537A
330
1E
100
AcDbEntity
  8
0
 48
0.27
100
AcDbLine
 10
-13.88945178529459
 20
4.668883728273414
 30
0.0
 11
-14.75544935517979
 21
5.027598540048415
 31
0.0
  0
LINE
  5
537C
330
1E
100
AcDbEntity
  8
虛線
 48
0.27
100
AcDbLine
 10
-19.31564148860967
 20
25.99991531824225
 30
0.0
 11
-19.3155795013947
 21
35.14991531803224
 31
0.0
  0
LINE
  5
537E
330
1E
100
AcDbEntity
  8
虛線
 48
0.27
100
AcDbLine
 10
-19.91566689319221
 20
22.24991938306363
 30
0.0
 11
-19.91557950138094
 21
35.14991938276765
 31
0.0
  0
LINE
  5
537F
330
1E
100
AcDbEntity
  8
虛線
 48
0.27
100
AcDbLine
 10
-26.71559745434333
 20
35.14996544989055
 30
0.0
 11
-26.71559745434333
 21
22.2498069251489
 31
0.0
  0
LINE
  5
5380
330
1E
100
AcDbEntity
  8
虛線
 48
0.27
100
AcDbLine
 10
-27.31557950121113
 20
35.14996951450434
 30
0.0
 11
-27.3156414884261
 21
25.99996951471434
 31
0.0
  0
LINE
  5
5381
330
1E
100
AcDbEntity
  8
0
 48
0.27
100
AcDbLine
 10
-33.31559745434328
 20
27.49980692514891
 30
0.0
 11
-33.31559745434328
 21
34.49999661225059
 31
0.0
  0
LINE
  5
5382
330
1E
100
AcDbEntity
  8
中心線
 48
0.27
100
AcDbLine
 10
-3.315597454343297
 20
-7.999999999999545
 30
0.0
 11
-3.315597454343276
 21
41.00000000000045
 31
0.0
  0
LINE
  5
5383
330
1E
100
AcDbEntity
  8
中心線
 48
0.27
100
AcDbLine
 10
16.68440254565672
 20
18.95822185787507
 30
0.0
 11
16.68440254565673
 21
38.00000000000044
 31
0.0
  0
LINE
  5
5384
330
1E
100
AcDbEntity
  8
中心線
 48
0.27
100
AcDbLine
 10
-23.31559745434329
 20
18.95832764959287
 30
0.0
 11
-23.31559745434327
 21
38.00000000000046
 31
0.0
  0
LINE
  5
5385
330
1E
100
AcDbEntity
  8
0
 48
0.27
100
AcDbLine
 10
-32.31559745434334
 20
32.99980692514885
 30
0.0
 11
-30.31559745434333
 21
34.99980692514885
 31
0.0
  0
LINE
  5
5386
330
1E
100
AcDbEntity
  8
0
 48
0.27
100
AcDbLine
 10
-30.31560084100323
 20
34.99998983825361
 30
0.0
 11
-32.31561439007538
 21
33.00000338741751
 31
0.0
  0
LINE
  5
5387
330
1E
100
AcDbEntity
  8
0
 48
0.27
100
AcDbLine
 10
-33.31559745434328
 20
27.49980692514891
 30
0.0
 11
-32.81559745434328
 21
26.9998069251489
 31
0.0
  0
LINE
  5
5388
330
1E
100
AcDbEntity
  8
0
 48
0.27
100
AcDbLine
 10
-15.83099733298951
 20
16.5944615817028
 30
0.0
 11
-17.21565198954332
 21
15.20980692514894
 31
0.0
  0
LINE
  5
5389
330
1E
100
AcDbEntity
  8
0
 48
0.27
100
AcDbLine
 10
-16.37233640851738
 20
17.99582767680687
 30
0.0
 11
-18.58935198954336
 21
15.77881209578083
 31
0.0
  0
LINE
  5
538A
330
1E
100
AcDbEntity
  8
0
 48
0.27
100
AcDbLine
 10
-16.37234591955806
 20
17.99591613011813
 30
0.0
 11
-18.58937651983604
 21
15.77891556844591
 31
0.0
  0
LINE
  5
538B
330
1E
100
AcDbEntity
  8
0
 48
0.27
100
AcDbLine
 10
-19.45535198954334
 20
11.85209280946674
 30
0.0
 11
-19.45535198954334
 21
16.13752104079594
 31
0.0
  0
LINE
  5
538C
330
1E
100
AcDbEntity
  8
0
 48
0.27
100
AcDbLine
 10
-19.45540312160767
 20
11.85220214899004
 30
0.0
 11
-19.45537408972123
 21
16.13763038022091
 31
0.0
  0
LINE
  5
538D
330
1E
100
AcDbEntity
  8
0
 48
0.27
100
AcDbLine
 10
-18.58935198954336
 20
15.77881209578083
 30
0.0
 11
-19.45535198954334
 21
16.13752104079594
 31
0.0
  0
LINE
  5
538E
330
1E
100
AcDbEntity
  8
0
 48
0.27
100
AcDbLine
 10
-18.58937651983604
 20
15.77891556844591
 30
0.0
 11
-19.45537408972123
 21
16.13763038022091
 31
0.0
  0
LINE
  5
538F
330
1E
100
AcDbEntity
  8
0
 48
0.27
100
AcDbLine
 10
-17.21565198954334
 20
12.7798069251551
 30
0.0
 11
-18.58935198954333
 21
12.21080175449779
 31
0.0
  0
LINE
  5
5390
330
1E
100
AcDbEntity
  8
0
 48
0.27
100
AcDbLine
 10
-17.21565198954332
 20
15.20980692514894
 30
0.0
 11
-18.58935198954336
 21
15.77881209578083
 31
0.0
  0
LINE
  5
5391
330
1E
100
AcDbEntity
  8
0
 48
0.27
100
AcDbLine
 10
-17.21568037462663
 20
15.20990109161536
 30
0.0
 11
-18.58937651983604
 21
15.77891556844591
 31
0.0
  0
LINE
  5
5392
330
1E
100
AcDbEntity
  8
0
 48
0.27
100
AcDbLine
 10
-17.21569683680499
 20
12.77990109167717
 30
0.0
 11
-18.58940069153263
 21
12.21090522724475
 31
0.0
  0
LINE
  5
5393
330
1E
100
AcDbEntity
  8
0
 48
0.27
100
AcDbLine
 10
-18.58935198954333
 20
12.21080175449779
 30
0.0
 11
-16.37971768558884
 21
10.00116745068265
 31
0.0
  0
LINE
  5
5394
330
1E
100
AcDbEntity
  8
0
 48
0.27
100
AcDbLine
 10
-18.58940069153263
 20
12.21090522724475
 30
0.0
 11
-16.37978135692683
 21
10.00125595418231
 31
0.0
  0
LINE
  5
5395
330
1E
100
AcDbEntity
  8
0
 48
0.27
100
AcDbLine
 10
-18.58935198954333
 20
12.21080175449779
 30
0.0
 11
-18.58935198954336
 21
15.77881209578083
 31
0.0
  0
LINE
  5
5396
330
1E
100
AcDbEntity
  8
0
 48
0.27
100
AcDbLine
 10
-18.58940069153263
 20
12.21090522724475
 30
0.0
 11
-18.58937651983604
 21
15.77891556844591
 31
0.0
  0
LINE
  5
5397
330
1E
100
AcDbEntity
  8
0
 48
0.27
100
AcDbLine
 10
-18.58935198954333
 20
12.21080175449779
 30
0.0
 11
-19.45535198954334
 21
11.85209280946674
 31
0.0
  0
LINE
  5
5398
330
1E
100
AcDbEntity
  8
0
 48
0.27
100
AcDbLine
 10
-18.58940069153263
 20
12.21090522724475
 30
0.0
 11
-19.45540312160767
 21
11.85220214899004
 31
0.0
  0
LINE
  5
5399
330
1E
100
AcDbEntity
  8
0
 48
0.27
100
AcDbLine
 10
-17.21565198954334
 20
12.7798069251551
 30
0.0
 11
-15.84068267634504
 21
11.40483761204353
 31
0.0
  0
LINE
  5
539A
330
1E
100
AcDbEntity
  8
0
 48
0.27
100
AcDbLine
 10
-17.21569683680499
 20
12.77990109167717
 30
0.0
 11
-15.84073683844903
 21
11.40492246378653
 31
0.0
  0
LINE
  5
539B
330
1E
100
AcDbEntity
  8
0
 48
0.27
100
AcDbLine
 10
-17.21565198954334
 20
12.7798069251551
 30
0.0
 11
-17.21565198954332
 21
15.20980692514894
 31
0.0
  0
LINE
  5
539C
330
1E
100
AcDbEntity
  8
0
 48
0.27
100
AcDbLine
 10
-17.21569683680499
 20
12.77990109167717
 30
0.0
 11
-17.21568037462663
 21
15.20990109161536
 31
0.0
  0
LINE
  5
539D
330
1E
100
AcDbEntity
  8
0
 48
0.27
100
AcDbLine
 10
-15.83406323092646
 20
11.40437270366925
 30
0.0
 11
-16.37971768558884
 21
10.00116745068265
 31
0.0
  0
LINE
  5
539E
330
1E
100
AcDbEntity
  8
0
 48
0.27
100
AcDbLine
 10
-15.84073683844909
 20
11.40492246378622
 30
0.0
 11
-16.37978135692683
 21
10.00125595418231
 31
0.0
  0
LINE
  5
539F
330
1E
100
AcDbEntity
  8
0
 48
0.27
100
AcDbLine
 10
-16.83068361789455
 20
18.7621894124448
 30
0.0
 11
-19.45535198954334
 21
16.13752104079594
 31
0.0
  0
LINE
  5
53A0
330
1E
100
AcDbEntity
  8
0
 48
0.27
100
AcDbLine
 10
-16.83068793716191
 20
18.76228097083873
 30
0.0
 11
-19.45537408972123
 21
16.13763038022091
 31
0.0
  0
LINE
  5
53A1
330
1E
100
AcDbEntity
  8
0
 48
0.27
100
AcDbLine
 10
-14.52167274120142
 20
19.84649134412274
 30
0.0
 11
-15.2880344768393
 21
20.30483855349996
 31
0.0
  0
LINE
  5
53A2
330
1E
100
AcDbEntity
  8
0
 48
0.27
100
AcDbLine
 10
-14.52166971485434
 20
19.84656725996132
 30
0.0
 11
-15.28802834537441
 21
20.30491966109088
 31
0.0
  0
LINE
  5
53A3
330
1E
100
AcDbEntity
  8
0
 48
0.27
100
AcDbLine
 10
-15.8309973329892
 20
16.59446158170311
 30
0.0
 11
-16.37233640851738
 21
17.99582767680687
 31
0.0
  0
LINE
  5
53A4
330
1E
100
AcDbEntity
  8
0
 48
0.27
100
AcDbLine
 10
-15.8310163376799
 20
16.59454636771306
 30
0.0
 11
-16.37234591955806
 21
17.99591613011813
 31
0.0
  0
LINE
  5
53A5
330
1E
100
AcDbEntity
  8
0
 48
0.27
100
AcDbLine
 10
-16.37233640851704
 20
17.99582767680721
 30
0.0
 11
-16.29462235627804
 21
18.87413669533606
 31
0.0
  0
LINE
  5
53A6
330
1E
100
AcDbEntity
  8
0
 48
0.27
100
AcDbLine
 10
-16.37233640851738
 20
17.99582767680687
 30
0.0
 11
-16.83068361789452
 21
18.76218941244474
 31
0.0
  0
ARC
  5
53A7
330
1E
100
AcDbEntity
  8
0
 48
0.27
100
AcDbCircle
 10
-16.47713022730124
 20
18.40863602185146
 30
0.0
 40
0.5
100
AcDbArc
 50
68.59144850073668
 51
134.9999999999994
  0
LINE
  5
53A8
330
1E
100
AcDbEntity
  8
0
 48
0.27
100
AcDbLine
 10
-16.37234591955771
 20
17.99591613011847
 30
0.0
 11
-16.29462591716424
 21
18.87422462214874
 31
0.0
  0
LINE
  5
53A9
330
1E
100
AcDbEntity
  8
0
 48
0.27
100
AcDbLine
 10
-16.37234591955806
 20
17.99591613011813
 30
0.0
 11
-16.83068793716188
 21
18.76228097083867
 31
0.0
  0
ARC
  5
53AA
330
1E
100
AcDbEntity
  8
0
 48
0.27
100
AcDbCircle
 10
-16.47713694174501
 20
18.40872518508519
 30
0.0
 40
0.5
100
AcDbArc
 50
68.59106034709651
 51
134.9996118463616
  0
ARC
  5
53AB
330
1E
100
AcDbEntity
  8
0
 48
0.27
100
AcDbCircle
 10
-16.0426519895434
 20
19.51680692514884
 30
0.0
 40
0.6903000000000003
100
AcDbArc
 50
248.5914485007359
 51
21.40855149926513
  0
ARC
  5
53AC
330
1E
100
AcDbEntity
  8
0
 48
0.27
100
AcDbCircle
 10
-16.0426519895434
 20
19.51680692514884
 30
0.0
 40
1.5563
100
AcDbArc
 50
257.7698790836257
 51
12.23012091636926
  0
ARC
  5
53AD
330
1E
100
AcDbEntity
  8
0
 48
0.27
100
AcDbCircle
 10
-16.04265119662796
 20
19.51689314495871
 30
0.0
 40
1.5563
100
AcDbArc
 50
257.7694909299867
 51
12.22973276272883
  0
ARC
  5
53AE
330
1E
100
AcDbEntity
  8
0
 48
0.27
100
AcDbCircle
 10
-16.04265119662796
 20
19.51689314495871
 30
0.0
 40
0.6903000000000003
100
AcDbArc
 50
248.5910603470939
 51
21.40816334562387
  0
LINE
  5
53AF
330
1E
100
AcDbEntity
  8
0
 48
0.27
100
AcDbLine
 10
-14.52167274120171
 20
19.84649134412245
 30
0.0
 11
-15.39998175973062
 21
19.76877729188351
 31
0.0
  0
ARC
  5
53B0
330
1E
100
AcDbEntity
  8
0
 48
0.27
100
AcDbCircle
 10
-14.93448108624602
 20
19.95128516290668
 30
0.0
 40
0.5
100
AcDbArc
 50
134.9999999999994
 51
201.4085514992615
  0
LINE
  5
53B1
330
1E
100
AcDbEntity
  8
0
 48
0.27
100
AcDbLine
 10
-14.52166971485462
 20
19.84656725996109
 30
0.0
 11
-15.39997925984181
 21
19.76885915788017
 31
0.0
  0
ARC
  5
53B2
330
1E
100
AcDbEntity
  8
0
 48
0.27
100
AcDbCircle
 10
-14.93447734995754
 20
19.95136387533739
 30
0.0
 40
0.5
100
AcDbArc
 50
134.9996118463616
 51
201.4081633456239
  0
LINE
  5
53B4
330
1E
100
AcDbEntity
  8
虛線
 48
0.27
100
AcDbLine
 10
-23.31567564231672
 20
20.95846314103784
 30
0.0
 11
-19.91566689319221
 21
22.24991938306363
 31
0.0
  0
LINE
  5
53B6
330
1E
100
AcDbEntity
  8
虛線
 48
0.27
100
AcDbLine
 10
-26.7156668930361
 20
22.24996545006496
 30
0.0
 11
-19.91566689319218
 21
22.24991938306363
 31
0.0
  0
LINE
  5
53B8
330
1E
100
AcDbEntity
  8
虛線
 48
0.27
100
AcDbLine
 10
-27.3156414884261
 20
25.99996951471434
 30
0.0
 11
-19.31564148860967
 21
25.99991531824225
 31
0.0
  0
LINE
  5
53BA
330
1E
100
AcDbEntity
  8
虛線
 48
0.27
100
AcDbLine
 10
-26.71566689303613
 20
22.24996545006496
 30
0.0
 11
-23.31567564231672
 21
20.95846314103784
 31
0.0
  0
LINE
  5
53BB
330
1E
100
AcDbEntity
  8
0
 48
0.27
100
AcDbLine
 10
-31.81557374273269
 20
36.00000000000046
 30
0.0
 11
-33.31559745434328
 21
34.49999661225059
 31
0.0
  0
LINE
  5
53BC
330
1E
100
AcDbEntity
  8
虛線
 48
0.27
100
AcDbLine
 10
-27.31557950121117
 20
35.14996951450434
 30
0.0
 11
-19.31557950139475
 21
35.14991531803224
 31
0.0
  0
LINE
  5
53BD
330
1E
100
AcDbEntity
  8
虛線
 48
0.27
100
AcDbLine
 10
-28.11837517582165
 20
36.00000000000046
 30
0.0
 11
-27.31557950121117
 21
35.14996951450434
 31
0.0
  0
LINE
  5
53BE
330
1E
100
AcDbEntity
  8
虛線
 48
0.27
100
AcDbLine
 10
-18.51271085034393
 20
36.00000000000046
 30
0.0
 11
-19.31557950139475
 21
35.14991531803224
 31
0.0
  0
LINE
  5
53BF
330
1E
100
AcDbEntity
  8
0
 48
0.27
100
AcDbLine
 10
-17.31567197284023
 20
36.00000000000046
 30
0.0
 11
-16.81557713035647
 21
35.49989838162668
 31
0.0
  0
LINE
  5
53C0
330
1E
100
AcDbEntity
  8
0
 48
0.27
100
AcDbLine
 10
25.68440254565661
 20
1.999806925148845
 30
0.0
 11
25.68440254565661
 21
32.99980692514885
 31
0.0
  0
LINE
  5
53C1
330
1E
100
AcDbEntity
  8
0
 48
0.27
100
AcDbLine
 10
25.68438560859369
 20
32.9996104629949
 30
0.0
 11
25.6841755972643
 21
1.999610463706261
 31
0.0
  0
LINE
  5
53C2
330
1E
100
AcDbEntity
  8
0
 48
0.27
100
AcDbLine
 10
26.18440254565661
 20
2.499806925148874
 30
0.0
 11
26.18440254565661
 21
20.4998069251489
 31
0.0
  0
LINE
  5
53C3
330
1E
100
AcDbEntity
  8
0
 48
0.27
100
AcDbLine
 10
9.74841370650185
 20
10.0011674506824
 30
0.0
 11
9.667058750654234
 21
9.122998088022825
 31
0.0
  0
LINE
  5
53C4
330
1E
100
AcDbEntity
  8
0
 48
0.27
100
AcDbLine
 10
10.20582924988295
 20
9.233874049058243
 30
0.0
 11
9.748413706502248
 21
10.00116745068232
 31
0.0
  0
LINE
  5
53C5
330
1E
100
AcDbEntity
  8
0
 48
0.27
100
AcDbLine
 10
10.20576037986046
 20
9.233782447218942
 30
0.0
 11
9.748350034564708
 21
10.00107894761402
 31
0.0
  0
LINE
  5
53C6
330
1E
100
AcDbEntity
  8
0
 48
0.27
100
AcDbLine
 10
9.74835003456431
 20
10.0010789476141
 30
0.0
 11
9.66698912950838
 21
9.122910136118633
 31
0.0
  0
ARC
  5
53C7
330
1E
100
AcDbEntity
  8
0
 48
0.27
100
AcDbCircle
 10
9.411348010456663
 20
8.481806925148845
 30
0.0
 40
1.5563
100
AcDbArc
 50
77.49167649828544
 51
192.5083235054292
  0
ARC
  5
53C8
330
1E
100
AcDbEntity
  8
0
 48
0.27
100
AcDbCircle
 10
9.411274045529324
 20
8.481720705586866
 30
0.0
 40
1.5563
100
AcDbArc
 50
77.4912883446465
 51
192.5079353517901
  0
LINE
  5
53C9
330
1E
100
AcDbEntity
  8
0
 48
0.27
100
AcDbLine
 10
12.82404801045661
 20
11.85209280946674
 30
0.0
 11
10.20582924988295
 21
9.233874049058243
 31
0.0
  0
ARC
  5
53CA
330
1E
100
AcDbEntity
  8
0
 48
0.27
100
AcDbCircle
 10
9.411348010456663
 20
8.481806925148845
 30
0.0
 40
2.93
100
AcDbArc
 50
93.95261878508103
 51
176.0473812168744
  0
ARC
  5
53CB
330
1E
100
AcDbEntity
  8
0
 48
0.27
100
AcDbCircle
 10
9.411274045529324
 20
8.481720705586866
 30
0.0
 40
2.93
100
AcDbArc
 50
93.95223063144104
 51
176.0469930632388
  0
LINE
  5
53CC
330
1E
100
AcDbEntity
  8
0
 48
0.27
100
AcDbLine
 10
12.82399687765155
 20
11.85198347028989
 30
0.0
 11
10.20576037986046
 21
9.233782447218942
 31
0.0
  0
LINE
  5
53CD
330
1E
100
AcDbEntity
  8
0
 48
0.27
100
AcDbLine
 10
-13.11962130264183
 20
8.683776238247247
 30
0.0
 11
-12.51565198954341
 21
8.079806925148744
 31
0.0
  0
LINE
  5
53CE
330
1E
100
AcDbEntity
  8
0
 48
0.27
100
AcDbLine
 10
-13.11969389879914
 20
8.683842656061841
 30
0.0
 11
-12.51572867734032
 21
8.079869251351425
 31
0.0
  0
LINE
  5
53CF
330
1E
100
AcDbEntity
  8
0
 48
0.27
100
AcDbLine
 10
-12.51565198954341
 20
8.079806925148744
 30
0.0
 11
-12.51565198954344
 21
4.099806925148897
 31
0.0
  0
LINE
  5
53D0
330
1E
100
AcDbEntity
  8
0
 48
0.27
100
AcDbLine
 10
-12.51572867734032
 20
8.079869251351425
 30
0.0
 11
-12.51575564008519
 21
4.099869251442868
 31
0.0
  0
LINE
  5
53D1
330
1E
100
AcDbEntity
  8
0
 48
0.27
100
AcDbLine
 10
8.124048010456675
 20
5.027521040795875
 30
0.0
 11
13.15156905125212
 21
0.0000000000004547
 31
0.0
  0
LINE
  5
53D2
330
1E
100
AcDbEntity
  8
0
 48
0.27
100
AcDbLine
 10
8.123950644295291
 20
5.027443542202973
 30
0.0
 11
13.15132606953339
 21
0.0000000000004547
 31
0.0
  0
LINE
  5
53D3
330
1E
100
AcDbEntity
  8
0
 48
0.27
100
AcDbLine
 10
7.25804801045669
 20
4.668812095780765
 30
0.0
 11
11.92686010623703
 21
0.0000000000004547
 31
0.0
  0
LINE
  5
53D4
330
1E
100
AcDbEntity
  8
0
 48
0.27
100
AcDbLine
 10
5.884348010456676
 20
4.09980692514884
 30
0.0
 11
9.984154935605083
 21
0.0000000000004547
 31
0.0
  0
LINE
  5
53D5
330
1E
100
AcDbEntity
  8
0
 48
0.27
100
AcDbLine
 10
7.257948214220249
 20
4.668740463964184
 30
0.0
 11
11.92662542129702
 21
0.0000000000004547
 31
0.0
  0
LINE
  5
53D6
330
1E
100
AcDbEntity
  8
0
 48
0.27
100
AcDbLine
 10
7.89198748494465
 20
8.144741229004949
 30
0.0
 11
7.25804801045669
 21
7.510801754516904
 31
0.0
  0
LINE
  5
53D7
330
1E
100
AcDbEntity
  8
0
 48
0.27
100
AcDbLine
 10
7.25804801045669
 20
7.510801754516904
 30
0.0
 11
8.124048010456704
 21
7.152092809501823
 31
0.0
  0
LINE
  5
53D8
330
1E
100
AcDbEntity
  8
0
 48
0.27
100
AcDbLine
 10
6.488317323555378
 20
8.683776238247247
 30
0.0
 11
7.89198748494465
 21
8.144741229004949
 31
0.0
  0
LINE
  5
53D9
330
1E
100
AcDbEntity
  8
0
 48
0.27
100
AcDbLine
 10
6.488244726948153
 20
8.683709820924491
 30
0.0
 11
7.89191123658071
 21
8.144665302448231
 31
0.0
  0
LINE
  5
53DA
330
1E
100
AcDbEntity
  8
0
 48
0.27
100
AcDbLine
 10
7.257967467446917
 20
7.510730122635123
 30
0.0
 11
8.123965037332141
 21
7.15201531086015
 31
0.0
  0
LINE
  5
53DB
330
1E
100
AcDbEntity
  8
0
 48
0.27
100
AcDbLine
 10
7.89191123658071
 20
8.144665302448231
 30
0.0
 11
7.257967467446917
 21
7.510730122635123
 31
0.0
  0
LINE
  5
53DC
330
1E
100
AcDbEntity
  8
0
 48
0.27
100
AcDbLine
 10
7.25804801045669
 20
4.668812095780765
 30
0.0
 11
8.124048010456675
 21
5.027521040795875
 31
0.0
  0
LINE
  5
53DD
330
1E
100
AcDbEntity
  8
0
 48
0.27
100
AcDbLine
 10
7.257948214220249
 20
4.668740463964184
 30
0.0
 11
8.123950644295291
 21
5.027443542202973
 31
0.0
  0
LINE
  5
53DE
330
1E
100
AcDbEntity
  8
0
 48
0.27
100
AcDbLine
 10
5.884348010456704
 20
8.079806925148801
 30
0.0
 11
7.25804801045669
 21
7.510801754516904
 31
0.0
  0
LINE
  5
53DF
330
1E
100
AcDbEntity
  8
0
 48
0.27
100
AcDbLine
 10
6.488317323555122
 20
8.683776238247276
 30
0.0
 11
5.884348010456676
 21
8.079806925148744
 31
0.0
  0
LINE
  5
53E0
330
1E
100
AcDbEntity
  8
0
 48
0.27
100
AcDbLine
 10
6.488244726947868
 20
8.683709820924519
 30
0.0
 11
5.884271322237538
 21
8.079744599465612
 31
0.0
  0
LINE
  5
53E1
330
1E
100
AcDbEntity
  8
0
 48
0.27
100
AcDbLine
 10
5.884271322237538
 20
8.079744599465612
 30
0.0
 11
7.257967467446917
 21
7.510730122635123
 31
0.0
  0
LINE
  5
53E2
330
1E
100
AcDbEntity
  8
0
 48
0.27
100
AcDbLine
 10
5.884348010456676
 20
4.09980692514884
 30
0.0
 11
7.25804801045669
 21
4.668812095780765
 31
0.0
  0
LINE
  5
53E3
330
1E
100
AcDbEntity
  8
0
 48
0.27
100
AcDbLine
 10
5.884244359492697
 20
4.099744599557112
 30
0.0
 11
7.257948214220249
 21
4.668740463964184
 31
0.0
  0
LINE
  5
53E4
330
1E
100
AcDbEntity
  8
0
 48
0.27
100
AcDbLine
 10
5.884348010456676
 20
8.079806925148744
 30
0.0
 11
5.884348010456676
 21
4.09980692514884
 31
0.0
  0
LINE
  5
53E5
330
1E
100
AcDbEntity
  8
0
 48
0.27
100
AcDbLine
 10
7.25804801045669
 20
7.510801754516904
 30
0.0
 11
7.25804801045669
 21
4.668812095780765
 31
0.0
  0
LINE
  5
53E6
330
1E
100
AcDbEntity
  8
0
 48
0.27
100
AcDbLine
 10
7.257967467446917
 20
7.510730122635123
 30
0.0
 11
7.257948214220249
 21
4.668740463964184
 31
0.0
  0
LINE
  5
53E7
330
1E
100
AcDbEntity
  8
0
 48
0.27
100
AcDbLine
 10
5.884271322237538
 20
8.079744599465612
 30
0.0
 11
5.884244359492697
 21
4.099744599557112
 31
0.0
  0
ARC
  5
53E8
330
1E
100
AcDbEntity
  8
0
 48
0.27
100
AcDbCircle
 10
9.852275859300874
 20
9.587427439662633
 30
0.0
 40
0.5
100
AcDbArc
 50
248.2576009247873
 51
314.9999999981927
  0
ARC
  5
53E9
330
1E
100
AcDbEntity
  8
0
 48
0.27
100
AcDbCircle
 10
9.852209384454823
 20
9.58733823298354
 30
0.0
 40
0.5
100
AcDbArc
 50
248.2572127711464
 51
314.9996118445526
  0
ARC
  5
53EA
330
1E
100
AcDbEntity
  8
0
 48
0.27
100
AcDbCircle
 10
8.305727495979937
 20
8.040879076211723
 30
0.0
 40
0.5
100
AcDbArc
 50
315.0000000000029
 51
21.74239908002505
  0
LINE
  5
53EB
330
1E
100
AcDbEntity
  8
0
 48
0.27
100
AcDbLine
 10
7.89198748494465
 20
8.144741229004949
 30
0.0
 11
8.770156847604198
 21
8.226096184897386
 31
0.0
  0
LINE
  5
53EC
330
1E
100
AcDbEntity
  8
0
 48
0.27
100
AcDbLine
 10
7.89191123658071
 20
8.144665302448231
 30
0.0
 11
8.770081150364063
 21
8.226014309128629
 31
0.0
  0
ARC
  5
53ED
330
1E
100
AcDbEntity
  8
0
 48
0.27
100
AcDbCircle
 10
8.305650543986217
 20
8.040800346751268
 30
0.0
 40
0.5
100
AcDbArc
 50
314.9996118463628
 51
21.74201092638891
  0
LINE
  5
53EE
330
1E
100
AcDbEntity
  8
0
 48
0.27
100
AcDbLine
 10
7.89198748494465
 20
8.144741229004949
 30
0.0
 11
8.659280886573242
 21
7.687325685618446
 31
0.0
  0
LINE
  5
53EF
330
1E
100
AcDbEntity
  8
0
 48
0.27
100
AcDbLine
 10
8.124048010456704
 20
7.152092809501823
 30
0.0
 11
8.124048010456675
 21
5.027521040795875
 31
0.0
  0
LINE
  5
53F0
330
1E
100
AcDbEntity
  8
0
 48
0.27
100
AcDbLine
 10
8.659280886573242
 20
7.687325685618446
 30
0.0
 11
8.124048010456704
 21
7.152092809501823
 31
0.0
  0
LINE
  5
53F1
330
1E
100
AcDbEntity
  8
0
 48
0.27
100
AcDbLine
 10
8.123965037332141
 20
7.15201531086015
 30
0.0
 11
8.123950644295291
 21
5.027443542202973
 31
0.0
  0
LINE
  5
53F2
330
1E
100
AcDbEntity
  8
0
 48
0.27
100
AcDbLine
 10
8.659201539403113
 20
7.687244560997783
 30
0.0
 11
8.123965037332141
 21
7.15201531086015
 31
0.0
  0
LINE
  5
53F3
330
1E
100
AcDbEntity
  8
0
 48
0.27
100
AcDbLine
 10
7.89191123658071
 20
8.144665302448231
 30
0.0
 11
8.659201539403113
 21
7.687244560997783
 31
0.0
  0
ARC
  5
53F4
330
1E
100
AcDbEntity
  8
0
 48
0.27
100
AcDbCircle
 10
9.411348010456663
 20
8.481806925148845
 30
0.0
 40
0.6903000000000003
100
AcDbArc
 50
68.25760092478907
 51
201.7423990800251
  0
ARC
  5
53F5
330
1E
100
AcDbEntity
  8
0
 48
0.27
100
AcDbCircle
 10
9.411274045529324
 20
8.481720705586866
 30
0.0
 40
0.6903000000000003
100
AcDbArc
 50
68.25721277114898
 51
201.7420109263853
  0
LINE
  5
53F6
330
1E
100
AcDbEntity
  8
0
 48
0.27
100
AcDbLine
 10
26.18440254565661
 20
2.499806925148874
 30
0.0
 11
23.68459562050819
 21
0.0000000000004547
 31
0.0
  0
LINE
  5
53F7
330
1E
100
AcDbEntity
  8
0
 48
0.27
100
AcDbLine
 10
26.18417898453226
 20
2.499607076415287
 30
0.0
 11
23.68453804041672
 21
0.0000000000004547
 31
0.0
  0
LINE
  5
53F8
330
1E
100
AcDbEntity
  8
虛線
 48
0.27
100
AcDbLine
 10
21.48736267190521
 20
36.00000000000044
 30
0.0
 11
20.68440254565661
 21
35.14980692514888
 31
0.0
  0
LINE
  5
53F9
330
1E
100
AcDbEntity
  8
虛線
 48
0.27
100
AcDbLine
 10
20.08440254565659
 20
35.14980692514888
 30
0.0
 11
20.08440254565659
 21
22.2498069251489
 31
0.0
  0
LINE
  5
53FA
330
1E
100
AcDbEntity
  8
虛線
 48
0.27
100
AcDbLine
 10
20.68440254565661
 20
35.14980692514888
 30
0.0
 11
20.68440254565661
 21
25.9998069251489
 31
0.0
  0
LINE
  5
53FB
330
1E
100
AcDbEntity
  8
虛線
 48
0.27
100
AcDbLine
 10
13.28433310604595
 20
22.2496944677045
 30
0.0
 11
13.28442049861906
 21
35.14980692514888
 31
0.0
  0
LINE
  5
53FC
330
1E
100
AcDbEntity
  8
虛線
 48
0.27
100
AcDbLine
 10
12.68440254565661
 20
25.9998069251489
 30
0.0
 11
12.68440254565661
 21
35.14980692514888
 31
0.0
  0
LINE
  5
53FD
330
1E
100
AcDbEntity
  8
0
 48
0.27
100
AcDbLine
 10
1.934402545656666
 20
31.82073648959707
 30
0.0
 11
1.934402545656666
 21
34.99980692514885
 31
0.0
  0
LINE
  5
53FE
330
1E
100
AcDbEntity
  8
0
 48
0.27
100
AcDbLine
 10
-8.565597454343333
 20
29.49980692514884
 30
0.0
 11
-8.565597454343333
 21
34.99980692514885
 31
0.0
  0
LINE
  5
53FF
330
1E
100
AcDbEntity
  8
0
 48
0.27
100
AcDbLine
 10
1.934377621773741
 20
31.8207477676209
 30
0.0
 11
1.934399158256667
 21
34.99977135872547
 31
0.0
  0
LINE
  5
5400
330
1E
100
AcDbEntity
  8
0
 48
0.27
100
AcDbLine
 10
-8.565638101576951
 20
29.49984249172138
 30
0.0
 11
-8.565600841502373
 21
34.99984249159513
 31
0.0
  0
LINE
  5
5401
330
1E
100
AcDbEntity
  8
0
 48
0.27
100
AcDbLine
 10
-13.09465716017527
 20
21.27350692514892
 30
0.0
 11
6.463353181088592
 21
21.27350692514887
 31
0.0
  0
LINE
  5
5402
330
1E
100
AcDbEntity
  8
0
 48
0.27
100
AcDbLine
 10
-13.45336610519035
 20
22.13950692514897
 30
0.0
 11
6.822062126103645
 21
22.13950692514885
 31
0.0
  0
LINE
  5
5403
330
1E
100
AcDbEntity
  8
0
 48
0.27
100
AcDbLine
 10
-12.52565198954338
 20
19.89980692514888
 30
0.0
 11
5.894348010456724
 21
19.89980692514888
 31
0.0
  0
LINE
  5
5404
330
1E
100
AcDbEntity
  8
0
 48
0.27
100
AcDbLine
 10
5.798755704096407
 20
19.89980692514888
 30
0.0
 11
-12.43005629590365
 21
19.89980692514888
 31
0.0
  0
LINE
  5
5405
330
1E
100
AcDbEntity
  8
0
 48
0.27
100
AcDbLine
 10
-12.4300562956945
 20
19.89986867123019
 30
0.0
 11
5.798755703887252
 21
19.89974517906756
 31
0.0
  0
LINE
  5
5406
330
1E
100
AcDbEntity
  8
0
 48
0.27
100
AcDbLine
 10
5.894351397524786
 20
19.8997445314489
 30
0.0
 11
-12.52564860205263
 21
19.89986931882589
 31
0.0
  0
LINE
  5
5407
330
1E
100
AcDbEntity
  8
0
 48
0.27
100
AcDbLine
 10
6.822130805048495
 20
22.13943824620401
 30
0.0
 11
-13.45334754469846
 21
22.13957560362854
 31
0.0
  0
LINE
  5
5408
330
1E
100
AcDbEntity
  8
0
 48
0.27
100
AcDbLine
 10
6.463365874355332
 20
21.27344067665837
 30
0.0
 11
-13.09464446645973
 21
21.27357317355347
 31
0.0
  0
LINE
  5
5409
330
1E
100
AcDbEntity
  8
0
 48
0.27
100
AcDbLine
 10
-13.09465716017533
 20
21.27350692514887
 30
0.0
 11
-13.45336610519038
 21
22.13950692514885
 31
0.0
  0
LINE
  5
540A
330
1E
100
AcDbEntity
  8
0
 48
0.27
100
AcDbLine
 10
-13.09464446645973
 20
21.27357317355347
 30
0.0
 11
-13.45334754469846
 21
22.13957560362854
 31
0.0
  0
LINE
  5
540B
330
1E
100
AcDbEntity
  8
0
 48
0.27
100
AcDbLine
 10
-12.52565198954338
 20
19.89980692514888
 30
0.0
 11
-13.12030664609736
 21
19.30515226859489
 31
0.0
  0
LINE
  5
540C
330
1E
100
AcDbEntity
  8
0
 48
0.27
100
AcDbLine
 10
-12.52565198954338
 20
19.89980692514888
 30
0.0
 11
-13.09465716017533
 21
21.27350692514887
 31
0.0
  0
LINE
  5
540D
330
1E
100
AcDbEntity
  8
0
 48
0.27
100
AcDbLine
 10
-12.52564860205263
 20
19.89986931882589
 30
0.0
 11
-13.09464446645973
 21
21.27357317355347
 31
0.0
  0
LINE
  5
540E
330
1E
100
AcDbEntity
  8
0
 48
0.27
100
AcDbLine
 10
6.463353181088592
 20
21.27350692514887
 30
0.0
 11
6.822062126103645
 21
22.13950692514885
 31
0.0
  0
LINE
  5
540F
330
1E
100
AcDbEntity
  8
0
 48
0.27
100
AcDbLine
 10
6.822062126103645
 20
22.13950692514885
 30
0.0
 11
8.656730497752562
 21
20.30483855349996
 31
0.0
  0
LINE
  5
5410
330
1E
100
AcDbEntity
  8
0
 48
0.27
100
AcDbLine
 10
6.463365874355389
 20
21.27344067665825
 30
0.0
 11
6.822080686130306
 21
22.13943824654354
 31
0.0
  0
LINE
  5
5411
330
1E
100
AcDbEntity
  8
0
 48
0.27
100
AcDbLine
 10
6.822080686130306
 20
22.13943824654354
 30
0.0
 11
8.656736628667971
 21
20.30475744586755
 31
0.0
  0
LINE
  5
5412
330
1E
100
AcDbEntity
  8
0
 48
0.27
100
AcDbLine
 10
11.95804801045659
 20
12.21080175449779
 30
0.0
 11
12.82404801045661
 21
11.85209280946674
 31
0.0
  0
LINE
  5
5413
330
1E
100
AcDbEntity
  8
0
 48
0.27
100
AcDbLine
 10
11.95804801045662
 20
15.77881209578083
 30
0.0
 11
12.82404801045661
 21
16.13752104079594
 31
0.0
  0
LINE
  5
5414
330
1E
100
AcDbEntity
  8
0
 48
0.27
100
AcDbLine
 10
11.9579993077663
 20
12.21069828208081
 30
0.0
 11
12.82399687765155
 21
11.85198347028989
 31
0.0
  0
LINE
  5
5415
330
1E
100
AcDbEntity
  8
0
 48
0.27
100
AcDbLine
 10
11.95802347946295
 20
15.77870862328197
 30
0.0
 11
12.82402590953799
 21
16.13741170152076
 31
0.0
  0
LINE
  5
5416
330
1E
100
AcDbEntity
  8
0
 48
0.27
100
AcDbLine
 10
10.19937963880781
 20
18.7621894124448
 30
0.0
 11
12.82404801045661
 21
16.13752104079594
 31
0.0
  0
LINE
  5
5417
330
1E
100
AcDbEntity
  8
0
 48
0.27
100
AcDbLine
 10
10.19937531892017
 20
18.76209785408008
 30
0.0
 11
12.82402590953799
 21
16.13741170152076
 31
0.0
  0
LINE
  5
5418
330
1E
100
AcDbEntity
  8
0
 48
0.27
100
AcDbLine
 10
9.199693353902745
 20
16.5944615817028
 30
0.0
 11
10.58434801045658
 21
15.20980692514894
 31
0.0
  0
LINE
  5
5419
330
1E
100
AcDbEntity
  8
0
 48
0.27
100
AcDbLine
 10
9.741032429430646
 20
17.99582767680687
 30
0.0
 11
11.95804801045662
 21
15.77881209578083
 31
0.0
  0
LINE
  5
541A
330
1E
100
AcDbEntity
  8
0
 48
0.27
100
AcDbLine
 10
9.741022917790729
 20
17.99573922355995
 30
0.0
 11
11.95802347946295
 21
15.77870862328197
 31
0.0
  0
LINE
  5
541B
330
1E
100
AcDbEntity
  8
0
 48
0.27
100
AcDbLine
 10
9.199674348638012
 20
16.59437679582163
 30
0.0
 11
10.58431962473534
 21
15.20971275887484
 31
0.0
  0
LINE
  5
541C
330
1E
100
AcDbEntity
  8
0
 48
0.27
100
AcDbLine
 10
11.95804801045659
 20
12.21080175449779
 30
0.0
 11
11.95804801045662
 21
15.77881209578083
 31
0.0
  0
LINE
  5
541D
330
1E
100
AcDbEntity
  8
0
 48
0.27
100
AcDbLine
 10
10.58434801045655
 20
12.77980692515501
 30
0.0
 11
10.58434801045658
 21
15.20980692514894
 31
0.0
  0
LINE
  5
541E
330
1E
100
AcDbEntity
  8
0
 48
0.27
100
AcDbLine
 10
10.58434801045655
 20
12.77980692515501
 30
0.0
 11
11.95804801045659
 21
12.21080175449779
 31
0.0
  0
LINE
  5
541F
330
1E
100
AcDbEntity
  8
0
 48
0.27
100
AcDbLine
 10
10.58434801045658
 20
15.20980692514894
 30
0.0
 11
11.95804801045662
 21
15.77881209578083
 31
0.0
  0
LINE
  5
5420
330
1E
100
AcDbEntity
  8
0
 48
0.27
100
AcDbLine
 10
10.58431962473534
 20
15.20971275887484
 30
0.0
 11
11.95802347946295
 21
15.77870862328197
 31
0.0
  0
LINE
  5
5421
330
1E
100
AcDbEntity
  8
0
 48
0.27
100
AcDbLine
 10
10.58430316255698
 20
12.77971275893674
 30
0.0
 11
11.9579993077663
 21
12.21069828208081
 31
0.0
  0
LINE
  5
5422
330
1E
100
AcDbEntity
  8
0
 48
0.27
100
AcDbLine
 10
10.58430316255698
 20
12.77971275893674
 30
0.0
 11
10.58431962473534
 21
15.20971275887484
 31
0.0
  0
LINE
  5
5423
330
1E
100
AcDbEntity
  8
0
 48
0.27
100
AcDbLine
 10
11.9579993077663
 20
12.21069828208081
 30
0.0
 11
11.95802347946295
 21
15.77870862328197
 31
0.0
  0
LINE
  5
5424
330
1E
100
AcDbEntity
  8
0
 48
0.27
100
AcDbLine
 10
10.58434801045655
 20
12.77980692515501
 30
0.0
 11
9.209378697258301
 21
11.40483761204353
 31
0.0
  0
LINE
  5
5425
330
1E
100
AcDbEntity
  8
0
 48
0.27
100
AcDbLine
 10
10.58430316255698
 20
12.77971275893674
 30
0.0
 11
9.209324534579479
 21
11.40475276066752
 31
0.0
  0
LINE
  5
5426
330
1E
100
AcDbEntity
  8
0
 48
0.27
100
AcDbLine
 10
9.209378697258358
 20
11.40483761204322
 30
0.0
 11
9.748413706502105
 21
10.00116745068265
 31
0.0
  0
LINE
  5
5427
330
1E
100
AcDbEntity
  8
0
 48
0.27
100
AcDbLine
 10
11.95804801045659
 20
12.21080175449779
 30
0.0
 11
9.748413706502105
 21
10.00116745068265
 31
0.0
  0
LINE
  5
5428
330
1E
100
AcDbEntity
  8
0
 48
0.27
100
AcDbLine
 10
11.9579993077663
 20
12.21069828208081
 30
0.0
 11
9.748350034564566
 21
10.00107894761436
 31
0.0
  0
LINE
  5
5429
330
1E
100
AcDbEntity
  8
0
 48
0.27
100
AcDbLine
 10
9.202705086011491
 20
11.40428789713704
 30
0.0
 11
9.748350034564566
 21
10.00107894761436
 31
0.0
  0
LINE
  5
542A
330
1E
100
AcDbEntity
  8
0
 48
0.27
100
AcDbLine
 10
6.489002667010907
 20
19.30515226859489
 30
0.0
 11
7.890368762114974
 21
19.84649134412245
 31
0.0
  0
LINE
  5
542B
330
1E
100
AcDbEntity
  8
0
 48
0.27
100
AcDbLine
 10
6.463353181088592
 20
21.27350692514887
 30
0.0
 11
7.89036876211469
 21
19.84649134412274
 31
0.0
  0
LINE
  5
542C
330
1E
100
AcDbEntity
  8
0
 48
0.27
100
AcDbLine
 10
6.463365874355389
 20
21.27344067665825
 30
0.0
 11
7.890371787947486
 21
19.84641542826364
 31
0.0
  0
LINE
  5
542D
330
1E
100
AcDbEntity
  8
0
 48
0.27
100
AcDbLine
 10
6.489485670879588
 20
19.29851016847942
 30
0.0
 11
7.890371787947771
 21
19.84641542826335
 31
0.0
  0
ARC
  5
542E
330
1E
100
AcDbEntity
  8
0
 48
0.27
100
AcDbCircle
 10
9.411348010456663
 20
19.51680692514884
 30
0.0
 40
1.5563
100
AcDbArc
 50
167.7698790836307
 51
282.2301209163743
  0
ARC
  5
542F
330
1E
100
AcDbEntity
  8
0
 48
0.27
100
AcDbCircle
 10
9.411348802788012
 20
19.51672070533362
 30
0.0
 40
1.5563
100
AcDbArc
 50
167.7694909299934
 51
282.2297327627355
  0
ARC
  5
5430
330
1E
100
AcDbEntity
  8
0
 48
0.27
100
AcDbCircle
 10
9.411348010456663
 20
19.51680692514884
 30
0.0
 40
2.93
100
AcDbArc
 50
184.1424881063037
 51
265.8575118936996
  0
ARC
  5
5431
330
1E
100
AcDbEntity
  8
0
 48
0.27
100
AcDbCircle
 10
9.411348802788012
 20
19.51672070533362
 30
0.0
 40
2.93
100
AcDbArc
 50
184.1420999526625
 51
265.8571237400605
  0
LINE
  5
5432
330
1E
100
AcDbEntity
  8
0
 48
0.27
100
AcDbLine
 10
5.894348010456724
 20
19.89980692514888
 30
0.0
 11
6.489002667010623
 21
19.30515226859489
 31
0.0
  0
LINE
  5
5433
330
1E
100
AcDbEntity
  8
0
 48
0.27
100
AcDbLine
 10
5.894348010456724
 20
19.89980692514888
 30
0.0
 11
6.463353181088592
 21
21.27350692514887
 31
0.0
  0
LINE
  5
5434
330
1E
100
AcDbEntity
  8
0
 48
0.27
100
AcDbLine
 10
5.894351397524786
 20
19.8997445314489
 30
0.0
 11
6.463365874355389
 21
21.27344067665825
 31
0.0
  0
LINE
  5
5435
330
1E
100
AcDbEntity
  8
0
 48
0.27
100
AcDbLine
 10
5.894351397524786
 20
19.8997445314489
 30
0.0
 11
6.489002025542049
 21
19.30508584638551
 31
0.0
  0
ARC
  5
5436
330
1E
100
AcDbEntity
  8
0
 48
0.27
100
AcDbCircle
 10
9.845826248214507
 20
18.40863602185146
 30
0.0
 40
0.5
100
AcDbArc
 50
45.00000000000057
 51
111.4085514992633
  0
LINE
  5
5437
330
1E
100
AcDbEntity
  8
0
 48
0.27
100
AcDbLine
 10
9.741032429430646
 20
17.99582767680687
 30
0.0
 11
10.19937963880778
 21
18.76218941244474
 31
0.0
  0
LINE
  5
5438
330
1E
100
AcDbEntity
  8
0
 48
0.27
100
AcDbLine
 10
9.741032429430305
 20
17.99582767680721
 30
0.0
 11
9.663318377191302
 21
18.87413669533606
 31
0.0
  0
ARC
  5
5439
330
1E
100
AcDbEntity
  8
0
 48
0.27
100
AcDbCircle
 10
9.84581953316669
 20
18.40854685866321
 30
0.0
 40
0.5
100
AcDbArc
 50
44.99961184635931
 51
111.4081633456239
  0
LINE
  5
543A
330
1E
100
AcDbEntity
  8
0
 48
0.27
100
AcDbLine
 10
9.741022917790729
 20
17.99573922355995
 30
0.0
 11
10.19937531892014
 21
18.76209785408008
 31
0.0
  0
LINE
  5
543B
330
1E
100
AcDbEntity
  8
0
 48
0.27
100
AcDbLine
 10
9.741022917790388
 20
17.99573922356029
 30
0.0
 11
9.663314815709441
 21
18.87404876854742
 31
0.0
  0
ARC
  5
543C
330
1E
100
AcDbEntity
  8
0
 48
0.27
100
AcDbCircle
 10
8.303177107159285
 20
19.95128516290668
 30
0.0
 40
0.5
100
AcDbArc
 50
338.5914485007385
 51
45.00000000000057
  0
LINE
  5
543D
330
1E
100
AcDbEntity
  8
0
 48
0.27
100
AcDbLine
 10
7.890368762114974
 20
19.84649134412245
 30
0.0
 11
8.768677780643884
 21
19.76877729188351
 31
0.0
  0
ARC
  5
543E
330
1E
100
AcDbEntity
  8
0
 48
0.27
100
AcDbCircle
 10
8.303180842914514
 20
19.95120645045068
 30
0.0
 40
0.5
100
AcDbArc
 50
338.5910603470983
 51
44.99961184635931
  0
LINE
  5
543F
330
1E
100
AcDbEntity
  8
0
 48
0.27
100
AcDbLine
 10
7.890371787947771
 20
19.84641542826335
 30
0.0
 11
8.768680279978099
 21
19.76869542586991
 31
0.0
  0
LINE
  5
5440
330
1E
100
AcDbEntity
  8
0
 48
0.27
100
AcDbLine
 10
7.89036876211469
 20
19.84649134412274
 30
0.0
 11
8.656730497752562
 21
20.30483855349996
 31
0.0
  0
LINE
  5
5441
330
1E
100
AcDbEntity
  8
0
 48
0.27
100
AcDbLine
 10
7.890371787947486
 20
19.84641542826364
 30
0.0
 11
8.656736628667971
 21
20.30475744586755
 31
0.0
  0
ARC
  5
5442
330
1E
100
AcDbEntity
  8
0
 48
0.27
100
AcDbCircle
 10
9.411348010456663
 20
19.51680692514884
 30
0.0
 40
0.6903000000000003
100
AcDbArc
 50
158.5914485007348
 51
291.4085514992641
  0
ARC
  5
5443
330
1E
100
AcDbEntity
  8
0
 48
0.27
100
AcDbCircle
 10
9.411348802788012
 20
19.51672070533362
 30
0.0
 40
0.6903000000000003
100
AcDbArc
 50
158.591060347095
 51
291.4081633456257
  0
LINE
  5
5444
330
1E
100
AcDbEntity
  8
0
 48
0.27
100
AcDbLine
 10
9.199693353902773
 20
16.59446158170309
 30
0.0
 11
9.741032429430646
 21
17.99582767680687
 31
0.0
  0
LINE
  5
5445
330
1E
100
AcDbEntity
  8
0
 48
0.27
100
AcDbLine
 10
9.199674348637699
 20
16.59437679582194
 30
0.0
 11
9.741022917790729
 21
17.99573922355995
 31
0.0
  0
LINE
  5
5446
330
1E
100
AcDbEntity
  8
0
 48
0.27
100
AcDbLine
 10
12.82404801045661
 20
11.85209280946674
 30
0.0
 11
12.82404801045661
 21
16.13752104079594
 31
0.0
  0
LINE
  5
5447
330
1E
100
AcDbEntity
  8
0
 48
0.27
100
AcDbLine
 10
12.82399687765155
 20
11.85198347028989
 30
0.0
 11
12.82402590953799
 21
16.13741170152076
 31
0.0
  0
LINE
  5
5449
330
1E
100
AcDbEntity
  8
虛線
 48
0.27
100
AcDbLine
 10
20.0843331058899
 20
22.24964840070322
 30
0.0
 11
13.28433310604592
 21
22.2496944677045
 31
0.0
  0
LINE
  5
544B
330
1E
100
AcDbEntity
  8
虛線
 48
0.27
100
AcDbLine
 10
16.68432435676536
 20
20.95819215867743
 30
0.0
 11
13.28433310604595
 21
22.2496944677045
 31
0.0
  0
LINE
  5
544D
330
1E
100
AcDbEntity
  8
虛線
 48
0.27
100
AcDbLine
 10
20.08433310588987
 20
22.24964840070322
 30
0.0
 11
16.68432435676536
 21
20.95819215867743
 31
0.0
  0
LINE
  5
544F
330
1E
100
AcDbEntity
  8
虛線
 48
0.27
100
AcDbLine
 10
20.68435851047241
 20
25.99964433588179
 30
0.0
 11
12.68435851065598
 21
25.99969853235388
 31
0.0
  0
LINE
  5
5450
330
1E
100
AcDbEntity
  8
0
 48
0.27
100
AcDbLine
 10
2.184402545656613
 20
35.4998069251489
 30
0.0
 11
10.18440254565661
 21
35.4998069251489
 31
0.0
  0
LINE
  5
5451
330
1E
100
AcDbEntity
  8
0
 48
0.27
100
AcDbLine
 10
-8.315414538978171
 20
36.00000000000046
 30
0.0
 11
-8.815577130540045
 21
35.49984418515459
 31
0.0
  0
LINE
  5
5454
330
1E
100
AcDbEntity
  8
0
 48
0.27
100
AcDbLine
 10
1.684209470805075
 20
36.00000000000046
 30
0.0
 11
2.184402545656613
 21
35.4998069251489
 31
0.0
  0
LINE
  5
5455
330
1E
100
AcDbEntity
  8
虛線
 48
0.27
100
AcDbLine
 10
11.88144241940803
 20
36.00000000000044
 30
0.0
 11
12.68440254565661
 21
35.14980692514888
 31
0.0
  0
LINE
  5
5456
330
1E
100
AcDbEntity
  8
0
 48
0.27
100
AcDbLine
 10
10.68459562050815
 20
36.00000000000044
 30
0.0
 11
10.18440254565661
 21
35.4998069251489
 31
0.0
  0
LINE
  5
5457
330
1E
100
AcDbEntity
  8
虛線
 48
0.27
100
AcDbLine
 10
20.68440254565661
 20
35.14980692514888
 30
0.0
 11
12.68440254565661
 21
35.14980692514888
 31
0.0
  0
LINE
  5
5458
330
1E
100
AcDbEntity
  8
0
 48
0.27
100
AcDbLine
 10
26.68440254565661
 20
17.9998069251489
 30
0.0
 11
26.68440254565661
 21
34.49980692514902
 31
0.0
  0
LINE
  5
5459
330
1E
100
AcDbEntity
  8
0
 48
0.27
100
AcDbLine
 10
23.68440254565661
 20
34.99980692514885
 30
0.0
 11
25.68440254565661
 21
32.99980692514885
 31
0.0
  0
LINE
  5
545A
330
1E
100
AcDbEntity
  8
0
 48
0.27
100
AcDbLine
 10
25.68438560859369
 20
32.9996104629949
 30
0.0
 11
23.68439915775758
 21
34.99962401206705
 31
0.0
  0
LINE
  5
545B
330
1E
100
AcDbEntity
  8
0
 48
0.27
100
AcDbLine
 10
26.68440254565661
 20
17.9998069251489
 30
0.0
 11
26.18440254565661
 21
17.4998069251489
 31
0.0
  0
LINE
  5
545C
330
1E
100
AcDbEntity
  8
0
 48
0.27
100
AcDbLine
 10
25.18420947080506
 20
36.00000000000046
 30
0.0
 11
26.68440254565661
 21
34.49980692514902
 31
0.0
  0
ARC
  5
546A
330
1E
100
AcDbEntity
  8
指線
 48
0.27
100
AcDbCircle
 10
20.49016713164636
 20
2.649920812138333
 30
0.0
 40
1.644659169866167
100
AcDbArc
 50
199.4710910050953
 51
250.6280493916774
  0
ARC
  5
546B
330
1E
100
AcDbEntity
  8
指線
 48
0.27
100
AcDbCircle
 10
20.49016713164636
 20
2.649920812138333
 30
0.0
 40
1.644659169866167
100
AcDbArc
 50
289.5511824003039
 51
340.5458668438663
  0
LINE
  5
546C
330
1E
100
AcDbEntity
  8
指線
 48
0.27
100
AcDbLine
 10
19.94448636236151
 20
2.101828759066989
 30
0.0
 11
19.94463478125064
 21
1.09837376493138
 31
0.0
  0
CIRCLE
  5
546D
330
1E
100
AcDbEntity
  8
指線
 48
0.27
100
AcDbCircle
 10
20.49016713164636
 20
2.649920812138333
 30
0.0
 40
2.739789646400016
  0
LINE
  5
546E
330
1E
100
AcDbEntity
  8
指線
 48
0.27
100
AcDbLine
 10
21.04040214143223
 20
2.101990958426227
 30
0.0
 11
21.04055033099989
 21
1.100087879563261
 31
0.0
  0
ARC
  5
546F
330
1E
100
AcDbEntity
  8
指線
 48
0.27
100
AcDbCircle
 10
20.49016713164636
 20
2.649920812138333
 30
0.0
 40
1.644659169866167
100
AcDbArc
 50
109.3888996106204
 51
160.5479173296243
  0
LINE
  5
5470
330
1E
100
AcDbEntity
  8
指線
 48
0.27
100
AcDbLine
 10
19.94417583284785
 20
4.201306414321479
 30
0.0
 11
19.94432426743976
 21
3.197746737324123
 31
0.0
  0
LINE
  5
5471
330
1E
100
AcDbEntity
  8
指線
 48
0.27
100
AcDbLine
 10
19.94448636236151
 20
2.101828759066989
 30
0.0
 11
17.80581371915931
 21
2.101564517165826
 31
0.0
  0
LINE
  5
5472
330
1E
100
AcDbEntity
  8
指線
 48
0.27
100
AcDbLine
 10
19.94432426743976
 20
3.197746737324123
 30
0.0
 11
17.80565162423757
 21
3.197482495423201
 31
0.0
  0
ARC
  5
5473
330
1E
100
AcDbEntity
  8
指線
 48
0.27
100
AcDbCircle
 10
20.49016713164636
 20
2.649920812138333
 30
0.0
 40
1.644659169866167
100
AcDbArc
 50
19.46904051925171
 51
83.22109104167346
  0
LINE
  5
5474
330
1E
100
AcDbEntity
  8
指線
 48
0.27
100
AcDbLine
 10
21.0400918417094
 20
4.199916488999065
 30
0.0
 11
21.04024004651023
 21
3.197908936683603
 31
0.0
  0
LINE
  5
5475
330
1E
100
AcDbEntity
  8
指線
 48
0.27
100
AcDbLine
 10
21.04040214143223
 20
2.101990958426227
 30
0.0
 11
23.17468263905527
 21
2.102359128853436
 31
0.0
  0
LINE
  5
5476
330
1E
100
AcDbEntity
  8
指線
 48
0.27
100
AcDbLine
 10
21.04024004651023
 20
3.197908936683603
 30
0.0
 11
23.17452054413327
 21
3.198277107110811
 31
0.0
  0
ARC
  5
5477
330
1E
100
AcDbEntity
  8
指線
 48
0.27
100
AcDbCircle
 10
-27.11005100806165
 20
2.650243282625069
 30
0.0
 40
1.644659169866167
100
AcDbArc
 50
199.4710910050953
 51
250.6280493916774
  0
ARC
  5
5478
330
1E
100
AcDbEntity
  8
指線
 48
0.27
100
AcDbCircle
 10
-27.11005100806165
 20
2.650243282625069
 30
0.0
 40
1.644659169866167
100
AcDbArc
 50
289.5511824003039
 51
340.5458668438663
  0
LINE
  5
5479
330
1E
100
AcDbEntity
  8
指線
 48
0.27
100
AcDbLine
 10
-27.65573177734649
 20
2.102151229553726
 30
0.0
 11
-27.65558335845736
 21
1.098696235418117
 31
0.0
  0
CIRCLE
  5
547A
330
1E
100
AcDbEntity
  8
指線
 48
0.27
100
AcDbCircle
 10
-27.11005100806165
 20
2.650243282625069
 30
0.0
 40
2.739789646400016
  0
LINE
  5
547B
330
1E
100
AcDbEntity
  8
指線
 48
0.27
100
AcDbLine
 10
-26.55981599827578
 20
2.102313428912964
 30
0.0
 11
-26.55966780870811
 21
1.100410350049997
 31
0.0
  0
ARC
  5
547C
330
1E
100
AcDbEntity
  8
指線
 48
0.27
100
AcDbCircle
 10
-27.11005100806165
 20
2.650243282625069
 30
0.0
 40
1.644659169866167
100
AcDbArc
 50
109.3888996106204
 51
160.5479173296243
  0
LINE
  5
547D
330
1E
100
AcDbEntity
  8
指線
 48
0.27
100
AcDbLine
 10
-27.65604230686016
 20
4.201628884808215
 30
0.0
 11
-27.65589387226824
 21
3.19806920781086
 31
0.0
  0
LINE
  5
547E
330
1E
100
AcDbEntity
  8
指線
 48
0.27
100
AcDbLine
 10
-27.65573177734649
 20
2.102151229553726
 30
0.0
 11
-29.79440442054869
 21
2.101886987652562
 31
0.0
  0
LINE
  5
547F
330
1E
100
AcDbEntity
  8
指線
 48
0.27
100
AcDbLine
 10
-27.65589387226824
 20
3.19806920781086
 30
0.0
 11
-29.79456651547044
 21
3.197804965909938
 31
0.0
  0
ARC
  5
5480
330
1E
100
AcDbEntity
  8
指線
 48
0.27
100
AcDbCircle
 10
-27.11005100806165
 20
2.650243282625069
 30
0.0
 40
1.644659169866167
100
AcDbArc
 50
19.46904051925171
 51
83.22109104167346
  0
LINE
  5
5481
330
1E
100
AcDbEntity
  8
指線
 48
0.27
100
AcDbLine
 10
-26.56012629799861
 20
4.200238959485801
 30
0.0
 11
-26.55997809319777
 21
3.198231407170339
 31
0.0
  0
LINE
  5
5482
330
1E
100
AcDbEntity
  8
指線
 48
0.27
100
AcDbLine
 10
-26.55981599827578
 20
2.102313428912964
 30
0.0
 11
-24.42553550065273
 21
2.102681599340172
 31
0.0
  0
LINE
  5
5483
330
1E
100
AcDbEntity
  8
指線
 48
0.27
100
AcDbLine
 10
-26.55997809319777
 20
3.198231407170339
 30
0.0
 11
-24.42569759557474
 21
3.198599577597548
 31
0.0
  0
ARC
  5
5491
330
1E
100
AcDbEntity
  8
0
 48
0.27
100
AcDbCircle
 10
-16.0426519895434
 20
19.51680692514884
 30
0.0
 40
2.93
100
AcDbArc
 50
274.1424881063005
 51
355.8575118936963
  0
ARC
  5
5492
330
1E
100
AcDbEntity
  8
0
 48
0.27
100
AcDbCircle
 10
-16.04265119662796
 20
19.51689314495871
 30
0.0
 40
2.93
100
AcDbArc
 50
274.1420999526608
 51
355.8571237400605
  0
LINE
  5
5493
330
1E
100
AcDbEntity
  8
0
 48
0.27
100
AcDbLine
 10
-12.51598687982363
 20
4.099869251442868
 30
0.0
 11
-17.31559745434327
 21
-0.7009890120543787
 31
0.0
  0
ARC
  5
5494
330
1E
100
AcDbEntity
  8
0
 48
0.27
100
AcDbCircle
 10
-16.0426519895434
 20
8.481806925148845
 30
0.0
 40
2.93
100
AcDbArc
 50
3.952618783122219
 51
86.04738121491896
  0
ARC
  5
5495
330
1E
100
AcDbEntity
  8
0
 48
0.27
100
AcDbCircle
 10
-16.04272595388664
 20
8.481893145211927
 30
0.0
 40
2.93
100
AcDbArc
 50
3.952230629485491
 51
86.04699306128011
  0
LINE
  5
5496
330
1E
100
AcDbEntity
  8
0
 48
0.27
100
AcDbLine
 10
-17.31559745434327
 20
-0.7009890120543787
 30
0.0
 11
-17.31559745434327
 21
-4.500667312059192
 31
0.0
  0
LINE
  5
5497
330
1E
100
AcDbEntity
  8
0
 48
0.27
100
AcDbLine
 10
-17.31559745434327
 20
-4.500667312059192
 30
0.0
 11
-15.81626476640291
 21
-5.999999999999545
 31
0.0
  0
LINE
  5
5498
330
1E
100
AcDbEntity
  8
0
 48
0.27
100
AcDbLine
 10
-15.83099733298951
 20
16.5944615817028
 30
0.0
 11
-17.21565198954332
 21
15.20980692514894
 31
0.0
  0
LINE
  5
5499
330
1E
100
AcDbEntity
  8
0
 48
0.27
100
AcDbLine
 10
-17.21565198954334
 20
12.7798069251551
 30
0.0
 11
-15.84068267634504
 21
11.40483761204353
 31
0.0
  0
LINE
  5
549A
330
1E
100
AcDbEntity
  8
0
 48
0.27
100
AcDbLine
 10
-17.21569683680499
 20
12.77990109167717
 30
0.0
 11
-15.84073683844903
 21
11.40492246378653
 31
0.0
  0
LINE
  5
549B
330
1E
100
AcDbEntity
  8
0
 48
0.27
100
AcDbLine
 10
-17.21565198954334
 20
12.7798069251551
 30
0.0
 11
-17.21565198954332
 21
15.20980692514894
 31
0.0
  0
LINE
  5
549C
330
1E
100
AcDbEntity
  8
0
 48
0.27
100
AcDbLine
 10
-17.21569683680499
 20
12.77990109167717
 30
0.0
 11
-17.21568037462663
 21
15.20990109161536
 31
0.0
  0
LINE
  5
549D
330
1E
100
AcDbEntity
  8
虛線
 48
0.27
100
AcDbLine
 10
3.684633785395163
 20
7.999332687940807
 30
0.0
 11
3.684633785395163
 21
19.59933268794083
 31
0.0
  0
LINE
  5
549E
330
1E
100
AcDbEntity
  8
虛線
 48
0.27
100
AcDbLine
 10
-10.31536621460483
 20
7.999332687940807
 30
0.0
 11
-10.31536621460483
 21
19.59933268794083
 31
0.0
  0
ARC
  5
549F
330
1E
100
AcDbEntity
  8
0
 48
0.27
100
AcDbCircle
 10
9.411348010456663
 20
8.481806925148845
 30
0.0
 40
2.93
100
AcDbArc
 50
93.95261878508103
 51
176.0473812168744
  0
ARC
  5
54A0
330
1E
100
AcDbEntity
  8
0
 48
0.27
100
AcDbCircle
 10
9.411274045529324
 20
8.481720705586866
 30
0.0
 40
2.93
100
AcDbArc
 50
93.95223063144104
 51
176.0469930632388
  0
LINE
  5
54A1
330
1E
100
AcDbEntity
  8
虛線
 48
0.27
100
AcDbLine
 10
3.684633785395163
 20
7.999332687940807
 30
0.0
 11
-10.31536621460483
 21
7.999332687940807
 31
0.0
  0
LINE
  5
54A2
330
1E
100
AcDbEntity
  8
0
 48
0.27
100
AcDbLine
 10
3.934402545656723
 20
-5.500667312059192
 30
0.0
 11
0.4344025456567238
 21
-5.500667312059192
 31
0.0
  0
LINE
  5
54A3
330
1E
100
AcDbEntity
  8
虛線
 48
0.27
100
AcDbLine
 10
1.184402545656723
 20
-5.100667312059215
 30
0.0
 11
1.184402545656723
 21
7.699332687940795
 31
0.0
  0
LINE
  5
54A4
330
1E
100
AcDbEntity
  8
虛線
 48
0.27
100
AcDbLine
 10
-7.815597454343276
 20
-5.100667312059215
 30
0.0
 11
-7.815597454343276
 21
7.699332687940795
 31
0.0
  0
LINE
  5
54A5
330
1E
100
AcDbEntity
  8
虛線
 48
0.27
100
AcDbLine
 10
1.184402545656723
 20
-5.100667312059215
 30
0.0
 11
-7.815597454343276
 21
-5.100667312059215
 31
0.0
  0
LINE
  5
54A6
330
1E
100
AcDbEntity
  8
0
 48
0.27
100
AcDbLine
 10
-10.56559745434327
 20
-5.500667312059192
 30
0.0
 11
-7.065597454343276
 21
-5.500667312059192
 31
0.0
  0
LINE
  5
54A7
330
1E
100
AcDbEntity
  8
0
 48
0.27
100
AcDbLine
 10
-10.56559745434327
 20
-5.500667312059192
 30
0.0
 11
-11.06493014228363
 21
-5.999999999999545
 31
0.0
  0
LINE
  5
54A8
330
1E
100
AcDbEntity
  8
虛線
 48
0.27
100
AcDbLine
 10
-8.215597454343253
 20
-5.500667312059192
 30
0.0
 11
-7.815597454343276
 21
-5.100667312059215
 31
0.0
  0
LINE
  5
54A9
330
1E
100
AcDbEntity
  8
0
 48
0.27
100
AcDbLine
 10
-7.065597454343276
 20
-5.500667312059192
 30
0.0
 11
-6.566264766402923
 21
-5.999999999999545
 31
0.0
  0
LINE
  5
54AA
330
1E
100
AcDbEntity
  8
虛線
 48
0.27
100
AcDbLine
 10
1.584402545656701
 20
-5.500667312059192
 30
0.0
 11
1.184402545656723
 21
-5.100667312059215
 31
0.0
  0
LINE
  5
54AB
330
1E
100
AcDbEntity
  8
0
 48
0.27
100
AcDbLine
 10
0.4344025456567238
 20
-5.500667312059192
 30
0.0
 11
-0.0649301422836217
 21
-5.999999999999545
 31
0.0
  0
LINE
  5
54AC
330
1E
100
AcDbEntity
  8
虛線
 48
0.27
100
AcDbLine
 10
1.184633785395163
 20
7.699332687940795
 30
0.0
 11
-7.815366214604836
 21
7.699332687940795
 31
0.0
  0
LINE
  5
54AD
330
1E
100
AcDbEntity
  8
0
 48
0.27
100
AcDbLine
 10
-13.11962130264183
 20
8.683776238247247
 30
0.0
 11
-12.51565198954341
 21
8.079806925148744
 31
0.0
  0
LINE
  5
54AE
330
1E
100
AcDbEntity
  8
0
 48
0.27
100
AcDbLine
 10
-13.11969389879914
 20
8.683842656061841
 30
0.0
 11
-12.51572867734032
 21
8.079869251351425
 31
0.0
  0
LINE
  5
54AF
330
1E
100
AcDbEntity
  8
0
 48
0.27
100
AcDbLine
 10
-12.51565198954341
 20
8.079806925148744
 30
0.0
 11
-12.51565198954344
 21
4.099806925148897
 31
0.0
  0
LINE
  5
54B0
330
1E
100
AcDbEntity
  8
0
 48
0.27
100
AcDbLine
 10
-12.51572867734032
 20
8.079869251351425
 30
0.0
 11
-12.51575564008519
 21
4.099869251442868
 31
0.0
  0
LINE
  5
54B1
330
1E
100
AcDbEntity
  8
虛線
 48
0.27
100
AcDbLine
 10
-8.11536621460479
 20
7.999332687940807
 30
0.0
 11
-7.815366214604836
 21
7.699332687940795
 31
0.0
  0
LINE
  5
54B2
330
1E
100
AcDbEntity
  8
虛線
 48
0.27
100
AcDbLine
 10
1.484633785395118
 20
7.999332687940807
 30
0.0
 11
1.184633785395163
 21
7.699332687940795
 31
0.0
  0
LINE
  5
54B3
330
1E
100
AcDbEntity
  8
0
 48
0.27
100
AcDbLine
 10
10.68440254565672
 20
-0.7009890120543787
 30
0.0
 11
10.68440254565672
 21
-4.500667312059192
 31
0.0
  0
LINE
  5
54B4
330
1E
100
AcDbEntity
  8
0
 48
0.27
100
AcDbLine
 10
3.934402545656723
 20
-5.500667312059192
 30
0.0
 11
4.433735233597076
 21
-5.999999999999545
 31
0.0
  0
LINE
  5
54B5
330
1E
100
AcDbEntity
  8
0
 48
0.27
100
AcDbLine
 10
10.68440254565672
 20
-4.500667312059192
 30
0.0
 11
9.185069857716371
 21
-5.999999999999545
 31
0.0
  0
LINE
  5
54B6
330
1E
100
AcDbEntity
  8
0
 48
0.27
100
AcDbLine
 10
5.884116770718236
 20
4.09980692514884
 30
0.0
 11
10.6845061966207
 21
-0.7009266864626511
 31
0.0
  0
LINE
  5
54B7
330
1E
100
AcDbEntity
  8
0
 48
0.27
100
AcDbLine
 10
6.488317323555122
 20
8.683776238247276
 30
0.0
 11
5.884348010456676
 21
8.079806925148744
 31
0.0
  0
LINE
  5
54B8
330
1E
100
AcDbEntity
  8
0
 48
0.27
100
AcDbLine
 10
6.488244726947868
 20
8.683709820924519
 30
0.0
 11
5.884271322237538
 21
8.079744599465612
 31
0.0
  0
LINE
  5
54B9
330
1E
100
AcDbEntity
  8
0
 48
0.27
100
AcDbLine
 10
5.884348010456676
 20
8.079806925148744
 30
0.0
 11
5.884348010456676
 21
4.09980692514884
 31
0.0
  0
LINE
  5
54BA
330
1E
100
AcDbEntity
  8
0
 48
0.27
100
AcDbLine
 10
5.884271322237538
 20
8.079744599465612
 30
0.0
 11
5.884244359492697
 21
4.099744599557112
 31
0.0
  0
LINE
  5
54BB
330
1E
100
AcDbEntity
  8
虛線
 48
0.27
100
AcDbLine
 10
3.684633785395163
 20
19.59933268794083
 30
0.0
 11
-10.31536621460483
 21
19.59933268794083
 31
0.0
  0
LINE
  5
54BC
330
1E
100
AcDbEntity
  8
0
 48
0.27
100
AcDbLine
 10
-12.52565198954338
 20
19.89980692514888
 30
0.0
 11
5.894348010456724
 21
19.89980692514888
 31
0.0
  0
LINE
  5
54BD
330
1E
100
AcDbEntity
  8
0
 48
0.27
100
AcDbLine
 10
5.798755704096407
 20
19.89980692514888
 30
0.0
 11
-12.43005629590365
 21
19.89980692514888
 31
0.0
  0
LINE
  5
54BE
330
1E
100
AcDbEntity
  8
0
 48
0.27
100
AcDbLine
 10
-12.4300562956945
 20
19.89986867123019
 30
0.0
 11
5.798755703887252
 21
19.89974517906756
 31
0.0
  0
LINE
  5
54BF
330
1E
100
AcDbEntity
  8
0
 48
0.27
100
AcDbLine
 10
5.894351397524786
 20
19.8997445314489
 30
0.0
 11
-12.52564860205263
 21
19.89986931882589
 31
0.0
  0
LINE
  5
54C0
330
1E
100
AcDbEntity
  8
虛線
 48
0.27
100
AcDbLine
 10
-10.31536621460483
 20
19.59933268794083
 30
0.0
 11
-10.48887315292111
 21
19.89985552057044
 31
0.0
  0
LINE
  5
54C1
330
1E
100
AcDbEntity
  8
0
 48
0.27
100
AcDbLine
 10
-12.52565198954338
 20
19.89980692514888
 30
0.0
 11
-13.12030664609736
 21
19.30515226859489
 31
0.0
  0
LINE
  5
54C2
330
1E
100
AcDbEntity
  8
0
 48
0.27
100
AcDbLine
 10
9.199693353902745
 20
16.5944615817028
 30
0.0
 11
10.58434801045658
 21
15.20980692514894
 31
0.0
  0
LINE
  5
54C3
330
1E
100
AcDbEntity
  8
0
 48
0.27
100
AcDbLine
 10
9.199674348638012
 20
16.59437679582163
 30
0.0
 11
10.58431962473534
 21
15.20971275887484
 31
0.0
  0
LINE
  5
54C4
330
1E
100
AcDbEntity
  8
0
 48
0.27
100
AcDbLine
 10
10.58434801045655
 20
12.77980692515501
 30
0.0
 11
10.58434801045658
 21
15.20980692514894
 31
0.0
  0
LINE
  5
54C5
330
1E
100
AcDbEntity
  8
0
 48
0.27
100
AcDbLine
 10
10.58430316255698
 20
12.77971275893674
 30
0.0
 11
10.58431962473534
 21
15.20971275887484
 31
0.0
  0
LINE
  5
54C6
330
1E
100
AcDbEntity
  8
0
 48
0.27
100
AcDbLine
 10
10.58434801045655
 20
12.77980692515501
 30
0.0
 11
9.209378697258301
 21
11.40483761204353
 31
0.0
  0
LINE
  5
54C7
330
1E
100
AcDbEntity
  8
0
 48
0.27
100
AcDbLine
 10
10.58430316255698
 20
12.77971275893674
 30
0.0
 11
9.209324534579479
 21
11.40475276066752
 31
0.0
  0
ARC
  5
54C8
330
1E
100
AcDbEntity
  8
0
 48
0.27
100
AcDbCircle
 10
9.411348010456663
 20
19.51680692514884
 30
0.0
 40
2.93
100
AcDbArc
 50
184.1424881063037
 51
265.8575118936996
  0
ARC
  5
54C9
330
1E
100
AcDbEntity
  8
0
 48
0.27
100
AcDbCircle
 10
9.411348802788012
 20
19.51672070533362
 30
0.0
 40
2.93
100
AcDbArc
 50
184.1420999526625
 51
265.8571237400605
  0
LINE
  5
54CA
330
1E
100
AcDbEntity
  8
虛線
 48
0.27
100
AcDbLine
 10
3.858084608549233
 20
19.89975832625845
 30
0.0
 11
3.684633785395163
 21
19.59933268794083
 31
0.0
  0
LINE
  5
54CB
330
1E
100
AcDbEntity
  8
0
 48
0.27
100
AcDbLine
 10
5.894348010456724
 20
19.89980692514888
 30
0.0
 11
6.489002667010623
 21
19.30515226859489
 31
0.0
  0
LINE
  5
54CC
330
1E
100
AcDbEntity
  8
0
 48
0.27
100
AcDbLine
 10
5.894351397524786
 20
19.8997445314489
 30
0.0
 11
6.489002025542049
 21
19.30508584638551
 31
0.0
  0
ARC
  5
54CD
330
1E
100
AcDbEntity
  8
0
 48
0.27
100
AcDbCircle
 10
-3.31563810169743
 20
29.49980692528658
 30
0.0
 40
5.249999999999996
100
AcDbArc
 50
30.24329777400028
 51
329.7566907592997
  0
LWPOLYLINE
  5
54CE
330
1E
100
AcDbEntity
  8
0
 48
0.27
100
AcDbPolyline
 90
       17
 70
     0
 43
0.0
 10
5.636049625602559
 20
29.49980692528658
 10
5.669597927002591
 20
29.28276968278655
 10
5.702488916202575
 20
29.21986544878658
 10
5.739059250002547
 20
29.19032381208658
 10
5.773036407402564
 20
29.19063109208659
 10
5.809529253202576
 20
29.22083538488659
 10
5.84087315420259
 20
29.28060536238655
 10
5.870259814902588
 20
29.41067834308658
 10
5.875227063702588
 20
29.49980692528658
 10
5.841680098302582
 20
29.71684283178655
 10
5.808787773102544
 20
29.77974706578658
 10
5.772217439302572
 20
29.80928870248659
 10
5.738241617902581
 20
29.80898142238655
 10
5.701747436102571
 20
29.77877712958656
 10
5.670404871102554
 20
29.71900715208656
 10
5.641016874402559
 20
29.58893417148656
 10
5.636049625602559
 20
29.49980692528658
  0
ARC
  5
54CF
330
1E
100
AcDbEntity
  8
0
 48
0.27
100
AcDbCircle
 10
-3.31563810169743
 20
29.49980692528658
 30
0.0
 40
3.999999331999998
100
AcDbArc
 50
48.59037799889987
 51
311.4096220032
  0
LINE
  5
54D0
330
1E
100
AcDbEntity
  8
0
 48
0.27
100
AcDbLine
 10
-0.4288863306974449
 20
32.49980609028657
 30
0.0
 11
-1.006237486497433
 21
33.49980625728657
 31
0.0
  0
LINE
  5
54D1
330
1E
100
AcDbEntity
  8
0
 48
0.27
100
AcDbLine
 10
-5.625038716897435
 20
33.49980625728657
 30
0.0
 11
-1.006237486497433
 21
33.49980625728657
 31
0.0
  0
LINE
  5
54D2
330
1E
100
AcDbEntity
  8
0
 48
0.27
100
AcDbLine
 10
-5.625038716897435
 20
33.49980625728657
 30
0.0
 11
-7.934439332097426
 21
29.49980692528658
 31
0.0
  0
LINE
  5
54D3
330
1E
100
AcDbEntity
  8
0
 48
0.27
100
AcDbLine
 10
-7.934439332097426
 20
29.49980692528658
 30
0.0
 11
-5.625038716897435
 21
25.49980625728657
 31
0.0
  0
LINE
  5
54D4
330
1E
100
AcDbEntity
  8
0
 48
0.27
100
AcDbLine
 10
-1.006236150497436
 20
25.49980625728657
 30
0.0
 11
-5.625038716897435
 21
25.49980625728657
 31
0.0
  0
LINE
  5
54D5
330
1E
100
AcDbEntity
  8
0
 48
0.27
100
AcDbLine
 10
-0.4288863306974449
 20
26.49980642428656
 30
0.0
 11
-1.006236150497436
 21
25.49980625728657
 31
0.0
  0
LINE
  5
54D6
330
1E
100
AcDbEntity
  8
0
 48
0.27
100
AcDbLine
 10
-2.014132078697429
 20
26.49980642428656
 30
0.0
 11
0.9999365045025498
 21
26.49980642428656
 31
0.0
  0
LINE
  5
54D7
330
1E
100
AcDbEntity
  8
0
 48
0.27
100
AcDbLine
 10
1.062835394502563
 20
32.21511914098658
 30
0.0
 11
0.9999365045025498
 21
32.49980609028657
 31
0.0
  0
LINE
  5
54D8
330
1E
100
AcDbEntity
  8
0
 48
0.27
100
AcDbLine
 10
0.9999365045025498
 20
26.49980642428656
 30
0.0
 11
1.062835394502563
 21
26.78449337358657
 31
0.0
  0
LINE
  5
54D9
330
1E
100
AcDbEntity
  8
0
 48
0.27
100
AcDbLine
 10
-2.014132078697429
 20
32.49980609028657
 30
0.0
 11
0.9999365045025498
 21
32.49980609028657
 31
0.0
  0
LINE
  5
54DA
330
1E
100
AcDbEntity
  8
0
 48
0.27
100
AcDbLine
 10
0.5610831467025648
 20
26.55745082548657
 30
0.0
 11
2.562889753002558
 21
27.46326564948657
 31
0.0
  0
LINE
  5
54DB
330
1E
100
AcDbEntity
  8
0
 48
0.27
100
AcDbLine
 10
6.428104031602536
 20
29.15027052568655
 30
0.0
 11
6.441278329702562
 21
29.49980692528658
 31
0.0
  0
LINE
  5
54DC
330
1E
100
AcDbEntity
  8
0
 48
0.27
100
AcDbLine
 10
6.389087481402576
 20
28.81416627228657
 30
0.0
 11
6.428104031602536
 21
29.15027052568655
 31
0.0
  0
LINE
  5
54DD
330
1E
100
AcDbEntity
  8
0
 48
0.27
100
AcDbLine
 10
6.441278329702562
 20
29.49980692528658
 30
0.0
 11
6.428104031602536
 21
29.84934332488658
 31
0.0
  0
LINE
  5
54DE
330
1E
100
AcDbEntity
  8
0
 48
0.27
100
AcDbLine
 10
0.3371093911025653
 20
26.49980642428656
 30
0.0
 11
0.5610831467025648
 21
26.55745082548657
 31
0.0
  0
LINE
  5
54DF
330
1E
100
AcDbEntity
  8
0
 48
0.27
100
AcDbLine
 10
0.3371093911025653
 20
32.49980609028657
 30
0.0
 11
0.5610831467025648
 21
32.44216168908656
 31
0.0
  0
LINE
  5
54E0
330
1E
100
AcDbEntity
  8
0
 48
0.27
100
AcDbLine
 10
0.5610831467025648
 20
32.44216168908656
 30
0.0
 11
2.562889753002558
 21
31.53634686508657
 31
0.0
  0
LINE
  5
54E1
330
1E
100
AcDbEntity
  8
0
 48
0.27
100
AcDbLine
 10
6.325727671302566
 20
28.50441195098657
 30
0.0
 11
6.389087481402576
 21
28.81416627228657
 31
0.0
  0
LINE
  5
54E2
330
1E
100
AcDbEntity
  8
0
 48
0.27
100
AcDbLine
 10
6.428104031602536
 20
29.84934332488658
 30
0.0
 11
6.389087481402576
 21
30.18544624228656
 31
0.0
  0
LINE
  5
54E3
330
1E
100
AcDbEntity
  8
0
 48
0.27
100
AcDbLine
 10
6.240458793702551
 20
28.23290865188656
 30
0.0
 11
6.325727671302566
 21
28.50441195098657
 31
0.0
  0
LINE
  5
54E4
330
1E
100
AcDbEntity
  8
0
 48
0.27
100
AcDbLine
 10
5.48110432900254
 20
27.86149792078658
 30
0.0
 11
5.483002785302552
 21
27.86242644088657
 31
0.0
  0
LINE
  5
54E5
330
1E
100
AcDbEntity
  8
0
 48
0.27
100
AcDbLine
 10
6.389087481402576
 20
30.18544624228656
 30
0.0
 11
6.325727671302566
 21
30.49520189958658
 31
0.0
  0
LINE
  5
54E6
330
1E
100
AcDbEntity
  8
0
 48
0.27
100
AcDbLine
 10
0.1131356355025659
 20
26.55745082548657
 30
0.0
 11
0.3371093911025653
 21
26.49980642428656
 31
0.0
  0
LINE
  5
54E7
330
1E
100
AcDbEntity
  8
0
 48
0.27
100
AcDbLine
 10
0.1131356355025659
 20
32.44216168908656
 30
0.0
 11
0.3371093911025653
 21
32.49980609028657
 31
0.0
  0
LINE
  5
54E8
330
1E
100
AcDbEntity
  8
0
 48
0.27
100
AcDbLine
 10
6.136559393202567
 20
28.01009187238657
 30
0.0
 11
6.240458793702551
 21
28.23290865188656
 31
0.0
  0
LINE
  5
54E9
330
1E
100
AcDbEntity
  8
0
 48
0.27
100
AcDbLine
 10
6.325727671302566
 20
30.49520189958658
 30
0.0
 11
6.240458793702551
 21
30.76670386268657
 31
0.0
  0
LINE
  5
54EA
330
1E
100
AcDbEntity
  8
0
 48
0.27
100
AcDbLine
 10
2.562889753002558
 20
27.46326564948657
 30
0.0
 11
2.804012407302543
 21
27.5616687450866
 31
0.0
  0
LINE
  5
54EB
330
1E
100
AcDbEntity
  8
0
 48
0.27
100
AcDbLine
 10
2.562889753002558
 20
31.53634686508657
 30
0.0
 11
2.804012407302543
 21
31.43794510548656
 31
0.0
  0
LINE
  5
54EC
330
1E
100
AcDbEntity
  8
0
 48
0.27
100
AcDbLine
 10
6.018021438402563
 20
27.84452537408657
 30
0.0
 11
6.136559393202567
 21
28.01009187238657
 31
0.0
  0
LINE
  5
54ED
330
1E
100
AcDbEntity
  8
0
 48
0.27
100
AcDbLine
 10
6.240458793702551
 20
30.76670386268657
 30
0.0
 11
6.136559393202567
 21
30.98952064218659
 31
0.0
  0
LINE
  5
54EE
330
1E
100
AcDbEntity
  8
0
 48
0.27
100
AcDbLine
 10
-0.1022302707974418
 20
26.72816760458656
 30
0.0
 11
0.1131356355025659
 21
26.55745082548657
 31
0.0
  0
LINE
  5
54EF
330
1E
100
AcDbEntity
  8
0
 48
0.27
100
AcDbLine
 10
-0.1022302707974418
 20
32.27144490998657
 30
0.0
 11
0.1131356355025659
 21
32.44216168908656
 31
0.0
  0
LINE
  5
54F0
330
1E
100
AcDbEntity
  8
0
 48
0.27
100
AcDbLine
 10
2.804012407302543
 20
27.5616687450866
 30
0.0
 11
3.018936097502553
 21
27.55254119168657
 31
0.0
  0
LINE
  5
54F1
330
1E
100
AcDbEntity
  8
0
 48
0.27
100
AcDbLine
 10
2.804012407302543
 20
31.43794510548656
 30
0.0
 11
3.018936097502553
 21
31.44707132288656
 31
0.0
  0
LINE
  5
54F2
330
1E
100
AcDbEntity
  8
0
 48
0.27
100
AcDbLine
 10
4.638925867102578
 20
26.99547853508658
 30
0.0
 11
5.889400689902551
 21
27.74256851788657
 31
0.0
  0
LINE
  5
54F3
330
1E
100
AcDbEntity
  8
0
 48
0.27
100
AcDbLine
 10
5.889400689902551
 20
27.74256851788657
 30
0.0
 11
6.018021438402563
 21
27.84452537408657
 31
0.0
  0
LINE
  5
54F4
330
1E
100
AcDbEntity
  8
0
 48
0.27
100
AcDbLine
 10
6.136559393202567
 20
30.98952064218659
 30
0.0
 11
6.018021438402563
 21
31.15508714048656
 31
0.0
  0
LINE
  5
54F5
330
1E
100
AcDbEntity
  8
0
 48
0.27
100
AcDbLine
 10
-2.676959192097434
 20
29.49980692528658
 30
0.0
 11
-2.014132078697429
 21
32.49980609028657
 31
0.0
  0
LINE
  5
54F6
330
1E
100
AcDbEntity
  8
0
 48
0.27
100
AcDbLine
 10
-2.676959192097434
 20
29.49980692528658
 30
0.0
 11
-0.9885448356974322
 21
29.49980692528658
 31
0.0
  0
LINE
  5
54F7
330
1E
100
AcDbEntity
  8
0
 48
0.27
100
AcDbLine
 10
-2.014132078697429
 20
26.49980642428656
 30
0.0
 11
-2.676959192097434
 21
29.49980692528658
 31
0.0
  0
LINE
  5
54F8
330
1E
100
AcDbEntity
  8
0
 48
0.27
100
AcDbLine
 10
-0.1022302707974418
 20
26.72816760458656
 30
0.0
 11
-0.3007131422974325
 21
27.00539700068657
 31
0.0
  0
LINE
  5
54F9
330
1E
100
AcDbEntity
  8
0
 48
0.27
100
AcDbLine
 10
-0.3007131422974325
 20
31.99421551388656
 30
0.0
 11
-0.1022302707974418
 21
32.27144490998657
 31
0.0
  0
LINE
  5
54FA
330
1E
100
AcDbEntity
  8
0
 48
0.27
100
AcDbLine
 10
4.44829600480255
 20
26.94641526328656
 30
0.0
 11
4.638925867102578
 21
26.99547853508658
 31
0.0
  0
LINE
  5
54FB
330
1E
100
AcDbEntity
  8
0
 48
0.27
100
AcDbLine
 10
4.087463723402542
 20
26.97429892368658
 30
0.0
 11
4.44829600480255
 21
26.94641526328656
 31
0.0
  0
LINE
  5
54FC
330
1E
100
AcDbEntity
  8
0
 48
0.27
100
AcDbLine
 10
3.018936097502553
 20
27.55254119168657
 30
0.0
 11
3.572883201602557
 21
27.18732415758657
 31
0.0
  0
LINE
  5
54FD
330
1E
100
AcDbEntity
  8
0
 48
0.27
100
AcDbLine
 10
5.755639012602564
 20
27.70814246438656
 30
0.0
 11
5.889400689902551
 21
27.74256851788657
 31
0.0
  0
LINE
  5
54FE
330
1E
100
AcDbEntity
  8
0
 48
0.27
100
AcDbLine
 10
4.638925867102578
 20
32.00413531548657
 30
0.0
 11
5.889400689902551
 21
31.25704399668658
 31
0.0
  0
LINE
  5
54FF
330
1E
100
AcDbEntity
  8
0
 48
0.27
100
AcDbLine
 10
5.889400689902551
 20
31.25704399668658
 30
0.0
 11
6.018021438402563
 21
31.15508714048656
 31
0.0
  0
LINE
  5
5500
330
1E
100
AcDbEntity
  8
0
 48
0.27
100
AcDbLine
 10
4.44829600480255
 20
32.05319725128658
 30
0.0
 11
4.638925867102578
 21
32.00413531548657
 31
0.0
  0
LINE
  5
5501
330
1E
100
AcDbEntity
  8
0
 48
0.27
100
AcDbLine
 10
4.087463723402542
 20
32.02531492678656
 30
0.0
 11
4.44829600480255
 21
32.05319725128658
 31
0.0
  0
LINE
  5
5502
330
1E
100
AcDbEntity
  8
0
 48
0.27
100
AcDbLine
 10
2.828100491202555
 20
27.69704431068657
 30
0.0
 11
2.968181449402557
 21
27.58600398898659
 31
0.0
  0
LINE
  5
5503
330
1E
100
AcDbEntity
  8
0
 48
0.27
100
AcDbLine
 10
3.572883201602557
 20
27.18732415758657
 30
0.0
 11
3.89891534940255
 21
27.02282512348657
 31
0.0
  0
LINE
  5
5504
330
1E
100
AcDbEntity
  8
0
 48
0.27
100
AcDbLine
 10
3.89891534940255
 20
27.02282512348657
 30
0.0
 11
4.087463723402542
 21
26.97429892368658
 31
0.0
  0
LINE
  5
5505
330
1E
100
AcDbEntity
  8
0
 48
0.27
100
AcDbLine
 10
3.018936097502553
 20
31.44707132288656
 30
0.0
 11
3.572883201602557
 21
31.81228835698656
 31
0.0
  0
LINE
  5
5506
330
1E
100
AcDbEntity
  8
0
 48
0.27
100
AcDbLine
 10
2.828100491202555
 20
31.30256820388657
 30
0.0
 11
2.968181449402557
 21
31.41360852558657
 31
0.0
  0
LINE
  5
5507
330
1E
100
AcDbEntity
  8
0
 48
0.27
100
AcDbLine
 10
-0.3007131422974325
 20
27.00539700068657
 30
0.0
 11
-0.4746844179974446
 21
27.37848574798656
 31
0.0
  0
LINE
  5
5508
330
1E
100
AcDbEntity
  8
0
 48
0.27
100
AcDbLine
 10
-0.4746844179974446
 20
31.62112676658657
 30
0.0
 11
-0.3007131422974325
 21
31.99421551388656
 31
0.0
  0
LINE
  5
5509
330
1E
100
AcDbEntity
  8
0
 48
0.27
100
AcDbLine
 10
4.257664806502539
 20
26.99547853508658
 30
0.0
 11
4.44829600480255
 21
26.94641526328656
 31
0.0
  0
LINE
  5
550A
330
1E
100
AcDbEntity
  8
0
 48
0.27
100
AcDbLine
 10
3.89891534940255
 20
31.97678739108658
 30
0.0
 11
4.087463723402542
 21
32.02531492678656
 31
0.0
  0
LINE
  5
550B
330
1E
100
AcDbEntity
  8
0
 48
0.27
100
AcDbLine
 10
3.572883201602557
 20
31.81228835698656
 30
0.0
 11
3.89891534940255
 21
31.97678739108658
 31
0.0
  0
LINE
  5
550C
330
1E
100
AcDbEntity
  8
0
 48
0.27
100
AcDbLine
 10
-0.3257177222974192
 20
26.49980642428656
 30
0.0
 11
-0.9885448356974322
 21
29.49980692528658
 31
0.0
  0
LINE
  5
550D
330
1E
100
AcDbEntity
  8
0
 48
0.27
100
AcDbLine
 10
-0.9885448356974322
 20
29.49980692528658
 30
0.0
 11
-0.3257177222974192
 21
32.49980609028657
 31
0.0
  0
LINE
  5
550E
330
1E
100
AcDbEntity
  8
0
 48
0.27
100
AcDbLine
 10
2.828100491202555
 20
27.69704431068657
 30
0.0
 11
2.699000118602562
 21
27.87736292328657
 31
0.0
  0
LINE
  5
550F
330
1E
100
AcDbEntity
  8
0
 48
0.27
100
AcDbLine
 10
5.621877335402551
 20
27.74256851788657
 30
0.0
 11
5.755639012602564
 21
27.70814246438656
 31
0.0
  0
LINE
  5
5510
330
1E
100
AcDbEntity
  8
0
 48
0.27
100
AcDbLine
 10
5.755639012602564
 20
31.29147005018658
 30
0.0
 11
5.889400689902551
 21
31.25704399668658
 31
0.0
  0
LINE
  5
5511
330
1E
100
AcDbEntity
  8
0
 48
0.27
100
AcDbLine
 10
4.257664806502539
 20
32.00413531548657
 30
0.0
 11
4.44829600480255
 21
32.05319725128658
 31
0.0
  0
LINE
  5
5512
330
1E
100
AcDbEntity
  8
0
 48
0.27
100
AcDbLine
 10
3.403619990702559
 20
31.67811652758655
 30
0.0
 11
3.572883201602557
 21
31.81228835698656
 31
0.0
  0
LINE
  5
5513
330
1E
100
AcDbEntity
  8
0
 48
0.27
100
AcDbLine
 10
2.699000118602562
 20
31.12224959128658
 30
0.0
 11
2.828100491202555
 21
31.30256820388657
 31
0.0
  0
LINE
  5
5514
330
1E
100
AcDbEntity
  8
0
 48
0.27
100
AcDbLine
 10
-0.4746844179974446
 20
27.37848574798656
 30
0.0
 11
-0.6174600886974347
 21
27.83309589228655
 31
0.0
  0
LINE
  5
5515
330
1E
100
AcDbEntity
  8
0
 48
0.27
100
AcDbLine
 10
-0.6174600886974347
 20
31.16651662228657
 30
0.0
 11
-0.4746844179974446
 21
31.62112676658657
 31
0.0
  0
LINE
  5
5516
330
1E
100
AcDbEntity
  8
0
 48
0.27
100
AcDbLine
 10
2.699000118602562
 20
27.87736292328657
 30
0.0
 11
2.585843572702565
 21
28.12003132988659
 31
0.0
  0
LINE
  5
5517
330
1E
100
AcDbEntity
  8
0
 48
0.27
100
AcDbLine
 10
4.074360233302563
 20
27.14078058218657
 30
0.0
 11
4.257664806502539
 21
26.99547853508658
 31
0.0
  0
LINE
  5
5518
330
1E
100
AcDbEntity
  8
0
 48
0.27
100
AcDbLine
 10
2.585843572702565
 20
30.87958118468657
 30
0.0
 11
2.699000118602562
 21
31.12224959128658
 31
0.0
  0
LINE
  5
5519
330
1E
100
AcDbEntity
  8
0
 48
0.27
100
AcDbLine
 10
5.493255250902542
 20
27.84452537408657
 30
0.0
 11
5.621877335402551
 21
27.74256851788657
 31
0.0
  0
LINE
  5
551A
330
1E
100
AcDbEntity
  8
0
 48
0.27
100
AcDbLine
 10
4.074360233302563
 20
31.85883193238657
 30
0.0
 11
4.257664806502539
 21
32.00413531548657
 31
0.0
  0
LINE
  5
551B
330
1E
100
AcDbEntity
  8
0
 48
0.27
100
AcDbLine
 10
5.621877335402551
 20
31.25704399668658
 30
0.0
 11
5.755639012602564
 21
31.29147005018658
 31
0.0
  0
LINE
  5
551C
330
1E
100
AcDbEntity
  8
0
 48
0.27
100
AcDbLine
 10
2.585843572702565
 20
28.12003132988659
 30
0.0
 11
2.492978197902566
 21
28.41572424888658
 31
0.0
  0
LINE
  5
551D
330
1E
100
AcDbEntity
  8
0
 48
0.27
100
AcDbLine
 10
-0.6174600886974347
 20
27.83309589228655
 30
0.0
 11
-0.7235505294974374
 21
28.35175655878657
 31
0.0
  0
LINE
  5
551E
330
1E
100
AcDbEntity
  8
0
 48
0.27
100
AcDbLine
 10
-0.7235505294974374
 20
30.64785729178655
 30
0.0
 11
-0.6174600886974347
 21
31.16651662228657
 31
0.0
  0
LINE
  5
551F
330
1E
100
AcDbEntity
  8
0
 48
0.27
100
AcDbLine
 10
2.492978197902566
 20
30.58388826568656
 30
0.0
 11
2.585843572702565
 21
30.87958118468657
 31
0.0
  0
LINE
  5
5520
330
1E
100
AcDbEntity
  8
0
 48
0.27
100
AcDbLine
 10
4.074360233302563
 20
27.14078058218657
 30
0.0
 11
3.905425678502545
 21
27.37673959568657
 31
0.0
  0
LINE
  5
5521
330
1E
100
AcDbEntity
  8
0
 48
0.27
100
AcDbLine
 10
2.492978197902566
 20
28.41572424888658
 30
0.0
 11
2.423973786902557
 21
28.75307766258658
 31
0.0
  0
LINE
  5
5522
330
1E
100
AcDbEntity
  8
0
 48
0.27
100
AcDbLine
 10
-0.7235505294974374
 20
28.35175655878657
 30
0.0
 11
-0.7888809398974388
 21
28.91453596018659
 31
0.0
  0
LINE
  5
5523
330
1E
100
AcDbEntity
  8
0
 48
0.27
100
AcDbLine
 10
-0.7888809398974388
 20
30.08507789028657
 30
0.0
 11
-0.7235505294974374
 21
30.64785729178655
 31
0.0
  0
LINE
  5
5524
330
1E
100
AcDbEntity
  8
0
 48
0.27
100
AcDbLine
 10
5.493255250902542
 20
31.15508714048656
 30
0.0
 11
5.621877335402551
 21
31.25704399668658
 31
0.0
  0
LINE
  5
5525
330
1E
100
AcDbEntity
  8
0
 48
0.27
100
AcDbLine
 10
5.493255250902542
 20
27.84452537408657
 30
0.0
 11
5.374717296102581
 21
28.01009187238657
 31
0.0
  0
LINE
  5
5526
330
1E
100
AcDbEntity
  8
0
 48
0.27
100
AcDbLine
 10
3.905425678502545
 20
31.62287291888656
 30
0.0
 11
4.074360233302563
 21
31.85883193238657
 31
0.0
  0
LINE
  5
5527
330
1E
100
AcDbEntity
  8
0
 48
0.27
100
AcDbLine
 10
2.423973786902557
 20
30.24653485198655
 30
0.0
 11
2.492978197902566
 21
30.58388826568656
 31
0.0
  0
LINE
  5
5528
330
1E
100
AcDbEntity
  8
0
 48
0.27
100
AcDbLine
 10
2.423973786902557
 20
28.75307766258658
 30
0.0
 11
2.381479628202562
 21
29.11912702478657
 31
0.0
  0
LINE
  5
5529
330
1E
100
AcDbEntity
  8
0
 48
0.27
100
AcDbLine
 10
-0.7888809398974388
 20
28.91453596018659
 30
0.0
 11
-0.810940975397429
 21
29.49980692528658
 31
0.0
  0
LINE
  5
552A
330
1E
100
AcDbEntity
  8
0
 48
0.27
100
AcDbLine
 10
-0.810940975397429
 20
29.49980692528658
 30
0.0
 11
-0.7888809398974388
 21
30.08507789028657
 31
0.0
  0
LINE
  5
552B
330
1E
100
AcDbEntity
  8
0
 48
0.27
100
AcDbLine
 10
2.381479628202562
 20
29.88048548978657
 30
0.0
 11
2.423973786902557
 21
30.24653485198655
 31
0.0
  0
LINE
  5
552C
330
1E
100
AcDbEntity
  8
0
 48
0.27
100
AcDbLine
 10
2.381479628202562
 20
29.11912702478657
 30
0.0
 11
2.367132321902566
 21
29.49980692528658
 31
0.0
  0
LINE
  5
552D
330
1E
100
AcDbEntity
  8
0
 48
0.27
100
AcDbLine
 10
2.367132321902566
 20
29.49980692528658
 30
0.0
 11
2.381479628202562
 21
29.88048548978657
 31
0.0
  0
LINE
  5
552E
330
1E
100
AcDbEntity
  8
0
 48
0.27
100
AcDbLine
 10
3.905425678502545
 20
27.37673959568657
 30
0.0
 11
3.757352766902563
 21
27.69428680618657
 31
0.0
  0
LINE
  5
552F
330
1E
100
AcDbEntity
  8
0
 48
0.27
100
AcDbLine
 10
5.374717296102581
 20
30.98952064218659
 30
0.0
 11
5.493255250902542
 21
31.15508714048656
 31
0.0
  0
LINE
  5
5530
330
1E
100
AcDbEntity
  8
0
 48
0.27
100
AcDbLine
 10
5.374717296102581
 20
28.01009187238657
 30
0.0
 11
5.27081789560254
 21
28.23290865188656
 31
0.0
  0
LINE
  5
5531
330
1E
100
AcDbEntity
  8
0
 48
0.27
100
AcDbLine
 10
3.757352766902563
 20
31.30532704438657
 30
0.0
 11
3.905425678502545
 21
31.62287291888656
 31
0.0
  0
LINE
  5
5532
330
1E
100
AcDbEntity
  8
0
 48
0.27
100
AcDbLine
 10
5.27081789560254
 20
30.76670386268657
 30
0.0
 11
5.374717296102581
 21
30.98952064218659
 31
0.0
  0
LINE
  5
5533
330
1E
100
AcDbEntity
  8
0
 48
0.27
100
AcDbLine
 10
3.757352766902563
 20
27.69428680618657
 30
0.0
 11
3.635832859602565
 21
28.08121785168657
 31
0.0
  0
LINE
  5
5534
330
1E
100
AcDbEntity
  8
0
 48
0.27
100
AcDbLine
 10
5.27081789560254
 20
28.23290865188656
 30
0.0
 11
5.185550354002536
 21
28.50441195098657
 31
0.0
  0
LINE
  5
5535
330
1E
100
AcDbEntity
  8
0
 48
0.27
100
AcDbLine
 10
3.635832859602565
 20
30.91839466278657
 30
0.0
 11
3.757352766902563
 21
31.30532704438657
 31
0.0
  0
LINE
  5
5536
330
1E
100
AcDbEntity
  8
0
 48
0.27
100
AcDbLine
 10
5.185550354002536
 20
30.49520189958658
 30
0.0
 11
5.27081789560254
 21
30.76670386268657
 31
0.0
  0
LINE
  5
5537
330
1E
100
AcDbEntity
  8
0
 48
0.27
100
AcDbLine
 10
3.635832859602565
 20
28.08121785168657
 30
0.0
 11
3.545535277202581
 21
28.52266572188657
 31
0.0
  0
LINE
  5
5538
330
1E
100
AcDbEntity
  8
0
 48
0.27
100
AcDbLine
 10
5.185550354002536
 20
28.50441195098657
 30
0.0
 11
5.122190543902569
 21
28.81416627228657
 31
0.0
  0
LINE
  5
5539
330
1E
100
AcDbEntity
  8
0
 48
0.27
100
AcDbLine
 10
3.545535277202581
 20
30.47694679268656
 30
0.0
 11
3.635832859602565
 21
30.91839466278657
 31
0.0
  0
LINE
  5
553A
330
1E
100
AcDbEntity
  8
0
 48
0.27
100
AcDbLine
 10
5.122190543902569
 20
30.18544624228656
 30
0.0
 11
5.185550354002536
 21
30.49520189958658
 31
0.0
  0
LINE
  5
553B
330
1E
100
AcDbEntity
  8
0
 48
0.27
100
AcDbLine
 10
3.545535277202581
 20
28.52266572188657
 30
0.0
 11
3.489930948402552
 21
29.00166455008657
 31
0.0
  0
LINE
  5
553C
330
1E
100
AcDbEntity
  8
0
 48
0.27
100
AcDbLine
 10
5.122190543902569
 20
28.81416627228657
 30
0.0
 11
5.08317265770254
 21
29.15027052568655
 31
0.0
  0
LINE
  5
553D
330
1E
100
AcDbEntity
  8
0
 48
0.27
100
AcDbLine
 10
3.489930948402552
 20
29.99794796448657
 30
0.0
 11
3.545535277202581
 21
30.47694679268656
 31
0.0
  0
LINE
  5
553E
330
1E
100
AcDbEntity
  8
0
 48
0.27
100
AcDbLine
 10
5.08317265770254
 20
29.84934332488658
 30
0.0
 11
5.122190543902569
 21
30.18544624228656
 31
0.0
  0
LINE
  5
553F
330
1E
100
AcDbEntity
  8
0
 48
0.27
100
AcDbLine
 10
3.489930948402552
 20
29.00166455008657
 30
0.0
 11
3.471154801402541
 21
29.49980692528658
 31
0.0
  0
LINE
  5
5540
330
1E
100
AcDbEntity
  8
0
 48
0.27
100
AcDbLine
 10
5.08317265770254
 20
29.15027052568655
 30
0.0
 11
5.069998359602571
 21
29.49980692528658
 31
0.0
  0
LINE
  5
5541
330
1E
100
AcDbEntity
  8
0
 48
0.27
100
AcDbLine
 10
5.069998359602571
 20
29.49980692528658
 30
0.0
 11
5.08317265770254
 21
29.84934332488658
 31
0.0
  0
LINE
  5
5542
330
1E
100
AcDbEntity
  8
0
 48
0.27
100
AcDbLine
 10
3.471154801402541
 20
29.49980692528658
 30
0.0
 11
3.489930948402552
 21
29.99794796448657
 31
0.0
  0
LINE
  5
5543
330
1E
100
AcDbEntity
  8
0
 48
0.27
100
AcDbLine
 10
2.968181449402557
 20
27.58600398898659
 30
0.0
 11
3.018936097502553
 21
27.55254119168657
 31
0.0
  0
LINE
  5
5544
330
1E
100
AcDbEntity
  8
0
 48
0.27
100
AcDbLine
 10
2.755658551702559
 20
27.56372217748657
 30
0.0
 11
2.804012407302543
 21
27.5616687450866
 31
0.0
  0
LINE
  5
5545
330
1E
100
AcDbEntity
  8
0
 48
0.27
100
AcDbLine
 10
2.968181449402557
 20
31.41360852558657
 30
0.0
 11
3.018936097502553
 21
31.44707132288656
 31
0.0
  0
LINE
  5
5546
330
1E
100
AcDbEntity
  8
中心線
 48
0.27
100
AcDbLine
 10
7.941278329702562
 20
29.49980692528658
 30
0.0
 11
-10.06563810169743
 21
29.49980692528658
 31
0.0
  0
POINT
  5
5547
330
1E
100
AcDbEntity
  8
0
100
AcDbPoint
 10
6.441278329702562
 20
29.49980692528658
 30
0.0
1001
pntflag
1000
endpoint
  0
LINE
  5
5548
330
1E
100
AcDbEntity
  8
0
100
AcDbLine
 10
10.68459562050815
 20
36.00000000000044
 30
0.0
 11
25.18420947080506
 21
36.00000000000046
 31
0.0
  0
LINE
  5
5549
330
1E
100
AcDbEntity
  8
0
100
AcDbLine
 10
1.684209470805075
 20
36.00000000000046
 30
0.0
 11
-8.315414538978171
 21
36.00000000000046
 31
0.0
  0
LINE
  5
554A
330
1E
100
AcDbEntity
  8
0
100
AcDbLine
 10
-17.31567197284023
 20
36.00000000000046
 30
0.0
 11
-31.81557374273269
 21
36.00000000000046
 31
0.0
  0
LINE
  5
554B
330
1E
100
AcDbEntity
  8
0
100
AcDbLine
 10
9.185069857716371
 20
-5.999999999999545
 30
0.0
 11
4.433735233597076
 21
-5.999999999999545
 31
0.0
  0
LINE
  5
554C
330
1E
100
AcDbEntity
  8
0
100
AcDbLine
 10
23.6845956205082
 20
0.0000000000004547
 30
0.0
 11
9.98386100241327
 21
0.0000000000004547
 31
0.0
  0
LINE
  5
554D
330
1E
100
AcDbEntity
  8
0
100
AcDbLine
 10
-0.0649301422836217
 20
-5.999999999999545
 30
0.0
 11
-6.566264766402923
 21
-5.999999999999545
 31
0.0
  0
LINE
  5
554E
330
1E
100
AcDbEntity
  8
0
100
AcDbLine
 10
-11.06493014228363
 20
-5.999999999999545
 30
0.0
 11
-15.81626476640291
 21
-5.999999999999545
 31
0.0
  0
LINE
  5
554F
330
1E
100
AcDbEntity
  8
0
100
AcDbLine
 10
-16.61455938169709
 20
0.0000000000004547
 30
0.0
 11
-30.31584811137463
 21
0.0000000000004547
 31
0.0
  0
LINE
  5
557A
330
1E
100
AcDbEntity
  8
0
100
AcDbLine
 10
98.89918805678776
 20
29.50001896203222
 30
0.0
 11
101.881685422821
 21
29.49999830642972
 31
0.0
  0
LINE
  5
557B
330
1E
100
AcDbEntity
  8
0
100
AcDbLine
 10
100.3816854228212
 20
135.1629506345095
 30
0.0
 11
100.3816854228211
 21
125.9482509640579
 31
0.0
  0
LINE
  5
5601
330
1E
100
AcDbEntity
  8
0
100
AcDbLine
 10
100.3816854228212
 20
135.1629506345095
 30
0.0
 11
101.8816854228212
 21
137.4026727346875
 31
0.0
  0
LINE
  5
5602
330
1E
100
AcDbEntity
  8
0
100
AcDbLine
 10
100.3816854228212
 20
130.4729472470188
 30
0.0
 11
101.8816854228212
 21
131.4006461896647
 31
0.0
  0
LINE
  5
5604
330
1E
100
AcDbEntity
  8
0
100
AcDbLine
 10
100.3816854228211
 20
112.0528667825634
 30
0.0
 11
101.8816854228212
 21
111.1251678399176
 31
0.0
  0
LINE
  5
5605
330
1E
100
AcDbEntity
  8
0
100
AcDbLine
 10
100.3816854228211
 20
107.3628633950728
 30
0.0
 11
100.3816854228211
 21
116.5775630655244
 31
0.0
  0
LINE
  5
5606
330
1E
100
AcDbEntity
  8
0
100
AcDbLine
 10
100.3816854228211
 20
107.3628633950728
 30
0.0
 11
101.8816854228212
 21
105.1231412948948
 31
0.0
  0
LINE
  5
560D
330
1E
100
AcDbEntity
  8
0
100
AcDbLine
 10
197.7816854228214
 20
135.1629506345093
 30
0.0
 11
197.7816854228214
 21
125.9482509640576
 31
0.0
  0
LINE
  5
560E
330
1E
100
AcDbEntity
  8
0
100
AcDbLine
 10
197.7816854228214
 20
135.1629506345093
 30
0.0
 11
196.2816854228212
 21
137.4026727346872
 31
0.0
  0
LINE
  5
560F
330
1E
100
AcDbEntity
  8
0
100
AcDbLine
 10
197.7816854228214
 20
130.4729472470186
 30
0.0
 11
196.2816854228213
 21
131.4006461896644
 31
0.0
  0
LINE
  5
5610
330
1E
100
AcDbEntity
  8
0
100
AcDbLine
 10
197.7816854228214
 20
112.0528667825632
 30
0.0
 11
196.2816854228213
 21
111.1251678399173
 31
0.0
  0
LINE
  5
5611
330
1E
100
AcDbEntity
  8
0
100
AcDbLine
 10
197.7816854228214
 20
107.3628633950725
 30
0.0
 11
197.7816854228214
 21
125.9482509640576
 31
0.0
  0
LINE
  5
5612
330
1E
100
AcDbEntity
  8
0
100
AcDbLine
 10
197.7816854228214
 20
107.3628633950725
 30
0.0
 11
196.2816854228213
 21
105.1231412948945
 31
0.0
  0
LINE
  5
563C
330
1E
100
AcDbEntity
  8
虛線
 48
0.27
100
AcDbLine
 10
133.0816413885549
 20
25.99991531824242
 30
0.0
 11
133.0817033757698
 21
35.14991531803241
 31
0.0
  0
LINE
  5
563D
330
1E
100
AcDbEntity
  8
虛線
 48
0.27
100
AcDbLine
 10
132.4816159839723
 20
22.2499193830638
 30
0.0
 11
132.4817033757836
 21
35.14991938276782
 31
0.0
  0
LINE
  5
563E
330
1E
100
AcDbEntity
  8
虛線
 48
0.27
100
AcDbLine
 10
125.6816854228212
 20
35.14996544989072
 30
0.0
 11
125.6816854228212
 21
22.24980692514908
 31
0.0
  0
LINE
  5
563F
330
1E
100
AcDbEntity
  8
虛線
 48
0.27
100
AcDbLine
 10
125.0817033759534
 20
35.14996951450451
 30
0.0
 11
125.0816413887384
 21
25.99996951471451
 31
0.0
  0
LINE
  5
5640
330
1E
100
AcDbEntity
  8
中心線
 48
0.27
100
AcDbLine
 10
129.0816854228213
 20
18.95832764959304
 30
0.0
 11
129.0816854228213
 21
38.00000000000063
 31
0.0
  0
LINE
  5
5641
330
1E
100
AcDbEntity
  8
虛線
 48
0.27
100
AcDbLine
 10
129.0816072348478
 20
20.95846314103801
 30
0.0
 11
132.4816159839723
 21
22.2499193830638
 31
0.0
  0
LINE
  5
5642
330
1E
100
AcDbEntity
  8
虛線
 48
0.27
100
AcDbLine
 10
125.6816159841285
 20
22.24996545006513
 30
0.0
 11
132.4816159839724
 21
22.2499193830638
 31
0.0
  0
LINE
  5
5643
330
1E
100
AcDbEntity
  8
虛線
 48
0.27
100
AcDbLine
 10
125.0816413887384
 20
25.99996951471451
 30
0.0
 11
133.0816413885549
 21
25.99991531824242
 31
0.0
  0
LINE
  5
5644
330
1E
100
AcDbEntity
  8
虛線
 48
0.27
100
AcDbLine
 10
125.6816159841284
 20
22.24996545006513
 30
0.0
 11
129.0816072348478
 21
20.95846314103801
 31
0.0
  0
LINE
  5
5645
330
1E
100
AcDbEntity
  8
虛線
 48
0.27
100
AcDbLine
 10
125.0817033759534
 20
35.14996951450451
 30
0.0
 11
133.0817033757698
 21
35.14991531803242
 31
0.0
  0
LINE
  5
5646
330
1E
100
AcDbEntity
  8
虛線
 48
0.27
100
AcDbLine
 10
124.2789077013429
 20
36.00000000000063
 30
0.0
 11
125.0817033759534
 21
35.14996951450451
 31
0.0
  0
LINE
  5
5647
330
1E
100
AcDbEntity
  8
虛線
 48
0.27
100
AcDbLine
 10
133.8845720268206
 20
36.00000000000063
 30
0.0
 11
133.0817033757698
 21
35.14991531803242
 31
0.0
  0
LINE
  5
5648
330
1E
100
AcDbEntity
  8
虛線
 48
0.27
100
AcDbLine
 10
173.0816413885549
 20
25.99991531824242
 30
0.0
 11
173.0817033757699
 21
35.14991531803241
 31
0.0
  0
LINE
  5
5649
330
1E
100
AcDbEntity
  8
虛線
 48
0.27
100
AcDbLine
 10
172.4816159839724
 20
22.2499193830638
 30
0.0
 11
172.4817033757837
 21
35.14991938276782
 31
0.0
  0
LINE
  5
564A
330
1E
100
AcDbEntity
  8
虛線
 48
0.27
100
AcDbLine
 10
165.6816854228213
 20
35.14996544989072
 30
0.0
 11
165.6816854228213
 21
22.24980692514908
 31
0.0
  0
LINE
  5
564B
330
1E
100
AcDbEntity
  8
虛線
 48
0.27
100
AcDbLine
 10
165.0817033759535
 20
35.14996951450451
 30
0.0
 11
165.0816413887385
 21
25.99996951471451
 31
0.0
  0
LINE
  5
564C
330
1E
100
AcDbEntity
  8
中心線
 48
0.27
100
AcDbLine
 10
169.0816854228213
 20
18.95832764959304
 30
0.0
 11
169.0816854228213
 21
38.00000000000063
 31
0.0
  0
LINE
  5
564D
330
1E
100
AcDbEntity
  8
虛線
 48
0.27
100
AcDbLine
 10
169.0816072348479
 20
20.95846314103801
 30
0.0
 11
172.4816159839724
 21
22.2499193830638
 31
0.0
  0
LINE
  5
564E
330
1E
100
AcDbEntity
  8
虛線
 48
0.27
100
AcDbLine
 10
165.6816159841285
 20
22.24996545006513
 30
0.0
 11
172.4816159839724
 21
22.2499193830638
 31
0.0
  0
LINE
  5
564F
330
1E
100
AcDbEntity
  8
虛線
 48
0.27
100
AcDbLine
 10
165.0816413887385
 20
25.99996951471451
 30
0.0
 11
173.0816413885549
 21
25.99991531824242
 31
0.0
  0
LINE
  5
5650
330
1E
100
AcDbEntity
  8
虛線
 48
0.27
100
AcDbLine
 10
165.6816159841285
 20
22.24996545006513
 30
0.0
 11
169.0816072348479
 21
20.95846314103801
 31
0.0
  0
LINE
  5
5651
330
1E
100
AcDbEntity
  8
虛線
 48
0.27
100
AcDbLine
 10
165.0817033759534
 20
35.14996951450451
 30
0.0
 11
173.0817033757699
 21
35.14991531803242
 31
0.0
  0
LINE
  5
5652
330
1E
100
AcDbEntity
  8
虛線
 48
0.27
100
AcDbLine
 10
164.2789077013429
 20
36.00000000000063
 30
0.0
 11
165.0817033759534
 21
35.14996951450451
 31
0.0
  0
LINE
  5
5653
330
1E
100
AcDbEntity
  8
虛線
 48
0.27
100
AcDbLine
 10
173.8845720268207
 20
36.00000000000063
 30
0.0
 11
173.0817033757699
 21
35.14991531803242
 31
0.0
  0
ENDSEC
  0
SECTION
  2
OBJECTS
  0
DICTIONARY
  5
C
330
0
100
AcDbDictionary
281
     1
  3
ACAD_COLOR
350
3D97
  3
ACAD_GROUP
350
D
  3
ACAD_LAYOUT
350
19
  3
ACAD_MATERIAL
350
3D96
  3
ACAD_MLINESTYLE
350
16
  3
ACAD_PLOTSETTINGS
350
18
  3
ACAD_PLOTSTYLENAME
350
E
  3
ACAD_TABLESTYLE
350
5122
  3
ACAD_VISUALSTYLE
350
5621
  3
AcDbVariableDictionary
350
3E63
  3
DWGPROPS
350
5679
  0
DICTIONARY
  5
43C2
330
2
100
AcDbDictionary
280
     1
281
     1
  3
ACAD_LAYERSTATES
360
43C3
  0
DICTIONARY
  5
3D1E
330
1E
100
AcDbDictionary
280
     1
281
     1
  3
ACAD_LAYOUTSELFREF
360
3D92
  0
DICTIONARY
  5
3D20
330
1A
100
AcDbDictionary
280
     1
281
     1
  3
ACAD_LAYOUTSELFREF
360
3D91
  0
DICTIONARY
  5
3D97
102
{ACAD_REACTORS
330
C
102
}
330
C
100
AcDbDictionary
281
     1
  0
DICTIONARY
  5
D
102
{ACAD_REACTORS
330
C
102
}
330
C
100
AcDbDictionary
281
     1
  3
*A1
350
4143
  3
*A10
350
423E
  3
*A11
350
423F
  3
*A12
350
414A
  3
*A13
350
4374
  3
*A14
350
4377
  3
*A15
350
4379
  3
*A16
350
43C1
  3
*A17
350
4375
  3
*A18
350
4145
  3
*A19
350
4376
  3
*A2
350
4237
  3
*A20
350
437A
  3
*A21
350
437D
  3
*A22
350
437F
  3
*A23
350
414B
  3
*A24
350
437B
  3
*A25
350
414D
  3
*A26
350
437C
  3
*A27
350
4146
  3
*A28
350
43B7
  3
*A29
350
43B9
  3
*A3
350
4238
  3
*A30
350
43B5
  3
*A31
350
423A
  3
*A32
350
43B6
  3
*A33
350
414E
  3
*A34
350
43BC
  3
*A35
350
43BE
  3
*A36
350
43BA
  3
*A37
350
4241
  3
*A38
350
43BB
  3
*A39
350
4144
  3
*A4
350
43C0
  3
*A40
350
4148
  3
*A41
350
4147
  3
*A42
350
4378
  3
*A43
350
43BF
  3
*A44
350
414C
  3
*A45
350
4235
  3
*A46
350
414F
  3
*A47
350
437E
  3
*A48
350
4149
  3
*A49
350
4239
  3
*A5
350
423C
  3
*A50
350
423B
  3
*A51
350
43B8
  3
*A52
350
4236
  3
*A6
350
4240
  3
*A7
350
4373
  3
*A8
350
43BD
  3
*A9
350
423D
  0
DICTIONARY
  5
19
102
{ACAD_REACTORS
330
C
102
}
330
C
100
AcDbDictionary
281
     1
  3
Model
350
21
  3
配置1
350
1D
  0
DICTIONARY
  5
3D96
102
{ACAD_REACTORS
330
C
102
}
330
C
100
AcDbDictionary
281
     1
  3
ByBlock
350
561F
  3
ByLayer
350
561E
  3
Global
350
5620
  0
DICTIONARY
  5
16
102
{ACAD_REACTORS
330
C
102
}
330
C
100
AcDbDictionary
281
     1
  3
Standard
350
17
  0
DICTIONARY
  5
18
102
{ACAD_REACTORS
330
C
102
}
330
C
100
AcDbDictionary
281
     1
  3
LANSRO
350
4150
  0
ACDBDICTIONARYWDFLT
  5
E
102
{ACAD_REACTORS
330
C
102
}
330
C
100
AcDbDictionary
281
     1
  3
Normal
350
F
100
AcDbDictionaryWithDefault
340
F
  0
DICTIONARY
  5
5122
102
{ACAD_REACTORS
330
C
102
}
330
C
100
AcDbDictionary
281
     1
  3
Standard
350
5123
  0
DICTIONARY
  5
5621
102
{ACAD_REACTORS
330
C
102
}
330
C
100
AcDbDictionary
281
     1
  3
2dWireframe
350
5627
  3
3D Hidden
350
5629
  3
3dWireframe
350
5628
  3
Basic
350
5626
  3
Brighten
350
562D
  3
ColorChange
350
5631
  3
Conceptual
350
562A
  3
Dim
350
562C
  3
Facepattern
350
5630
  3
Flat
350
5622
  3
FlatWithEdges
350
5623
  3
Gouraud
350
5624
  3
GouraudWithEdges
350
5625
  3
Linepattern
350
562F
  3
Realistic
350
562B
  3
Thicken
350
562E
  0
DICTIONARY
  5
3E63
102
{ACAD_REACTORS
330
C
102
}
330
C
100
AcDbDictionary
281
     1
  3
CTABLESTYLE
350
5572
  3
DIMASSOC
350
3E64
  3
INDEXCTL
350
5678
  3
PROJECTNAME
350
3E65
  3
SORTENTS
350
5677
  0
XRECORD
  5
5679
102
{ACAD_REACTORS
330
C
102
}
330
C
100
AcDbXrecord
280
     1
  1
DWGPROPS COOKIE
  2

  3

  4

  6

  7

  8
tony4321
  9

300
=
301
=
302
=
303
=
304
=
305
=
306
=
307
=
308
=
309
=
 40
0.1371623379629629
 41
2444975.333333334
 42
2454358.439820914
  1

 90
        0
  0
DICTIONARY
  5
43C3
102
{ACAD_REACTORS
330
43C2
102
}
330
43C2
100
AcDbDictionary
281
     1
  0
XRECORD
  5
3D92
102
{ACAD_REACTORS
330
3D1E
102
}
330
3D1E
100
AcDbXrecord
280
     1
340
1E
  0
XRECORD
  5
3D91
102
{ACAD_REACTORS
330
3D20
102
}
330
3D20
100
AcDbXrecord
280
     1
340
1A
  0
GROUP
  5
4143
102
{ACAD_REACTORS
330
D
102
}
330
D
100
AcDbGroup
300

 70
     1
 71
     1
  0
GROUP
  5
423E
102
{ACAD_REACTORS
330
D
102
}
330
D
100
AcDbGroup
300

 70
     1
 71
     1
  0
GROUP
  5
423F
102
{ACAD_REACTORS
330
D
102
}
330
D
100
AcDbGroup
300

 70
     1
 71
     1
  0
GROUP
  5
414A
102
{ACAD_REACTORS
330
D
102
}
330
D
100
AcDbGroup
300

 70
     1
 71
     1
  0
GROUP
  5
4374
102
{ACAD_REACTORS
330
D
102
}
330
D
100
AcDbGroup
300

 70
     1
 71
     1
  0
GROUP
  5
4377
102
{ACAD_REACTORS
330
D
102
}
330
D
100
AcDbGroup
300

 70
     1
 71
     1
  0
GROUP
  5
4379
102
{ACAD_REACTORS
330
D
102
}
330
D
100
AcDbGroup
300

 70
     1
 71
     1
  0
GROUP
  5
43C1
102
{ACAD_REACTORS
330
D
102
}
330
D
100
AcDbGroup
300

 70
     1
 71
     1
  0
GROUP
  5
4375
102
{ACAD_REACTORS
330
D
102
}
330
D
100
AcDbGroup
300

 70
     1
 71
     1
  0
GROUP
  5
4145
102
{ACAD_REACTORS
330
D
102
}
330
D
100
AcDbGroup
300

 70
     1
 71
     1
  0
GROUP
  5
4376
102
{ACAD_REACTORS
330
D
102
}
330
D
100
AcDbGroup
300

 70
     1
 71
     1
  0
GROUP
  5
4237
102
{ACAD_REACTORS
330
D
102
}
330
D
100
AcDbGroup
300

 70
     1
 71
     1
  0
GROUP
  5
437A
102
{ACAD_REACTORS
330
D
102
}
330
D
100
AcDbGroup
300

 70
     1
 71
     1
  0
GROUP
  5
437D
102
{ACAD_REACTORS
330
D
102
}
330
D
100
AcDbGroup
300

 70
     1
 71
     1
  0
GROUP
  5
437F
102
{ACAD_REACTORS
330
D
102
}
330
D
100
AcDbGroup
300

 70
     1
 71
     1
  0
GROUP
  5
414B
102
{ACAD_REACTORS
330
D
102
}
330
D
100
AcDbGroup
300

 70
     1
 71
     1
  0
GROUP
  5
437B
102
{ACAD_REACTORS
330
D
102
}
330
D
100
AcDbGroup
300

 70
     1
 71
     1
  0
GROUP
  5
414D
102
{ACAD_REACTORS
330
D
102
}
330
D
100
AcDbGroup
300

 70
     1
 71
     1
  0
GROUP
  5
437C
102
{ACAD_REACTORS
330
D
102
}
330
D
100
AcDbGroup
300

 70
     1
 71
     1
  0
GROUP
  5
4146
102
{ACAD_REACTORS
330
D
102
}
330
D
100
AcDbGroup
300

 70
     1
 71
     1
  0
GROUP
  5
43B7
102
{ACAD_REACTORS
330
D
102
}
330
D
100
AcDbGroup
300

 70
     1
 71
     1
  0
GROUP
  5
43B9
102
{ACAD_REACTORS
330
D
102
}
330
D
100
AcDbGroup
300

 70
     1
 71
     1
  0
GROUP
  5
4238
102
{ACAD_REACTORS
330
D
102
}
330
D
100
AcDbGroup
300

 70
     1
 71
     1
  0
GROUP
  5
43B5
102
{ACAD_REACTORS
330
D
102
}
330
D
100
AcDbGroup
300

 70
     1
 71
     1
  0
GROUP
  5
423A
102
{ACAD_REACTORS
330
D
102
}
330
D
100
AcDbGroup
300

 70
     1
 71
     1
  0
GROUP
  5
43B6
102
{ACAD_REACTORS
330
D
102
}
330
D
100
AcDbGroup
300

 70
     1
 71
     1
  0
GROUP
  5
414E
102
{ACAD_REACTORS
330
D
102
}
330
D
100
AcDbGroup
300

 70
     1
 71
     1
  0
GROUP
  5
43BC
102
{ACAD_REACTORS
330
D
102
}
330
D
100
AcDbGroup
300

 70
     1
 71
     1
  0
GROUP
  5
43BE
102
{ACAD_REACTORS
330
D
102
}
330
D
100
AcDbGroup
300

 70
     1
 71
     1
  0
GROUP
  5
43BA
102
{ACAD_REACTORS
330
D
102
}
330
D
100
AcDbGroup
300

 70
     1
 71
     1
  0
GROUP
  5
4241
102
{ACAD_REACTORS
330
D
102
}
330
D
100
AcDbGroup
300

 70
     1
 71
     1
  0
GROUP
  5
43BB
102
{ACAD_REACTORS
330
D
102
}
330
D
100
AcDbGroup
300

 70
     1
 71
     1
  0
GROUP
  5
4144
102
{ACAD_REACTORS
330
D
102
}
330
D
100
AcDbGroup
300

 70
     1
 71
     1
  0
GROUP
  5
43C0
102
{ACAD_REACTORS
330
D
102
}
330
D
100
AcDbGroup
300

 70
     1
 71
     1
  0
GROUP
  5
4148
102
{ACAD_REACTORS
330
D
102
}
330
D
100
AcDbGroup
300

 70
     1
 71
     1
  0
GROUP
  5
4147
102
{ACAD_REACTORS
330
D
102
}
330
D
100
AcDbGroup
300

 70
     1
 71
     1
  0
GROUP
  5
4378
102
{ACAD_REACTORS
330
D
102
}
330
D
100
AcDbGroup
300

 70
     1
 71
     1
  0
GROUP
  5
43BF
102
{ACAD_REACTORS
330
D
102
}
330
D
100
AcDbGroup
300

 70
     1
 71
     1
  0
GROUP
  5
414C
102
{ACAD_REACTORS
330
D
102
}
330
D
100
AcDbGroup
300

 70
     1
 71
     1
  0
GROUP
  5
4235
102
{ACAD_REACTORS
330
D
102
}
330
D
100
AcDbGroup
300

 70
     1
 71
     1
  0
GROUP
  5
414F
102
{ACAD_REACTORS
330
D
102
}
330
D
100
AcDbGroup
300

 70
     1
 71
     1
  0
GROUP
  5
437E
102
{ACAD_REACTORS
330
D
102
}
330
D
100
AcDbGroup
300

 70
     1
 71
     1
  0
GROUP
  5
4149
102
{ACAD_REACTORS
330
D
102
}
330
D
100
AcDbGroup
300

 70
     1
 71
     1
  0
GROUP
  5
4239
102
{ACAD_REACTORS
330
D
102
}
330
D
100
AcDbGroup
300

 70
     1
 71
     1
  0
GROUP
  5
423C
102
{ACAD_REACTORS
330
D
102
}
330
D
100
AcDbGroup
300

 70
     1
 71
     1
  0
GROUP
  5
423B
102
{ACAD_REACTORS
330
D
102
}
330
D
100
AcDbGroup
300

 70
     1
 71
     1
  0
GROUP
  5
43B8
102
{ACAD_REACTORS
330
D
102
}
330
D
100
AcDbGroup
300

 70
     1
 71
     1
  0
GROUP
  5
4236
102
{ACAD_REACTORS
330
D
102
}
330
D
100
AcDbGroup
300

 70
     1
 71
     1
  0
GROUP
  5
4240
102
{ACAD_REACTORS
330
D
102
}
330
D
100
AcDbGroup
300

 70
     1
 71
     1
  0
GROUP
  5
4373
102
{ACAD_REACTORS
330
D
102
}
330
D
100
AcDbGroup
300

 70
     1
 71
     1
  0
GROUP
  5
43BD
102
{ACAD_REACTORS
330
D
102
}
330
D
100
AcDbGroup
300

 70
     1
 71
     1
  0
GROUP
  5
423D
102
{ACAD_REACTORS
330
D
102
}
330
D
100
AcDbGroup
300

 70
     1
 71
     1
  0
LAYOUT
  5
21
102
{ACAD_XDICTIONARY
360
567C
102
}
102
{ACAD_REACTORS
330
19
102
}
330
19
100
AcDbPlotSettings
  1

  2
HP 2200
  4

  6

 40
0.0
 41
0.0
 42
0.0
 43
0.0
 44
0.0
 45
0.0
 46
0.0
 47
0.0
 48
0.0
 49
0.0
140
0.0
141
0.0
142
1.0
143
1.0
 70
  1712
 72
     0
 73
     0
 74
     0
  7
AAA.ctb
 75
     0
147
1.0
148
0.0
149
0.0
100
AcDbLayout
  1
Model
 70
     1
 71
     0
 10
0.0
 20
0.0
 11
12.0
 21
9.0
 12
0.0
 22
0.0
 32
0.0
 14
0.0
 24
0.0
 34
0.0
 15
0.0
 25
0.0
 35
0.0
146
0.0
 13
0.0
 23
0.0
 33
0.0
 16
1.0
 26
0.0
 36
0.0
 17
0.0
 27
1.0
 37
0.0
 76
     0
330
1E
331
5613
  0
LAYOUT
  5
1D
102
{ACAD_XDICTIONARY
360
567A
102
}
102
{ACAD_REACTORS
330
19
102
}
330
19
100
AcDbPlotSettings
  1

  2
HP 2200
  4

  6

 40
0.0
 41
0.0
 42
0.0
 43
0.0
 44
0.0
 45
0.0
 46
0.0
 47
0.0
 48
0.0
 49
0.0
140
0.0
141
0.0
142
1.0
143
1.0
 70
   688
 72
     0
 73
     0
 74
     5
  7
AAA.ctb
 75
    16
147
1.0
148
0.0
149
0.0
100
AcDbLayout
  1
配置1
 70
     0
 71
     1
 10
0.0
 20
0.0
 11
12.0
 21
9.0
 12
0.0
 22
0.0
 32
0.0
 14
1.000000000000000E+20
 24
1.000000000000000E+20
 34
1.000000000000000E+20
 15
-1.000000000000000E+20
 25
-1.000000000000000E+20
 35
-1.000000000000000E+20
146
0.0
 13
0.0
 23
0.0
 33
0.0
 16
1.0
 26
0.0
 36
0.0
 17
0.0
 27
1.0
 37
0.0
 76
     0
330
1A
  0
MATERIAL
  5
561F
102
{ACAD_XDICTIONARY
360
5684
102
}
102
{ACAD_REACTORS
330
3D96
102
}
330
3D96
100
AcDbMaterial
  1
ByBlock
  0
MATERIAL
  5
561E
102
{ACAD_XDICTIONARY
360
5682
102
}
102
{ACAD_REACTORS
330
3D96
102
}
330
3D96
100
AcDbMaterial
  1
ByLayer
  0
MATERIAL
  5
5620
102
{ACAD_XDICTIONARY
360
5686
102
}
102
{ACAD_REACTORS
330
3D96
102
}
330
3D96
100
AcDbMaterial
  1
Global
  0
MLINESTYLE
  5
17
102
{ACAD_REACTORS
330
16
102
}
330
16
100
AcDbMlineStyle
  2
STANDARD
 70
     0
  3

 62
   256
 51
90.0
 52
90.0
 71
     2
 49
0.5
 62
   256
  6
BYLAYER
 49
-0.5
 62
   256
  6
BYLAYER
  0
PLOTSETTINGS
  5
4150
102
{ACAD_XDICTIONARY
360
567E
102
}
102
{ACAD_REACTORS
330
18
102
}
330
18
100
AcDbPlotSettings
  1
LANSRO
  2
\\1260\HP2200
  4
A4
  6

 40
6.043083190917968
 41
6.762742042541503
 42
7.736419677734375
 43
5.027069091796875
 44
209.9733276367187
 45
296.9683227539062
 46
5.15
 47
0.0
 48
0.0
 49
0.0
140
0.0
141
0.0
142
1.0
143
0.8829829263240881
 70
  1716
 72
     1
 73
     1
 74
     0
  7
AAA.ctb
 75
     0
147
1.132524729739748
148
-132.297014905803
149
-71.78507365635891
  0
ACDBPLACEHOLDER
  5
F
102
{ACAD_REACTORS
330
E
102
}
330
E
  0
TABLESTYLE
  5
5123
102
{ACAD_XDICTIONARY
360
5680
102
}
102
{ACAD_REACTORS
330
5122
102
}
330
5122
100
AcDbTableStyle
  3
Standard
 70
     0
 71
     0
 40
0.06
 41
0.06
280
     0
281
     0
  7
STANDARD
140
0.18
170
     2
 62
     0
 63
     7
283
     0
274
    -2
284
     1
 64
     0
275
    -2
285
     1
 65
     0
276
    -2
286
     1
 66
     0
277
    -2
287
     1
 67
     0
278
    -2
288
     1
 68
     0
279
    -2
289
     1
 69
     0
  7
STANDARD
140
0.25
170
     5
 62
     0
 63
     7
283
     0
274
    -2
284
     1
 64
     0
275
    -2
285
     1
 65
     0
276
    -2
286
     1
 66
     0
277
    -2
287
     1
 67
     0
278
    -2
288
     1
 68
     0
279
    -2
289
     1
 69
     0
  7
STANDARD
140
0.18
170
     5
 62
     0
 63
     7
283
     0
274
    -2
284
     1
 64
     0
275
    -2
285
     1
 65
     0
276
    -2
286
     1
 66
     0
277
    -2
287
     1
 67
     0
278
    -2
288
     1
 68
     0
279
    -2
289
     1
 69
     0
1001
ACAD
1000
AcRTDxfName
1000
TABLESTYLE
  0
VISUALSTYLE
  5
5627
102
{ACAD_REACTORS
330
5621
102
}
330
5621
100
AcDbVisualStyle
  2
2dWireframe
 70
     4
 71
     0
 72
     2
 73
     0
 90
        0
 40
-0.6
 41
-30.0
 62
     5
 63
     7
 74
     1
 91
        4
 64
     7
 65
   257
 75
     1
175
     1
 42
1.0
 92
        0
 66
   257
 43
1.0
 76
     1
 77
     6
 78
     2
 67
     7
 79
     5
170
     0
171
     0
290
     0
174
     0
 93
        1
 44
0.0
173
     0
291
     0
 45
0.0
1001
ACAD
1000
AcDbSavedByObjectVersion
1070
     0
  0
VISUALSTYLE
  5
5629
102
{ACAD_REACTORS
330
5621
102
}
330
5621
100
AcDbVisualStyle
  2
3D Hidden
 70
     6
 71
     1
 72
     2
 73
     2
 90
        0
 40
-0.6
 41
-30.0
 62
     5
 63
     7
 74
     2
 91
        2
 64
     7
 65
   257
 75
     2
175
     1
 42
40.0
 92
        0
 66
   257
 43
1.0
 76
     1
 77
     6
 78
     2
 67
     7
 79
     3
170
     0
171
     0
290
     0
174
     0
 93
        1
 44
0.0
173
     0
291
     0
 45
0.0
1001
ACAD
1000
AcDbSavedByObjectVersion
1070
     0
  0
VISUALSTYLE
  5
5628
102
{ACAD_REACTORS
330
5621
102
}
330
5621
100
AcDbVisualStyle
  2
3dWireframe
 70
     5
 71
     0
 72
     2
 73
     0
 90
        0
 40
-0.6
 41
-30.0
 62
     5
 63
     7
 74
     1
 91
        4
 64
     7
 65
   257
 75
     1
175
     1
 42
1.0
 92
        0
 66
   257
 43
1.0
 76
     1
 77
     6
 78
     2
 67
     7
 79
     5
170
     0
171
     0
290
     0
174
     0
 93
        1
 44
0.0
173
     0
291
     0
 45
0.0
1001
ACAD
1000
AcDbSavedByObjectVersion
1070
     0
  0
VISUALSTYLE
  5
5626
102
{ACAD_REACTORS
330
5621
102
}
330
5621
100
AcDbVisualStyle
  2
Basic
 70
     7
 71
     1
 72
     0
 73
     1
 90
        0
 40
-0.6
 41
-30.0
 62
     5
 63
     7
 74
     0
 91
        4
 64
     7
 65
   257
 75
     1
175
     1
 42
1.0
 92
        8
 66
     7
 43
1.0
 76
     1
 77
     6
 78
     2
 67
     7
 79
     5
170
     0
171
     0
290
     0
174
     0
 93
        1
 44
0.0
173
     0
291
     1
 45
0.0
1001
ACAD
1000
AcDbSavedByObjectVersion
1070
     0
  0
VISUALSTYLE
  5
562D
102
{ACAD_REACTORS
330
5621
102
}
330
5621
100
AcDbVisualStyle
  2
Brighten
 70
    12
 71
     2
 72
     2
 73
     0
 90
        0
 40
-0.6
 41
-30.0
 62
     5
 63
     7
 74
     1
 91
        4
 64
     7
 65
   257
 75
     1
175
     1
 42
1.0
 92
        8
 66
     7
 43
1.0
 76
     1
 77
     6
 78
     2
 67
     7
 79
     5
170
     0
171
     0
290
     0
174
     0
 93
        1
 44
50.0
173
     0
291
     1
 45
0.0
1001
ACAD
1000
AcDbSavedByObjectVersion
1070
     0
  0
VISUALSTYLE
  5
5631
102
{ACAD_REACTORS
330
5621
102
}
330
5621
100
AcDbVisualStyle
  2
ColorChange
 70
    16
 71
     2
 72
     2
 73
     3
 90
        0
 40
-0.6
 41
-30.0
 62
     5
 63
     8
 74
     1
 91
        4
 64
     7
 65
   257
 75
     1
175
     1
 42
1.0
 92
        8
 66
     8
 43
1.0
 76
     1
 77
     6
 78
     2
 67
     7
 79
     5
170
     0
171
     0
290
     0
174
     0
 93
        1
 44
0.0
173
     0
291
     1
 45
0.0
1001
ACAD
1000
AcDbSavedByObjectVersion
1070
     0
  0
VISUALSTYLE
  5
562A
102
{ACAD_REACTORS
330
5621
102
}
330
5621
100
AcDbVisualStyle
  2
Conceptual
 70
     9
 71
     3
 72
     2
 73
     0
 90
        0
 40
-0.6
 41
-30.0
 62
     5
 63
     7
 74
     2
 91
        2
 64
     7
 65
   257
 75
     1
175
     1
 42
40.0
 92
        8
 66
     7
 43
1.0
 76
     1
 77
     6
 78
     2
 67
     7
 79
     3
170
     0
171
     0
290
     0
174
     0
 93
        1
 44
0.0
173
     0
291
     0
 45
0.0
1001
ACAD
1000
AcDbSavedByObjectVersion
1070
     0
  0
VISUALSTYLE
  5
562C
102
{ACAD_REACTORS
330
5621
102
}
330
5621
100
AcDbVisualStyle
  2
Dim
 70
    11
 71
     2
 72
     2
 73
     0
 90
        0
 40
-0.6
 41
-30.0
 62
     5
 63
     7
 74
     1
 91
        4
 64
     7
 65
   257
 75
     1
175
     1
 42
1.0
 92
        8
 66
     7
 43
1.0
 76
     1
 77
     6
 78
     2
 67
     7
 79
     5
170
     0
171
     0
290
     0
174
     0
 93
        1
 44
-50.0
173
     0
291
     1
 45
0.0
1001
ACAD
1000
AcDbSavedByObjectVersion
1070
     0
  0
VISUALSTYLE
  5
5630
102
{ACAD_REACTORS
330
5621
102
}
330
5621
100
AcDbVisualStyle
  2
Facepattern
 70
    15
 71
     2
 72
     2
 73
     0
 90
        0
 40
-0.6
 41
-30.0
 62
     5
 63
     7
 74
     1
 91
        4
 64
     7
 65
   257
 75
     1
175
     1
 42
1.0
 92
        8
 66
     7
 43
1.0
 76
     1
 77
     6
 78
     2
 67
     7
 79
     5
170
     0
171
     0
290
     0
174
     0
 93
        1
 44
0.0
173
     0
291
     1
 45
0.0
1001
ACAD
1000
AcDbSavedByObjectVersion
1070
     0
  0
VISUALSTYLE
  5
5622
102
{ACAD_REACTORS
330
5621
102
}
330
5621
100
AcDbVisualStyle
  2
Flat
 70
     0
 71
     2
 72
     1
 73
     1
 90
        2
 40
-0.6
 41
30.0
 62
     5
 63
     7
 74
     0
 91
        4
 64
     7
 65
   257
 75
     1
175
     1
 42
1.0
 92
        8
 66
     7
 43
1.0
 76
     1
 77
     6
 78
     2
 67
     7
 79
     5
170
     0
171
     0
290
     0
174
     0
 93
       13
 44
0.0
173
     0
291
     1
 45
0.0
1001
ACAD
1000
AcDbSavedByObjectVersion
1070
     0
  0
VISUALSTYLE
  5
5623
102
{ACAD_REACTORS
330
5621
102
}
330
5621
100
AcDbVisualStyle
  2
FlatWithEdges
 70
     1
 71
     2
 72
     1
 73
     1
 90
        2
 40
-0.6
 41
30.0
 62
     5
 63
     7
 74
     1
 91
        4
 64
     7
 65
   257
 75
     1
175
     1
 42
1.0
 92
        0
 66
   257
 43
1.0
 76
     1
 77
     6
 78
     2
 67
     7
 79
     5
170
     0
171
     0
290
     0
174
     0
 93
       13
 44
0.0
173
     0
291
     1
 45
0.0
1001
ACAD
1000
AcDbSavedByObjectVersion
1070
     0
  0
VISUALSTYLE
  5
5624
102
{ACAD_REACTORS
330
5621
102
}
330
5621
100
AcDbVisualStyle
  2
Gouraud
 70
     2
 71
     2
 72
     2
 73
     1
 90
        2
 40
-0.6
 41
30.0
 62
     5
 63
     7
 74
     0
 91
        4
 64
     7
 65
   257
 75
     1
175
     1
 42
1.0
 92
        0
 66
     7
 43
1.0
 76
     1
 77
     6
 78
     2
 67
     7
 79
     5
170
     0
171
     0
290
     0
174
     0
 93
       13
 44
0.0
173
     0
291
     1
 45
0.0
1001
ACAD
1000
AcDbSavedByObjectVersion
1070
     0
  0
VISUALSTYLE
  5
5625
102
{ACAD_REACTORS
330
5621
102
}
330
5621
100
AcDbVisualStyle
  2
GouraudWithEdges
 70
     3
 71
     2
 72
     2
 73
     1
 90
        2
 40
-0.6
 41
30.0
 62
     5
 63
     7
 74
     1
 91
        4
 64
     7
 65
   257
 75
     1
175
     1
 42
1.0
 92
        0
 66
   257
 43
1.0
 76
     1
 77
     6
 78
     2
 67
     7
 79
     5
170
     0
171
     0
290
     0
174
     0
 93
       13
 44
0.0
173
     0
291
     1
 45
0.0
1001
ACAD
1000
AcDbSavedByObjectVersion
1070
     0
  0
VISUALSTYLE
  5
562F
102
{ACAD_REACTORS
330
5621
102
}
330
5621
100
AcDbVisualStyle
  2
Linepattern
 70
    14
 71
     2
 72
     2
 73
     0
 90
        0
 40
-0.6
 41
-30.0
 62
     5
 63
     7
 74
     1
 91
        4
 64
     7
 65
   257
 75
     7
175
     7
 42
1.0
 92
        8
 66
     7
 43
1.0
 76
     1
 77
     6
 78
     2
 67
     7
 79
     5
170
     0
171
     0
290
     0
174
     0
 93
        1
 44
0.0
173
     0
291
     1
 45
0.0
1001
ACAD
1000
AcDbSavedByObjectVersion
1070
     0
  0
VISUALSTYLE
  5
562B
102
{ACAD_REACTORS
330
5621
102
}
330
5621
100
AcDbVisualStyle
  2
Realistic
 70
     8
 71
     2
 72
     2
 73
     0
 90
        0
 40
-0.6
 41
-30.0
 62
     5
 63
     7
 74
     1
 91
        0
 64
     7
 65
   257
 75
     1
175
     1
 42
1.0
 92
        8
 66
     8
 43
1.0
 76
     1
 77
     6
 78
     2
 67
     7
 79
     5
170
     0
171
     0
290
     0
174
     0
 93
       13
 44
0.0
173
     0
291
     0
 45
0.0
1001
ACAD
1000
AcDbSavedByObjectVersion
1070
     0
  0
VISUALSTYLE
  5
562E
102
{ACAD_REACTORS
330
5621
102
}
330
5621
100
AcDbVisualStyle
  2
Thicken
 70
    13
 71
     2
 72
     2
 73
     0
 90
        0
 40
-0.6
 41
-30.0
 62
     5
 63
     7
 74
     1
 91
        4
 64
     7
 65
   257
 75
     1
175
     1
 42
1.0
 92
       12
 66
     7
 43
1.0
 76
     1
 77
     6
 78
     2
 67
     7
 79
     5
170
     0
171
     0
290
     0
174
     0
 93
        1
 44
0.0
173
     0
291
     1
 45
0.0
1001
ACAD
1000
AcDbSavedByObjectVersion
1070
     0
  0
DICTIONARYVAR
  5
5572
102
{ACAD_REACTORS
330
3E63
102
}
330
3E63
100
DictionaryVariables
280
     0
  1
STANDARD
  0
DICTIONARYVAR
  5
3E64
102
{ACAD_REACTORS
330
3E63
102
}
330
3E63
100
DictionaryVariables
280
     0
  1
1
  0
DICTIONARYVAR
  5
5678
102
{ACAD_REACTORS
330
3E63
102
}
330
3E63
100
DictionaryVariables
280
     0
  1
0
  0
DICTIONARYVAR
  5
3E65
102
{ACAD_REACTORS
330
3E63
102
}
330
3E63
100
DictionaryVariables
280
     0
  1

  0
DICTIONARYVAR
  5
5677
102
{ACAD_REACTORS
330
3E63
102
}
330
3E63
100
DictionaryVariables
280
     0
  1
127
  0
DICTIONARY
  5
567C
330
21
100
AcDbDictionary
280
     1
281
     1
  3
ACAD_XREC_ROUNDTRIP
360
567D
  0
DICTIONARY
  5
567A
330
1D
100
AcDbDictionary
280
     1
281
     1
  3
ACAD_XREC_ROUNDTRIP
360
567B
  0
DICTIONARY
  5
5684
330
561F
100
AcDbDictionary
280
     1
281
     1
  3
ACAD_XREC_ROUNDTRIP
360
5685
  0
DICTIONARY
  5
5682
330
561E
100
AcDbDictionary
280
     1
281
     1
  3
ACAD_XREC_ROUNDTRIP
360
5683
  0
DICTIONARY
  5
5686
330
5620
100
AcDbDictionary
280
     1
281
     1
  3
ACAD_XREC_ROUNDTRIP
360
5687
  0
DICTIONARY
  5
567E
330
4150
100
AcDbDictionary
280
     1
281
     1
  3
ACAD_XREC_ROUNDTRIP
360
567F
  0
DICTIONARY
  5
5680
330
5123
100
AcDbDictionary
280
     1
281
     1
  3
ACAD_XREC_ROUNDTRIP
360
5681
  0
XRECORD
  5
567D
102
{ACAD_REACTORS
330
567C
102
}
330
567C
100
AcDbXrecord
280
     1
102
SHADEPLOT
 70
     0
102
SHADEPLOTRESLEVEL
 70
     2
102
SHADEPLOTCUSTOMDPI
 70
   300
  0
XRECORD
  5
567B
102
{ACAD_REACTORS
330
567A
102
}
330
567A
100
AcDbXrecord
280
     1
102
SHADEPLOT
 70
     0
102
SHADEPLOTRESLEVEL
 70
     2
102
SHADEPLOTCUSTOMDPI
 70
   300
  0
XRECORD
  5
5685
102
{ACAD_REACTORS
330
5684
102
}
330
5684
100
AcDbXrecord
280
     1
102
MATERIAL
148
0.0
149
0.0
149
0.0
 93
        0
 94
       63
282
     0
 72
     1
 77
     1
171
     1
175
     1
179
     1
273
     0
  0
XRECORD
  5
5683
102
{ACAD_REACTORS
330
5682
102
}
330
5682
100
AcDbXrecord
280
     1
102
MATERIAL
148
0.0
149
0.0
149
0.0
 93
        0
 94
       63
282
     0
 72
     1
 77
     1
171
     1
175
     1
179
     1
273
     0
  0
XRECORD
  5
5687
102
{ACAD_REACTORS
330
5686
102
}
330
5686
100
AcDbXrecord
280
     1
102
MATERIAL
148
0.0
149
0.0
149
0.0
 93
        0
 94
       63
282
     0
 72
     1
 77
     1
171
     1
175
     1
179
     1
273
     0
  0
XRECORD
  5
567F
102
{ACAD_REACTORS
330
567E
102
}
330
567E
100
AcDbXrecord
280
     1
102
SHADEPLOT
 70
     0
102
SHADEPLOTRESLEVEL
 70
     2
102
SHADEPLOTCUSTOMDPI
 70
   300
  0
XRECORD
  5
5681
102
{ACAD_REACTORS
330
5680
102
}
330
5680
100
AcDbXrecord
280
     1
102
ACAD_ROUNDTRIP_PRE2007_TABLESTYLE
 90
        4
 91
        0
  1

 92
        4
 93
        0
  2

 94
        4
 95
        0
  3

  0
ENDSEC
  0
EOF
