  0
SECTION
  2
HEADER
  9
$ACADVER
  1
AC1009
  9
$INSBASE
 10
0.0
 20
0.0
 30
0.0
  9
$EXTMIN
 10
-476.19192448609488
 20
-59.960708577468303
 30
0.0
  9
$EXTMAX
 10
334.8922479917851
 20
226.29657951934371
 30
0.0
  9
$LIMMIN
 10
-10.0
 20
-15.0
  9
$LIMMAX
 10
120.0
 20
90.0
  9
$ORTHOMODE
 70
     1
  9
$REGENMODE
 70
     0
  9
$FILLMODE
 70
     1
  9
$QTEXTMODE
 70
     0
  9
$MIRRTEXT
 70
     0
  9
$DRAGMODE
 70
     2
  9
$LTSCALE
 40
3.0
  9
$OSMODE
 70
  3071
  9
$ATTMODE
 70
     1
  9
$TEXTSIZE
 40
3.0
  9
$TRACEWID
 40
1.0
  9
$TEXTSTYLE
  7
STANDARD
  9
$CLAYER
  8
0
  9
$CELTYPE
  6
ByLayer
  9
$CECOLOR
 62
   256
  9
$DIMSCALE
 40
1.0
  9
$DIMASZ
 40
3.0
  9
$DIMEXO
 40
1.0
  9
$DIMDLI
 40
6.0
  9
$DIMRND
 40
0.0
  9
$DIMDLE
 40
0.0
  9
$DIMEXE
 40
1.0
  9
$DIMTP
 40
0.0
  9
$DIMTM
 40
0.0
  9
$DIMTXT
 40
3.0
  9
$DIMCEN
 40
1.5
  9
$DIMTSZ
 40
0.0
  9
$DIMTOL
 70
     0
  9
$DIMLIM
 70
     0
  9
$DIMTIH
 70
     1
  9
$DIMTOH
 70
     1
  9
$DIMSE1
 70
     0
  9
$DIMSE2
 70
     0
  9
$DIMTAD
 70
     0
  9
$DIMZIN
 70
     0
  9
$DIMBLK
  1

  9
$DIMASO
 70
     1
  9
$DIMSHO
 70
     0
  9
$DIMPOST
  1

  9
$DIMAPOST
  1

  9
$DIMALT
 70
     0
  9
$DIMALTD
 70
     2
  9
$DIMALTF
 40
25.399999999999999
  9
$DIMLFAC
 40
1.0
  9
$DIMTOFL
 70
     1
  9
$DIMTVP
 40
0.0
  9
$DIMTIX
 70
     0
  9
$DIMSOXD
 70
     0
  9
$DIMSAH
 70
     0
  9
$DIMBLK1
  1

  9
$DIMBLK2
  1

  9
$DIMSTYLE
  2
STANDARD
  9
$DIMCLRD
 70
     0
  9
$DIMCLRE
 70
     0
  9
$DIMCLRT
 70
     0
  9
$DIMTFAC
 40
1.0
  9
$DIMGAP
 40
0.09
  9
$LUNITS
 70
     2
  9
$LUPREC
 70
     4
  9
$SKETCHINC
 40
0.5
  9
$FILLETRAD
 40
0.0
  9
$AUNITS
 70
     0
  9
$AUPREC
 70
     0
  9
$MENU
  1
ACAD
  9
$ELEVATION
 40
0.0
  9
$PELEVATION
 40
0.0
  9
$THICKNESS
 40
0.0
  9
$LIMCHECK
 70
     0
  9
$BLIPMODE
 70
     0
  9
$CHAMFERA
 40
0.0
  9
$CHAMFERB
 40
0.0
  9
$SKPOLY
 70
     0
  9
$TDCREATE
 40
2444975.333333334
  9
$TDUPDATE
 40
2453706.6647592941
  9
$TDINDWG
 40
0.0568932755
  9
$TDUSRTIMER
 40
0.0
  9
$USRTIMER
 70
     0
  9
$ANGBASE
 50
0.0
  9
$ANGDIR
 70
     0
  9
$PDMODE
 70
   171
  9
$PDSIZE
 40
0.001
  9
$PLINEWID
 40
0.0
  9
$COORDS
 70
     2
  9
$SPLFRAME
 70
     0
  9
$SPLINETYPE
 70
     6
  9
$SPLINESEGS
 70
     8
  9
$ATTDIA
 70
     0
  9
$ATTREQ
 70
     1
  9
$HANDLING
 70
     1
  9
$HANDSEED
  5
6169
  9
$SURFTAB1
 70
     6
  9
$SURFTAB2
 70
     6
  9
$SURFTYPE
 70
     6
  9
$SURFU
 70
     6
  9
$SURFV
 70
     6
  9
$UCSNAME
  2

  9
$UCSORG
 10
0.0
 20
0.0
 30
0.0
  9
$UCSXDIR
 10
1.0
 20
0.0
 30
0.0
  9
$UCSYDIR
 10
0.0
 20
1.0
 30
0.0
  9
$PUCSNAME
  2

  9
$PUCSORG
 10
0.0
 20
0.0
 30
0.0
  9
$PUCSXDIR
 10
1.0
 20
0.0
 30
0.0
  9
$PUCSYDIR
 10
0.0
 20
1.0
 30
0.0
  9
$USERI1
 70
     0
  9
$USERI2
 70
     0
  9
$USERI3
 70
     0
  9
$USERI4
 70
     0
  9
$USERI5
 70
     0
  9
$USERR1
 40
0.0
  9
$USERR2
 40
0.0
  9
$USERR3
 40
0.0
  9
$USERR4
 40
0.0
  9
$USERR5
 40
0.0
  9
$WORLDVIEW
 70
     1
  9
$SHADEDGE
 70
     3
  9
$SHADEDIF
 70
    70
  9
$TILEMODE
 70
     1
  9
$MAXACTVP
 70
    48
  9
$PLIMCHECK
 70
     0
  9
$PEXTMIN
 10
1.0000000000000000E+020
 20
1.0000000000000000E+020
 30
1.0000000000000000E+020
  9
$PEXTMAX
 10
-1.0000000000000000E+020
 20
-1.0000000000000000E+020
 30
-1.0000000000000000E+020
  9
$PLIMMIN
 10
0.0
 20
0.0
  9
$PLIMMAX
 10
12.0
 20
9.0
  9
$UNITMODE
 70
     0
  9
$VISRETAIN
 70
     1
  9
$PLINEGEN
 70
     0
  9
$PSLTSCALE
 70
     0
  0
ENDSEC
  0
SECTION
  2
TABLES
  0
TABLE
  2
VPORT
 70
     4
  0
VPORT
  2
*ACTIVE
 70
     0
 10
0.0
 20
0.0
 11
1.0
 21
1.0
 12
-252.96520290783931
 22
92.617783515567567
 13
457.99999999999972
 23
1082.0
 14
10.0
 24
10.0
 15
10.0
 25
10.0
 16
0.0
 26
0.0
 36
1.0
 17
0.0
 27
0.0
 37
0.0
 40
365.44469643646289
 41
1.7038081805359659
 42
1.0
 43
0.0
 44
0.0
 50
0.0
 51
0.0
 71
     0
 72
   100
 73
     1
 74
     1
 75
     0
 76
     0
 77
     0
 78
     0
  0
ENDTAB
  0
TABLE
  2
LTYPE
 70
     5
  0
LTYPE
  2
ByBlock
 70
     0
  3

 72
    65
 73
     0
 40
0.0
  0
LTYPE
  2
ByLayer
 70
     0
  3

 72
    65
 73
     0
 40
0.0
  0
LTYPE
  2
CONTINUOUS
 70
     0
  3
łsÄň˝u ________________________
 72
    65
 73
     2
 40
200000.0
 49
200000.0
 49
0.0
  0
LTYPE
  2
CENTER2
 70
     0
  3
Center (.5x) ___ _ ___ _ ___ _ ___ _ ___ _ ___
 72
    65
 73
     4
 40
28.574999999999999
 49
19.050000000000001
 49
-3.1749999999999989
 49
3.1749999999999989
 49
-3.1749999999999989
  0
LTYPE
  2
DASHED2
 70
     0
  3
Dashed (.5x) _ _ _ _ _ _ _ _ _ _ _ _ _ _ _ _ _
 72
    65
 73
     2
 40
9.5249999999999986
 49
6.3499999999999988
 49
-3.1749999999999989
  0
ENDTAB
  0
TABLE
  2
LAYER
 70
    11
  0
LAYER
  2
0
 70
     0
 62
     7
  6
CONTINUOUS
  0
LAYER
  2
«ü˝u
 70
     0
 62
     3
  6
CONTINUOUS
  0
LAYER
  2
¤¤¤ß˝u
 70
     0
 62
     4
  6
CENTER2
  0
LAYER
  2
µę˝u
 70
     0
 62
     6
  6
DASHED2
  0
LAYER
  2
«Řşc˝u
 70
     0
 62
     1
  6
CONTINUOUS
  0
LAYER
  2
AM3
 70
     0
 62
     6
  6
DASHED2
  0
LAYER
  2
AM4
 70
     0
 62
     3
  6
CONTINUOUS
  0
LAYER
  2
AM5
 70
     0
 62
     3
  6
CONTINUOUS
  0
LAYER
  2
AM7
 70
     0
 62
     4
  6
CENTER2
  0
LAYER
  2
DEFPOINTS
 70
     0
 62
     7
  6
CONTINUOUS
  0
LAYER
  2
CK_LEVEL_1
 70
     0
 62
     7
  6
CONTINUOUS
  0
ENDTAB
  0
TABLE
  2
STYLE
 70
     2
  0
STYLE
  2
STANDARD
 70
     0
 40
0.0
 41
1.0
 50
0.0
 71
     0
 42
3.0
  3
txt
  4

  0
STYLE
  2
«¬¦ˇ2
 70
     0
 40
0.0
 41
1.0
 50
0.0
 71
     0
 42
2.5
  3
txt
  4

  0
ENDTAB
  0
TABLE
  2
VIEW
 70
     0
  0
ENDTAB
  0
TABLE
  2
UCS
 70
     0
  0
ENDTAB
  0
TABLE
  2
APPID
 70
     4
  0
APPID
  2
ACAD
 70
     0
  0
APPID
  2
TCAD
 70
     0
  0
APPID
  2
CONTENTBLOCKICON
 70
     0
  0
APPID
  2
PNTFLAG
 70
     0
  0
ENDTAB
  0
TABLE
  2
DIMSTYLE
 70
     3
  0
DIMSTYLE
  2
STANDARD
 70
     0
  3

  4

  5

  6

  7

 40
1.0
 41
0.18
 42
0.0625
 43
0.38
 44
0.18
 45
0.0
 46
0.0
 47
0.0
 48
0.0
140
0.18
141
0.09
142
0.0
143
25.399999999999999
144
1.0
145
0.0
146
1.0
147
0.09
 71
     0
 72
     0
 73
     1
 74
     1
 75
     0
 76
     0
 77
     0
 78
     0
170
     0
171
     2
172
     0
173
     0
174
     0
175
     0
176
     0
177
     0
178
     0
  0
DIMSTYLE
  2
ISO-25
 70
     0
  3

  4

  5

  6

  7

 40
1.0
 41
1.1999999999999991
 42
0.7
 43
3.75
 44
0.3
 45
0.0
 46
0.0
 47
0.0
 48
0.0
140
2.0
141
2.5
142
0.0
143
0.03937007874016
144
1.0
145
0.0
146
1.0
147
0.5
 71
     0
 72
     0
 73
     0
 74
     0
 75
     0
 76
     0
 77
     1
 78
     8
170
     0
171
     3
172
     1
173
     0
174
     0
175
     0
176
     3
177
     3
178
     2
  0
DIMSTYLE
  2
˝ĆĄ»_ISO-25
 70
     0
  3

  4

  5

  6

  7

 40
1.0
 41
1.8
 42
0.7
 43
3.75
 44
0.3
 45
0.0
 46
0.0
 47
0.0
 48
0.0
140
2.7999999999999989
141
2.5
142
0.0
143
0.03937007874016
144
1.0
145
0.0
146
1.0
147
0.5
 71
     0
 72
     0
 73
     0
 74
     0
 75
     0
 76
     0
 77
     1
 78
     8
170
     0
171
     3
172
     1
173
     0
174
     0
175
     0
176
     3
177
     3
178
     2
  0
ENDTAB
  0
ENDSEC
  0
SECTION
  2
BLOCKS
  0
BLOCK
  8
0
  2
$MODEL_SPACE
 70
     0
 10
0.0
 20
0.0
 30
0.0
  3
$MODEL_SPACE
  1

  0
ENDBLK
  5
255
  8
0
  0
BLOCK
 67
     1
  8
0
  2
$PAPER_SPACE
 70
     0
 10
0.0
 20
0.0
 30
0.0
  3
$PAPER_SPACE
  1

  0
ENDBLK
  5
253
 67
     1
  8
0
  0
BLOCK
  8
0
  2
*U5
 70
     1
 10
0.0
 20
0.0
 30
0.0
  3
*U5
  1

  0
TEXT
  5
60E7
  8
0
 10
-461.99526783474067
 20
-29.366868525868451
 30
0.0
 40
7.8000001593418631
  1
HGH45CA
  0
TEXT
  5
60E8
  8
0
 10
-462.21459011751949
 20
-42.465282636274907
 30
0.0
 40
7.8000001593418631
  1
C : 7910 kgf
  0
TEXT
  5
60E9
  8
0
 10
-462.21459011751949
 20
-55.663310115695403
 30
0.0
 40
7.8000001593418631
  1
C
  0
TEXT
  5
60EA
  8
0
 10
-454.53268657198163
 20
-50.85331001743458
 30
0.0
 40
5.4600001115393031
  1

  0
TEXT
  5
60EB
  8
0
 10
-455.36130447508788
 20
-58.125911792018783
 30
0.0
 40
5.4600001115393031
  1
0
  0
TEXT
  5
60EC
  8
0
 10
-450.92227999416173
 20
-55.6644801157193
 30
0.0
 40
7.8023401593896651
  1
: 15900 kgf
  0
ENDBLK
  5
60EE
  8
0
  0
BLOCK
  8
0
  2
*U6
 70
     1
 10
0.0
 20
0.0
 30
0.0
  3
*U6
  1

  0
TEXT
  5
60F2
  8
AM5
 62
     2
 10
1091.865115595675
 20
329.47041267730538
 30
0.0
 40
2.7999999999999989
  1
97
 50
90.0
  0
TEXT
  5
60F3
  8
AM5
 62
     2
 10
1090.1384489290081
 20
333.5525179404633
 30
0.0
 40
1.9599999999999991
  1
+0.05
 50
90.0
  0
TEXT
  5
60F4
  8
AM5
 62
     2
 10
1092.7814578211021
 20
333.48751433556072
 30
0.0
 40
1.9599999999999991
  1
-0
 50
90.0
  0
ENDBLK
  5
60F6
  8
0
  0
BLOCK
  8
0
  2
*U7
 70
     1
 10
0.0
 20
0.0
 30
0.0
  3
*U7
  1

  0
TEXT
  5
60F8
  8
AM5
 62
     2
 10
271.34861859778403
 20
156.21072175337659
 30
0.0
 40
2.7999999999999989
  1
97
 50
90.0
  0
TEXT
  5
60F9
  8
AM5
 62
     2
 10
269.62195193111728
 20
160.2928270165346
 30
0.0
 40
1.9599999999999991
  1
+0.05
 50
90.0
  0
TEXT
  5
60FA
  8
AM5
 62
     2
 10
272.26496082321057
 20
160.2278234116319
 30
0.0
 40
1.9599999999999991
  1
-0
 50
90.0
  0
ENDBLK
  5
60FC
  8
0
  0
BLOCK
  8
0
  2
*U8
 70
     1
 10
0.0
 20
0.0
 30
0.0
  3
*U8
  1

  0
TEXT
  5
60FE
  8
0
 62
     0
 10
107.21231064848421
 20
216.363016326983
 30
0.0
 40
3.0
  1
\U+220520.0000
  0
ENDBLK
  5
6100
  8
0
  0
BLOCK
  8
0
  2
*U9
 70
     1
 10
0.0
 20
0.0
 30
0.0
  3
*U9
  1

  0
TEXT
  5
6102
  8
0
 62
     0
 10
16.1971926277363
 20
171.367003103934
 30
0.0
 40
3.0
  1
22.5004
  0
ENDBLK
  5
6104
  8
0
  0
ENDSEC
  0
SECTION
  2
ENTITIES
  0
INSERT
  5
413A
  8
0
  2
*U5
 10
0.0
 20
0.0
 30
0.0
  0
LINE
  5
5E20
  8
0
 10
-99.256241798863527
 20
155.49058702791399
 30
0.0
 11
-99.256241798863485
 21
200.49131444888889
 31
0.0
  0
LINE
  5
5E21
  8
0
 10
-354.25611650745549
 20
200.4913144488892
 30
0.0
 11
-354.25611650745549
 21
155.4905870279141
 31
0.0
  0
LINE
  5
5E22
  8
0
 10
-265.78761044897902
 20
218.99095073840141
 30
0.0
 11
-285.35088171498018
 21
218.99095073840141
 31
0.0
  0
LINE
  5
5E23
  8
0
 10
-168.78761044897891
 20
218.99095073840141
 30
0.0
 11
-149.2243391829779
 21
218.99095073840141
 31
0.0
  0
LINE
  5
5E24
  8
0
 10
-168.7876104489788
 20
136.9909507384013
 30
0.0
 11
-149.22433918297801
 21
136.9909507384013
 31
0.0
  0
LINE
  5
5E25
  8
0
 10
-265.78761044897902
 20
136.9909507384013
 30
0.0
 11
-285.35088171498029
 21
136.9909507384013
 31
0.0
  0
LINE
  5
5E26
  8
0
 10
-286.98761044897918
 20
13.02557866404559
 30
0.0
 11
-147.58761044897889
 21
13.025578664045581
 31
0.0
  0
LINE
  5
5E27
  8
0
 10
-265.78761044897908
 20
57.525578664045682
 30
0.0
 11
-168.78761044897919
 21
57.525578664045689
 31
0.0
  0
LINE
  5
5E28
  8
0
 10
-265.78761044897902
 20
71.525578664045696
 30
0.0
 11
-168.78761044897931
 21
71.525578664045696
 31
0.0
  0
LINE
  5
5E29
  8
0
 10
-265.78761044897902
 20
73.525578664045682
 30
0.0
 11
-168.78761044897931
 21
73.525578664045696
 31
0.0
  0
LINE
  5
5E2A
  8
0
 10
-415.89192448609458
 20
20.1853766386904
 30
0.0
 11
-418.69192448609459
 21
19.025578664045721
 31
0.0
  0
LINE
  5
5E2B
  8
0
 10
-416.1290924211923
 20
23.254580351033159
 30
0.0
 11
-414.72428229099228
 21
23.033044884504111
 31
0.0
  0
LINE
  5
5E2C
  8
0
 10
-417.85984764778817
 20
23.857277502352499
 30
0.0
 11
-416.1290924211923
 21
23.254580351033159
 31
0.0
  0
LINE
  5
5E2D
  8
0
 10
-413.24906439319119
 20
26.134607479308439
 30
0.0
 11
-413.85176230668509
 21
27.865362896824479
 31
0.0
  0
LINE
  5
5E2E
  8
0
 10
-413.02752866787222
 20
24.729796608151162
 30
0.0
 11
-413.24906439319119
 21
26.134607479308439
 31
0.0
  0
LINE
  5
5E2F
  8
0
 10
-407.89192448609458
 20
29.865409468058829
 30
0.0
 11
-410.69192448609459
 21
31.025206056900458
 31
0.0
  0
LINE
  5
5E30
  8
0
 10
-410.69192448609459
 20
33.425912893307441
 30
0.0
 11
-407.89192448609452
 21
34.585708101075802
 31
0.0
  0
LINE
  5
5E31
  8
0
 10
-413.4195078185187
 20
38.486961742391401
 30
0.0
 11
-414.06673411980398
 21
36.800733913053108
 31
0.0
  0
LINE
  5
5E32
  8
0
 10
-413.14075785893499
 20
39.83455918259137
 30
0.0
 11
-413.4195078185187
 21
38.486961742391401
 31
0.0
  0
LINE
  5
5E33
  8
0
 10
-416.16808367345629
 20
41.235535838792309
 30
0.0
 11
-414.82048800834212
 21
41.514284526559202
 31
0.0
  0
LINE
  5
5E34
  8
0
 10
-417.85431128695819
 20
40.588312283496947
 30
0.0
 11
-416.16808367345629
 21
41.235535838792309
 31
0.0
  0
LINE
  5
5E35
  8
0
 10
-418.79157548606003
 20
41.525578664045661
 30
0.0
 11
-417.6317756026632
 21
44.325578664045729
 31
0.0
  0
LINE
  5
5E36
  8
0
 10
-447.59227348612961
 20
41.525578664045661
 30
0.0
 11
-448.75207336952678
 21
44.325578664045672
 31
0.0
  0
LINE
  5
5E37
  8
0
 10
-450.21192094978937
 20
41.239380196683577
 30
0.0
 11
-448.524815905683
 21
40.593034074034989
 31
0.0
  0
LINE
  5
5E38
  8
0
 10
-451.56061131003651
 20
41.517034186769529
 30
0.0
 11
-450.21192094978937
 21
41.239380196683577
 31
0.0
  0
LINE
  5
5E39
  8
0
 10
-452.96326951954433
 20
38.488033380132968
 30
0.0
 11
-452.3169206478438
 21
36.800928118249743
 31
0.0
  0
LINE
  5
5E3A
  8
0
 10
-453.2409247823839
 20
39.836725520770102
 30
0.0
 11
-452.96326951954433
 21
38.488033380132968
 31
0.0
  0
LINE
  5
5E3B
  8
0
 10
-455.69192448609459
 20
33.425912893308073
 30
0.0
 11
-458.49192448609449
 21
34.585708101076541
 31
0.0
  0
LINE
  5
5E3C
  8
0
 10
-458.49192448609449
 20
29.865409468058399
 30
0.0
 11
-455.69192448609459
 21
31.025206056900029
 31
0.0
  0
LINE
  5
5E3D
  8
0
 10
-453.13423182978318
 20
26.134054729159711
 30
0.0
 11
-453.35449921626002
 21
24.727975517017001
 31
0.0
  0
LINE
  5
5E3E
  8
0
 10
-453.13423182978318
 20
26.134054729159711
 30
0.0
 11
-452.53249001178739
 21
27.865766243789409
 31
0.0
  0
LINE
  5
5E3F
  8
0
 10
-450.25158710935699
 20
23.2514109093926
 30
0.0
 11
-448.51985583382788
 21
23.865786196645761
 31
0.0
  0
LINE
  5
5E40
  8
0
 10
-450.25158710935699
 20
23.251410909392519
 30
0.0
 11
-451.6576655776251
 21
23.031143780931639
 31
0.0
  0
LINE
  5
5E41
  8
0
 10
-450.49192448609438
 20
21.865402689400781
 30
0.0
 11
-447.69192448609448
 21
23.02520066404546
 31
0.0
  0
LINE
  5
5E42
  8
0
 10
-450.49192448609438
 20
20.185376638690631
 30
0.0
 11
-447.69192448609431
 21
19.02557866404598
 31
0.0
  0
LINE
  5
5E43
  8
0
 10
-408.73212651144979
 20
13.025578664045581
 30
0.0
 11
-415.89192448609458
 21
20.1853766386904
 31
0.0
  0
LINE
  5
5E44
  8
0
 10
-415.89192448609452
 20
21.86540268940152
 30
0.0
 11
-415.89192448609458
 21
20.1853766386904
 31
0.0
  0
LINE
  5
5E45
  8
0
 10
-415.89192448609452
 20
21.86540268940152
 30
0.0
 11
-414.72428229099199
 21
23.033044884504498
 31
0.0
  0
ARC
  5
5E46
  8
0
 10
-413.85985583605651
 20
23.865371084985071
 30
0.0
 40
1.2
 50
46.083764851747887
 51
223.91617100702999
  0
LINE
  5
5E47
  8
0
 10
-413.02752866787222
 20
24.729796608151162
 30
0.0
 11
-407.89192448609458
 21
29.865409468058829
 31
0.0
  0
LINE
  5
5E48
  8
0
 10
-407.89192448609452
 20
34.585708101075802
 30
0.0
 11
-407.89192448609458
 21
29.865409468058829
 31
0.0
  0
LINE
  5
5E49
  8
0
 10
-413.14075785893499
 20
39.83455918259137
 30
0.0
 11
-407.89192448609452
 21
34.585708101075802
 31
0.0
  0
ARC
  5
5E4A
  8
0
 10
-413.85967405022058
 20
40.79537108400919
 30
0.0
 40
1.2
 50
143.19492398790021
 51
306.80523992638388
  0
LINE
  5
5E4B
  8
0
 10
-417.6317756026632
 20
44.325578664045729
 30
0.0
 11
-414.82048800834161
 21
41.514284526558839
 31
0.0
  0
LINE
  5
5E4C
  8
0
 10
-448.75207336952678
 20
44.325578664045672
 30
0.0
 11
-417.6317756026632
 21
44.325578664045729
 31
0.0
  0
LINE
  5
5E4D
  8
0
 10
-448.75207336952678
 20
44.325578664045672
 30
0.0
 11
-451.5606113100369
 21
41.517034186769187
 31
0.0
  0
ARC
  5
5E4E
  8
0
 10
-452.519674047992
 20
40.79578619566982
 30
0.0
 40
1.2
 50
233.05541811645679
 51
36.944417995167321
  0
LINE
  5
5E4F
  8
0
 10
-453.2409247823835
 20
39.8367255207705
 30
0.0
 11
-458.49192448609449
 21
34.585708101076541
 31
0.0
  0
LINE
  5
5E50
  8
0
 10
-458.49192448609449
 20
34.585708101076541
 30
0.0
 11
-458.49192448609449
 21
29.865409468058399
 31
0.0
  0
LINE
  5
5E51
  8
0
 10
-453.35449921625963
 20
24.727975517016631
 30
0.0
 11
-458.49192448609449
 21
29.865409468058399
 31
0.0
  0
ARC
  5
5E52
  8
0
 10
-452.51985583382788
 20
23.865786196645761
 30
0.0
 40
1.2
 50
315.93010723545262
 51
134.0699570066258
  0
LINE
  5
5E53
  8
0
 10
-450.49192448609438
 20
21.865402689400781
 30
0.0
 11
-451.65766557762549
 21
23.031143780932009
 31
0.0
  0
LINE
  5
5E54
  8
0
 10
-450.49192448609438
 20
21.865402689400781
 30
0.0
 11
-450.49192448609438
 21
20.185376638690631
 31
0.0
  0
LINE
  5
5E55
  8
0
 10
-457.65172246073939
 20
13.02557866404552
 30
0.0
 11
-450.49192448609438
 21
20.185376638690631
 31
0.0
  0
LINE
  5
5E56
  8
0
 10
-410.35847210817877
 20
13.025578664045581
 30
0.0
 11
-417.04192448609462
 21
19.709031041961339
 31
0.0
  0
LINE
  5
5E57
  8
0
 10
-417.04192448609462
 20
22.341748286130532
 30
0.0
 11
-417.04192448609462
 21
19.709031041961339
 31
0.0
  0
LINE
  5
5E58
  8
0
 10
-417.04192448609462
 20
22.341748286130532
 30
0.0
 11
-416.12909242119213
 21
23.254580351033269
 31
0.0
  0
ARC
  5
5E59
  8
0
 10
-413.85985583605651
 20
23.865371084985071
 30
0.0
 40
2.3500000000000001
 50
74.935203763705232
 51
195.06477833699671
  0
LINE
  5
5E5A
  8
0
 10
-413.24906439319119
 20
26.134607479308439
 30
0.0
 11
-409.04192448609462
 21
30.341754495618769
 31
0.0
  0
LINE
  5
5E5B
  8
0
 10
-409.0419244860945
 20
34.109363640742352
 30
0.0
 11
-409.04192448609462
 21
30.341754495618769
 31
0.0
  0
LINE
  5
5E5C
  8
0
 10
-413.4195078185187
 20
38.486961742391401
 30
0.0
 11
-409.0419244860945
 21
34.109363640742352
 31
0.0
  0
ARC
  5
5E5D
  8
0
 10
-413.85967405022058
 20
40.79537108400919
 30
0.0
 40
2.3500000000000001
 50
169.20450083853231
 51
280.7955358192724
  0
LINE
  5
5E5E
  8
0
 10
-418.10812198334412
 20
43.175578664045702
 30
0.0
 11
-416.16808367345612
 21
41.235535838792138
 31
0.0
  0
LINE
  5
5E5F
  8
0
 10
-448.2757269888458
 20
43.175578664045673
 30
0.0
 11
-418.10812198334412
 21
43.175578664045702
 31
0.0
  0
LINE
  5
5E60
  8
0
 10
-448.2757269888458
 20
43.175578664045673
 30
0.0
 11
-450.21192094978937
 21
41.239380196683577
 31
0.0
  0
ARC
  5
5E61
  8
0
 10
-452.519674047992
 20
40.79578619566982
 30
0.0
 40
2.3500000000000001
 50
259.11933678375618
 51
10.88062670642304
  0
LINE
  5
5E62
  8
0
 10
-452.9632695195441
 20
38.488033380133118
 30
0.0
 11
-457.34192448609463
 21
34.109363640743062
 31
0.0
  0
LINE
  5
5E63
  8
0
 10
-457.34192448609463
 20
34.109363640743062
 30
0.0
 11
-457.34192448609463
 21
30.34175449561835
 31
0.0
  0
LINE
  5
5E64
  8
0
 10
-453.13423182978318
 20
26.134054729159711
 30
0.0
 11
-457.34192448609463
 21
30.34175449561835
 31
0.0
  0
ARC
  5
5E65
  8
0
 10
-452.51985583382788
 20
23.865786196645761
 30
0.0
 40
2.3500000000000001
 50
344.84469626683841
 51
105.1553216347653
  0
LINE
  5
5E66
  8
0
 10
-449.34192448609451
 20
22.341748286129871
 30
0.0
 11
-450.25158710935722
 21
23.251410909392661
 31
0.0
  0
LINE
  5
5E67
  8
0
 10
-449.34192448609451
 20
22.341748286129871
 30
0.0
 11
-449.3419244860944
 21
19.709031041961591
 31
0.0
  0
LINE
  5
5E68
  8
0
 10
-456.0253768640103
 20
13.025578664045581
 30
0.0
 11
-449.3419244860944
 21
19.709031041961591
 31
0.0
  0
POINT
  5
5E69
  8
0
 10
-420.99577691008801
 20
55.027175195356229
 30
0.0
1001
PNTFLAG
1000
endpoint
  0
LINE
  5
5E6A
  8
0
 10
-425.337148735472
 20
57.419427595237337
 30
0.0
 11
-425.27370541475199
 21
57.461256098847677
 31
0.0
  0
LINE
  5
5E6B
  8
0
 10
-425.60280240196141
 20
52.607068856448478
 30
0.0
 11
-425.54236007236727
 21
52.604502065519831
 31
0.0
  0
LINE
  5
5E6C
  8
0
 10
-425.337148735472
 20
52.63492112547479
 30
0.0
 11
-425.27370541475199
 21
52.593092621864429
 31
0.0
  0
LINE
  5
5E6D
  8
0
 10
-424.70843194047649
 20
55.027175195356229
 30
0.0
 11
-424.68496175280683
 21
55.649851598343197
 31
0.0
  0
LINE
  5
5E6E
  8
0
 10
-422.70987715896769
 20
55.027175195356229
 30
0.0
 11
-422.69340928359298
 21
55.464095767821931
 31
0.0
  0
LINE
  5
5E6F
  8
0
 10
-422.69340928359298
 20
54.590254622890448
 30
0.0
 11
-422.70987715896769
 21
55.027175195356229
 31
0.0
  0
LINE
  5
5E70
  8
0
 10
-424.68496175280683
 20
54.404497122369008
 30
0.0
 11
-424.70843194047649
 21
55.027175195356229
 31
0.0
  0
LINE
  5
5E71
  8
0
 10
-422.69340928359298
 20
55.464095767821931
 30
0.0
 11
-422.64463691769782
 21
55.884224484733437
 31
0.0
  0
LINE
  5
5E72
  8
0
 10
-424.68496175280683
 20
55.649851598343197
 30
0.0
 11
-424.61545633019938
 21
56.248600233584192
 31
0.0
  0
LINE
  5
5E73
  8
0
 10
-422.64463691769782
 20
54.170124235978641
 30
0.0
 11
-422.69340928359298
 21
54.590254622890448
 31
0.0
  0
LINE
  5
5E74
  8
0
 10
-424.61545633019938
 20
53.805748487127943
 30
0.0
 11
-424.68496175280683
 21
54.404497122369008
 31
0.0
  0
LINE
  5
5E75
  8
0
 10
-422.64463691769782
 20
55.884224484733437
 30
0.0
 11
-422.56543714184619
 21
56.271419121019939
 31
0.0
  0
LINE
  5
5E76
  8
0
 10
-424.61545633019938
 20
56.248600233584192
 30
0.0
 11
-424.50258433334989
 21
56.800410163361441
 31
0.0
  0
LINE
  5
5E77
  8
0
 10
-422.56543714184619
 20
53.782931269692448
 30
0.0
 11
-422.64463691769782
 21
54.170124235978641
 31
0.0
  0
LINE
  5
5E78
  8
0
 10
-424.50258433334989
 20
53.253938557225723
 30
0.0
 11
-424.61545633019938
 21
53.805748487127943
 31
0.0
  0
LINE
  5
5E79
  8
0
 10
-422.56543714184619
 20
56.271419121019939
 30
0.0
 11
-422.45885269704661
 21
56.610796631570963
 31
0.0
  0
LINE
  5
5E7A
  8
0
 10
-424.50258433334989
 20
56.800410163361441
 30
0.0
 11
-424.35068442385767
 21
57.284075721133597
 31
0.0
  0
LINE
  5
5E7B
  8
0
 10
-422.45885269704661
 20
53.44355208914115
 30
0.0
 11
-422.56543714184619
 21
53.782931269692448
 31
0.0
  0
LINE
  5
5E7C
  8
0
 10
-424.35068442385767
 20
52.770274669578811
 30
0.0
 11
-424.50258433334989
 21
53.253938557225723
 31
0.0
  0
LINE
  5
5E7D
  8
0
 10
-422.45885269704661
 20
56.610796631570963
 30
0.0
 11
-422.32897842473272
 21
56.889317652459042
 31
0.0
  0
LINE
  5
5E7E
  8
0
 10
-424.35068442385767
 20
57.284075721133597
 30
0.0
 11
-424.1655932534473
 21
57.681008130546289
 31
0.0
  0
LINE
  5
5E7F
  8
0
 10
-422.32897842473272
 20
53.165031068253171
 30
0.0
 11
-422.45885269704661
 21
53.44355208914115
 31
0.0
  0
LINE
  5
5E80
  8
0
 10
-422.32897842473272
 20
56.889317652459042
 30
0.0
 11
-422.18080595648792
 21
57.096275809895978
 31
0.0
  0
LINE
  5
5E81
  8
0
 10
-424.1655932534473
 20
52.373340590165839
 30
0.0
 11
-424.35068442385767
 21
52.770274669578811
 31
0.0
  0
LINE
  5
5E82
  8
0
 10
-426.08846027031609
 20
55.027175195356229
 30
0.0
 11
-426.07052613444608
 21
55.503023480447851
 31
0.0
  0
LINE
  5
5E83
  8
0
 10
-426.07052613444608
 20
54.551325240264283
 30
0.0
 11
-426.08846027031609
 21
55.027175195356229
 31
0.0
  0
LINE
  5
5E84
  8
0
 10
-426.07052613444608
 20
55.503023480447851
 30
0.0
 11
-426.01740842720051
 21
55.960585259610681
 31
0.0
  0
LINE
  5
5E85
  8
0
 10
-430.0610525553642
 20
55.027175195356229
 30
0.0
 11
-430.03347750638409
 21
55.758764023781531
 31
0.0
  0
LINE
  5
5E86
  8
0
 10
-430.03347750638409
 20
54.29558636680585
 30
0.0
 11
-430.0610525553642
 21
55.027175195356229
 31
0.0
  0
LINE
  5
5E87
  8
0
 10
-426.01740842720051
 20
54.093763461101467
 30
0.0
 11
-426.07052613444608
 21
54.551325240264283
 31
0.0
  0
LINE
  5
5E88
  8
0
 10
-426.01740842720051
 20
55.960585259610681
 30
0.0
 11
-425.9311528990458
 21
56.382277097158187
 31
0.0
  0
LINE
  5
5E89
  8
0
 10
-424.1655932534473
 20
57.681008130546289
 30
0.0
 11
-423.95442502468228
 21
57.975956946677762
 31
0.0
  0
LINE
  5
5E8A
  8
0
 10
-422.18080595648792
 20
52.958072910816121
 30
0.0
 11
-422.32897842473272
 21
53.165031068253171
 31
0.0
  0
LINE
  5
5E8B
  8
0
 10
-422.18080595648792
 20
57.096275809895978
 30
0.0
 11
-422.0200283240132
 21
57.223721901429521
 31
0.0
  0
LINE
  5
5E8C
  8
0
 10
-430.03347750638409
 20
55.758764023781531
 30
0.0
 11
-429.95181447974619
 21
56.462238393136737
 31
0.0
  0
LINE
  5
5E8D
  8
0
 10
-429.95181447974619
 20
53.592111997575643
 30
0.0
 11
-430.03347750638409
 21
54.29558636680585
 31
0.0
  0
LINE
  5
5E8E
  8
0
 10
-425.9311528990458
 20
53.672071623553933
 30
0.0
 11
-426.01740842720051
 21
54.093763461101467
 31
0.0
  0
LINE
  5
5E8F
  8
0
 10
-423.95442502468228
 20
52.078391774034372
 30
0.0
 11
-424.1655932534473
 21
52.373340590165839
 31
0.0
  0
LINE
  5
5E90
  8
0
 10
-425.9311528990458
 20
56.382277097158187
 30
0.0
 11
-425.81507116116029
 21
56.751893307634127
 31
0.0
  0
LINE
  5
5E91
  8
0
 10
-429.95181447974619
 20
56.462238393136737
 30
0.0
 11
-429.8192014065998
 21
57.110562664531898
 31
0.0
  0
LINE
  5
5E92
  8
0
 10
-429.8192014065998
 20
52.94378605618018
 30
0.0
 11
-429.95181447974619
 21
53.592111997575643
 31
0.0
  0
LINE
  5
5E93
  8
0
 10
-425.81507116116029
 20
53.302455413078029
 30
0.0
 11
-425.9311528990458
 21
53.672071623553933
 31
0.0
  0
LINE
  5
5E94
  8
0
 10
-422.0200283240132
 20
57.223721901429521
 30
0.0
 11
-421.8528261995902
 21
57.266754475490949
 31
0.0
  0
LINE
  5
5E95
  8
0
 10
-423.95442502468228
 20
57.975956946677762
 30
0.0
 11
-423.72529426991741
 21
58.157586205884819
 31
0.0
  0
LINE
  5
5E96
  8
0
 10
-422.18080595648792
 20
52.958072910816121
 30
0.0
 11
-422.0200283240132
 21
52.830626819282628
 31
0.0
  0
LINE
  5
5E97
  8
0
 10
-425.81507116116029
 20
56.751893307634127
 30
0.0
 11
-425.67362545516357
 21
57.05522886654115
 31
0.0
  0
LINE
  5
5E98
  8
0
 10
-423.95442502468228
 20
52.078391774034372
 30
0.0
 11
-423.72529426991741
 21
51.89676418482761
 31
0.0
  0
LINE
  5
5E99
  8
0
 10
-425.67362545516357
 20
52.999119854170971
 30
0.0
 11
-425.81507116116029
 21
53.302455413078029
 31
0.0
  0
LINE
  5
5E9A
  8
0
 10
-429.8192014065998
 20
57.110562664531898
 30
0.0
 11
-429.6407317884204
 21
57.678825439806772
 31
0.0
  0
LINE
  5
5E9B
  8
0
 10
-429.6407317884204
 20
52.375523280905362
 30
0.0
 11
-429.8192014065998
 21
52.94378605618018
 31
0.0
  0
LINE
  5
5E9C
  8
0
 10
-425.67362545516357
 20
57.05522886654115
 30
0.0
 11
-425.51224996246418
 21
57.280627169932671
 31
0.0
  0
LINE
  5
5E9D
  8
0
 10
-424.79285046794922
 20
57.750062652953382
 30
0.0
 11
-424.58127141899058
 21
57.91777746771178
 31
0.0
  0
LINE
  5
5E9E
  8
0
 10
-423.72529426991741
 20
58.157586205884819
 30
0.0
 11
-423.48700523224818
 21
58.218913635876532
 31
0.0
  0
LINE
  5
5E9F
  8
0
 10
-421.8528261995902
 20
57.266754475490949
 30
0.0
 11
-421.68562407504243
 21
57.223721901429521
 31
0.0
  0
LINE
  5
5EA0
  8
0
 10
-422.0200283240132
 20
52.830626819282628
 30
0.0
 11
-421.8528261995902
 21
52.787594245221179
 31
0.0
  0
LINE
  5
5EA1
  8
0
 10
-425.51224996246418
 20
52.77372155077947
 30
0.0
 11
-425.67362545516357
 21
52.999119854170971
 31
0.0
  0
LINE
  5
5EA2
  8
0
 10
-430.28305741781389
 20
55.027175195356229
 30
0.0
 11
-429.4545233876986
 21
58.777174777856153
 31
0.0
  0
LINE
  5
5EA3
  8
0
 10
-429.4545233876986
 20
51.277173942856017
 30
0.0
 11
-430.28305741781389
 21
55.027175195356229
 31
0.0
  0
LINE
  5
5EA4
  8
0
 10
-424.58127141899058
 20
57.91777746771178
 30
0.0
 11
-424.17373116618131
 21
58.123401294675972
 31
0.0
  0
LINE
  5
5EA5
  8
0
 10
-424.17373116618131
 20
58.123401294675972
 30
0.0
 11
-423.93804565932197
 21
58.18406072443107
 31
0.0
  0
LINE
  5
5EA6
  8
0
 10
-423.72529426991741
 20
51.89676418482761
 30
0.0
 11
-423.48700523224818
 21
51.835435084835609
 31
0.0
  0
LINE
  5
5EA7
  8
0
 10
-429.6407317884204
 20
57.678825439806772
 30
0.0
 11
-429.42326765747907
 21
58.145186451814077
 31
0.0
  0
LINE
  5
5EA8
  8
0
 10
-429.42326765747907
 20
51.909162268898079
 30
0.0
 11
-429.6407317884204
 21
52.375523280905362
 31
0.0
  0
LINE
  5
5EA9
  8
0
 10
-425.51224996246418
 20
57.280627169932671
 30
0.0
 11
-425.337148735472
 21
57.419427595237337
 31
0.0
  0
LINE
  5
5EAA
  8
0
 10
-425.27370541475199
 20
57.461256098847677
 30
0.0
 11
-424.58127141899058
 21
57.91777746771178
 31
0.0
  0
LINE
  5
5EAB
  8
0
 10
-424.17373116618131
 20
51.930947426036226
 30
0.0
 11
-423.93804565932197
 21
51.87028966615631
 31
0.0
  0
LINE
  5
5EAC
  8
0
 10
-424.58127141899058
 20
52.136571253000369
 30
0.0
 11
-424.17373116618131
 21
51.930947426036226
 31
0.0
  0
LINE
  5
5EAD
  8
0
 10
-425.51224996246418
 20
52.77372155077947
 30
0.0
 11
-425.337148735472
 21
52.63492112547479
 31
0.0
  0
LINE
  5
5EAE
  8
0
 10
-423.93804565932197
 20
58.18406072443107
 30
0.0
 11
-423.48700523224818
 21
58.218913635876532
 31
0.0
  0
LINE
  5
5EAF
  8
0
 10
-423.48700523224818
 20
58.218913635876532
 30
0.0
 11
-423.24871786457908
 21
58.157586205884819
 31
0.0
  0
LINE
  5
5EB0
  8
0
 10
-421.68562407504243
 20
57.223721901429521
 30
0.0
 11
-421.52484811256789
 21
57.096275809895978
 31
0.0
  0
LINE
  5
5EB1
  8
0
 10
-423.24871786457908
 20
58.157586205884819
 30
0.0
 11
-421.68562407504243
 21
57.223721901429521
 31
0.0
  0
LINE
  5
5EB2
  8
0
 10
-421.8528261995902
 20
52.787594245221179
 30
0.0
 11
-421.68562407504243
 21
52.830626819282628
 31
0.0
  0
LINE
  5
5EB3
  8
0
 10
-425.27370541475199
 20
52.593092621864429
 30
0.0
 11
-424.58127141899058
 21
52.136571253000369
 31
0.0
  0
LINE
  5
5EB4
  8
0
 10
-423.93804565932197
 20
51.87028966615631
 30
0.0
 11
-423.48700523224818
 21
51.835435084835609
 31
0.0
  0
LINE
  5
5EB5
  8
0
 10
-423.48700523224818
 20
51.835435084835609
 30
0.0
 11
-423.24871786457908
 21
51.89676418482761
 31
0.0
  0
LINE
  5
5EB6
  8
0
 10
-429.42326765747907
 20
58.145186451814077
 30
0.0
 11
-429.17516402667047
 21
58.491723254810701
 31
0.0
  0
LINE
  5
5EB7
  8
0
 10
-429.17516402667047
 20
51.562625465901391
 30
0.0
 11
-429.42326765747907
 21
51.909162268898079
 31
0.0
  0
LINE
  5
5EB8
  8
0
 10
-431.56504168565522
 20
51.277173942856017
 30
0.0
 11
-432.39357571577062
 21
55.027175195356229
 31
0.0
  0
LINE
  5
5EB9
  8
0
 10
-432.39357571577062
 20
55.027175195356229
 30
0.0
 11
-430.28305741781389
 21
55.027175195356229
 31
0.0
  0
LINE
  5
5EBA
  8
0
 10
-432.39357571577062
 20
55.027175195356229
 30
0.0
 11
-431.56504168565522
 21
58.777174777856153
 31
0.0
  0
LINE
  5
5EBB
  8
0
 10
-421.3766756443232
 20
56.889317652459042
 30
0.0
 11
-421.52484811256789
 21
57.096275809895978
 31
0.0
  0
LINE
  5
5EBC
  8
0
 10
-421.68562407504243
 20
52.830626819282628
 30
0.0
 11
-421.52484811256789
 21
52.958072910816121
 31
0.0
  0
LINE
  5
5EBD
  8
0
 10
-423.24871786457908
 20
51.89676418482761
 30
0.0
 11
-421.68562407504243
 21
52.830626819282628
 31
0.0
  0
LINE
  5
5EBE
  8
0
 10
-425.54236007236727
 20
57.449848325192619
 30
0.0
 11
-425.27370541475199
 21
57.461256098847677
 31
0.0
  0
LINE
  5
5EBF
  8
0
 10
-425.54236007236727
 20
52.604502065519831
 30
0.0
 11
-425.27370541475199
 21
52.593092621864429
 31
0.0
  0
LINE
  5
5EC0
  8
0
 10
-429.17516402667047
 20
58.491723254810701
 30
0.0
 11
-428.90595659883792
 21
58.705119264322867
 31
0.0
  0
LINE
  5
5EC1
  8
0
 10
-429.17516402667047
 20
51.562625465901391
 30
0.0
 11
-428.90595659883792
 21
51.349229456389281
 31
0.0
  0
LINE
  5
5EC2
  8
0
 10
-421.24680137200932
 20
56.610796631570963
 30
0.0
 11
-421.3766756443232
 21
56.889317652459042
 31
0.0
  0
LINE
  5
5EC3
  8
0
 10
-421.52484811256789
 20
52.958072910816121
 30
0.0
 11
-421.3766756443232
 21
53.165031068253171
 31
0.0
  0
LINE
  5
5EC4
  8
0
 10
-425.84376344057682
 20
57.572850545233969
 30
0.0
 11
-425.54236007236727
 21
57.449848325192619
 31
0.0
  0
LINE
  5
5EC5
  8
0
 10
-425.84376344057682
 20
52.481498175478151
 30
0.0
 11
-425.54236007236727
 21
52.604502065519831
 31
0.0
  0
LINE
  5
5EC6
  8
0
 10
-421.14021525720921
 20
56.271419121019939
 30
0.0
 11
-421.24680137200932
 21
56.610796631570963
 31
0.0
  0
LINE
  5
5EC7
  8
0
 10
-421.3766756443232
 20
53.165031068253171
 30
0.0
 11
-421.24680137200932
 21
53.44355208914115
 31
0.0
  0
LINE
  5
5EC8
  8
0
 10
-428.90595659883792
 20
58.705119264322867
 30
0.0
 11
-428.62598935758348
 21
58.777174777856153
 31
0.0
  0
LINE
  5
5EC9
  8
0
 10
-428.90595659883792
 20
51.349229456389281
 30
0.0
 11
-428.62598935758348
 21
51.277173942856017
 31
0.0
  0
LINE
  5
5ECA
  8
0
 10
-421.0610154813578
 20
55.884224484733437
 30
0.0
 11
-421.14021525720921
 21
56.271419121019939
 31
0.0
  0
LINE
  5
5ECB
  8
0
 10
-422.19599461139939
 20
52.979288597734147
 30
0.0
 11
-422.19362154062833
 21
52.980449248052963
 31
0.0
  0
LINE
  5
5ECC
  8
0
 10
-421.24680137200932
 20
53.44355208914115
 30
0.0
 11
-421.14021525720921
 21
53.782931269692448
 31
0.0
  0
LINE
  5
5ECD
  8
0
 10
-421.012244785463
 20
55.464095767821931
 30
0.0
 11
-421.0610154813578
 21
55.884224484733437
 31
0.0
  0
LINE
  5
5ECE
  8
0
 10
-421.14021525720921
 20
53.782931269692448
 30
0.0
 11
-421.0610154813578
 21
54.170124235978641
 31
0.0
  0
LINE
  5
5ECF
  8
0
 10
-428.3460221163291
 20
58.705119264322867
 30
0.0
 11
-425.84376344057682
 21
57.572850545233969
 31
0.0
  0
LINE
  5
5ED0
  8
0
 10
-428.62598935758348
 20
58.777174777856153
 30
0.0
 11
-428.3460221163291
 21
58.705119264322867
 31
0.0
  0
LINE
  5
5ED1
  8
0
 10
-428.62598935758348
 20
51.277173942856017
 30
0.0
 11
-428.3460221163291
 21
51.349229456389281
 31
0.0
  0
LINE
  5
5ED2
  8
0
 10
-420.99577691008801
 20
55.027175195356229
 30
0.0
 11
-421.012244785463
 21
55.464095767821931
 31
0.0
  0
LINE
  5
5ED3
  8
0
 10
-421.0610154813578
 20
54.170124235978641
 30
0.0
 11
-421.012244785463
 21
54.590254622890448
 31
0.0
  0
LINE
  5
5ED4
  8
0
 10
-421.012244785463
 20
54.590254622890448
 30
0.0
 11
-420.99577691008801
 21
55.027175195356229
 31
0.0
  0
LINE
  5
5ED5
  8
0
 10
-428.3460221163291
 20
51.349229456389281
 30
0.0
 11
-425.84376344057682
 21
52.481498175478151
 31
0.0
  0
LINE
  5
5ED6
  8
0
 10
-431.56504168565522
 20
58.777174777856153
 30
0.0
 11
-427.79745532746858
 21
58.777174777856153
 31
0.0
  0
LINE
  5
5ED7
  8
0
 10
-427.79745532746858
 20
51.277173942856017
 30
0.0
 11
-427.7188317018381
 21
51.633032688909417
 31
0.0
  0
LINE
  5
5ED8
  8
0
 10
-427.7188317018381
 20
58.421316031802697
 30
0.0
 11
-427.79745532746858
 21
58.777174777856153
 31
0.0
  0
LINE
  5
5ED9
  8
0
 10
-431.56504168565522
 20
51.277173942856017
 30
0.0
 11
-427.79745532746858
 21
51.277173942856017
 31
0.0
  0
LINE
  5
5EDA
  8
0
 10
-429.58348416973507
 20
51.277173942856017
 30
0.0
 11
-430.3051715650069
 21
50.027173525355948
 31
0.0
  0
LINE
  5
5EDB
  8
0
 10
-430.3051715650069
 20
50.027173525355948
 30
0.0
 11
-436.0786757371821
 21
50.027173525355948
 31
0.0
  0
LINE
  5
5EDC
  8
0
 10
-438.9654269882696
 20
55.027175195356229
 30
0.0
 11
-436.0786757371821
 21
50.027173525355948
 31
0.0
  0
LINE
  5
5EDD
  8
0
 10
-436.0786757371821
 20
60.027175195356229
 30
0.0
 11
-438.9654269882696
 21
55.027175195356229
 31
0.0
  0
LINE
  5
5EDE
  8
0
 10
-436.0786757371821
 20
60.027175195356229
 30
0.0
 11
-430.30517323500732
 21
60.027175195356229
 31
0.0
  0
LINE
  5
5EDF
  8
0
 10
-429.58348416973507
 20
58.777174777856153
 30
0.0
 11
-430.30517323500732
 21
60.027175195356229
 31
0.0
  0
ARC
  5
5EE0
  8
0
 10
-433.19192448609459
 20
55.027175195356229
 30
0.0
 40
5.0
 50
48.590377998902831
 51
311.40962200319859
  0
POLYLINE
  5
5EE1
  8
0
 66
     1
 10
0.0
 20
0.0
 30
0.0
  0
VERTEX
  5
6137
  8
0
 10
-422.00231295830451
 20
55.027175195356229
 30
0.0
  0
VERTEX
  5
6138
  8
0
 10
-421.96037757455139
 20
54.755878596924639
 30
0.0
  0
VERTEX
  5
6139
  8
0
 10
-421.91926383118522
 20
54.677248291293417
 30
0.0
  0
VERTEX
  5
613A
  8
0
 10
-421.8735509063012
 20
54.640321239251612
 30
0.0
  0
VERTEX
  5
613B
  8
0
 10
-421.83107945245848
 20
54.640705339315751
 30
0.0
  0
VERTEX
  5
613C
  8
0
 10
-421.7854633875906
 20
54.6784607116209
 30
0.0
  0
VERTEX
  5
613D
  8
0
 10
-421.74628350479759
 20
54.753173195972863
 30
0.0
  0
VERTEX
  5
613E
  8
0
 10
-421.70955017278811
 20
54.915764449000612
 30
0.0
  0
VERTEX
  5
613F
  8
0
 10
-421.7033411107513
 20
55.027175195356229
 30
0.0
  0
VERTEX
  5
6140
  8
0
 10
-421.74527482450412
 20
55.298470123787467
 30
0.0
  0
VERTEX
  5
6141
  8
0
 10
-421.78639023787031
 20
55.377100429418732
 30
0.0
  0
VERTEX
  5
6142
  8
0
 10
-421.83210316275461
 20
55.414027481460558
 30
0.0
  0
VERTEX
  5
6143
  8
0
 10
-421.87457294659691
 20
55.413643381271378
 30
0.0
  0
VERTEX
  5
6144
  8
0
 10
-421.92019068146499
 20
55.375888008966243
 30
0.0
  0
VERTEX
  5
6145
  8
0
 10
-421.95936889425809
 20
55.30117552461423
 30
0.0
  0
VERTEX
  5
6146
  8
0
 10
-421.99610389626758
 20
55.138584271711501
 30
0.0
  0
VERTEX
  5
6147
  8
0
 10
-422.00231295830451
 20
55.027175195356229
 30
0.0
  0
SEQEND
  5
6148
  8
0
  0
ARC
  5
5EE2
  8
0
 10
-433.19192448609459
 20
55.027175195356229
 30
0.0
 40
6.5625010959376811
 50
30.243297773999259
 51
329.7566907593
  0
LINE
  5
5EE3
  8
0
 10
-418.69192448609459
 20
23.02520066404605
 30
0.0
 11
-418.69192448609459
 21
19.025578664045721
 31
0.0
  0
LINE
  5
5EE4
  8
0
 10
-447.69192448609448
 20
23.02520066404546
 30
0.0
 11
-447.69192448609431
 21
19.02557866404598
 31
0.0
  0
LINE
  5
5EE5
  8
µę˝u
 10
-426.19192448609459
 20
24.22557866404566
 30
0.0
 11
-426.19192448609459
 21
4.2255786640457691
 31
0.0
  0
LINE
  5
5EE6
  8
¤¤¤ß˝u
 10
-433.19192448609459
 20
80.278947495893391
 30
0.0
 11
-433.19192448609459
 21
1.225578664045798
 31
0.0
  0
LINE
  5
5EE7
  8
µę˝u
 10
-440.19192448609459
 20
24.22557866404566
 30
0.0
 11
-440.19192448609459
 21
4.2255786640457691
 31
0.0
  0
LINE
  5
5EE8
  8
µę˝u
 10
-440.19192448609459
 20
4.2255786640457691
 30
0.0
 11
-426.19192448609459
 21
4.2255786640457691
 31
0.0
  0
LINE
  5
5EE9
  8
0
 10
-441.44229811706663
 20
3.5255786640457241
 30
0.0
 11
-424.94230247066571
 21
3.5255786640457809
 31
0.0
  0
LINE
  5
5EEA
  8
0
 10
-455.69192448609459
 20
11.025578664045749
 30
0.0
 11
-455.69192448609442
 21
5.0255786640457236
 31
0.0
  0
LINE
  5
5EEB
  8
0
 10
-447.44229848609478
 20
4.5255786640457236
 30
0.0
 11
-442.44229928609468
 21
4.5255786640457236
 31
0.0
  0
LINE
  5
5EEC
  8
0
 10
-454.19192448609442
 20
3.5255786640457241
 30
0.0
 11
-448.44229880203841
 21
3.5255786640457241
 31
0.0
  0
LINE
  5
5EED
  8
0
 10
-455.69192448609442
 20
5.0255786640457236
 30
0.0
 11
-454.19192448609442
 21
3.5255786640457241
 31
0.0
  0
LINE
  5
5EEE
  8
0
 10
-447.44229948609473
 20
4.5255784840458091
 30
0.0
 11
-448.44229880203841
 21
3.5255786640457241
 31
0.0
  0
LINE
  5
5EEF
  8
0
 10
-442.44229928609468
 20
4.5255786640457236
 30
0.0
 11
-441.44229811706663
 21
3.5255786640457241
 31
0.0
  0
LINE
  5
5EF0
  8
µę˝u
 10
-440.19192448609459
 20
4.2255786640457691
 30
0.0
 11
-440.89192448609458
 21
3.5255786640457241
 31
0.0
  0
LINE
  5
5EF1
  8
0
 10
-455.69192448609459
 20
11.02557866404578
 30
0.0
 11
-447.69192448609431
 21
19.02557866404598
 31
0.0
  0
LINE
  5
5EF2
  8
0
 10
-410.69192448609471
 20
11.02557866404584
 30
0.0
 11
-418.69192448609459
 21
19.025578664045721
 31
0.0
  0
LINE
  5
5EF3
  8
0
 10
-418.94230248609477
 20
4.5255784840458091
 30
0.0
 11
-417.94230284418381
 21
3.5255786640457241
 31
0.0
  0
LINE
  5
5EF4
  8
0
 10
-423.94230118609471
 20
4.5255786640457236
 30
0.0
 11
-418.94230248609477
 21
4.5255786640457236
 31
0.0
  0
LINE
  5
5EF5
  8
0
 10
-423.94230118609471
 20
4.5255791640458929
 30
0.0
 11
-424.94230247066571
 21
3.5255786640457809
 31
0.0
  0
LINE
  5
5EF6
  8
µę˝u
 10
-426.19192448609459
 20
4.2255786640457691
 30
0.0
 11
-425.49192448609438
 21
3.5255786640457241
 31
0.0
  0
LINE
  5
5EF7
  8
0
 10
-410.69192448609471
 20
11.02557866404584
 30
0.0
 11
-410.69192448609459
 21
5.0255786640457236
 31
0.0
  0
LINE
  5
5EF8
  8
0
 10
-417.94230284418381
 20
3.5255786640457241
 30
0.0
 11
-412.19192448609459
 21
3.5255786640457241
 31
0.0
  0
LINE
  5
5EF9
  8
0
 10
-412.19192448609459
 20
3.5255786640457241
 30
0.0
 11
-410.69192448609459
 21
5.0255786640457236
 31
0.0
  0
LINE
  5
5EFA
  8
µę˝u
 10
-440.19192448609459
 20
24.22557866404566
 30
0.0
 11
-426.19192448609459
 21
24.22557866404566
 31
0.0
  0
LINE
  5
5EFB
  8
0
 10
-447.59227348612961
 20
41.525578664045661
 30
0.0
 11
-418.79157548606003
 21
41.525578664045661
 31
0.0
  0
LINE
  5
5EFC
  8
µę˝u
 10
-443.19192448609459
 20
41.12557866404569
 30
0.0
 11
-423.19192448609459
 21
41.12557866404569
 31
0.0
  0
LINE
  5
5EFD
  8
µę˝u
 10
-443.19192448609459
 20
24.525578664045611
 30
0.0
 11
-423.19192448609459
 21
24.525578664045611
 31
0.0
  0
LINE
  5
5EFE
  8
µę˝u
 10
-443.19192448609459
 20
41.12557866404569
 30
0.0
 11
-443.19192448609459
 21
24.525578664045611
 31
0.0
  0
LINE
  5
5EFF
  8
0
 10
-452.53249001178739
 20
27.865766243789409
 30
0.0
 11
-455.69192448609459
 21
31.025206056900029
 31
0.0
  0
LINE
  5
5F00
  8
0
 10
-447.69192448609448
 20
23.02520066404546
 30
0.0
 11
-448.51987578685441
 21
23.85315196480542
 31
0.0
  0
LINE
  5
5F01
  8
µę˝u
 10
-440.19192448609482
 20
24.22557866404566
 30
0.0
 11
-440.49192448609472
 21
24.525578664045611
 31
0.0
  0
LINE
  5
5F02
  8
0
 10
-455.69192448609459
 20
33.425912893308073
 30
0.0
 11
-455.69192448609459
 21
31.025206056900029
 31
0.0
  0
LINE
  5
5F03
  8
0
 10
-452.3169206478438
 20
36.800928118249743
 30
0.0
 11
-455.69192448609459
 21
33.425912893308073
 31
0.0
  0
LINE
  5
5F04
  8
0
 10
-447.59227348612961
 20
41.525578664045661
 30
0.0
 11
-448.52481590568289
 21
40.59303407403501
 31
0.0
  0
LINE
  5
5F05
  8
µę˝u
 10
-443.19192448609488
 20
41.12557866404569
 30
0.0
 11
-443.42286459377061
 21
41.525578664045717
 31
0.0
  0
LINE
  5
5F06
  8
µę˝u
 10
-423.19192448609459
 20
41.12557866404569
 30
0.0
 11
-423.19192448609459
 21
24.525578664045611
 31
0.0
  0
LINE
  5
5F07
  8
0
 10
-418.69192448609459
 20
23.02520066404605
 30
0.0
 11
-417.85984764778817
 21
23.85727750235262
 31
0.0
  0
LINE
  5
5F08
  8
µę˝u
 10
-426.19192448609459
 20
24.22557866404566
 30
0.0
 11
-425.89192448609469
 21
24.525578664045611
 31
0.0
  0
LINE
  5
5F09
  8
0
 10
-413.85176230668509
 20
27.86536289682445
 30
0.0
 11
-410.69192448609459
 21
31.025206056900458
 31
0.0
  0
LINE
  5
5F0A
  8
0
 10
-410.69192448609459
 20
33.425912893307441
 30
0.0
 11
-410.69192448609459
 21
31.025206056900458
 31
0.0
  0
LINE
  5
5F0B
  8
0
 10
-414.06673411980398
 20
36.800733913053108
 30
0.0
 11
-410.69192448609459
 21
33.425912893307441
 31
0.0
  0
LINE
  5
5F0C
  8
0
 10
-418.79157548606003
 20
41.525578664045661
 30
0.0
 11
-417.85431128695819
 21
40.588312283496947
 31
0.0
  0
LINE
  5
5F0D
  8
µę˝u
 10
-423.19192448609459
 20
41.12557866404569
 30
0.0
 11
-422.96098437841869
 21
41.525578664045717
 31
0.0
  0
ARC
  5
5F0E
  8
0
 10
-452.519674047992
 20
40.79578619566982
 30
0.0
 40
4.0
 50
272.90547361102671
 51
357.0945447258992
  0
ARC
  5
5F0F
  8
0
 10
-452.51985583382788
 20
23.865786196645761
 30
0.0
 40
4.0
 50
359.81902765862702
 51
90.180971569584344
  0
ARC
  5
5F10
  8
0
 10
-413.85967405022058
 20
40.79537108400919
 30
0.0
 40
4.0
 50
182.96722500742791
 51
267.03275679006248
  0
ARC
  5
5F11
  8
0
 10
-413.85985583605651
 20
23.865371084985071
 30
0.0
 40
4.0
 50
89.884068652309324
 51
180.11593211060361
  0
LINE
  5
5F12
  8
0
 10
-471.19192448609471
 20
62.026444388683927
 30
0.0
 11
-395.19192448609482
 21
62.026444388683942
 31
0.0
  0
LINE
  5
5F13
  8
0
 10
-474.19192448609459
 20
16.026444388683931
 30
0.0
 11
-474.19192448609471
 21
59.02644438868392
 31
0.0
  0
LINE
  5
5F14
  8
0
 10
-392.19192448609482
 20
16.026444388683931
 30
0.0
 11
-392.19192448609482
 21
59.026444388683942
 31
0.0
  0
ARC
  5
5F15
  8
0
 10
-471.19192448609471
 20
59.02644438868392
 30
0.0
 40
3.0
 50
90.0
 51
180.0
  0
ARC
  5
5F16
  8
0
 10
-395.19192448609482
 20
59.026444388683942
 30
0.0
 40
3.0
 50
0.0
 51
90.0
  0
LINE
  5
5F17
  8
0
 10
-474.19192448609459
 20
16.026444388683931
 30
0.0
 11
-471.19192448609471
 21
13.026444388683929
 31
0.0
  0
LINE
  5
5F18
  8
0
 10
-392.19192448609482
 20
16.026444388683931
 30
0.0
 11
-395.19192448609482
 21
13.026444388683929
 31
0.0
  0
CIRCLE
  5
5F19
  8
0
 62
     3
 10
-470.19192448609471
 20
29.026444388683931
 30
0.0
 40
4.0
  0
LINE
  5
5F1A
  8
0
 62
     3
 10
-472.69192448609482
 20
29.826444388683939
 30
0.0
 11
-472.69192448609482
 21
28.22644438868392
 31
0.0
  0
LINE
  5
5F1B
  8
0
 62
     3
 10
-467.69192448609471
 20
29.826444388683939
 30
0.0
 11
-467.69192448609471
 21
28.22644438868392
 31
0.0
  0
LINE
  5
5F1C
  8
0
 62
     3
 10
-469.39192448609469
 20
31.526444388683931
 30
0.0
 11
-470.99192448609472
 21
31.526444388683931
 31
0.0
  0
LINE
  5
5F1D
  8
0
 62
     3
 10
-469.39192448609469
 20
26.526444388683931
 30
0.0
 11
-470.99192448609472
 21
26.526444388683931
 31
0.0
  0
LINE
  5
5F1E
  8
0
 62
     3
 10
-472.69192448609482
 20
29.826444388683939
 30
0.0
 11
-470.99192448609472
 21
29.826444388683939
 31
0.0
  0
LINE
  5
5F1F
  8
0
 62
     3
 10
-472.69192448609482
 20
28.22644438868392
 30
0.0
 11
-470.99192448609472
 21
28.22644438868392
 31
0.0
  0
LINE
  5
5F20
  8
0
 62
     3
 10
-469.39192448609469
 20
26.526444388683931
 30
0.0
 11
-469.39192448609469
 21
28.22644438868392
 31
0.0
  0
LINE
  5
5F21
  8
0
 62
     3
 10
-470.99192448609472
 20
26.526444388683931
 30
0.0
 11
-470.99192448609472
 21
28.22644438868392
 31
0.0
  0
LINE
  5
5F22
  8
0
 62
     3
 10
-469.39192448609469
 20
28.22644438868392
 30
0.0
 11
-467.69192448609471
 21
28.22644438868392
 31
0.0
  0
LINE
  5
5F23
  8
0
 62
     3
 10
-469.39192448609469
 20
29.826444388683939
 30
0.0
 11
-469.39192448609469
 21
31.526444388683931
 31
0.0
  0
LINE
  5
5F24
  8
0
 62
     3
 10
-470.99192448609472
 20
29.826444388683939
 30
0.0
 11
-470.99192448609472
 21
31.526444388683931
 31
0.0
  0
LINE
  5
5F25
  8
0
 62
     3
 10
-469.39192448609469
 20
29.826444388683939
 30
0.0
 11
-467.69192448609471
 21
29.826444388683939
 31
0.0
  0
LINE
  5
5F26
  8
0
 62
     3
 10
-469.69192448609471
 20
53.826444388683939
 30
0.0
 11
-469.69192448609471
 21
52.226444388683923
 31
0.0
  0
LINE
  5
5F27
  8
0
 62
     3
 10
-464.69192448609471
 20
53.826444388683939
 30
0.0
 11
-464.69192448609471
 21
52.226444388683923
 31
0.0
  0
LINE
  5
5F28
  8
0
 62
     3
 10
-466.39192448609469
 20
55.526444388683927
 30
0.0
 11
-467.99192448609472
 21
55.526444388683927
 31
0.0
  0
LINE
  5
5F29
  8
0
 62
     3
 10
-466.39192448609469
 20
50.526444388683927
 30
0.0
 11
-467.99192448609472
 21
50.526444388683927
 31
0.0
  0
LINE
  5
5F2A
  8
0
 62
     3
 10
-469.69192448609471
 20
53.826444388683939
 30
0.0
 11
-467.99192448609472
 21
53.826444388683939
 31
0.0
  0
LINE
  5
5F2B
  8
0
 62
     3
 10
-469.69192448609471
 20
52.226444388683923
 30
0.0
 11
-467.99192448609472
 21
52.226444388683923
 31
0.0
  0
LINE
  5
5F2C
  8
0
 62
     3
 10
-466.39192448609469
 20
50.526444388683927
 30
0.0
 11
-466.39192448609469
 21
52.226444388683923
 31
0.0
  0
LINE
  5
5F2D
  8
0
 62
     3
 10
-467.99192448609472
 20
50.526444388683927
 30
0.0
 11
-467.99192448609472
 21
52.226444388683923
 31
0.0
  0
LINE
  5
5F2E
  8
0
 62
     3
 10
-466.39192448609469
 20
52.226444388683923
 30
0.0
 11
-464.69192448609471
 21
52.226444388683923
 31
0.0
  0
LINE
  5
5F2F
  8
0
 62
     3
 10
-466.39192448609469
 20
53.826444388683939
 30
0.0
 11
-466.39192448609469
 21
55.526444388683927
 31
0.0
  0
LINE
  5
5F30
  8
0
 62
     3
 10
-467.99192448609472
 20
53.826444388683939
 30
0.0
 11
-467.99192448609472
 21
55.526444388683927
 31
0.0
  0
LINE
  5
5F31
  8
0
 62
     3
 10
-466.39192448609469
 20
53.826444388683939
 30
0.0
 11
-464.69192448609471
 21
53.826444388683939
 31
0.0
  0
LINE
  5
5F32
  8
0
 62
     3
 10
-399.99192448609477
 20
53.826444388683939
 30
0.0
 11
-401.69192448609482
 21
53.826444388683939
 31
0.0
  0
LINE
  5
5F33
  8
0
 62
     3
 10
-398.39192448609481
 20
53.826444388683939
 30
0.0
 11
-398.39192448609481
 21
55.526444388683927
 31
0.0
  0
LINE
  5
5F34
  8
0
 62
     3
 10
-399.99192448609477
 20
53.826444388683939
 30
0.0
 11
-399.99192448609477
 21
55.526444388683927
 31
0.0
  0
LINE
  5
5F35
  8
0
 62
     3
 10
-399.99192448609477
 20
52.226444388683923
 30
0.0
 11
-401.69192448609482
 21
52.226444388683923
 31
0.0
  0
LINE
  5
5F36
  8
0
 62
     3
 10
-398.39192448609481
 20
50.526444388683927
 30
0.0
 11
-398.39192448609481
 21
52.226444388683923
 31
0.0
  0
LINE
  5
5F37
  8
0
 62
     3
 10
-399.99192448609477
 20
50.526444388683927
 30
0.0
 11
-399.99192448609477
 21
52.226444388683923
 31
0.0
  0
LINE
  5
5F38
  8
0
 62
     3
 10
-396.69192448609482
 20
52.226444388683923
 30
0.0
 11
-398.39192448609481
 21
52.226444388683923
 31
0.0
  0
LINE
  5
5F39
  8
0
 62
     3
 10
-396.69192448609482
 20
53.826444388683939
 30
0.0
 11
-398.39192448609481
 21
53.826444388683939
 31
0.0
  0
LINE
  5
5F3A
  8
0
 62
     3
 10
-399.99192448609477
 20
50.526444388683927
 30
0.0
 11
-398.39192448609481
 21
50.526444388683927
 31
0.0
  0
LINE
  5
5F3B
  8
0
 62
     3
 10
-399.99192448609477
 20
55.526444388683927
 30
0.0
 11
-398.39192448609481
 21
55.526444388683927
 31
0.0
  0
LINE
  5
5F3C
  8
0
 62
     3
 10
-401.69192448609482
 20
53.826444388683939
 30
0.0
 11
-401.69192448609482
 21
52.226444388683923
 31
0.0
  0
LINE
  5
5F3D
  8
0
 62
     3
 10
-396.69192448609482
 20
53.826444388683939
 30
0.0
 11
-396.69192448609482
 21
52.226444388683923
 31
0.0
  0
CIRCLE
  5
5F3E
  8
0
 62
     3
 10
-399.19192448609482
 20
53.026444388683927
 30
0.0
 40
4.0
  0
LINE
  5
5F3F
  8
0
 62
     3
 10
-396.99192448609477
 20
29.826444388683939
 30
0.0
 11
-398.69192448609482
 21
29.826444388683939
 31
0.0
  0
LINE
  5
5F40
  8
0
 62
     3
 10
-395.39192448609481
 20
29.826444388683939
 30
0.0
 11
-395.39192448609481
 21
31.526444388683931
 31
0.0
  0
LINE
  5
5F41
  8
0
 62
     3
 10
-396.99192448609477
 20
29.826444388683939
 30
0.0
 11
-396.99192448609477
 21
31.526444388683931
 31
0.0
  0
LINE
  5
5F42
  8
0
 62
     3
 10
-396.99192448609477
 20
28.22644438868392
 30
0.0
 11
-398.69192448609482
 21
28.22644438868392
 31
0.0
  0
LINE
  5
5F43
  8
0
 62
     3
 10
-395.39192448609481
 20
26.526444388683931
 30
0.0
 11
-395.39192448609481
 21
28.22644438868392
 31
0.0
  0
LINE
  5
5F44
  8
0
 62
     3
 10
-396.99192448609477
 20
26.526444388683931
 30
0.0
 11
-396.99192448609477
 21
28.22644438868392
 31
0.0
  0
LINE
  5
5F45
  8
0
 62
     3
 10
-393.69192448609482
 20
28.22644438868392
 30
0.0
 11
-395.39192448609481
 21
28.22644438868392
 31
0.0
  0
LINE
  5
5F46
  8
0
 62
     3
 10
-393.69192448609482
 20
29.826444388683939
 30
0.0
 11
-395.39192448609481
 21
29.826444388683939
 31
0.0
  0
LINE
  5
5F47
  8
0
 62
     3
 10
-396.99192448609477
 20
26.526444388683931
 30
0.0
 11
-395.39192448609481
 21
26.526444388683931
 31
0.0
  0
LINE
  5
5F48
  8
0
 62
     3
 10
-396.99192448609477
 20
31.526444388683931
 30
0.0
 11
-395.39192448609481
 21
31.526444388683931
 31
0.0
  0
LINE
  5
5F49
  8
0
 62
     3
 10
-398.69192448609482
 20
29.826444388683939
 30
0.0
 11
-398.69192448609482
 21
28.22644438868392
 31
0.0
  0
LINE
  5
5F4A
  8
0
 62
     3
 10
-393.69192448609482
 20
29.826444388683939
 30
0.0
 11
-393.69192448609482
 21
28.22644438868392
 31
0.0
  0
CIRCLE
  5
5F4B
  8
0
 62
     3
 10
-396.19192448609482
 20
29.026444388683931
 30
0.0
 40
4.0
  0
LINE
  5
5F4C
  8
µę˝u
 10
-397.491924486095
 20
73.525578664045696
 30
0.0
 11
-398.1919244860951
 21
72.825578664045821
 31
0.0
  0
LINE
  5
5F4D
  8
0
 10
-392.19192448609488
 20
73.525578664045696
 30
0.0
 11
-390.19192448609459
 21
71.525578664045696
 31
0.0
  0
LINE
  5
5F4E
  8
0
 10
-390.19192448609459
 20
57.525578664045689
 30
0.0
 11
-391.19192448609471
 21
56.525578664045632
 31
0.0
  0
LINE
  5
5F4F
  8
0
 10
-390.19192448609459
 20
71.525578664045696
 30
0.0
 11
-390.19192448609459
 21
57.525578664045689
 31
0.0
  0
LINE
  5
5F50
  8
µę˝u
 10
-398.19192448609488
 20
72.825578664045821
 30
0.0
 11
-398.19192448609488
 21
56.525578664045632
 31
0.0
  0
LINE
  5
5F51
  8
µę˝u
 10
-398.94192448609488
 20
72.825578664045821
 30
0.0
 11
-398.94192448609488
 21
52.025578664045639
 31
0.0
  0
LINE
  5
5F52
  8
0
 10
-391.19192448609471
 20
16.025578664045639
 30
0.0
 11
-394.1919244860951
 21
13.025578664045581
 31
0.0
  0
LINE
  5
5F53
  8
0
 10
-391.19192448609471
 20
16.025578664045639
 30
0.0
 11
-391.19192448609471
 21
56.525578664045632
 31
0.0
  0
LINE
  5
5F54
  8
0
 10
-413.61618855480668
 20
72.525578664045639
 30
0.0
 11
-412.61618855480668
 21
73.525578664045696
 31
0.0
  0
LINE
  5
5F55
  8
µę˝u
 10
-408.89192448609532
 20
73.525578664045696
 30
0.0
 11
-408.1919244860951
 21
72.825578664045821
 31
0.0
  0
LINE
  5
5F56
  8
µę˝u
 10
-408.19192448609482
 20
72.825578664045821
 30
0.0
 11
-408.19192448609482
 21
56.525578664045632
 31
0.0
  0
LINE
  5
5F57
  8
0
 10
-425.26766041738267
 20
73.525578664045696
 30
0.0
 11
-424.26766041738301
 21
72.525578664045867
 31
0.0
  0
LINE
  5
5F58
  8
0
 10
-413.61618855480668
 20
72.525578664045639
 30
0.0
 11
-424.26766041738301
 21
72.525578664045867
 31
0.0
  0
LINE
  5
5F59
  8
µę˝u
 10
-407.44192448609488
 20
52.025578664045639
 30
0.0
 11
-403.19192448609482
 21
49.571840019989992
 31
0.0
  0
LINE
  5
5F5A
  8
µę˝u
 10
-407.44192448609488
 20
72.825578664045821
 30
0.0
 11
-407.44192448609488
 21
52.025578664045639
 31
0.0
  0
LINE
  5
5F5B
  8
0
 10
-441.11618855480668
 20
73.525578664045696
 30
0.0
 11
-442.11618855480668
 21
72.525578664045867
 31
0.0
  0
LINE
  5
5F5C
  8
0
 10
-452.76766041738301
 20
72.525578664045867
 30
0.0
 11
-453.76766041738301
 21
73.525578664045639
 31
0.0
  0
LINE
  5
5F5D
  8
0
 10
-452.76766041738301
 20
72.525578664045867
 30
0.0
 11
-442.11618855480668
 21
72.525578664045867
 31
0.0
  0
LINE
  5
5F5E
  8
µę˝u
 10
-457.49192448609529
 20
73.525578664045639
 30
0.0
 11
-458.1919244860951
 21
72.825578664045821
 31
0.0
  0
LINE
  5
5F5F
  8
µę˝u
 10
-468.89192448609538
 20
73.525578664045753
 30
0.0
 11
-468.19192448609499
 21
72.825578664045821
 31
0.0
  0
LINE
  5
5F60
  8
µę˝u
 10
-468.19192448609499
 20
72.825578664045821
 30
0.0
 11
-458.1919244860951
 21
72.825578664045821
 31
0.0
  0
LINE
  5
5F61
  8
µę˝u
 10
-458.19192448609482
 20
56.525578664045632
 30
0.0
 11
-468.19192448609488
 21
56.525578664045632
 31
0.0
  0
LINE
  5
5F62
  8
µę˝u
 10
-468.19192448609488
 20
72.825578664045821
 30
0.0
 11
-468.19192448609488
 21
56.525578664045632
 31
0.0
  0
LINE
  5
5F63
  8
µę˝u
 10
-458.19192448609482
 20
72.825578664045821
 30
0.0
 11
-458.19192448609482
 21
56.525578664045632
 31
0.0
  0
LINE
  5
5F64
  8
0
 10
-474.19192448609459
 20
73.525578664045753
 30
0.0
 11
-453.76766041738301
 21
73.525578664045639
 31
0.0
  0
LINE
  5
5F65
  8
µę˝u
 10
-458.94192448609482
 20
52.025578664045639
 30
0.0
 11
-463.19192448609488
 21
49.571840019989992
 31
0.0
  0
LINE
  5
5F66
  8
µę˝u
 10
-458.94192448609482
 20
52.025578664045639
 30
0.0
 11
-467.44192448609482
 21
52.025578664045639
 31
0.0
  0
LINE
  5
5F67
  8
µę˝u
 10
-463.19192448609488
 20
49.571840019989992
 30
0.0
 11
-467.44192448609482
 21
52.025578664045639
 31
0.0
  0
LINE
  5
5F68
  8
µę˝u
 10
-467.44192448609482
 20
72.825578664045821
 30
0.0
 11
-467.44192448609482
 21
52.025578664045639
 31
0.0
  0
LINE
  5
5F69
  8
µę˝u
 10
-458.94192448609482
 20
72.825578664045821
 30
0.0
 11
-458.94192448609482
 21
52.025578664045639
 31
0.0
  0
CIRCLE
  5
5F6A
  8
0
 62
     3
 10
-467.19192448609471
 20
53.026444388683927
 30
0.0
 40
4.0
  0
LINE
  5
5F6B
  8
0
 10
-441.11618855480668
 20
73.525578664045696
 30
0.0
 11
-425.26766041738267
 21
73.525578664045696
 31
0.0
  0
LINE
  5
5F6C
  8
0
 10
-453.69192448609471
 20
13.02557866404555
 30
0.0
 11
-472.19192448609459
 21
13.025578664045581
 31
0.0
  0
LINE
  5
5F6D
  8
µę˝u
 10
-407.44192448609488
 20
52.025578664045639
 30
0.0
 11
-398.94192448609488
 21
52.025578664045639
 31
0.0
  0
LINE
  5
5F6E
  8
µę˝u
 10
-408.19192448609482
 20
56.525578664045632
 30
0.0
 11
-398.19192448609488
 21
56.525578664045632
 31
0.0
  0
LINE
  5
5F6F
  8
0
 10
-412.61618855480668
 20
73.525578664045696
 30
0.0
 11
-392.19192448609488
 21
73.525578664045696
 31
0.0
  0
LINE
  5
5F70
  8
µę˝u
 10
-398.1919244860951
 20
72.825578664045821
 30
0.0
 11
-408.1919244860951
 21
72.825578664045821
 31
0.0
  0
LINE
  5
5F71
  8
0
 10
-394.1919244860951
 20
13.025578664045581
 30
0.0
 11
-412.69192448609431
 21
13.025578664045581
 31
0.0
  0
LINE
  5
5F72
  8
µę˝u
 10
-403.19192448609482
 20
49.571840019989992
 30
0.0
 11
-398.94192448609488
 21
52.025578664045639
 31
0.0
  0
LINE
  5
5F73
  8
0
 10
-476.19192448609488
 20
42.525578664045639
 30
0.0
 11
-475.19192448609488
 21
41.525578664045632
 31
0.0
  0
LINE
  5
5F74
  8
0
 10
-476.19192448609488
 20
42.525578664045639
 30
0.0
 11
-476.19192448609488
 21
71.525578664045625
 31
0.0
  0
LINE
  5
5F75
  8
0
 10
-475.19192448609488
 20
16.025578664045639
 30
0.0
 11
-475.19192448609488
 21
41.525578664045632
 31
0.0
  0
LINE
  5
5F76
  8
0
 10
-475.19192448609488
 20
16.025578664045639
 30
0.0
 11
-472.19192448609459
 21
13.025578664045581
 31
0.0
  0
LINE
  5
5F77
  8
0
 10
-474.19192448609459
 20
73.525578664045753
 30
0.0
 11
-476.19192448609488
 21
71.525578664045625
 31
0.0
  0
LINE
  5
5F78
  8
0
 10
-99.256241798863485
 20
3.5255786640457201
 30
0.0
 11
-226.7562417988635
 21
3.5255786640457201
 31
0.0
  0
LINE
  5
5F79
  8
0
 10
-99.256241798863485
 20
5.8255745640419141
 30
0.0
 11
-226.75624179886361
 21
5.8255745640419141
 31
0.0
  0
LINE
  5
5F7A
  8
0
 10
-99.256241798863485
 20
10.725538368643701
 30
0.0
 11
-226.7562417988635
 21
10.725538368643701
 31
0.0
  0
LINE
  5
5F7B
  8
0
 10
-99.256241798863485
 20
19.025563140950759
 30
0.0
 11
-147.58761044897889
 21
19.02556314095099
 31
0.0
  0
LINE
  5
5F7C
  8
0
 10
-99.256241798863485
 20
23.025566664045659
 30
0.0
 11
-147.58761044897889
 21
23.025566664045659
 31
0.0
  0
LINE
  5
5F7D
  8
0
 10
-99.256241798863485
 20
24.12520843783037
 30
0.0
 11
-147.58761044897889
 21
24.12520843783037
 31
0.0
  0
LINE
  5
5F7E
  8
0
 10
-99.256241798863485
 20
27.493423952426621
 30
0.0
 11
-147.58761044897889
 21
27.493423952426621
 31
0.0
  0
LINE
  5
5F7F
  8
0
 10
-99.256241798863485
 20
31.325572564457762
 30
0.0
 11
-147.58761044897889
 21
31.325572564457762
 31
0.0
  0
LINE
  5
5F80
  8
0
 10
-99.256241798863485
 20
33.125545879922697
 30
0.0
 11
-147.58761044897881
 21
33.125545879922882
 31
0.0
  0
LINE
  5
5F81
  8
0
 10
-99.256241798863485
 20
36.958819671736173
 30
0.0
 11
-147.58761044897881
 21
36.958819671736173
 31
0.0
  0
LINE
  5
5F82
  8
0
 10
-99.256241798863485
 20
40.325807870370802
 30
0.0
 11
-147.58761044897881
 21
40.325807870370973
 31
0.0
  0
LINE
  5
5F83
  8
0
 10
-99.256241798863485
 20
41.525578664045753
 30
0.0
 11
-147.58761044897889
 21
41.525578664045739
 31
0.0
  0
LINE
  5
5F84
  8
0
 10
-226.7562417988635
 20
3.5255786640458342
 30
0.0
 11
-354.25624179886353
 21
3.5255786640457201
 31
0.0
  0
LINE
  5
5F85
  8
0
 10
-341.75624179886319
 20
41.125578664045669
 30
0.0
 11
-341.75624179886319
 21
24.525578664045611
 31
0.0
  0
LINE
  5
5F86
  8
0
 10
-321.7562417988633
 20
41.125578664045669
 30
0.0
 11
-321.7562417988633
 21
24.525578664045611
 31
0.0
  0
LINE
  5
5F87
  8
0
 10
-354.25624179886341
 20
3.5255786640457201
 30
0.0
 11
-354.25624179886353
 21
41.525578664045597
 31
0.0
  0
LINE
  5
5F88
  8
¤¤¤ß˝u
 10
-331.75624179886353
 20
1.566157503808479
 30
0.0
 11
-331.75624179886353
 21
43.541052826911063
 31
0.0
  0
LINE
  5
5F89
  8
0
 10
-341.75624179886319
 20
24.525578664045611
 30
0.0
 11
-321.7562417988633
 21
24.525578664045611
 31
0.0
  0
LINE
  5
5F8A
  8
0
 10
-338.7562417988633
 20
24.225578664045681
 30
0.0
 11
-338.7562417988633
 21
4.2255786640457158
 31
0.0
  0
LINE
  5
5F8B
  8
0
 10
-324.75624179886319
 20
24.225578664045681
 30
0.0
 11
-324.75624179886319
 21
4.2255786640457158
 31
0.0
  0
LINE
  5
5F8C
  8
0
 10
-338.7562417988633
 20
4.2255786640457158
 30
0.0
 11
-324.75624179886319
 21
4.2255786640457158
 31
0.0
  0
LINE
  5
5F8D
  8
0
 10
-338.7562417988633
 20
4.2255786640457158
 30
0.0
 11
-339.45624179886329
 21
3.5255786640456641
 31
0.0
  0
LINE
  5
5F8E
  8
0
 10
-324.75624179886319
 20
4.2255786640457158
 30
0.0
 11
-324.05624179886308
 21
3.5255786640456641
 31
0.0
  0
LINE
  5
5F8F
  8
0
 10
-338.7562417988633
 20
24.225578664045681
 30
0.0
 11
-324.75624179886319
 21
24.225578664045681
 31
0.0
  0
LINE
  5
5F90
  8
0
 10
-338.75624179886353
 20
24.225578664045681
 30
0.0
 11
-339.05624179886343
 21
24.525578664045611
 31
0.0
  0
LINE
  5
5F91
  8
0
 10
-324.75624179886319
 20
24.225578664045681
 30
0.0
 11
-324.4562417988634
 21
24.525578664045611
 31
0.0
  0
LINE
  5
5F92
  8
0
 10
-341.75624179886319
 20
41.125578664045669
 30
0.0
 11
-321.7562417988633
 21
41.125578664045669
 31
0.0
  0
LINE
  5
5F93
  8
0
 10
-341.75624179886353
 20
41.125578664045669
 30
0.0
 11
-341.98718190653921
 21
41.525578664045597
 31
0.0
  0
LINE
  5
5F94
  8
0
 10
-321.7562417988633
 20
41.125578664045669
 30
0.0
 11
-321.52530169118728
 21
41.525578664045597
 31
0.0
  0
LINE
  5
5F95
  8
0
 10
-226.7562417988635
 20
10.725538368643811
 30
0.0
 11
-301.80496301604512
 21
10.725538368643811
 31
0.0
  0
LINE
  5
5F96
  8
0
 10
-226.75624179886361
 20
5.8255890990286652
 30
0.0
 11
-300.63414625036108
 21
5.8255848185807499
 31
0.0
  0
LINE
  5
5F97
  8
«Řşc˝u
 10
-302.94920273353239
 20
29.954463548797339
 30
0.0
 11
-300.46548402067879
 21
20.407227712900099
 31
0.0
  0
LINE
  5
5F98
  8
«Řşc˝u
 10
-302.56709268181118
 20
13.91510660069596
 30
0.0
 11
-300.0845725167751
 21
3.5255786640457809
 31
0.0
  0
LINE
  5
5F99
  8
«Řşc˝u
 10
-300.46548402067879
 20
20.407227712900099
 30
0.0
 11
-302.56709268181118
 21
13.91510660069596
 31
0.0
  0
LINE
  5
5F9A
  8
«Řşc˝u
 10
-302.60816975818398
 20
41.525578664045597
 30
0.0
 11
-303.33131503636349
 21
38.737921367872779
 31
0.0
  0
LINE
  5
5F9B
  8
«Řşc˝u
 10
-301.80287032725857
 20
34.346193122436752
 30
0.0
 11
-302.94920273353239
 21
29.954463548797339
 31
0.0
  0
LINE
  5
5F9C
  8
«Řşc˝u
 10
-303.33131503636349
 20
38.737921367872779
 30
0.0
 11
-301.80287032725857
 21
34.346193122436752
 31
0.0
  0
LINE
  5
5F9D
  8
¤¤¤ß˝u
 10
-226.7562417988635
 20
1.566157503808479
 30
0.0
 11
-226.7562417988635
 21
14.48883340426047
 31
0.0
  0
LINE
  5
5F9E
  8
µę˝u
 10
-233.75624179886341
 20
4.2255786640457158
 30
0.0
 11
-219.7562417988633
 21
4.2255786640457158
 31
0.0
  0
LINE
  5
5F9F
  8
µę˝u
 10
-233.75624179886341
 20
13.02493842675298
 30
0.0
 11
-233.75624179886341
 21
4.2255786640457158
 31
0.0
  0
LINE
  5
5FA0
  8
µę˝u
 10
-233.75624179886341
 20
4.2255786640457158
 30
0.0
 11
-234.45624179886329
 21
3.5255786640456641
 31
0.0
  0
LINE
  5
5FA1
  8
µę˝u
 10
-219.7562417988633
 20
13.02493842675298
 30
0.0
 11
-219.7562417988633
 21
4.2255786640457158
 31
0.0
  0
LINE
  5
5FA2
  8
µę˝u
 10
-219.7562417988633
 20
4.2255786640457158
 30
0.0
 11
-219.05624179886311
 21
3.5255786640456641
 31
0.0
  0
LINE
  5
5FA3
  8
µę˝u
 10
-131.7562417988633
 20
41.125578664045669
 30
0.0
 11
-131.7562417988633
 21
24.525578664045611
 31
0.0
  0
LINE
  5
5FA4
  8
µę˝u
 10
-111.7562417988633
 20
41.125578664045669
 30
0.0
 11
-111.7562417988633
 21
24.525578664045611
 31
0.0
  0
LINE
  5
5FA5
  8
0
 10
-99.256241798863485
 20
3.5255786640457201
 30
0.0
 11
-99.256241798863485
 21
41.525578664045597
 31
0.0
  0
LINE
  5
5FA6
  8
¤¤¤ß˝u
 10
-121.7562417988634
 20
1.566157503808479
 30
0.0
 11
-121.7562417988634
 21
43.541052826911063
 31
0.0
  0
LINE
  5
5FA7
  8
µę˝u
 10
-128.7562417988633
 20
24.225578664045681
 30
0.0
 11
-128.7562417988633
 21
4.2255786640457158
 31
0.0
  0
LINE
  5
5FA8
  8
µę˝u
 10
-114.7562417988633
 20
24.225578664045681
 30
0.0
 11
-114.7562417988633
 21
4.2255786640457158
 31
0.0
  0
LINE
  5
5FA9
  8
µę˝u
 10
-128.7562417988633
 20
4.2255786640457158
 30
0.0
 11
-114.7562417988633
 21
4.2255786640457158
 31
0.0
  0
LINE
  5
5FAA
  8
µę˝u
 10
-128.7562417988633
 20
4.2255786640457158
 30
0.0
 11
-129.45624179886329
 21
3.5255786640456641
 31
0.0
  0
LINE
  5
5FAB
  8
µę˝u
 10
-114.7562417988633
 20
4.2255786640457158
 30
0.0
 11
-114.056241798863
 21
3.5255786640456641
 31
0.0
  0
LINE
  5
5FAC
  8
µę˝u
 10
-131.7562417988633
 20
24.525578664045611
 30
0.0
 11
-111.7562417988633
 21
24.525578664045611
 31
0.0
  0
LINE
  5
5FAD
  8
µę˝u
 10
-128.7562417988633
 20
24.225578664045681
 30
0.0
 11
-114.7562417988633
 21
24.225578664045681
 31
0.0
  0
LINE
  5
5FAE
  8
µę˝u
 10
-128.75624179886341
 20
24.225578664045681
 30
0.0
 11
-129.05624179886351
 21
24.525578664045611
 31
0.0
  0
LINE
  5
5FAF
  8
µę˝u
 10
-114.7562417988633
 20
24.225578664045681
 30
0.0
 11
-114.4562417988633
 21
24.525578664045611
 31
0.0
  0
LINE
  5
5FB0
  8
µę˝u
 10
-131.7562417988633
 20
41.125578664045669
 30
0.0
 11
-111.7562417988633
 21
41.125578664045669
 31
0.0
  0
LINE
  5
5FB1
  8
µę˝u
 10
-131.7562417988635
 20
41.125578664045669
 30
0.0
 11
-131.98718190653921
 21
41.525578664045597
 31
0.0
  0
LINE
  5
5FB2
  8
µę˝u
 10
-111.7562417988633
 20
41.125578664045669
 30
0.0
 11
-111.52530169118749
 21
41.525578664045597
 31
0.0
  0
LINE
  5
5FB3
  8
0
 10
-286.98761044897918
 20
41.525578664045597
 30
0.0
 11
-354.25624179886353
 21
41.525578664045597
 31
0.0
  0
LINE
  5
5FB4
  8
0
 10
-286.98761044897918
 20
40.325807870371548
 30
0.0
 11
-302.91940191198353
 21
40.325807870371499
 31
0.0
  0
LINE
  5
5FB5
  8
0
 10
-286.98761044897918
 20
36.958819671736208
 30
0.0
 11
-302.71213770515101
 21
36.958819671736173
 31
0.0
  0
LINE
  5
5FB6
  8
0
 10
-286.98761044897918
 20
33.125545879923287
 30
0.0
 11
-302.12148454684092
 21
33.125545879923287
 31
0.0
  0
LINE
  5
5FB7
  8
0
 10
-286.98761044897918
 20
31.325572564457769
 30
0.0
 11
-302.59131487390198
 21
31.325572564457762
 31
0.0
  0
LINE
  5
5FB8
  8
0
 10
-286.98761044897918
 20
27.493423952426511
 30
0.0
 11
-302.3089619137134
 21
27.493423952426522
 31
0.0
  0
LINE
  5
5FB9
  8
0
 10
-286.98761044897918
 20
24.12520843783043
 30
0.0
 11
-301.43271877419949
 21
24.12520843783048
 31
0.0
  0
LINE
  5
5FBA
  8
0
 10
-286.98761044897918
 20
23.025566664045719
 30
0.0
 11
-301.14664635513202
 21
23.025566664045659
 31
0.0
  0
LINE
  5
5FBB
  8
0
 10
-286.98761044897918
 20
19.02556314095116
 30
0.0
 11
-300.9127520523441
 21
19.02556314095116
 31
0.0
  0
LINE
  5
5FBC
  8
0
 10
-149.58761044897889
 20
13.02493842675298
 30
0.0
 11
-149.58761044897889
 21
62.024938426752954
 31
0.0
  0
LINE
  5
5FBD
  8
0
 10
-147.58761044897889
 20
13.025578664045581
 30
0.0
 11
-147.58761044897881
 21
43.074938426752951
 31
0.0
  0
LINE
  5
5FBE
  8
0
 10
-147.95088171497989
 20
30.87575508561812
 30
0.0
 11
-147.95088171497989
 21
27.174121767887812
 31
0.0
  0
ARC
  5
5FBF
  8
0
 10
-150.20860352354509
 20
27.2106784285697
 30
0.0
 40
2.2580177488916551
 50
285.96302216882867
 51
359.07235721200402
  0
ARC
  5
5FC0
  8
0
 10
-150.20860352354509
 20
30.83919842493626
 30
0.0
 40
2.2580177488916551
 50
0.927642787995955
 51
74.036977831171271
  0
LINE
  5
5FC1
  8
0
 10
-147.58761044897881
 20
43.074938426752951
 30
0.0
 11
-149.58761044897889
 21
44.224938426753027
 31
0.0
  0
ARC
  5
5FC2
  8
0
 10
-150.20860352354509
 20
54.839198424936257
 30
0.0
 40
2.2580177488916551
 50
0.927642787995955
 51
74.036977831171271
  0
LINE
  5
5FC3
  8
0
 10
-147.95088171497989
 20
54.875755085618103
 30
0.0
 11
-147.95088171497989
 21
51.174121767887861
 31
0.0
  0
ARC
  5
5FC4
  8
0
 10
-150.20860352354509
 20
51.2106784285697
 30
0.0
 40
2.2580177488916551
 50
285.96302216882867
 51
359.07235721200402
  0
LINE
  5
5FC5
  8
0
 10
-152.08761044897889
 20
59.024938426752954
 30
0.0
 11
-149.58761044897889
 21
59.024938426752954
 31
0.0
  0
LINE
  5
5FC6
  8
0
 10
-152.08761044897889
 20
62.024938426752954
 30
0.0
 11
-149.58761044897889
 21
62.024938426752954
 31
0.0
  0
LINE
  5
5FC7
  8
0
 10
-284.98761044897918
 20
13.02493842675298
 30
0.0
 11
-284.98761044897918
 21
62.024938426752954
 31
0.0
  0
LINE
  5
5FC8
  8
0
 10
-286.6243391829783
 20
30.87575508561812
 30
0.0
 11
-286.6243391829783
 21
27.174121767887812
 31
0.0
  0
ARC
  5
5FC9
  8
0
 10
-284.36661737441312
 20
27.2106784285697
 30
0.0
 40
2.2580177488916551
 50
180.92764278799589
 51
254.03697783117121
  0
ARC
  5
5FCA
  8
0
 10
-284.36661737441312
 20
30.83919842493626
 30
0.0
 40
2.2580177488916551
 50
105.9630221688287
 51
179.07235721200399
  0
LINE
  5
5FCB
  8
0
 10
-286.98761044897918
 20
13.02557866404559
 30
0.0
 11
-286.98761044897918
 21
43.074938426752936
 31
0.0
  0
LINE
  5
5FCC
  8
0
 10
-286.98761044897918
 20
43.074938426752936
 30
0.0
 11
-284.98761044897918
 21
44.224938426753027
 31
0.0
  0
ARC
  5
5FCD
  8
0
 10
-284.36661737441312
 20
54.839198424936257
 30
0.0
 40
2.2580177488916551
 50
105.9630221688287
 51
179.07235721200399
  0
LINE
  5
5FCE
  8
0
 10
-286.6243391829783
 20
54.875755085618103
 30
0.0
 11
-286.6243391829783
 21
51.174121767887861
 31
0.0
  0
ARC
  5
5FCF
  8
0
 10
-284.36661737441312
 20
51.2106784285697
 30
0.0
 40
2.2580177488916551
 50
180.92764278799589
 51
254.03697783117121
  0
LINE
  5
5FD0
  8
0
 10
-282.48761044897918
 20
59.024938426752954
 30
0.0
 11
-284.98761044897918
 21
59.024938426752954
 31
0.0
  0
LINE
  5
5FD1
  8
0
 10
-282.48761044897918
 20
62.024938426752954
 30
0.0
 11
-284.98761044897918
 21
62.024938426752954
 31
0.0
  0
LINE
  5
5FD2
  8
0
 10
-147.58761044897889
 20
16.024938426753032
 30
0.0
 11
-284.98761044897918
 21
16.024938426752978
 31
0.0
  0
LINE
  5
5FD3
  8
0
 10
-265.78761044897902
 20
71.524476714467227
 30
0.0
 11
-168.78761044897919
 21
71.524476714467227
 31
0.0
  0
LINE
  5
5FD4
  8
0
 10
-282.48761044897918
 20
13.02493842675298
 30
0.0
 11
-282.48761044897918
 21
62.024938426752954
 31
0.0
  0
LINE
  5
5FD5
  8
0
 10
-265.78761044897902
 20
73.525578664045682
 30
0.0
 11
-265.78761044897919
 21
13.02493842675298
 31
0.0
  0
LINE
  5
5FD6
  8
0
 10
-282.48761044897918
 20
13.02493842675298
 30
0.0
 11
-282.48761044897918
 21
62.024938426752954
 31
0.0
  0
LINE
  5
5FD7
  8
0
 10
-265.78761044897919
 20
13.02493842675298
 30
0.0
 11
-265.78761044897919
 21
62.024938426752954
 31
0.0
  0
LINE
  5
5FD8
  8
µę˝u
 10
-242.28761044897919
 20
72.824938426753306
 30
0.0
 11
-242.28761044897919
 21
56.524938426753081
 31
0.0
  0
LINE
  5
5FD9
  8
µę˝u
 10
-252.287610448979
 20
72.824938426753306
 30
0.0
 11
-252.287610448979
 21
56.524938426753081
 31
0.0
  0
LINE
  5
5FDA
  8
¤¤¤ß˝u
 10
-247.28761044897919
 20
74.624938426753232
 30
0.0
 11
-247.28761044897919
 21
46.682524648102529
 31
0.0
  0
LINE
  5
5FDB
  8
µę˝u
 10
-243.03761044897919
 20
72.824938426753306
 30
0.0
 11
-243.03761044897919
 21
52.024938426753089
 31
0.0
  0
LINE
  5
5FDC
  8
µę˝u
 10
-251.53761044897919
 20
72.824938426753306
 30
0.0
 11
-251.53761044897919
 21
52.024938426753089
 31
0.0
  0
LINE
  5
5FDD
  8
0
 10
-282.48761044897918
 20
62.024938426752954
 30
0.0
 11
-265.78761044897908
 21
62.024938426752954
 31
0.0
  0
LINE
  5
5FDE
  8
0
 10
-282.48761044897918
 20
59.024938426752954
 30
0.0
 11
-265.78761044897908
 21
59.024938426752968
 31
0.0
  0
CIRCLE
  5
5FDF
  8
0
 10
-276.48761044897918
 20
43.024938426752989
 30
0.0
 40
3.9375
  0
CIRCLE
  5
5FE0
  8
0
 10
-276.48761044897918
 20
43.024938426752989
 30
0.0
 40
4.25
  0
CIRCLE
  5
5FE1
  8
0
 10
-276.48761044897918
 20
43.024938426752989
 30
0.0
 40
4.549999999999998
  0
CIRCLE
  5
5FE2
  8
0
 10
-276.48761044897918
 20
43.024938426752989
 30
0.0
 40
0.75
  0
LINE
  5
5FE3
  8
µę˝u
 10
-252.287610448979
 20
56.524938426753081
 30
0.0
 11
-242.28761044897919
 21
56.524938426753081
 31
0.0
  0
LINE
  5
5FE4
  8
µę˝u
 10
-251.53761044897919
 20
52.024938426753089
 30
0.0
 11
-247.28761044897919
 21
49.571199782697441
 31
0.0
  0
LINE
  5
5FE5
  8
µę˝u
 10
-251.53761044897919
 20
52.024938426753089
 30
0.0
 11
-243.03761044897919
 21
52.024938426753089
 31
0.0
  0
LINE
  5
5FE6
  8
µę˝u
 10
-247.28761044897919
 20
49.571199782697441
 30
0.0
 11
-243.03761044897919
 21
52.024938426753089
 31
0.0
  0
LINE
  5
5FE7
  8
µę˝u
 10
-242.28761044897951
 20
72.824938426753306
 30
0.0
 11
-252.28761044897939
 21
72.824938426753306
 31
0.0
  0
LINE
  5
5FE8
  8
µę˝u
 10
-252.98761044897961
 20
73.524938426753067
 30
0.0
 11
-252.28761044897939
 21
72.824938426753306
 31
0.0
  0
LINE
  5
5FE9
  8
µę˝u
 10
-241.58761044897949
 20
73.524938426753238
 30
0.0
 11
-242.28761044897951
 21
72.824938426753306
 31
0.0
  0
LINE
  5
5FEA
  8
0
 10
-152.08761044897889
 20
13.02493842675298
 30
0.0
 11
-152.08761044897889
 21
62.024938426752954
 31
0.0
  0
LINE
  5
5FEB
  8
0
 10
-168.78761044897931
 20
73.525578664045696
 30
0.0
 11
-168.78761044897891
 21
13.02493842675298
 31
0.0
  0
LINE
  5
5FEC
  8
0
 10
-168.78761044897891
 20
13.02493842675298
 30
0.0
 11
-168.78761044897891
 21
62.024938426752954
 31
0.0
  0
CIRCLE
  5
5FED
  8
0
 10
-158.08761044897889
 20
43.024938426752989
 30
0.0
 40
4.25
  0
CIRCLE
  5
5FEE
  8
0
 10
-158.08761044897889
 20
43.024938426752989
 30
0.0
 40
3.9375
  0
CIRCLE
  5
5FEF
  8
0
 10
-158.08761044897889
 20
43.024938426752989
 30
0.0
 40
4.549999999999998
  0
LINE
  5
5FF0
  8
0
 10
-152.08761044897889
 20
62.024938426752954
 30
0.0
 11
-168.78761044897919
 21
62.024938426752954
 31
0.0
  0
LINE
  5
5FF1
  8
0
 10
-152.08761044897889
 20
59.024938426752954
 30
0.0
 11
-168.78761044897919
 21
59.024938426752954
 31
0.0
  0
LINE
  5
5FF2
  8
µę˝u
 10
-182.287610448979
 20
72.824938426753306
 30
0.0
 11
-182.287610448979
 21
56.524938426753081
 31
0.0
  0
LINE
  5
5FF3
  8
µę˝u
 10
-192.28761044897891
 20
72.824938426753306
 30
0.0
 11
-192.28761044897891
 21
56.524938426753081
 31
0.0
  0
LINE
  5
5FF4
  8
¤¤¤ß˝u
 10
-187.287610448979
 20
74.624938426753232
 30
0.0
 11
-187.287610448979
 21
46.682524648102529
 31
0.0
  0
LINE
  5
5FF5
  8
µę˝u
 10
-183.037610448979
 20
72.824938426753306
 30
0.0
 11
-183.037610448979
 21
52.024938426753089
 31
0.0
  0
LINE
  5
5FF6
  8
µę˝u
 10
-191.53761044897891
 20
72.824938426753306
 30
0.0
 11
-191.53761044897891
 21
52.024938426753089
 31
0.0
  0
LINE
  5
5FF7
  8
µę˝u
 10
-192.28761044897891
 20
56.524938426753081
 30
0.0
 11
-182.287610448979
 21
56.524938426753081
 31
0.0
  0
LINE
  5
5FF8
  8
µę˝u
 10
-191.53761044897891
 20
52.024938426753089
 30
0.0
 11
-187.287610448979
 21
49.571199782697441
 31
0.0
  0
LINE
  5
5FF9
  8
µę˝u
 10
-191.53761044897891
 20
52.024938426753089
 30
0.0
 11
-183.037610448979
 21
52.024938426753089
 31
0.0
  0
LINE
  5
5FFA
  8
µę˝u
 10
-187.287610448979
 20
49.571199782697441
 30
0.0
 11
-183.037610448979
 21
52.024938426753089
 31
0.0
  0
LINE
  5
5FFB
  8
µę˝u
 10
-182.28761044897919
 20
72.824938426753306
 30
0.0
 11
-192.28761044897919
 21
72.824938426753306
 31
0.0
  0
LINE
  5
5FFC
  8
µę˝u
 10
-192.98761044897941
 20
73.524938426753067
 30
0.0
 11
-192.28761044897919
 21
72.824938426753306
 31
0.0
  0
LINE
  5
5FFD
  8
µę˝u
 10
-181.58761044897909
 20
73.524938426753238
 30
0.0
 11
-182.28761044897919
 21
72.824938426753306
 31
0.0
  0
CIRCLE
  5
5FFE
  8
0
 10
-158.08761044897889
 20
43.024938426752989
 30
0.0
 40
0.75
  0
ARC
  5
5FFF
  8
0
 10
-282.69497044897918
 20
57.525828292084768
 30
0.0
 40
3.6926399999999688
 50
137.3885980021993
 51
200.64858871136201
  0
POLYLINE
  5
6000
  8
0
 66
     1
 10
0.0
 20
0.0
 30
0.0
  0
VERTEX
  5
6149
  8
0
 10
-295.54850669897911
 20
55.02582829208481
 30
0.0
  0
VERTEX
  5
614A
  8
0
 10
-295.58952919897911
 20
55.288647042084818
 30
0.0
  0
VERTEX
  5
614B
  8
0
 10
-295.64471294897919
 20
55.420505792084811
 30
0.0
  0
VERTEX
  5
614C
  8
0
 10
-295.72350419897907
 20
55.542729542084821
 30
0.0
  0
VERTEX
  5
614D
  8
0
 10
-295.82284919897921
 20
55.647870792084817
 30
0.0
  0
VERTEX
  5
614E
  8
0
 10
-295.9372129489791
 20
55.730212042084808
 30
0.0
  0
VERTEX
  5
614F
  8
0
 10
-296.05961294897912
 20
55.78681329208473
 30
0.0
  0
VERTEX
  5
6150
  8
0
 10
-296.22540794897913
 20
55.822989542084748
 30
0.0
  0
VERTEX
  5
6151
  8
0
 10
-296.37916919897913
 20
55.819665792084763
 30
0.0
  0
VERTEX
  5
6152
  8
0
 10
-296.51282419897922
 20
55.787783292084768
 30
0.0
  0
VERTEX
  5
6153
  8
0
 10
-296.65808044897921
 20
55.718073292084767
 30
0.0
  0
VERTEX
  5
6154
  8
0
 10
-296.79629294897921
 20
55.606212042084799
 30
0.0
  0
VERTEX
  5
6155
  8
0
 10
-296.90658044897913
 20
55.46302454208481
 30
0.0
  0
VERTEX
  5
6156
  8
0
 10
-296.97737294897911
 20
55.313225792084857
 30
0.0
  0
VERTEX
  5
6157
  8
0
 10
-297.01218669897912
 20
55.183655792084792
 30
0.0
  0
VERTEX
  5
6158
  8
0
 10
-297.02671294897908
 20
55.02582829208481
 30
0.0
  0
VERTEX
  5
6159
  8
0
 10
-296.98569044897908
 20
54.763009542084838
 30
0.0
  0
VERTEX
  5
615A
  8
0
 10
-296.9305054489792
 20
54.631149542084778
 30
0.0
  0
VERTEX
  5
615B
  8
0
 10
-296.85171544897912
 20
54.508927042084792
 30
0.0
  0
VERTEX
  5
615C
  8
0
 10
-296.75237044897921
 20
54.40378579208479
 30
0.0
  0
VERTEX
  5
615D
  8
0
 10
-296.6380066989791
 20
54.321444542084762
 30
0.0
  0
VERTEX
  5
615E
  8
0
 10
-296.51560669897913
 20
54.264843292084763
 30
0.0
  0
VERTEX
  5
615F
  8
0
 10
-296.34981169897912
 20
54.228665792084747
 30
0.0
  0
VERTEX
  5
6160
  8
0
 10
-296.19605044897912
 20
54.231990792084808
 30
0.0
  0
VERTEX
  5
6161
  8
0
 10
-296.0623954489792
 20
54.263872042084813
 30
0.0
  0
VERTEX
  5
6162
  8
0
 10
-295.91713919897921
 20
54.333582042084807
 30
0.0
  0
VERTEX
  5
6163
  8
0
 10
-295.77892669897921
 20
54.445444542084793
 30
0.0
  0
VERTEX
  5
6164
  8
0
 10
-295.66863919897912
 20
54.588630792084778
 30
0.0
  0
VERTEX
  5
6165
  8
0
 10
-295.59784669897908
 20
54.738429542084781
 30
0.0
  0
VERTEX
  5
6166
  8
0
 10
-295.5630316989791
 20
54.868000792084871
 30
0.0
  0
VERTEX
  5
6167
  8
0
 10
-295.54850669897911
 20
55.02582829208481
 30
0.0
  0
SEQEND
  5
6168
  8
0
  0
ARC
  5
6001
  8
0
 10
-291.07303544897923
 20
55.025828292084817
 30
0.0
 40
4.99999999999996
 50
90.0
 51
131.40962199959921
  0
ARC
  5
6002
  8
0
 10
-291.07303544897923
 20
55.025828292084817
 30
0.0
 40
4.99999999999996
 50
228.59037799730081
 51
270.0
  0
LINE
  5
6003
  8
0
 10
-284.98761044897918
 20
60.025828292084817
 30
0.0
 11
-291.07303544897923
 21
60.025828292084817
 31
0.0
  0
LINE
  5
6004
  8
0
 10
-291.07303544897923
 20
50.025828292084853
 30
0.0
 11
-286.2887969467688
 21
50.025828292084853
 31
0.0
  0
LINE
  5
6005
  8
0
 10
-286.38761044897927
 20
60.025828292084817
 30
0.0
 11
-286.38761044897927
 21
55.846288861225759
 31
0.0
  0
LINE
  5
6006
  8
0
 10
-295.48233169897912
 20
58.77582829208481
 30
0.0
 11
-290.60761169897921
 21
58.77582829208481
 31
0.0
  0
LINE
  5
6007
  8
0
 10
-295.79032294897911
 20
51.853237042084842
 30
0.0
 11
-295.48233169897912
 21
51.275828292084867
 31
0.0
  0
LINE
  5
6008
  8
0
 10
-295.48233169897912
 20
58.77582829208481
 30
0.0
 11
-295.79032294897911
 21
58.198419542084842
 31
0.0
  0
LINE
  5
6009
  8
0
 10
-289.48155919897931
 20
55.025828292084817
 30
0.0
 11
-288.60735419897918
 21
55.025828292084817
 31
0.0
  0
LINE
  5
600A
  8
0
 10
-290.60761169897921
 20
58.77582829208481
 30
0.0
 11
-288.60735419897918
 21
55.025828292084817
 31
0.0
  0
LINE
  5
600B
  8
0
 10
-290.60761169897921
 20
51.275828292084867
 30
0.0
 11
-295.48233169897912
 21
51.275828292084867
 31
0.0
  0
LINE
  5
600C
  8
0
 10
-288.60735419897918
 20
55.025828292084817
 30
0.0
 11
-290.60761169897921
 21
51.275828292084867
 31
0.0
  0
LINE
  5
600D
  8
0
 10
-295.33098294897911
 20
58.187745792084783
 30
0.0
 11
-294.80789919897933
 21
58.490375792084762
 31
0.0
  0
LINE
  5
600E
  8
0
 10
-295.33098294897911
 20
51.863909542084883
 30
0.0
 11
-294.80789919897933
 21
51.561279542084833
 31
0.0
  0
LINE
  5
600F
  8
0
 10
-294.80789919897933
 20
58.490375792084762
 30
0.0
 11
-294.15797419897922
 21
58.703773292084719
 31
0.0
  0
LINE
  5
6010
  8
0
 10
-294.80789919897933
 20
51.561279542084833
 30
0.0
 11
-294.15797419897922
 21
51.34788329208493
 31
0.0
  0
LINE
  5
6011
  8
0
 10
-294.15797419897922
 20
58.703773292084719
 30
0.0
 11
-293.48207419897921
 21
58.77582829208481
 31
0.0
  0
LINE
  5
6012
  8
0
 10
-294.15797419897922
 20
51.34788329208493
 30
0.0
 11
-293.48207419897921
 21
51.275828292084867
 31
0.0
  0
LINE
  5
6013
  8
0
 10
-293.48207419897921
 20
58.77582829208481
 30
0.0
 11
-292.80617419897908
 21
58.703773292084719
 31
0.0
  0
LINE
  5
6014
  8
0
 10
-293.48207419897921
 20
51.275828292084867
 30
0.0
 11
-292.80617419897908
 21
51.34788329208493
 31
0.0
  0
LINE
  5
6015
  8
0
 10
-292.80617419897908
 20
58.703773292084719
 30
0.0
 11
-292.15624919897942
 21
58.490375792084762
 31
0.0
  0
LINE
  5
6016
  8
0
 10
-292.80617419897908
 20
51.34788329208493
 30
0.0
 11
-292.15624919897942
 21
51.561279542084833
 31
0.0
  0
LINE
  5
6017
  8
0
 10
-292.15624919897942
 20
58.490375792084762
 30
0.0
 11
-291.55727419897909
 21
58.143839542084798
 31
0.0
  0
LINE
  5
6018
  8
0
 10
-292.15624919897942
 20
51.561279542084833
 30
0.0
 11
-291.55727419897909
 21
51.907817042084837
 31
0.0
  0
LINE
  5
6019
  8
0
 10
-291.55727419897909
 20
58.143839542084798
 30
0.0
 11
-291.03226919897912
 21
57.677478292084807
 31
0.0
  0
LINE
  5
601A
  8
0
 10
-291.55727419897909
 20
51.907817042084837
 30
0.0
 11
-291.03226919897912
 21
52.374177042084789
 31
0.0
  0
LINE
  5
601B
  8
0
 10
-291.48181669897929
 20
58.77582829208481
 30
0.0
 11
-289.48155919897931
 21
55.025828292084817
 31
0.0
  0
LINE
  5
601C
  8
0
 10
-289.48155919897931
 20
55.025828292084817
 30
0.0
 11
-291.48181669897929
 21
51.275828292084867
 31
0.0
  0
LINE
  5
601D
  8
0
 10
-291.03226919897912
 20
57.677478292084807
 30
0.0
 11
-290.60140794897927
 21
57.109215792084818
 31
0.0
  0
LINE
  5
601E
  8
0
 10
-290.60140794897927
 20
52.942439542084792
 30
0.0
 11
-291.03226919897912
 21
52.374177042084789
 31
0.0
  0
LINE
  5
601F
  8
0
 10
-290.60140794897927
 20
57.109215792084818
 30
0.0
 11
-290.28124919897942
 21
56.460890792084811
 31
0.0
  0
LINE
  5
6020
  8
0
 10
-290.28124919897942
 20
53.590764542084877
 30
0.0
 11
-290.60140794897927
 21
52.942439542084792
 31
0.0
  0
LINE
  5
6021
  8
0
 10
-290.28124919897942
 20
56.460890792084811
 30
0.0
 11
-290.08409669897918
 21
55.75741704208486
 31
0.0
  0
LINE
  5
6022
  8
0
 10
-290.08409669897918
 20
54.294239542084767
 30
0.0
 11
-290.28124919897942
 21
53.590764542084877
 31
0.0
  0
LINE
  5
6023
  8
0
 10
-290.08409669897918
 20
55.75741704208486
 30
0.0
 11
-290.01752669897922
 21
55.025828292084817
 31
0.0
  0
LINE
  5
6024
  8
0
 10
-290.01752669897922
 20
55.025828292084817
 30
0.0
 11
-290.08409669897918
 21
54.294239542084767
 31
0.0
  0
LINE
  5
6025
  8
0
 10
-297.11194544897921
 20
57.076112042084787
 30
0.0
 11
-297.10823169897913
 21
57.074093292084818
 31
0.0
  0
LINE
  5
6026
  8
0
 10
-297.11194544897921
 20
52.975543292084851
 30
0.0
 11
-297.10823169897913
 21
52.977563292084817
 31
0.0
  0
LINE
  5
6027
  8
0
 10
-298.50283294897912
 20
55.648505792084833
 30
0.0
 11
-298.5594929489792
 21
55.025828292084817
 31
0.0
  0
LINE
  5
6028
  8
0
 10
-298.33503044897913
 20
56.247253292084821
 30
0.0
 11
-298.50283294897912
 21
55.648505792084833
 31
0.0
  0
LINE
  5
6029
  8
0
 10
-298.5594929489792
 20
55.025828292084817
 30
0.0
 11
-298.50283294897912
 21
54.403150792084809
 31
0.0
  0
LINE
  5
602A
  8
0
 10
-298.06253419897911
 20
56.799063292084817
 30
0.0
 11
-298.33503044897913
 21
56.247253292084821
 31
0.0
  0
LINE
  5
602B
  8
0
 10
-298.50283294897912
 20
54.403150792084809
 30
0.0
 11
-298.33503044897913
 21
53.804402042084817
 31
0.0
  0
LINE
  5
602C
  8
0
 10
-297.69581419897912
 20
57.282728292084869
 30
0.0
 11
-298.06253419897911
 21
56.799063292084817
 31
0.0
  0
LINE
  5
602D
  8
0
 10
-298.33503044897913
 20
53.804402042084817
 30
0.0
 11
-298.06253419897911
 21
53.252593292084818
 31
0.0
  0
LINE
  5
602E
  8
0
 10
-297.69581419897912
 20
57.282728292084869
 30
0.0
 11
-297.24896669897907
 21
57.679662042084807
 31
0.0
  0
LINE
  5
602F
  8
0
 10
-298.06253419897911
 20
53.252593292084818
 30
0.0
 11
-297.69581419897912
 21
52.768928292084787
 31
0.0
  0
LINE
  5
6030
  8
0
 10
-298.31695419897909
 20
55.462748292084818
 30
0.0
 11
-298.35671169897921
 21
55.025828292084817
 31
0.0
  0
LINE
  5
6031
  8
0
 10
-298.19921044897922
 20
55.882878292084818
 30
0.0
 11
-298.31695419897909
 21
55.462748292084818
 31
0.0
  0
LINE
  5
6032
  8
0
 10
-298.35671169897921
 20
55.025828292084817
 30
0.0
 11
-298.31695419897909
 21
54.588908292084817
 31
0.0
  0
LINE
  5
6033
  8
0
 10
-298.00800544897908
 20
56.270072042084813
 30
0.0
 11
-298.19921044897922
 21
55.882878292084818
 31
0.0
  0
LINE
  5
6034
  8
0
 10
-298.31695419897909
 20
54.588908292084817
 30
0.0
 11
-298.19921044897922
 21
54.168778292084838
 31
0.0
  0
LINE
  5
6035
  8
0
 10
-297.24896669897907
 20
57.679662042084807
 30
0.0
 11
-296.73916044897908
 21
57.974610792084761
 31
0.0
  0
LINE
  5
6036
  8
0
 10
-297.69581419897912
 20
52.768928292084787
 30
0.0
 11
-297.24896669897907
 21
52.371994542084849
 31
0.0
  0
LINE
  5
6037
  8
0
 10
-297.75068544897931
 20
56.609449542084811
 30
0.0
 11
-298.00800544897908
 21
56.270072042084813
 31
0.0
  0
LINE
  5
6038
  8
0
 10
-298.19921044897922
 20
54.168778292084838
 30
0.0
 11
-298.00800544897908
 21
53.781584542084872
 31
0.0
  0
LINE
  5
6039
  8
0
 10
-296.73916044897908
 20
57.974610792084761
 30
0.0
 11
-296.18598919897931
 21
58.156238292084758
 31
0.0
  0
LINE
  5
603A
  8
0
 10
-297.24896669897907
 20
52.371994542084849
 30
0.0
 11
-296.73916044897908
 21
52.07704579208481
 31
0.0
  0
LINE
  5
603B
  8
0
 10
-297.75068544897931
 20
56.609449542084811
 30
0.0
 11
-297.43714169897908
 21
56.887970792084758
 31
0.0
  0
LINE
  5
603C
  8
0
 10
-298.00800544897908
 20
53.781584542084872
 30
0.0
 11
-297.75068544897931
 21
53.442205792084891
 31
0.0
  0
LINE
  5
603D
  8
0
 10
-296.18598919897931
 20
58.156238292084758
 30
0.0
 11
-295.61071044897921
 21
58.217567042084809
 31
0.0
  0
LINE
  5
603E
  8
0
 10
-296.73916044897908
 20
52.07704579208481
 30
0.0
 11
-296.18598919897931
 21
51.895417042084787
 31
0.0
  0
LINE
  5
603F
  8
0
 10
-297.43714169897908
 20
56.887970792084758
 30
0.0
 11
-297.07942044897908
 21
57.094929542084749
 31
0.0
  0
LINE
  5
6040
  8
0
 10
-297.75068544897931
 20
53.442205792084891
 30
0.0
 11
-297.43714169897908
 21
53.163685792084848
 31
0.0
  0
LINE
  5
6041
  8
0
 10
-294.85488669897921
 20
58.122054542084811
 30
0.0
 11
-294.30775669897912
 21
57.942409542084761
 31
0.0
  0
LINE
  5
6042
  8
0
 10
-297.07942044897908
 20
57.094929542084749
 30
0.0
 11
-296.69127169897911
 21
57.222374542084808
 31
0.0
  0
LINE
  5
6043
  8
0
 10
-297.43714169897908
 20
53.163685792084848
 30
0.0
 11
-297.07942044897908
 21
52.956725792084868
 31
0.0
  0
LINE
  5
6044
  8
0
 10
-295.03543169897921
 20
58.156238292084758
 30
0.0
 11
-294.85488669897921
 21
58.122054542084811
 31
0.0
  0
LINE
  5
6045
  8
0
 10
-295.61071044897921
 20
58.217567042084809
 30
0.0
 11
-295.03543169897921
 21
58.156238292084758
 31
0.0
  0
LINE
  5
6046
  8
0
 10
-296.18598919897931
 20
51.895417042084787
 30
0.0
 11
-295.61071044897921
 21
51.834089542084868
 31
0.0
  0
LINE
  5
6047
  8
0
 10
-294.30775669897912
 20
57.942409542084761
 30
0.0
 11
-293.80351794897922
 21
57.65068204208481
 31
0.0
  0
LINE
  5
6048
  8
0
 10
-294.85488669897921
 20
51.929602042084859
 30
0.0
 11
-294.30775669897912
 21
52.109247042084888
 31
0.0
  0
LINE
  5
6049
  8
0
 10
-293.80351794897922
 20
57.65068204208481
 30
0.0
 11
-293.36154919897922
 21
57.258083292084798
 31
0.0
  0
LINE
  5
604A
  8
0
 10
-294.30775669897912
 20
52.109247042084888
 30
0.0
 11
-293.80351794897922
 21
52.400974542084853
 31
0.0
  0
LINE
  5
604B
  8
0
 10
-296.69127169897911
 20
57.222374542084808
 30
0.0
 11
-296.28760919897911
 21
57.26540704208481
 31
0.0
  0
LINE
  5
604C
  8
0
 10
-297.07942044897908
 20
52.956725792084868
 30
0.0
 11
-296.69127169897911
 21
52.829280792084852
 31
0.0
  0
LINE
  5
604D
  8
0
 10
-295.03543169897921
 20
58.156238292084758
 30
0.0
 11
-294.48226044897922
 21
57.974610792084761
 31
0.0
  0
LINE
  5
604E
  8
0
 10
-295.03543169897921
 20
51.895417042084787
 30
0.0
 11
-294.85488669897921
 21
51.929602042084859
 31
0.0
  0
LINE
  5
604F
  8
0
 10
-295.61071044897921
 20
51.834089542084868
 30
0.0
 11
-295.03543169897921
 21
51.895417042084787
 31
0.0
  0
LINE
  5
6050
  8
0
 10
-293.36154919897922
 20
57.258083292084798
 30
0.0
 11
-292.99883544897909
 21
56.779699542084778
 31
0.0
  0
LINE
  5
6051
  8
0
 10
-293.80351794897922
 20
52.400974542084853
 30
0.0
 11
-293.36154919897922
 21
52.793573292084787
 31
0.0
  0
LINE
  5
6052
  8
0
 10
-296.28760919897911
 20
57.26540704208481
 30
0.0
 11
-295.8839479489792
 21
57.222374542084808
 31
0.0
  0
LINE
  5
6053
  8
0
 10
-296.69127169897911
 20
52.829280792084852
 30
0.0
 11
-296.28760919897911
 21
52.786248292084863
 31
0.0
  0
LINE
  5
6054
  8
0
 10
-294.48226044897922
 20
57.974610792084761
 30
0.0
 11
-293.97245544897908
 21
57.679662042084807
 31
0.0
  0
LINE
  5
6055
  8
0
 10
-295.03543169897921
 20
51.895417042084787
 30
0.0
 11
-294.48226044897922
 21
52.07704579208481
 31
0.0
  0
LINE
  5
6056
  8
0
 10
-292.99883544897909
 20
56.779699542084778
 30
0.0
 11
-292.72931419897918
 21
56.233915792084808
 31
0.0
  0
LINE
  5
6057
  8
0
 10
-292.99883544897909
 20
53.271957042084857
 30
0.0
 11
-293.36154919897922
 21
52.793573292084787
 31
0.0
  0
LINE
  5
6058
  8
0
 10
-292.72931419897918
 20
56.233915792084808
 30
0.0
 11
-292.56334419897911
 21
55.641705792084828
 31
0.0
  0
LINE
  5
6059
  8
0
 10
-292.72931419897918
 20
53.817740792084827
 30
0.0
 11
-292.99883544897909
 21
53.271957042084857
 31
0.0
  0
LINE
  5
605A
  8
0
 10
-293.97245544897908
 20
57.679662042084807
 30
0.0
 11
-293.52560669897917
 21
57.282728292084869
 31
0.0
  0
LINE
  5
605B
  8
0
 10
-294.48226044897922
 20
52.07704579208481
 30
0.0
 11
-293.97245544897908
 21
52.371994542084849
 31
0.0
  0
LINE
  5
605C
  8
0
 10
-292.56334419897911
 20
55.641705792084828
 30
0.0
 11
-292.50730294897909
 21
55.025828292084817
 31
0.0
  0
LINE
  5
605D
  8
0
 10
-292.56334419897911
 20
54.409950792084778
 30
0.0
 11
-292.72931419897918
 21
53.817740792084827
 31
0.0
  0
LINE
  5
605E
  8
0
 10
-295.8839479489792
 20
57.222374542084808
 30
0.0
 11
-295.49579919897911
 21
57.094929542084749
 31
0.0
  0
LINE
  5
605F
  8
0
 10
-296.28760919897911
 20
52.786248292084863
 30
0.0
 11
-295.8839479489792
 21
52.829280792084852
 31
0.0
  0
LINE
  5
6060
  8
0
 10
-292.50730294897909
 20
55.025828292084817
 30
0.0
 11
-292.56334419897911
 21
54.409950792084778
 31
0.0
  0
LINE
  5
6061
  8
0
 10
-293.52560669897917
 20
57.282728292084869
 30
0.0
 11
-293.15888794897921
 21
56.799063292084817
 31
0.0
  0
LINE
  5
6062
  8
0
 10
-293.97245544897908
 20
52.371994542084849
 30
0.0
 11
-293.52560669897917
 21
52.768928292084787
 31
0.0
  0
LINE
  5
6063
  8
0
 10
-295.49579919897911
 20
57.094929542084749
 30
0.0
 11
-295.13807794897912
 21
56.887970792084758
 31
0.0
  0
LINE
  5
6064
  8
0
 10
-295.8839479489792
 20
52.829280792084852
 30
0.0
 11
-295.49579919897911
 21
52.956725792084868
 31
0.0
  0
LINE
  5
6065
  8
0
 10
-293.15888794897921
 20
56.799063292084817
 30
0.0
 11
-292.88639169897908
 21
56.247253292084821
 31
0.0
  0
LINE
  5
6066
  8
0
 10
-293.15888794897921
 20
53.252593292084818
 30
0.0
 11
-293.52560669897917
 21
52.768928292084787
 31
0.0
  0
LINE
  5
6067
  8
0
 10
-292.88639169897908
 20
56.247253292084821
 30
0.0
 11
-292.71858794897918
 21
55.648505792084833
 31
0.0
  0
LINE
  5
6068
  8
0
 10
-292.88639169897908
 20
53.804402042084817
 30
0.0
 11
-293.15888794897921
 21
53.252593292084818
 31
0.0
  0
LINE
  5
6069
  8
0
 10
-295.13807794897912
 20
56.887970792084758
 30
0.0
 11
-294.82453419897911
 21
56.609449542084811
 31
0.0
  0
LINE
  5
606A
  8
0
 10
-295.49579919897911
 20
52.956725792084868
 30
0.0
 11
-295.13807794897912
 21
53.163685792084848
 31
0.0
  0
LINE
  5
606B
  8
0
 10
-292.71858794897918
 20
55.648505792084833
 30
0.0
 11
-292.66192794897933
 21
55.025828292084817
 31
0.0
  0
LINE
  5
606C
  8
0
 10
-292.71858794897918
 20
54.403150792084809
 30
0.0
 11
-292.88639169897908
 21
53.804402042084817
 31
0.0
  0
LINE
  5
606D
  8
0
 10
-292.66192794897933
 20
55.025828292084817
 30
0.0
 11
-292.71858794897918
 21
54.403150792084809
 31
0.0
  0
LINE
  5
606E
  8
0
 10
-294.82453419897911
 20
56.609449542084811
 30
0.0
 11
-294.56721419897917
 21
56.270072042084813
 31
0.0
  0
LINE
  5
606F
  8
0
 10
-295.13807794897912
 20
53.163685792084848
 30
0.0
 11
-294.82453419897911
 21
53.442205792084891
 31
0.0
  0
LINE
  5
6070
  8
0
 10
-294.56721419897917
 20
56.270072042084813
 30
0.0
 11
-294.37600919897909
 21
55.882878292084818
 31
0.0
  0
LINE
  5
6071
  8
0
 10
-294.56721419897917
 20
53.781584542084872
 30
0.0
 11
-294.82453419897911
 21
53.442205792084891
 31
0.0
  0
LINE
  5
6072
  8
0
 10
-294.37600919897909
 20
55.882878292084818
 30
0.0
 11
-294.25826544897927
 21
55.462748292084818
 31
0.0
  0
LINE
  5
6073
  8
0
 10
-294.37600919897909
 20
54.168778292084838
 30
0.0
 11
-294.56721419897917
 21
53.781584542084872
 31
0.0
  0
LINE
  5
6074
  8
0
 10
-294.25826544897927
 20
55.462748292084818
 30
0.0
 11
-294.21850794897921
 21
55.025828292084817
 31
0.0
  0
LINE
  5
6075
  8
0
 10
-294.25826544897927
 20
54.588908292084817
 30
0.0
 11
-294.37600919897909
 21
54.168778292084838
 31
0.0
  0
LINE
  5
6076
  8
0
 10
-294.21850794897921
 20
55.025828292084817
 30
0.0
 11
-294.25826544897927
 21
54.588908292084817
 31
0.0
  0
POINT
  5
6077
  8
0
 10
-298.5594929489792
 20
55.025828292084817
 30
0.0
1001
PNTFLAG
1000
endpoint
  0
LINE
  5
6078
  8
0
 10
-286.38761044897927
 20
50.203587992280198
 30
0.0
 11
-286.38761044897927
 21
50.025828292084853
 31
0.0
  0
LINE
  5
6079
  8
AM7
 10
-281.26417260295148
 20
177.99095073840161
 30
0.0
 11
-153.3110482950066
 21
177.99095073840161
 31
0.0
  0
LINE
  5
607A
  8
AM7
 10
-217.28761044897911
 20
226.29657951934371
 30
0.0
 11
-217.28761044897911
 21
129.68532195745959
 31
0.0
  0
LINE
  5
607B
  8
0
 10
-265.78761044897902
 20
220.99095073840141
 30
0.0
 11
-168.78761044897891
 21
220.99095073840141
 31
0.0
  0
LINE
  5
607C
  8
0
 10
-265.78761044897902
 20
158.41521480711319
 30
0.0
 11
-168.78761044897891
 21
158.41521480711319
 31
0.0
  0
LINE
  5
607D
  8
0
 10
-265.78761044897902
 20
169.06668666968949
 30
0.0
 11
-168.78761044897891
 21
169.06668666968949
 31
0.0
  0
LINE
  5
607E
  8
0
 10
-265.78761044897902
 20
186.91521480711319
 30
0.0
 11
-168.78761044897891
 21
186.91521480711319
 31
0.0
  0
LINE
  5
607F
  8
0
 10
-265.78761044897902
 20
197.5666866696894
 30
0.0
 11
-168.78761044897891
 21
197.56668666968949
 31
0.0
  0
LINE
  5
6080
  8
0
 10
-265.78761044897902
 20
134.9909507384011
 30
0.0
 11
-168.7876104489788
 21
134.9909507384011
 31
0.0
  0
LINE
  5
6081
  8
0
 10
-265.78761044897902
 20
136.9909507384013
 30
0.0
 11
-168.78761044897891
 21
136.9909507384013
 31
0.0
  0
LINE
  5
6082
  8
0
 10
-265.78761044897902
 20
157.41521480711319
 30
0.0
 11
-168.78761044897891
 21
157.41521480711319
 31
0.0
  0
LINE
  5
6083
  8
0
 10
-265.78761044897902
 20
170.06668666968929
 30
0.0
 11
-168.78761044897891
 21
170.06668666968929
 31
0.0
  0
LINE
  5
6084
  8
0
 10
-265.78761044897902
 20
185.91521480711319
 30
0.0
 11
-168.78761044897891
 21
185.91521480711319
 31
0.0
  0
LINE
  5
6085
  8
0
 10
-265.78761044897902
 20
198.56668666968949
 30
0.0
 11
-168.78761044897891
 21
198.56668666968949
 31
0.0
  0
LINE
  5
6086
  8
0
 10
-265.78761044897902
 20
218.99095073840141
 30
0.0
 11
-168.78761044897891
 21
218.99095073840141
 31
0.0
  0
LINE
  5
6087
  8
0
 10
-265.78761044897902
 20
220.99095073840141
 30
0.0
 11
-265.78761044897902
 21
134.9909507384011
 31
0.0
  0
LINE
  5
6088
  8
AM7
 10
-247.287610448979
 20
214.07746625485851
 30
0.0
 11
-247.287610448979
 21
201.80384548641609
 31
0.0
  0
ARC
  5
6089
  8
AM4
 10
-247.287610448979
 20
207.99095073840141
 30
0.0
 40
5.0
 50
180.0
 51
90.0
  0
CIRCLE
  5
608A
  8
0
 10
-247.287610448979
 20
207.99095073840141
 30
0.0
 40
4.25
  0
LINE
  5
608B
  8
AM7
 10
-240.97103629868201
 20
207.99095073840141
 30
0.0
 11
-253.22057494133921
 21
207.99095073840141
 31
0.0
  0
LINE
  5
608C
  8
AM7
 10
-247.287610448979
 20
141.9044352219446
 30
0.0
 11
-247.287610448979
 21
154.17805599038709
 31
0.0
  0
ARC
  5
608D
  8
AM4
 10
-247.287610448979
 20
147.99095073840161
 30
0.0
 40
5.0
 50
180.0
 51
90.0
  0
LINE
  5
608E
  8
AM7
 10
-240.97103629868209
 20
147.99095073840161
 30
0.0
 11
-253.22057494133921
 21
147.99095073840161
 31
0.0
  0
CIRCLE
  5
608F
  8
0
 10
-247.287610448979
 20
147.99095073840161
 30
0.0
 40
4.25
  0
LINE
  5
6090
  8
0
 10
-168.78761044897891
 20
220.99095073840141
 30
0.0
 11
-168.7876104489788
 21
134.9909507384011
 31
0.0
  0
CIRCLE
  5
6091
  8
0
 10
-187.287610448979
 20
207.99095073840141
 30
0.0
 40
4.25
  0
ARC
  5
6092
  8
AM4
 10
-187.287610448979
 20
207.99095073840141
 30
0.0
 40
5.0
 50
180.0
 51
90.0
  0
LINE
  5
6093
  8
¤¤¤ß˝u
 10
-193.60418459927601
 20
207.99095073840141
 30
0.0
 11
-181.3546459566189
 21
207.99095073840141
 31
0.0
  0
LINE
  5
6094
  8
AM7
 10
-187.287610448979
 20
214.07746625485851
 30
0.0
 11
-187.287610448979
 21
201.80384548641609
 31
0.0
  0
CIRCLE
  5
6095
  8
0
 10
-187.287610448979
 20
147.99095073840149
 30
0.0
 40
4.25
  0
ARC
  5
6096
  8
AM4
 10
-187.287610448979
 20
147.99095073840149
 30
0.0
 40
5.0
 50
180.0
 51
90.0
  0
LINE
  5
6097
  8
AM7
 10
-193.60418459927601
 20
147.99095073840161
 30
0.0
 11
-181.3546459566189
 21
147.99095073840161
 31
0.0
  0
LINE
  5
6098
  8
AM7
 10
-187.287610448979
 20
141.9044352219446
 30
0.0
 11
-187.287610448979
 21
154.17805599038709
 31
0.0
  0
LINE
  5
6099
  8
0
 10
-282.85088171498018
 20
136.9910230087068
 30
0.0
 11
-282.85088171498018
 21
218.99102300460231
 31
0.0
  0
LINE
  5
609A
  8
0
 10
-285.35088171498029
 20
136.9909507384013
 30
0.0
 11
-285.35088171498018
 21
218.99095073840141
 31
0.0
  0
ARC
  5
609B
  8
0
  6
CONTINUOUS
 10
-297.85079289624861
 20
173.2948128133128
 30
0.0
 40
2.4721783065536602
 50
34.632779998936762
 51
100.3672200010636
  0
LINE
  5
609C
  8
0
  6
CONTINUOUS
 10
-296.90473121647813
 20
175.5788077514562
 30
0.0
 11
-289.46750076506788
 21
172.49820603198791
 31
0.0
  0
LINE
  5
609D
  8
0
  6
CONTINUOUS
 10
-297.97042900475623
 20
173.00598569760481
 30
0.0
 11
-290.53319855334598
 21
169.92538397813649
 31
0.0
  0
LINE
  5
609E
  8
0
  6
CONTINUOUS
 10
-298.00431541485852
 20
170.41993068045161
 30
0.0
 11
-292.33785428212292
 21
168.07280562861251
 31
0.0
  0
LINE
  5
609F
  8
0
  6
CONTINUOUS
 10
-300.08421504831358
 20
168.25075515618499
 30
0.0
 11
-292.4009818699123
 21
165.06825577081611
 31
0.0
  0
ARC
  5
60A0
  8
0
  6
CONTINUOUS
 10
-296.74328847031961
 20
165.4507328479005
 30
0.0
 40
9.2953396429059598
 50
50.721349997911631
 51
84.278650002089492
  0
ARC
  5
60A1
  8
0
  6
CONTINUOUS
 10
-290.69464129950433
 20
180.05345888169219
 30
0.0
 40
9.2953396429059598
 50
230.7213499979124
 51
264.27865000208948
  0
ARC
  5
60A2
  8
0
  6
CONTINUOUS
 10
-291.54896014496052
 20
177.99095073840161
 30
0.0
 40
5.3333333333333321
 50
90.0
 51
210.83520489408471
  0
LINE
  5
60A3
  8
0
  6
CONTINUOUS
 10
-299.05850322173308
 20
173.88508581823851
 30
0.0
 11
-298.29573353037898
 21
175.72657475207279
 31
0.0
  0
ARC
  5
60A4
  8
0
  6
CONTINUOUS
 10
-296.42583874665962
 20
167.17309875722111
 30
0.0
 40
3.8137986940490149
 50
118.5864858262624
 51
163.58648582626381
  0
LINE
  5
60A5
  8
0
  6
CONTINUOUS
 10
-300.08421504831358
 20
164.20809387300361
 30
0.0
 11
-300.08421504831358
 21
168.25075515618499
 31
0.0
  0
LINE
  5
60A6
  8
0
  6
CONTINUOUS
 10
-296.57942626146672
 20
172.85821851912959
 30
0.0
 11
-295.81665657011251
 21
174.69970745296391
 31
0.0
  0
ARC
  5
60A7
  8
0
  6
CONTINUOUS
 10
-300.75651654983858
 20
171.64562856908171
 30
0.0
 40
2.7462314797568039
 50
335.84790116506122
 51
45.847901165061216
  0
ARC
  5
60A8
  8
0
  6
CONTINUOUS
 10
-297.02436732498552
 20
175.28998063574809
 30
0.0
 40
2.4721783065536602
 50
214.6327799989366
 51
280.36722000106357
  0
ARC
  5
60A9
  8
0
  6
CONTINUOUS
 10
-283.92553507891898
 20
173.3909506056111
 30
0.0
 40
2.825346636061326
 50
147.13277999893791
 51
212.86722000106201
  0
LINE
  5
60AA
  8
0
  6
CONTINUOUS
 10
-286.75088171498032
 20
173.3909506056111
 30
0.0
 11
-286.75088171498032
 21
182.59095087119209
 31
0.0
  0
LINE
  5
60AB
  8
0
  6
CONTINUOUS
 10
-286.29854499216782
 20
171.85761740506811
 30
0.0
 11
-285.35088171498018
 21
171.85761740506811
 31
0.0
  0
ARC
  5
60AC
  8
0
  6
CONTINUOUS
 10
-289.52505490765282
 20
166.99340483161521
 30
0.0
 40
2.7462314797568039
 50
89.152098834939196
 51
159.15209883493981
  0
ARC
  5
60AD
  8
0
  6
CONTINUOUS
 10
-295.74986270844028
 20
166.89310031435139
 30
0.0
 40
3.8137986940490141
 50
331.41351417373698
 51
16.413514173739301
  0
LINE
  5
60AE
  8
0
  6
CONTINUOUS
 10
-291.62127319971148
 20
170.80448427662881
 30
0.0
 11
-290.85850350835727
 21
172.64597321046321
 31
0.0
  0
ARC
  5
60AF
  8
0
  6
CONTINUOUS
 10
-289.58713687357539
 20
172.2093789162798
 30
0.0
 40
2.4721783065536602
 50
214.6327799989366
 51
280.36722000106357
  0
LINE
  5
60B0
  8
0
  6
CONTINUOUS
 10
-290.03748907743937
 20
172.65761740506821
 30
0.0
 11
-286.65405226429363
 21
172.65761740506821
 31
0.0
  0
ARC
  5
60B1
  8
0
  6
CONTINUOUS
 10
-290.41356244483859
 20
170.2142110938446
 30
0.0
 40
2.4721783065536602
 50
34.632779998936762
 51
100.3672200010636
  0
LINE
  5
60B2
  8
0
  6
CONTINUOUS
 10
-289.14225257550731
 20
169.77755993849249
 30
0.0
 11
-288.37942605101938
 21
171.6191860796487
 31
0.0
  0
LINE
  5
60B3
  8
0
  6
CONTINUOUS
 10
-286.29854499216782
 20
184.12428407173499
 30
0.0
 11
-285.35088171498018
 21
184.12428407173499
 31
0.0
  0
LINE
  5
60B4
  8
0
  6
CONTINUOUS
 10
-286.29854499216782
 20
181.05761713948721
 30
0.0
 11
-285.35088171498018
 21
181.05761713948721
 31
0.0
  0
LINE
  5
60B5
  8
0
  6
CONTINUOUS
 10
-286.29854499216782
 20
174.92428433731601
 30
0.0
 11
-285.35088171498018
 21
174.92428433731601
 31
0.0
  0
ARC
  5
60B6
  8
0
  6
CONTINUOUS
 10
-276.127636408802
 20
177.99095073840161
 30
0.0
 40
10.62324530617823
 50
163.2213499979124
 51
196.7786500020876
  0
LINE
  5
60B7
  8
0
  6
CONTINUOUS
 10
-291.54896014496052
 20
183.32428407173489
 30
0.0
 11
-286.65405226429363
 21
183.32428407173489
 31
0.0
  0
ARC
  5
60B8
  8
0
  6
CONTINUOUS
 10
-283.92553507891898
 20
182.59095087119209
 30
0.0
 40
2.825346636061326
 50
147.13277999893791
 51
212.86722000106201
  0
LINE
  5
60B9
  8
0
  6
CONTINUOUS
 10
-295.25957507728998
 20
162.20966256343851
 30
0.0
 11
-292.4009818699123
 21
165.06825577081611
 31
0.0
  0
LINE
  5
60BA
  8
0
  6
CONTINUOUS
 10
-300.08421504831358
 20
164.20809387300361
 30
0.0
 11
-295.25957507728998
 21
162.20966256343851
 31
0.0
  0
LINE
  5
60BB
  8
0
 10
-354.25611650745549
 20
155.4905870279141
 30
0.0
 11
-285.35088171498029
 21
155.49058702791419
 31
0.0
  0
LINE
  5
60BC
  8
0
 10
-354.25611650745549
 20
200.4913144488892
 30
0.0
 11
-285.35088171498018
 21
200.4913144488892
 31
0.0
  0
LINE
  5
60BD
  8
0
 10
-286.98761044897918
 20
142.84202509934431
 30
0.0
 11
-286.98761044897918
 21
139.14039178161411
 31
0.0
  0
ARC
  5
60BE
  8
0
 10
-284.72988864041417
 20
139.17694844229581
 30
0.0
 40
2.2580177488916551
 50
180.92764278799589
 51
254.03697783117121
  0
ARC
  5
60BF
  8
0
 10
-284.72988864041417
 20
145.80521073854479
 30
0.0
 40
2.2580177488916551
 50
105.9630221688287
 51
179.07235721200399
  0
LINE
  5
60C0
  8
0
 10
-286.98761044897918
 20
145.84176739922671
 30
0.0
 11
-286.98761044897918
 21
142.1401340814964
 31
0.0
  0
ARC
  5
60C1
  8
0
 10
-284.72988864041417
 20
142.17669074217829
 30
0.0
 40
2.2580177488916551
 50
180.92764278799589
 51
254.03697783117121
  0
ARC
  5
60C2
  8
0
 10
-284.72988864041417
 20
216.80546843439649
 30
0.0
 40
2.2580177488916551
 50
105.9630221688287
 51
179.07235721200399
  0
LINE
  5
60C3
  8
0
 10
-286.98761044897918
 20
216.8420250950783
 30
0.0
 11
-286.98761044897918
 21
213.1403917773481
 31
0.0
  0
ARC
  5
60C4
  8
0
 10
-284.72988864041417
 20
213.80521073462501
 30
0.0
 40
2.2580177488916551
 50
105.9630221688287
 51
179.07235721200399
  0
LINE
  5
60C5
  8
0
 10
-286.98761044897918
 20
213.84176739530679
 30
0.0
 11
-286.98761044897918
 21
210.14013407757659
 31
0.0
  0
ARC
  5
60C6
  8
0
 10
-284.72988864041417
 20
210.17669073825849
 30
0.0
 40
2.2580177488916551
 50
180.92764278799589
 51
254.03697783117121
  0
LINE
  5
60C7
  8
0
 10
-149.22433918297801
 20
136.9909507384013
 30
0.0
 11
-149.2243391829779
 21
218.99095073840141
 31
0.0
  0
LINE
  5
60C8
  8
0
 10
-151.7243391829779
 20
136.99102300870689
 30
0.0
 11
-151.7243391829779
 21
218.9910230046024
 31
0.0
  0
LINE
  5
60C9
  8
0
 10
-147.58761044897901
 20
145.84176739922671
 30
0.0
 11
-147.58761044897901
 21
142.14013408149651
 31
0.0
  0
ARC
  5
60CA
  8
0
 10
-149.8453322575441
 20
139.1769484422959
 30
0.0
 40
2.2580177488916551
 50
285.96302216882867
 51
359.07235721200402
  0
ARC
  5
60CB
  8
0
 10
-149.8453322575441
 20
142.1766907421781
 30
0.0
 40
2.2580177488916551
 50
285.96302216882867
 51
359.07235721200402
  0
LINE
  5
60CC
  8
0
 10
-147.58761044897901
 20
142.84202509934431
 30
0.0
 11
-147.58761044897901
 21
139.140391781614
 31
0.0
  0
ARC
  5
60CD
  8
0
 10
-149.8453322575441
 20
145.80521073854479
 30
0.0
 40
2.2580177488916551
 50
0.927642787995955
 51
74.036977831171271
  0
ARC
  5
60CE
  8
0
 10
-149.8453322575439
 20
216.80546843439649
 30
0.0
 40
2.2580177488916551
 50
0.927642787995955
 51
74.036977831171271
  0
LINE
  5
60CF
  8
0
 10
-147.58761044897881
 20
213.84176739530679
 30
0.0
 11
-147.58761044897881
 21
210.1401340775765
 31
0.0
  0
ARC
  5
60D0
  8
0
 10
-149.8453322575439
 20
210.1766907382584
 30
0.0
 40
2.2580177488916551
 50
285.96302216882867
 51
359.07235721200402
  0
ARC
  5
60D1
  8
0
 10
-149.8453322575439
 20
213.80521073462489
 30
0.0
 40
2.2580177488916551
 50
0.927642787995955
 51
74.036977831171271
  0
LINE
  5
60D2
  8
0
 10
-147.58761044897881
 20
216.8420250950783
 30
0.0
 11
-147.58761044897881
 21
213.14039177734799
 31
0.0
  0
CIRCLE
  5
60D3
  8
0
 10
-331.75611650745549
 20
177.99095073840161
 30
0.0
 40
6.9999999999998277
  0
CIRCLE
  5
60D4
  8
0
 10
-331.75611650745549
 20
177.99095073840161
 30
0.0
 40
9.9999999999997726
  0
LINE
  5
60D5
  8
¤¤¤ß˝u
 10
-331.75611650745549
 20
163.8972893010075
 30
0.0
 11
-331.75611650745549
 21
192.08461217579571
 31
0.0
  0
LINE
  5
60D6
  8
¤¤¤ß˝u
 10
-345.84977794484951
 20
177.99095073840161
 30
0.0
 11
-317.66245507006153
 21
177.99095073840161
 31
0.0
  0
LINE
  5
60D7
  8
0
 10
-99.256241798863485
 20
200.49131444888889
 30
0.0
 11
-149.2243391829779
 21
200.491314448889
 31
0.0
  0
LINE
  5
60D8
  8
0
 10
-99.256241798863527
 20
155.49058702791399
 30
0.0
 11
-149.22433918297801
 21
155.49058702791399
 31
0.0
  0
LINE
  5
60D9
  8
¤¤¤ß˝u
 10
-121.7562417988634
 20
163.8972893010075
 30
0.0
 11
-121.7562417988634
 21
192.08461217579571
 31
0.0
  0
CIRCLE
  5
60DA
  8
0
 10
-121.7562417988634
 20
177.99095073840161
 30
0.0
 40
6.9999999999998277
  0
CIRCLE
  5
60DB
  8
0
 10
-121.7562417988634
 20
177.99095073840161
 30
0.0
 40
9.9999999999997726
  0
LINE
  5
60DC
  8
¤¤¤ß˝u
 10
-135.84990323625749
 20
177.99095073840161
 30
0.0
 11
-107.6625803614693
 21
177.99095073840161
 31
0.0
  0
ENDSEC
  0
EOF
