  0
SECTION
  2
HEADER
  9
$ACADVER
  1
AC1009
  9
$INSBASE
 10
0.0
 20
0.0
 30
0.0
  9
$EXTMIN
 10
-383.01648622901359
 20
-51.30119105969343
 30
0.0
  9
$EXTMAX
 10
-83.859766586596564
 20
168.45794784797971
 30
0.0
  9
$LIMMIN
 10
-10.0
 20
-15.0
  9
$LIMMAX
 10
120.0
 20
90.0
  9
$ORTHOMODE
 70
     1
  9
$REGENMODE
 70
     0
  9
$FILLMODE
 70
     1
  9
$QTEXTMODE
 70
     0
  9
$MIRRTEXT
 70
     0
  9
$DRAGMODE
 70
     2
  9
$LTSCALE
 40
2.0
  9
$OSMODE
 70
  3071
  9
$ATTMODE
 70
     1
  9
$TEXTSIZE
 40
3.0
  9
$TRACEWID
 40
1.0
  9
$TEXTSTYLE
  7
STANDARD
  9
$CLAYER
  8
0
  9
$CELTYPE
  6
ByLayer
  9
$CECOLOR
 62
   256
  9
$DIMSCALE
 40
1.0
  9
$DIMASZ
 40
3.0
  9
$DIMEXO
 40
1.0
  9
$DIMDLI
 40
6.0
  9
$DIMRND
 40
0.0
  9
$DIMDLE
 40
0.0
  9
$DIMEXE
 40
1.0
  9
$DIMTP
 40
0.0
  9
$DIMTM
 40
0.0
  9
$DIMTXT
 40
3.0
  9
$DIMCEN
 40
1.5
  9
$DIMTSZ
 40
0.0
  9
$DIMTOL
 70
     0
  9
$DIMLIM
 70
     0
  9
$DIMTIH
 70
     1
  9
$DIMTOH
 70
     1
  9
$DIMSE1
 70
     0
  9
$DIMSE2
 70
     0
  9
$DIMTAD
 70
     0
  9
$DIMZIN
 70
     0
  9
$DIMBLK
  1

  9
$DIMASO
 70
     1
  9
$DIMSHO
 70
     0
  9
$DIMPOST
  1

  9
$DIMAPOST
  1

  9
$DIMALT
 70
     0
  9
$DIMALTD
 70
     2
  9
$DIMALTF
 40
25.399999999999999
  9
$DIMLFAC
 40
1.0
  9
$DIMTOFL
 70
     1
  9
$DIMTVP
 40
0.0
  9
$DIMTIX
 70
     0
  9
$DIMSOXD
 70
     0
  9
$DIMSAH
 70
     0
  9
$DIMBLK1
  1

  9
$DIMBLK2
  1

  9
$DIMSTYLE
  2
STANDARD
  9
$DIMCLRD
 70
     0
  9
$DIMCLRE
 70
     0
  9
$DIMCLRT
 70
     0
  9
$DIMTFAC
 40
1.0
  9
$DIMGAP
 40
0.09
  9
$LUNITS
 70
     2
  9
$LUPREC
 70
     4
  9
$SKETCHINC
 40
0.5
  9
$FILLETRAD
 40
0.0
  9
$AUNITS
 70
     0
  9
$AUPREC
 70
     0
  9
$MENU
  1
ACAD
  9
$ELEVATION
 40
0.0
  9
$PELEVATION
 40
0.0
  9
$THICKNESS
 40
0.0
  9
$LIMCHECK
 70
     0
  9
$BLIPMODE
 70
     0
  9
$CHAMFERA
 40
0.0
  9
$CHAMFERB
 40
0.0
  9
$SKPOLY
 70
     0
  9
$TDCREATE
 40
2444975.333333334
  9
$TDUPDATE
 40
2453689.3975690752
  9
$TDINDWG
 40
0.040633669
  9
$TDUSRTIMER
 40
0.0
  9
$USRTIMER
 70
     0
  9
$ANGBASE
 50
0.0
  9
$ANGDIR
 70
     0
  9
$PDMODE
 70
   171
  9
$PDSIZE
 40
0.001
  9
$PLINEWID
 40
0.0
  9
$COORDS
 70
     2
  9
$SPLFRAME
 70
     0
  9
$SPLINETYPE
 70
     6
  9
$SPLINESEGS
 70
     8
  9
$ATTDIA
 70
     0
  9
$ATTREQ
 70
     1
  9
$HANDLING
 70
     1
  9
$HANDSEED
  5
578A
  9
$SURFTAB1
 70
     6
  9
$SURFTAB2
 70
     6
  9
$SURFTYPE
 70
     6
  9
$SURFU
 70
     6
  9
$SURFV
 70
     6
  9
$UCSNAME
  2

  9
$UCSORG
 10
0.0
 20
0.0
 30
0.0
  9
$UCSXDIR
 10
1.0
 20
0.0
 30
0.0
  9
$UCSYDIR
 10
0.0
 20
1.0
 30
0.0
  9
$PUCSNAME
  2

  9
$PUCSORG
 10
0.0
 20
0.0
 30
0.0
  9
$PUCSXDIR
 10
1.0
 20
0.0
 30
0.0
  9
$PUCSYDIR
 10
0.0
 20
1.0
 30
0.0
  9
$USERI1
 70
     0
  9
$USERI2
 70
     0
  9
$USERI3
 70
     0
  9
$USERI4
 70
     0
  9
$USERI5
 70
     0
  9
$USERR1
 40
0.0
  9
$USERR2
 40
0.0
  9
$USERR3
 40
0.0
  9
$USERR4
 40
0.0
  9
$USERR5
 40
0.0
  9
$WORLDVIEW
 70
     1
  9
$SHADEDGE
 70
     3
  9
$SHADEDIF
 70
    70
  9
$TILEMODE
 70
     1
  9
$MAXACTVP
 70
    48
  9
$PLIMCHECK
 70
     0
  9
$PEXTMIN
 10
1.0000000000000000E+020
 20
1.0000000000000000E+020
 30
1.0000000000000000E+020
  9
$PEXTMAX
 10
-1.0000000000000000E+020
 20
-1.0000000000000000E+020
 30
-1.0000000000000000E+020
  9
$PLIMMIN
 10
0.0
 20
0.0
  9
$PLIMMAX
 10
12.0
 20
9.0
  9
$UNITMODE
 70
     0
  9
$VISRETAIN
 70
     1
  9
$PLINEGEN
 70
     0
  9
$PSLTSCALE
 70
     0
  0
ENDSEC
  0
SECTION
  2
TABLES
  0
TABLE
  2
VPORT
 70
     2
  0
VPORT
  2
*ACTIVE
 70
     0
 10
0.0
 20
0.0
 11
1.0
 21
1.0
 12
-228.12049378813489
 22
53.079311253994597
 13
457.99999999999972
 23
1082.0
 14
10.0
 24
10.0
 15
10.0
 25
10.0
 16
0.0
 26
0.0
 36
1.0
 17
0.0
 27
0.0
 37
0.0
 40
321.08131244149229
 41
1.7038081805359659
 42
1.0
 43
0.0
 44
0.0
 50
0.0
 51
0.0
 71
     0
 72
   100
 73
     1
 74
     1
 75
     0
 76
     0
 77
     0
 78
     0
  0
ENDTAB
  0
TABLE
  2
LTYPE
 70
     5
  0
LTYPE
  2
ByBlock
 70
     0
  3

 72
    65
 73
     0
 40
0.0
  0
LTYPE
  2
ByLayer
 70
     0
  3

 72
    65
 73
     0
 40
0.0
  0
LTYPE
  2
CONTINUOUS
 70
     0
  3
łsÄň˝u ________________________
 72
    65
 73
     2
 40
200000.0
 49
200000.0
 49
0.0
  0
LTYPE
  2
CENTER2
 70
     0
  3
Center (.5x) ___ _ ___ _ ___ _ ___ _ ___ _ ___
 72
    65
 73
     4
 40
28.574999999999999
 49
19.050000000000001
 49
-3.1749999999999989
 49
3.1749999999999989
 49
-3.1749999999999989
  0
LTYPE
  2
DASHED2
 70
     0
  3
Dashed (.5x) _ _ _ _ _ _ _ _ _ _ _ _ _ _ _ _ _
 72
    65
 73
     2
 40
9.5249999999999986
 49
6.3499999999999988
 49
-3.1749999999999989
  0
ENDTAB
  0
TABLE
  2
LAYER
 70
     9
  0
LAYER
  2
0
 70
     0
 62
     7
  6
CONTINUOUS
  0
LAYER
  2
«ü˝u
 70
     0
 62
     3
  6
CONTINUOUS
  0
LAYER
  2
¤¤¤ß˝u
 70
     0
 62
     4
  6
CENTER2
  0
LAYER
  2
µę˝u
 70
     0
 62
     6
  6
DASHED2
  0
LAYER
  2
«Řşc˝u
 70
     0
 62
     1
  6
CONTINUOUS
  0
LAYER
  2
ĽĐµů˝u
 70
     0
 62
     3
  6
CONTINUOUS
  0
LAYER
  2
¤ĺ¦r
 70
     0
 62
     2
  6
CONTINUOUS
  0
LAYER
  2
DEFPOINTS
 70
     0
 62
     7
  6
CONTINUOUS
  0
LAYER
  2
AM7
 70
     0
 62
     4
  6
CENTER2
  0
ENDTAB
  0
TABLE
  2
STYLE
 70
     2
  0
STYLE
  2
STANDARD
 70
     0
 40
0.0
 41
1.0
 50
0.0
 71
     0
 42
3.0
  3
txt
  4

  0
STYLE
  2
«¬¦ˇ2
 70
     0
 40
0.0
 41
1.0
 50
0.0
 71
     0
 42
50.0
  3
txt
  4

  0
ENDTAB
  0
TABLE
  2
VIEW
 70
     0
  0
ENDTAB
  0
TABLE
  2
UCS
 70
     0
  0
ENDTAB
  0
TABLE
  2
APPID
 70
     4
  0
APPID
  2
ACAD
 70
     0
  0
APPID
  2
TCAD
 70
     0
  0
APPID
  2
CONTENTBLOCKICON
 70
     0
  0
APPID
  2
PNTFLAG
 70
     0
  0
ENDTAB
  0
TABLE
  2
DIMSTYLE
 70
     2
  0
DIMSTYLE
  2
STANDARD
 70
     0
  3

  4

  5

  6

  7

 40
1.0
 41
0.18
 42
0.0625
 43
0.38
 44
0.18
 45
0.0
 46
0.0
 47
0.0
 48
0.0
140
0.18
141
0.09
142
0.0
143
25.399999999999999
144
1.0
145
0.0
146
1.0
147
0.09
 71
     0
 72
     0
 73
     1
 74
     1
 75
     0
 76
     0
 77
     0
 78
     0
170
     0
171
     2
172
     0
173
     0
174
     0
175
     0
176
     0
177
     0
178
     0
  0
DIMSTYLE
  2
ISO-25
 70
     0
  3

  4

  5

  6

  7

 40
1.0
 41
1.1999999999999991
 42
0.7
 43
3.75
 44
0.3
 45
0.0
 46
0.0
 47
0.0
 48
0.0
140
1.5
141
2.5
142
0.0
143
0.03937007874016
144
1.0
145
0.0
146
1.0
147
0.5
 71
     0
 72
     0
 73
     0
 74
     0
 75
     0
 76
     0
 77
     1
 78
     8
170
     0
171
     3
172
     1
173
     0
174
     0
175
     0
176
     3
177
     3
178
     2
  0
ENDTAB
  0
ENDSEC
  0
SECTION
  2
BLOCKS
  0
BLOCK
  8
0
  2
$MODEL_SPACE
 70
     0
 10
0.0
 20
0.0
 30
0.0
  3
$MODEL_SPACE
  1

  0
ENDBLK
  5
255
  8
0
  0
BLOCK
 67
     1
  8
0
  2
$PAPER_SPACE
 70
     0
 10
0.0
 20
0.0
 30
0.0
  3
$PAPER_SPACE
  1

  0
ENDBLK
  5
253
 67
     1
  8
0
  0
BLOCK
  8
0
  2
A$C48B84AC6
 70
     0
 10
0.0
 20
0.0
 30
0.0
  3
A$C48B84AC6
  1

  0
LINE
  5
4ED0
  8
µę˝u
 10
1.25
 20
8.5
 30
0.0
 11
-1.250000000000056
 21
8.4999999999999716
 31
0.0
  0
LINE
  5
4ED1
  8
µę˝u
 10
0.0000000000000568
 20
9.2216878364871206
 30
0.0
 11
-1.250000000000056
 21
8.4999999999999716
 31
0.0
  0
LINE
  5
4ED2
  8
µę˝u
 10
1.5
 20
7.0
 30
0.0
 11
-1.5
 21
6.9999999999999707
 31
0.0
  0
LINE
  5
4ED3
  8
µę˝u
 10
1.25
 20
0.5
 30
0.0
 11
-1.25
 21
0.5
 31
0.0
  0
LINE
  5
4ED4
  8
µę˝u
 10
-1.5
 20
7.0000000000000853
 30
0.0
 11
-1.5
 21
0.25
 31
0.0
  0
LINE
  5
4ED5
  8
µę˝u
 10
-1.25
 20
8.5000000000000284
 30
0.0
 11
-1.25
 21
0.5
 31
0.0
  0
LINE
  5
4ED6
  8
µę˝u
 10
-1.25
 20
0.5
 30
0.0
 11
-1.75
 21
0.0
 31
0.0
  0
LINE
  5
4ED7
  8
µę˝u
 10
-0.0000000000000568
 20
9.2216878364871206
 30
0.0
 11
1.25
 21
8.4999999999999716
 31
0.0
  0
LINE
  5
4ED8
  8
µę˝u
 10
1.5
 20
7.0
 30
0.0
 11
1.5
 21
0.25
 31
0.0
  0
LINE
  5
4ED9
  8
µę˝u
 10
1.25
 20
8.5000000000000284
 30
0.0
 11
1.25
 21
0.5
 31
0.0
  0
LINE
  5
4EDA
  8
µę˝u
 10
1.25
 20
0.5
 30
0.0
 11
1.7499999999998861
 21
0.0
 31
0.0
  0
ENDBLK
  5
4EDC
  8
0
  0
BLOCK
  8
0
  2
A$C0FF84B97
 70
     0
 10
0.0
 20
0.0
 30
0.0
  3
A$C0FF84B97
  1

  0
CIRCLE
  5
5091
  8
0
 10
0.0
 20
0.0
 30
0.0
 40
3.3999999999999768
  0
LINE
  5
5092
  8
¤¤¤ß˝u
 10
-4.25
 20
0.0
 30
0.0
 11
4.25
 21
0.0
 31
0.0
  0
LINE
  5
5093
  8
¤¤¤ß˝u
 10
0.0
 20
4.25
 30
0.0
 11
0.0
 21
-4.25
 31
0.0
  0
ARC
  5
5094
  8
ĽĐµů˝u
 10
0.0
 20
0.0
 30
0.0
 40
4.0
 50
193.78456357938231
 51
102.5781507675681
  0
ENDBLK
  5
5097
  8
0
  0
BLOCK
  8
0
  2
*U2
 70
     1
 10
0.0
 20
0.0
 30
0.0
  3
*U2
  1

  0
TEXT
  5
5750
  8
0
 10
-379.57491823535901
 20
-20.707351008093578
 30
0.0
 40
7.8000001593418631
  1
HGH30HA
  0
TEXT
  5
5751
  8
0
 10
-379.79424051813788
 20
-33.805765118500041
 30
0.0
 40
7.8000001593418631
  1
C : 4820 kgf
  0
TEXT
  5
5752
  8
0
 10
-379.79424051813788
 20
-47.00379259792053
 30
0.0
 40
7.8000001593418631
  1
C
  0
TEXT
  5
5753
  8
0
 10
-372.11233697260002
 20
-42.193792499659708
 30
0.0
 40
5.4600001115393031
  1

  0
TEXT
  5
5754
  8
0
 10
-372.94095487570632
 20
-49.46639427424391
 30
0.0
 40
5.4600001115393031
  1
0
  0
TEXT
  5
5755
  8
0
 10
-368.50193039478
 20
-47.004962597944427
 30
0.0
 40
7.8023401593896651
  1
: 11230 kgf
  0
ENDBLK
  5
5757
  8
0
  0
ENDSEC
  0
SECTION
  2
ENTITIES
  0
TEXT
  5
4CBB
  8
0
 10
-10.651989752863271
 20
-43.468790589311993
 30
0.0
 40
5.4600001115393031
  1

  0
INSERT
  5
4EC7
  8
0
  2
*U2
 10
0.0
 20
0.0
 30
0.0
  0
ARC
  5
53F3
  8
0
 10
-365.74327600366507
 20
23.38144418644848
 30
0.0
 40
3.0
 50
2.4229356526405521
 51
87.577051814798452
  0
ARC
  5
53F4
  8
0
 10
-365.74320124640639
 20
34.416444186195243
 30
0.0
 40
3.0
 50
272.53387024114153
 51
357.46612261247958
  0
ARC
  5
53F5
  8
0
 10
-340.28927600424907
 20
23.381271746823391
 30
0.0
 40
3.0
 50
92.434783766460129
 51
177.56522877788569
  0
ARC
  5
53F6
  8
0
 10
-340.2892012469905
 20
34.416271746570153
 30
0.0
 40
3.0
 50
182.5418294689097
 51
267.45817768503082
  0
LINE
  5
53F7
  8
0
 10
-343.28624957845392
 20
34.283225518242723
 30
0.0
 11
-343.90208022901362
 21
34.899056168802417
 31
0.0
  0
LINE
  5
53F8
  8
0
 10
-339.01648622901359
 20
30.013465482126922
 30
0.0
 11
-339.01648622901359
 21
27.77879682947097
 31
0.0
  0
LINE
  5
53F9
  8
0
 10
-343.28656770306981
 20
23.50871770470766
 30
0.0
 11
-343.71648622901353
 21
23.078799204062111
 31
0.0
  0
LINE
  5
53FA
  8
0
 10
-339.01648622901359
 20
27.77879682947097
 30
0.0
 11
-340.41672261836078
 21
26.378563417740938
 31
0.0
  0
LINE
  5
53FB
  8
0
 10
-339.01648622901359
 20
30.013465482126922
 30
0.0
 11
-340.42224710110702
 21
31.41922339849458
 31
0.0
  0
LINE
  5
53FC
  8
0
 10
-339.01648622901359
 20
14.19873446880726
 30
0.0
 11
-343.71648622901353
 21
18.898734368802451
 31
0.0
  0
LINE
  5
53FD
  8
0
 10
-343.71648622901353
 20
23.078799204062111
 30
0.0
 11
-343.71648622901353
 21
18.898734368802451
 31
0.0
  0
LINE
  5
53FE
  8
0
 10
-339.01648622901359
 20
10.39905616880244
 30
0.0
 11
-340.51648622901359
 21
8.8990561688024457
 31
0.0
  0
LINE
  5
53FF
  8
0
 10
-345.26648622901359
 20
8.8990561688024457
 30
0.0
 11
-340.51648622901359
 21
8.8990561688024457
 31
0.0
  0
LINE
  5
5400
  8
0
 10
-339.01648622901359
 20
14.19873446880726
 30
0.0
 11
-339.01648622901359
 21
10.39905616880244
 31
0.0
  0
LINE
  5
5401
  8
µę˝u
 10
-346.01648622901359
 20
34.49905616880244
 30
0.0
 11
-360.01648622901359
 21
34.49905616880244
 31
0.0
  0
LINE
  5
5402
  8
µę˝u
 10
-360.01648622901359
 20
34.49905616880244
 30
0.0
 11
-360.24742633668939
 21
34.899056168802417
 31
0.0
  0
LINE
  5
5403
  8
µę˝u
 10
-345.7855461213378
 20
34.899056168802417
 30
0.0
 11
-346.01648622901359
 21
34.49905616880244
 31
0.0
  0
LINE
  5
5404
  8
0
 10
-362.74613447832218
 20
34.283813919493753
 30
0.0
 11
-362.13089222901363
 21
34.899056168802417
 31
0.0
  0
LINE
  5
5405
  8
µę˝u
 10
-346.01648622901359
 20
22.899056168802449
 30
0.0
 11
-360.01648622901359
 21
22.899056168802449
 31
0.0
  0
LINE
  5
5406
  8
µę˝u
 10
-348.51648622901359
 20
22.599056168802441
 30
0.0
 11
-357.51648622901359
 21
22.599056168802441
 31
0.0
  0
LINE
  5
5407
  8
µę˝u
 10
-357.81648622901349
 20
22.899056168802449
 30
0.0
 11
-357.51648622901359
 21
22.599056168802441
 31
0.0
  0
LINE
  5
5408
  8
µę˝u
 10
-348.2164862290137
 20
22.899056168802449
 30
0.0
 11
-348.51648622901359
 21
22.599056168802441
 31
0.0
  0
LINE
  5
5409
  8
0
 10
-362.7459580423257
 20
23.50827099210235
 30
0.0
 11
-362.31648622901372
 21
23.078799204062111
 31
0.0
  0
LINE
  5
540A
  8
0
 10
-367.01648622901359
 20
30.013465482126922
 30
0.0
 11
-367.01648622901359
 21
27.77879682947097
 31
0.0
  0
LINE
  5
540B
  8
0
 10
-367.01648622901359
 20
27.77879682947097
 30
0.0
 11
-365.61644854239449
 21
26.378762120046389
 31
0.0
  0
LINE
  5
540C
  8
0
 10
-367.01648622901359
 20
30.013465482126922
 30
0.0
 11
-365.61057135352257
 21
31.419377401568401
 31
0.0
  0
LINE
  5
540D
  8
0
 10
-367.01648622901359
 20
14.19873446880726
 30
0.0
 11
-362.31648622901372
 21
18.898734368802451
 31
0.0
  0
LINE
  5
540E
  8
0
 10
-362.31648622901372
 20
23.078799204062111
 30
0.0
 11
-362.31648622901372
 21
18.898734368802451
 31
0.0
  0
LINE
  5
540F
  8
µę˝u
 10
-346.01648622901359
 20
22.899056168802449
 30
0.0
 11
-346.01648622901359
 21
34.49905616880244
 31
0.0
  0
LINE
  5
5410
  8
µę˝u
 10
-360.01648622901359
 20
22.899056168802449
 30
0.0
 11
-360.01648622901359
 21
34.49905616880244
 31
0.0
  0
LINE
  5
5411
  8
µę˝u
 10
-348.11648622901362
 20
9.3990561688024457
 30
0.0
 11
-348.51648622901359
 21
9.7990561688024211
 31
0.0
  0
LINE
  5
5412
  8
µę˝u
 10
-357.91648622901363
 20
9.3990561688024457
 30
0.0
 11
-357.51648622901359
 21
9.7990561688024211
 31
0.0
  0
LINE
  5
5413
  8
0
 10
-345.76648622901359
 20
9.3990561688024457
 30
0.0
 11
-349.26648622901359
 21
9.3990561688024457
 31
0.0
  0
LINE
  5
5414
  8
0
 10
-356.26648622901359
 20
8.8990561688024457
 30
0.0
 11
-349.76648622901359
 21
8.8990561688024457
 31
0.0
  0
LINE
  5
5415
  8
0
 10
-356.76648622901359
 20
9.3990561688024457
 30
0.0
 11
-356.26648622901359
 21
8.8990561688024457
 31
0.0
  0
LINE
  5
5416
  8
0
 10
-360.26648622901359
 20
9.3990561688024457
 30
0.0
 11
-356.76648622901359
 21
9.3990561688024457
 31
0.0
  0
LINE
  5
5417
  8
0
 10
-349.26648622901359
 20
9.3990561688024457
 30
0.0
 11
-349.76648622901359
 21
8.8990561688024457
 31
0.0
  0
LINE
  5
5418
  8
µę˝u
 10
-348.51648622901359
 20
9.7990561688024211
 30
0.0
 11
-357.51648622901359
 21
9.7990561688024211
 31
0.0
  0
LINE
  5
5419
  8
0
 10
-360.76648622901359
 20
8.8990561688024457
 30
0.0
 11
-365.51648622901359
 21
8.8990561688024457
 31
0.0
  0
LINE
  5
541A
  8
0
 10
-367.01648622901359
 20
10.39905616880244
 30
0.0
 11
-365.51648622901359
 21
8.8990561688024457
 31
0.0
  0
LINE
  5
541B
  8
0
 10
-360.26648622901359
 20
9.3990561688024457
 30
0.0
 11
-360.76648622901359
 21
8.8990561688024457
 31
0.0
  0
LINE
  5
541C
  8
µę˝u
 10
-348.51648622901359
 20
9.7990561688024211
 30
0.0
 11
-348.51648622901359
 21
22.599056168802441
 31
0.0
  0
LINE
  5
541D
  8
µę˝u
 10
-357.51648622901359
 20
9.7990561688024211
 30
0.0
 11
-357.51648622901359
 21
22.599056168802441
 31
0.0
  0
LINE
  5
541E
  8
0
 10
-367.01648622901359
 20
14.19873446880726
 30
0.0
 11
-367.01648622901359
 21
10.39905616880244
 31
0.0
  0
LINE
  5
541F
  8
0
 10
-345.76648622901359
 20
9.3990561688024457
 30
0.0
 11
-345.26648622901359
 21
8.8990561688024457
 31
0.0
  0
LINE
  5
5420
  8
0
 10
-362.13089222901363
 20
34.899056168802417
 30
0.0
 11
-343.90208022901362
 21
34.899056168802417
 31
0.0
  0
LINE
  5
5421
  8
0
 10
-362.79520720995379
 20
36.173057966385443
 30
0.0
 11
-343.23719686868992
 21
36.173057966385393
 31
0.0
  0
LINE
  5
5422
  8
0
 10
-363.2466945547028
 20
37.039057966385492
 30
0.0
 11
-342.87848792367481
 21
37.039057966385371
 31
0.0
  0
LINE
  5
5423
  8
0
 10
-362.79520720995379
 20
36.173057966385393
 30
0.0
 11
-364.22222279097991
 21
34.74604238535926
 31
0.0
  0
LINE
  5
5424
  8
0
 10
-363.2466945547028
 20
37.039057966385492
 30
0.0
 11
-364.9885783951529
 21
35.204470702327399
 31
0.0
  0
LINE
  5
5425
  8
0
 10
-362.79519451623821
 20
36.173124214789993
 30
0.0
 11
-364.22221976463283
 21
34.746118301197839
 31
0.0
  0
LINE
  5
5426
  8
0
 10
-364.22222279097991
 20
34.74604238535926
 30
0.0
 11
-364.98858452661779
 21
35.204389594736483
 31
0.0
  0
LINE
  5
5427
  8
0
 10
-364.22221976463283
 20
34.746118301197839
 30
0.0
 11
-364.9885783951529
 21
35.204470702327399
 31
0.0
  0
ARC
  5
5428
  8
0
 10
-364.63503113602451
 20
34.850836204143206
 30
0.0
 40
0.5
 50
135.0
 51
201.40855149926139
  0
ARC
  5
5429
  8
0
 10
-364.63502739973597
 20
34.850914916573913
 30
0.0
 40
0.5
 50
134.99961184636251
 51
201.40816334562439
  0
LINE
  5
542A
  8
0
 10
-362.13089222901363
 20
34.899056168802417
 30
0.0
 11
-363.2466945547028
 21
37.039057966385492
 31
0.0
  0
LINE
  5
542B
  8
0
 10
-362.74613447832218
 20
34.283813919493753
 30
0.0
 11
-364.22221976463311
 21
34.746118301197612
 31
0.0
  0
LINE
  5
542C
  8
0
 10
-366.53123798694043
 20
33.661832012075251
 30
0.0
 11
-369.09458615289941
 21
31.09851857698775
 31
0.0
  0
LINE
  5
542D
  8
0
 10
-366.07288645829561
 20
32.89537871804373
 30
0.0
 11
-365.99517240605661
 21
33.773687736572583
 31
0.0
  0
LINE
  5
542E
  8
0
 10
-366.0728864582959
 20
32.895378718043389
 30
0.0
 11
-366.53123366767301
 21
33.661740453681261
 31
0.0
  0
ARC
  5
542F
  8
0
 10
-366.17768027707967
 20
33.308187063087992
 30
0.0
 40
0.5
 50
68.591448500738281
 51
135.0
  0
LINE
  5
5430
  8
0
 10
-366.07289596933617
 20
32.895467171354987
 30
0.0
 11
-365.99517596694272
 21
33.773775663385273
 31
0.0
  0
LINE
  5
5431
  8
0
 10
-366.07289596933651
 20
32.895467171354653
 30
0.0
 11
-366.53123798694043
 21
33.661832012075187
 31
0.0
  0
ARC
  5
5432
  8
0
 10
-366.1776869915235
 20
33.308276226321709
 30
0.0
 40
0.5
 50
68.591060347098164
 51
134.99961184636251
  0
ARC
  5
5433
  8
0
 10
-365.74320203932189
 20
34.416357966385362
 30
0.0
 40
0.6903000000000003
 50
248.59144850073511
 51
21.408551499264579
  0
ARC
  5
5434
  8
0
 10
-365.74320203932189
 20
34.416357966385362
 30
0.0
 40
1.5563
 50
257.76987908362412
 51
12.230120916369261
  0
ARC
  5
5435
  8
0
 10
-365.74320124640639
 20
34.416444186195243
 30
0.0
 40
0.6903000000000003
 50
248.5910603470947
 51
21.40816334562442
  0
LINE
  5
5436
  8
0
 10
-364.2222227909802
 20
34.746042385358983
 30
0.0
 11
-365.10053180950911
 21
34.66832833312003
 31
0.0
  0
LINE
  5
5437
  8
0
 10
-369.09313130164622
 20
26.688930469303841
 30
0.0
 11
-366.5377521481501
 21
24.133516692600612
 31
0.0
  0
LINE
  5
5438
  8
0
 10
-366.0728864582959
 20
32.895378718043389
 30
0.0
 11
-368.28990203932187
 21
30.67836313701736
 31
0.0
  0
LINE
  5
5439
  8
0
 10
-366.07289596933651
 20
32.895467171354653
 30
0.0
 11
-368.28992656961452
 21
30.678466609682431
 31
0.0
  0
LINE
  5
543A
  8
0
 10
-367.01648622901359
 20
30.013465482126922
 30
0.0
 11
-369.09458615289941
 21
31.09851857698775
 31
0.0
  0
LINE
  5
543B
  8
0
 10
-367.01648622901359
 20
27.77879682947097
 30
0.0
 11
-369.09313130164622
 21
26.688930469303841
 31
0.0
  0
LINE
  5
543C
  8
0
 10
-368.28990203932182
 20
27.110352795734322
 30
0.0
 11
-366.08026773536727
 21
24.900718491919179
 31
0.0
  0
LINE
  5
543D
  8
0
 10
-368.28995074131109
 20
27.110456268481268
 30
0.0
 11
-366.08033140670528
 21
24.900806995418829
 31
0.0
  0
LINE
  5
543E
  8
0
 10
-368.28990203932182
 20
27.110352795734322
 30
0.0
 11
-368.28990203932187
 21
30.67836313701736
 31
0.0
  0
LINE
  5
543F
  8
0
 10
-368.28995074131109
 20
27.110456268481268
 30
0.0
 11
-368.28992656961452
 21
30.678466609682431
 31
0.0
  0
LINE
  5
5440
  8
0
 10
-365.61057135352257
 20
31.419377401568401
 30
0.0
 11
-366.07289596933651
 21
32.895467171354653
 31
0.0
  0
LINE
  5
5441
  8
0
 10
-362.7459580423257
 20
23.50827099210235
 30
0.0
 11
-364.22391776165938
 21
23.04436819731475
 31
0.0
  0
LINE
  5
5442
  8
0
 10
-362.31648622901372
 20
23.078799204062111
 30
0.0
 11
-364.45598566095941
 21
21.955916166239611
 31
0.0
  0
ARC
  5
5443
  8
0
 10
-365.74320203932189
 20
23.381357966385369
 30
0.0
 40
1.5563
 50
347.4916764945707
 51
102.50832350171299
  0
ARC
  5
5444
  8
0
 10
-365.74327600366507
 20
23.381444186448451
 30
0.0
 40
1.5563
 50
347.49128834093199
 51
102.5079353480737
  0
LINE
  5
5445
  8
0
 10
-364.22384151380987
 20
23.044292270241471
 30
0.0
 11
-364.99113491543852
 21
22.586876726854971
 31
0.0
  0
LINE
  5
5446
  8
0
 10
-364.22384151380987
 20
23.044292270241471
 30
0.0
 11
-363.58990203932188
 21
22.410352795753418
 31
0.0
  0
LINE
  5
5447
  8
0
 10
-364.99121426205897
 20
22.586957852013171
 30
0.0
 11
-364.45598566095941
 21
21.955916166239611
 31
0.0
  0
LINE
  5
5448
  8
0
 10
-364.45598566095941
 20
21.955916166239611
 30
0.0
 11
-364.45599874996151
 21
20.02383435641158
 31
0.0
  0
LINE
  5
5449
  8
0
 10
-364.22391776165938
 20
23.04436819731475
 30
0.0
 11
-363.58998258184641
 21
22.410424428180882
 31
0.0
  0
ARC
  5
544A
  8
0
 10
-365.74320203932189
 20
23.381357966385369
 30
0.0
 40
0.6903000000000003
 50
338.25760091997518
 51
111.7423990752109
  0
ARC
  5
544B
  8
0
 10
-365.74327600366507
 20
23.381444186448451
 30
0.0
 40
0.6903000000000003
 50
338.25721276633487
 51
111.74201092157119
  0
ARC
  5
544C
  8
0
 10
-364.63758152484507
 20
22.940430117448241
 30
0.0
 40
0.5
 50
158.2576009199752
 51
224.99999999999849
  0
LINE
  5
544D
  8
0
 10
-364.22384151380987
 20
23.044292270241471
 30
0.0
 11
-365.10201087646942
 21
23.125647226133911
 31
0.0
  0
LINE
  5
544E
  8
0
 10
-364.22391776165938
 20
23.04436819731475
 30
0.0
 11
-365.10208657315491
 21
23.12572910241548
 31
0.0
  0
ARC
  5
544F
  8
0
 10
-364.63765847630549
 20
22.940508847430038
 30
0.0
 40
0.5
 50
158.25721276633479
 51
224.99961184635811
  0
LINE
  5
5450
  8
0
 10
-363.58990203932188
 20
22.410352795753418
 30
0.0
 11
-363.58990203932188
 21
19.568363137017279
 31
0.0
  0
LINE
  5
5451
  8
0
 10
-363.58998258184641
 20
22.410424428180882
 30
0.0
 11
-363.59000183507311
 21
19.568434769509931
 31
0.0
  0
LINE
  5
5452
  8
0
 10
-366.0802677353671
 20
24.900718491918919
 30
0.0
 11
-365.99891277951951
 21
24.02254912925935
 31
0.0
  0
LINE
  5
5453
  8
0
 10
-366.5376832787482
 20
24.133425090294761
 30
0.0
 11
-366.08026773536739
 21
24.900718491918841
 31
0.0
  0
LINE
  5
5454
  8
0
 10
-366.5377521481501
 20
24.133516692600612
 30
0.0
 11
-366.08033140670551
 21
24.900806995418488
 31
0.0
  0
LINE
  5
5455
  8
0
 10
-366.08033140670511
 20
24.900806995418581
 30
0.0
 11
-365.99898240006951
 21
24.022637081635221
 31
0.0
  0
ARC
  5
5456
  8
0
 10
-366.18412988816613
 20
24.486978480899161
 30
0.0
 40
0.5
 50
225.0000000018087
 51
291.74239907521422
  0
ARC
  5
5457
  8
0
 10
-366.18419636240782
 20
24.487067688028588
 30
0.0
 40
0.5
 50
224.9996118481682
 51
291.7420109215746
  0
LINE
  5
5458
  8
0
 10
-365.61644854239449
 20
26.378762120046389
 30
0.0
 11
-366.08033140670528
 21
24.900806995418829
 31
0.0
  0
LINE
  5
5459
  8
0
 10
-362.31648622901372
 20
18.898734368802451
 30
0.0
 11
-364.45599874996151
 21
20.02383435641158
 31
0.0
  0
LINE
  5
545A
  8
0
 10
-363.59000183507311
 20
19.568434769509931
 30
0.0
 11
-368.25903863604901
 21
14.899461229436181
 31
0.0
  0
LINE
  5
545B
  8
0
 10
-363.58990203932188
 20
19.568363137017279
 30
0.0
 11
-368.25890720995392
 21
14.899357966385329
 31
0.0
  0
LINE
  5
545C
  8
0
 10
-364.45599874996151
 20
20.02383435641158
 30
0.0
 11
-369.54711152450102
 21
14.932790561492739
 31
0.0
  0
LINE
  5
545D
  8
0
 10
-369.09458615289941
 20
31.09851857698775
 30
0.0
 11
-369.09313130164622
 21
26.688930469303841
 31
0.0
  0
LINE
  5
545E
  8
0
 10
-341.57697370806562
 20
20.02383435641158
 30
0.0
 11
-336.48586093352623
 21
14.932790561492739
 31
0.0
  0
LINE
  5
545F
  8
0
 10
-342.4430704187053
 20
19.568363137017279
 30
0.0
 11
-337.77406524807333
 21
14.899357966385329
 31
0.0
  0
LINE
  5
5460
  8
0
 10
-342.44297062295402
 20
19.568434769509931
 30
0.0
 11
-337.77393382197818
 21
14.899461229436181
 31
0.0
  0
LINE
  5
5461
  8
0
 10
-343.71648622901353
 20
18.898734368802451
 30
0.0
 11
-341.57697370806562
 21
20.02383435641158
 31
0.0
  0
LINE
  5
5462
  8
0
 10
-342.44298987618072
 20
22.410424428180882
 30
0.0
 11
-342.44297062295402
 21
19.568434769509931
 31
0.0
  0
LINE
  5
5463
  8
0
 10
-342.4430704187053
 20
22.410352795753418
 30
0.0
 11
-342.4430704187053
 21
19.568363137017279
 31
0.0
  0
ARC
  5
5464
  8
0
 10
-341.3953139817217
 20
22.940508847430038
 30
0.0
 40
0.5
 50
315.00038815364189
 51
21.74278723366514
  0
LINE
  5
5465
  8
0
 10
-341.8090546963677
 20
23.04436819731475
 30
0.0
 11
-340.93088588487228
 21
23.12572910241548
 31
0.0
  0
LINE
  5
5466
  8
0
 10
-341.80913094421732
 20
23.044292270241471
 30
0.0
 11
-340.93096158155771
 21
23.125647226133911
 31
0.0
  0
ARC
  5
5467
  8
0
 10
-341.39539093318189
 20
22.940430117448241
 30
0.0
 40
0.5
 50
315.00000000000142
 51
21.74239908002475
  0
ARC
  5
5468
  8
0
 10
-340.289696454362
 20
23.381444186448451
 30
0.0
 40
0.6903000000000003
 50
68.257989078428807
 51
201.7427872336651
  0
ARC
  5
5469
  8
0
 10
-340.28977041870519
 20
23.381357966385369
 30
0.0
 40
0.6903000000000003
 50
68.257600924789031
 51
201.7423990800248
  0
LINE
  5
546A
  8
0
 10
-341.8090546963677
 20
23.04436819731475
 30
0.0
 11
-342.44298987618072
 21
22.410424428180882
 31
0.0
  0
LINE
  5
546B
  8
0
 10
-341.57698679706778
 20
21.955916166239611
 30
0.0
 11
-341.57697370806562
 21
20.02383435641158
 31
0.0
  0
LINE
  5
546C
  8
0
 10
-341.0417581959681
 20
22.586957852013171
 30
0.0
 11
-341.57698679706778
 21
21.955916166239611
 31
0.0
  0
LINE
  5
546D
  8
0
 10
-341.80913094421732
 20
23.044292270241471
 30
0.0
 11
-342.4430704187053
 21
22.410352795753418
 31
0.0
  0
LINE
  5
546E
  8
0
 10
-341.80913094421732
 20
23.044292270241471
 30
0.0
 11
-341.04183754258872
 21
22.586876726854971
 31
0.0
  0
ARC
  5
546F
  8
0
 10
-340.289696454362
 20
23.381444186448451
 30
0.0
 40
1.5563
 50
77.492064651926242
 51
192.50871165906801
  0
ARC
  5
5470
  8
0
 10
-340.28977041870519
 20
23.381357966385369
 30
0.0
 40
1.5563
 50
77.491676498286949
 51
192.5083235054293
  0
LINE
  5
5471
  8
0
 10
-343.71648622901353
 20
23.078799204062111
 30
0.0
 11
-341.57698679706778
 21
21.955916166239611
 31
0.0
  0
LINE
  5
5472
  8
0
 10
-343.28701441570138
 20
23.50827099210235
 30
0.0
 11
-341.8090546963677
 21
23.04436819731475
 31
0.0
  0
LINE
  5
5473
  8
0
 10
-340.41652391563269
 20
26.378762120046389
 30
0.0
 11
-339.95264105132179
 21
24.900806995418829
 31
0.0
  0
ARC
  5
5474
  8
0
 10
-339.84877609561931
 20
24.487067688028588
 30
0.0
 40
0.5
 50
248.25798907842551
 51
315.00038815183183
  0
ARC
  5
5475
  8
0
 10
-339.84884256986101
 20
24.486978480899161
 30
0.0
 40
0.5
 50
248.25760092478581
 51
314.9999999981913
  0
LINE
  5
5476
  8
0
 10
-339.95264105132208
 20
24.900806995418581
 30
0.0
 11
-340.03399005795768
 21
24.022637081635221
 31
0.0
  0
LINE
  5
5477
  8
0
 10
-339.49522030987703
 20
24.133516692600612
 30
0.0
 11
-339.95264105132168
 21
24.900806995418488
 31
0.0
  0
LINE
  5
5478
  8
0
 10
-339.49528917927898
 20
24.133425090294761
 30
0.0
 11
-339.95270472265958
 21
24.900718491918841
 31
0.0
  0
LINE
  5
5479
  8
0
 10
-339.95270472266009
 20
24.900718491918919
 30
0.0
 11
-340.03405967850767
 21
24.02254912925935
 31
0.0
  0
LINE
  5
547A
  8
0
 10
-337.7430217167161
 20
27.110456268481268
 30
0.0
 11
-339.95264105132179
 21
24.900806995418829
 31
0.0
  0
LINE
  5
547B
  8
0
 10
-337.74307041870532
 20
27.110352795734322
 30
0.0
 11
-339.9527047226598
 21
24.900718491919179
 31
0.0
  0
LINE
  5
547C
  8
0
 10
-336.93984115638102
 20
26.688930469303841
 30
0.0
 11
-339.49522030987703
 21
24.133516692600612
 31
0.0
  0
LINE
  5
547D
  8
0
 10
-336.93838630512772
 20
31.09851857698775
 30
0.0
 11
-336.93984115638102
 21
26.688930469303841
 31
0.0
  0
LINE
  5
547E
  8
0
 10
-337.7430217167161
 20
27.110456268481268
 30
0.0
 11
-337.74304588841261
 21
30.678466609682431
 31
0.0
  0
LINE
  5
547F
  8
0
 10
-337.74307041870532
 20
27.110352795734322
 30
0.0
 11
-337.74307041870532
 21
30.67836313701736
 31
0.0
  0
LINE
  5
5480
  8
0
 10
-339.01648622901359
 20
27.77879682947097
 30
0.0
 11
-336.93984115638102
 21
26.688930469303841
 31
0.0
  0
LINE
  5
5481
  8
0
 10
-339.01648622901359
 20
30.013465482126922
 30
0.0
 11
-336.93838630512772
 21
31.09851857698775
 31
0.0
  0
LINE
  5
5482
  8
0
 10
-339.96007648869062
 20
32.895467171354653
 30
0.0
 11
-337.74304588841261
 21
30.678466609682431
 31
0.0
  0
LINE
  5
5483
  8
0
 10
-339.96008599973129
 20
32.895378718043389
 30
0.0
 11
-337.74307041870532
 21
30.67836313701736
 31
0.0
  0
LINE
  5
5484
  8
0
 10
-339.50173447108671
 20
33.661832012075251
 30
0.0
 11
-336.93838630512772
 21
31.09851857698775
 31
0.0
  0
LINE
  5
5485
  8
0
 10
-341.81074966704688
 20
34.746042385358983
 30
0.0
 11
-340.93244064851802
 21
34.66832833312003
 31
0.0
  0
ARC
  5
5486
  8
0
 10
-340.28977121162069
 20
34.416444186195243
 30
0.0
 40
0.6903000000000003
 50
158.59183665437561
 51
291.4089396529053
  0
ARC
  5
5487
  8
0
 10
-340.28977041870519
 20
34.416357966385362
 30
0.0
 40
1.5563
 50
167.76987908363071
 51
282.23012091637588
  0
ARC
  5
5488
  8
0
 10
-340.28977041870519
 20
34.416357966385362
 30
0.0
 40
0.6903000000000003
 50
158.5914485007354
 51
291.40855149926489
  0
ARC
  5
5489
  8
0
 10
-339.85528546650357
 20
33.308276226321709
 30
0.0
 40
0.5
 50
45.000388153637473
 51
111.40893965290179
  0
LINE
  5
548A
  8
0
 10
-339.96007648869062
 20
32.895467171354653
 30
0.0
 11
-339.50173447108682
 21
33.661832012075187
 31
0.0
  0
LINE
  5
548B
  8
0
 10
-339.9600764886909
 20
32.895467171354987
 30
0.0
 11
-340.03779649108441
 21
33.773775663385273
 31
0.0
  0
ARC
  5
548C
  8
0
 10
-339.8552921809474
 20
33.308187063087992
 30
0.0
 40
0.5
 50
45.0
 51
111.4085514992617
  0
LINE
  5
548D
  8
0
 10
-339.96008599973129
 20
32.895378718043389
 30
0.0
 11
-339.50173879035412
 21
33.661740453681261
 31
0.0
  0
LINE
  5
548E
  8
0
 10
-339.96008599973158
 20
32.89537871804373
 30
0.0
 11
-340.03780005197058
 21
33.773687736572583
 31
0.0
  0
LINE
  5
548F
  8
0
 10
-343.28683797970501
 20
34.283813919493753
 30
0.0
 11
-341.81075269339402
 21
34.746118301197612
 31
0.0
  0
ARC
  5
5490
  8
0
 10
-341.3979450582911
 20
34.850914916573913
 30
0.0
 40
0.5
 50
338.59183665437553
 51
45.000388153637473
  0
ARC
  5
5491
  8
0
 10
-341.39794132200262
 20
34.850836204143206
 30
0.0
 40
0.5
 50
338.59144850073852
 51
45.0
  0
LINE
  5
5492
  8
0
 10
-341.81075269339431
 20
34.746118301197839
 30
0.0
 11
-341.04439406287418
 21
35.204470702327399
 31
0.0
  0
LINE
  5
5493
  8
0
 10
-341.81074966704722
 20
34.74604238535926
 30
0.0
 11
-341.04438793140929
 21
35.204389594736483
 31
0.0
  0
LINE
  5
5494
  8
0
 10
-343.23777794178892
 20
36.173124214789993
 30
0.0
 11
-341.81075269339431
 21
34.746118301197839
 31
0.0
  0
LINE
  5
5495
  8
0
 10
-342.78627790332439
 20
37.039057966385492
 30
0.0
 11
-341.04439406287418
 21
35.204470702327399
 31
0.0
  0
LINE
  5
5496
  8
0
 10
-343.23776524807329
 20
36.173057966385393
 30
0.0
 11
-341.81074966704722
 21
34.74604238535926
 31
0.0
  0
LINE
  5
5497
  8
0
 10
-340.4224011045045
 20
31.419377401568401
 30
0.0
 11
-339.96007648869062
 21
32.895467171354653
 31
0.0
  0
LINE
  5
5498
  8
0
 10
-343.90208022901362
 20
34.899056168802417
 30
0.0
 11
-342.78627790332439
 21
37.039057966385492
 31
0.0
  0
ARC
  5
5499
  8
«ü˝u
 10
-376.8164862284674
 20
17.549492526278609
 30
0.0
 40
1.644659169866167
 50
199.47109100509471
 51
250.62804939167731
  0
ARC
  5
549A
  8
«ü˝u
 10
-376.8164862284674
 20
17.549492526278609
 30
0.0
 40
1.644659169866167
 50
289.55118240030379
 51
340.5458668438668
  0
LINE
  5
549B
  8
«ü˝u
 10
-377.3621669977523
 20
17.001400473207269
 30
0.0
 11
-377.36201857886323
 21
15.99794547907166
 31
0.0
  0
CIRCLE
  5
549C
  8
«ü˝u
 10
-376.8164862284674
 20
17.549492526278609
 30
0.0
 40
2.739789646400014
  0
LINE
  5
549D
  8
«ü˝u
 10
-376.26625121868148
 20
17.001562672566511
 30
0.0
 11
-376.26610302911388
 21
15.999659593703541
 31
0.0
  0
ARC
  5
549E
  8
«ü˝u
 10
-376.8164862284674
 20
17.549492526278609
 30
0.0
 40
1.644659169866167
 50
109.38889961061901
 51
160.54791732962431
  0
LINE
  5
549F
  8
«ü˝u
 10
-377.36247752726592
 20
19.100878128461741
 30
0.0
 11
-377.36232909267397
 21
18.097318451464389
 31
0.0
  0
LINE
  5
54A0
  8
«ü˝u
 10
-377.3621669977523
 20
17.001400473207269
 30
0.0
 11
-379.5008396409545
 21
17.001136231306099
 31
0.0
  0
LINE
  5
54A1
  8
«ü˝u
 10
-377.36232909267397
 20
18.097318451464389
 30
0.0
 11
-379.50100173587617
 21
18.097054209563481
 31
0.0
  0
ARC
  5
54A2
  8
«ü˝u
 10
-376.8164862284674
 20
17.549492526278609
 30
0.0
 40
1.644659169866167
 50
19.469040519251269
 51
83.221091041674285
  0
LINE
  5
54A3
  8
«ü˝u
 10
-376.26656151840439
 20
19.099488203139341
 30
0.0
 11
-376.26641331360349
 21
18.097480650823879
 31
0.0
  0
LINE
  5
54A4
  8
«ü˝u
 10
-376.26625121868148
 20
17.001562672566511
 30
0.0
 11
-374.13197072105862
 21
17.001930842993708
 31
0.0
  0
LINE
  5
54A5
  8
«ü˝u
 10
-376.26641331360349
 20
18.097480650823879
 30
0.0
 11
-374.13213281598053
 21
18.097848821251091
 31
0.0
  0
LINE
  5
54A6
  8
«ü˝u
 10
-376.26641331360349
 20
45.847480689035358
 30
0.0
 11
-374.13213281598053
 21
45.847848859462538
 31
0.0
  0
LINE
  5
54A7
  8
«ü˝u
 10
-376.26625121868148
 20
44.751562710777989
 30
0.0
 11
-374.13197072105862
 21
44.751930881205169
 31
0.0
  0
LINE
  5
54A8
  8
«ü˝u
 10
-376.26656151840439
 20
46.849488241350791
 30
0.0
 11
-376.26641331360349
 21
45.847480689035358
 31
0.0
  0
ARC
  5
54A9
  8
«ü˝u
 10
-376.8164862284674
 20
45.299492564490087
 30
0.0
 40
1.644659169866167
 50
19.469040519251269
 51
83.221091041674285
  0
LINE
  5
54AA
  8
«ü˝u
 10
-377.36232909267397
 20
45.847318489675871
 30
0.0
 11
-379.50100173587617
 21
45.847054247774963
 31
0.0
  0
LINE
  5
54AB
  8
«ü˝u
 10
-377.3621669977523
 20
44.751400511418751
 30
0.0
 11
-379.5008396409545
 21
44.751136269517588
 31
0.0
  0
LINE
  5
54AC
  8
«ü˝u
 10
-377.36247752726592
 20
46.850878166673219
 30
0.0
 11
-377.36232909267397
 21
45.847318489675871
 31
0.0
  0
ARC
  5
54AD
  8
«ü˝u
 10
-376.8164862284674
 20
45.299492564490087
 30
0.0
 40
1.644659169866167
 50
109.38889961061901
 51
160.54791732962431
  0
LINE
  5
54AE
  8
«ü˝u
 10
-376.26625121868148
 20
44.751562710777989
 30
0.0
 11
-376.26610302911388
 21
43.749659631914987
 31
0.0
  0
CIRCLE
  5
54AF
  8
«ü˝u
 10
-376.8164862284674
 20
45.299492564490087
 30
0.0
 40
2.739789646400014
  0
LINE
  5
54B0
  8
«ü˝u
 10
-377.3621669977523
 20
44.751400511418751
 30
0.0
 11
-377.36201857886323
 21
43.747945517283142
 31
0.0
  0
ARC
  5
54B1
  8
«ü˝u
 10
-376.8164862284674
 20
45.299492564490087
 30
0.0
 40
1.644659169866167
 50
289.55118240030379
 51
340.5458668438668
  0
ARC
  5
54B2
  8
«ü˝u
 10
-376.8164862284674
 20
45.299492564490087
 30
0.0
 40
1.644659169866167
 50
199.47109100509471
 51
250.62804939167731
  0
LINE
  5
54B3
  8
0
 10
-382.01648622901359
 20
47.899056168802389
 30
0.0
 11
-380.01648622901359
 21
49.89905616880236
 31
0.0
  0
LINE
  5
54B4
  8
0
 10
-380.01648622901359
 20
14.899056168802421
 30
0.0
 11
-382.51648622901359
 21
17.399056168802421
 31
0.0
  0
LINE
  5
54B5
  8
0
 10
-382.01648622901359
 20
47.899056168802389
 30
0.0
 11
-382.01648622901359
 21
16.899056168802389
 31
0.0
  0
LINE
  5
54B6
  8
«ü˝u
 10
-328.66641331469589
 20
18.09715818181499
 30
0.0
 11
-326.53213281707281
 21
18.097526352242198
 31
0.0
  0
LINE
  5
54B7
  8
«ü˝u
 10
-328.66625121977393
 20
17.001240203557611
 30
0.0
 11
-326.5319707221509
 21
17.001608373984819
 31
0.0
  0
LINE
  5
54B8
  8
«ü˝u
 10
-329.76232909376643
 20
18.096995982455489
 30
0.0
 11
-331.90100173696862
 21
18.096731740554588
 31
0.0
  0
LINE
  5
54B9
  8
«ü˝u
 10
-329.76216699884458
 20
17.00107800419838
 30
0.0
 11
-331.90083964204678
 21
17.000813762297209
 31
0.0
  0
LINE
  5
54BA
  8
«ü˝u
 10
-328.66625121977393
 20
17.001240203557611
 30
0.0
 11
-328.66610303020627
 21
15.999337124694639
 31
0.0
  0
LINE
  5
54BB
  8
«ü˝u
 10
-329.76216699884458
 20
17.00107800419838
 30
0.0
 11
-329.76201857995551
 21
15.997623010062769
 31
0.0
  0
LINE
  5
54BC
  8
«ü˝u
 10
-328.66656151949678
 20
19.099165734130452
 30
0.0
 11
-328.66641331469589
 21
18.09715818181499
 31
0.0
  0
LINE
  5
54BD
  8
«ü˝u
 10
-329.76247752835832
 20
19.10055565945288
 30
0.0
 11
-329.76232909376643
 21
18.096995982455489
 31
0.0
  0
CIRCLE
  5
54BE
  8
«ü˝u
 10
-329.21648622955979
 20
17.54917005726972
 30
0.0
 40
2.739789646400014
  0
ARC
  5
54BF
  8
«ü˝u
 10
-329.21648622955979
 20
17.54917005726972
 30
0.0
 40
1.644659169866167
 50
109.38889961061901
 51
160.54791732962431
  0
ARC
  5
54C0
  8
«ü˝u
 10
-329.21648622955979
 20
17.54917005726972
 30
0.0
 40
1.644659169866167
 50
19.469040519251269
 51
83.221091041674285
  0
ARC
  5
54C1
  8
«ü˝u
 10
-329.21648622955979
 20
17.54917005726972
 30
0.0
 40
1.644659169866167
 50
289.55118240030379
 51
340.5458668438668
  0
ARC
  5
54C2
  8
«ü˝u
 10
-329.21648622955979
 20
17.54917005726972
 30
0.0
 40
1.644659169866167
 50
199.47109100509471
 51
250.62804939167731
  0
ARC
  5
54C3
  8
«ü˝u
 10
-329.21648622955979
 20
45.299170095481202
 30
0.0
 40
1.644659169866167
 50
199.47109100509471
 51
250.62804939167731
  0
ARC
  5
54C4
  8
«ü˝u
 10
-329.21648622955979
 20
45.299170095481202
 30
0.0
 40
1.644659169866167
 50
289.55118240030379
 51
340.5458668438668
  0
ARC
  5
54C5
  8
«ü˝u
 10
-329.21648622955979
 20
45.299170095481202
 30
0.0
 40
1.644659169866167
 50
19.469040519251269
 51
83.221091041674285
  0
ARC
  5
54C6
  8
«ü˝u
 10
-329.21648622955979
 20
45.299170095481202
 30
0.0
 40
1.644659169866167
 50
109.38889961061901
 51
160.54791732962431
  0
CIRCLE
  5
54C7
  8
«ü˝u
 10
-329.21648622955979
 20
45.299170095481202
 30
0.0
 40
2.739789646400014
  0
LINE
  5
54C8
  8
«ü˝u
 10
-329.76247752835832
 20
46.850555697664333
 30
0.0
 11
-329.76232909376643
 21
45.846996020666978
 31
0.0
  0
LINE
  5
54C9
  8
«ü˝u
 10
-328.66656151949678
 20
46.849165772341898
 30
0.0
 11
-328.66641331469589
 21
45.847158220026472
 31
0.0
  0
LINE
  5
54CA
  8
«ü˝u
 10
-329.76216699884458
 20
44.751078042409858
 30
0.0
 11
-329.76201857995551
 21
43.747623048274249
 31
0.0
  0
LINE
  5
54CB
  8
«ü˝u
 10
-328.66625121977393
 20
44.751240241769089
 30
0.0
 11
-328.66610303020627
 21
43.74933716290613
 31
0.0
  0
LINE
  5
54CC
  8
«ü˝u
 10
-329.76216699884458
 20
44.751078042409858
 30
0.0
 11
-331.90083964204678
 21
44.750813800508688
 31
0.0
  0
LINE
  5
54CD
  8
«ü˝u
 10
-329.76232909376643
 20
45.846996020666978
 30
0.0
 11
-331.90100173696862
 21
45.84673177876607
 31
0.0
  0
LINE
  5
54CE
  8
«ü˝u
 10
-328.66625121977393
 20
44.751240241769089
 30
0.0
 11
-326.5319707221509
 21
44.751608412196269
 31
0.0
  0
LINE
  5
54CF
  8
«ü˝u
 10
-328.66641331469589
 20
45.847158220026472
 30
0.0
 11
-326.53213281707281
 21
45.847526390453652
 31
0.0
  0
LINE
  5
54D0
  8
0
 10
-326.01648622901359
 20
49.89905616880236
 30
0.0
 11
-324.01648622901359
 21
47.899056168802389
 31
0.0
  0
LINE
  5
54D1
  8
0
 10
-323.51648622901371
 20
17.399056168802272
 30
0.0
 11
-326.01648622901359
 21
14.899056168802421
 31
0.0
  0
LINE
  5
54D2
  8
0
 10
-324.01648622901359
 20
16.899056168802389
 30
0.0
 11
-324.01648622901359
 21
47.899056168802389
 31
0.0
  0
LINE
  5
54D3
  8
0
 10
-355.32588684421358
 20
48.399055500940108
 30
0.0
 11
-350.7070856138136
 21
48.399055500940108
 31
0.0
  0
LINE
  5
54D4
  8
¤¤¤ß˝u
 10
-353.01648622901359
 20
6.3525816369579209
 30
0.0
 11
-353.01648622901359
 21
59.551663383825598
 31
0.0
  0
POINT
  5
54D5
  8
0
 10
-343.25956979761361
 20
44.399056168940113
 30
0.0
1001
PNTFLAG
1000
endpoint
  0
LINE
  5
54D6
  8
0
 10
-346.7326666779137
 20
46.312857769240111
 30
0.0
 11
-346.68191202981359
 21
46.346320566540101
 31
0.0
  0
LINE
  5
54D7
  8
0
 10
-346.94518957561371
 20
42.462971421140139
 30
0.0
 11
-346.8968357200136
 21
42.460917988740107
 31
0.0
  0
LINE
  5
54D8
  8
0
 10
-346.7326666779137
 20
42.485253232640098
 30
0.0
 11
-346.68191202981359
 21
42.451790435340108
 31
0.0
  0
LINE
  5
54D9
  8
0
 10
-346.22969332591367
 20
44.399056168940113
 30
0.0
 11
-346.21091717891369
 21
44.897197208140142
 31
0.0
  0
LINE
  5
54DA
  8
0
 10
-344.63084976771358
 20
44.399056168940113
 30
0.0
 11
-344.61767546961369
 21
44.748592568540118
 31
0.0
  0
LINE
  5
54DB
  8
0
 10
-344.61767546961369
 20
44.049519769340087
 30
0.0
 11
-344.63084976771358
 21
44.399056168940113
 31
0.0
  0
LINE
  5
54DC
  8
0
 10
-346.21091717891369
 20
43.900913793740102
 30
0.0
 11
-346.22969332591367
 21
44.399056168940113
 31
0.0
  0
LINE
  5
54DD
  8
0
 10
-344.61767546961369
 20
44.748592568540118
 30
0.0
 11
-344.57865758341359
 21
45.084695485940102
 31
0.0
  0
LINE
  5
54DE
  8
0
 10
-346.21091717891369
 20
44.897197208140142
 30
0.0
 11
-346.1553128501136
 21
45.376196036340097
 31
0.0
  0
LINE
  5
54DF
  8
0
 10
-344.57865758341359
 20
43.713415515940078
 30
0.0
 11
-344.61767546961369
 21
44.049519769340087
 31
0.0
  0
LINE
  5
54E0
  8
0
 10
-346.1553128501136
 20
43.421914965540097
 30
0.0
 11
-346.21091717891369
 21
43.900913793740102
 31
0.0
  0
LINE
  5
54E1
  8
0
 10
-344.57865758341359
 20
45.084695485940102
 30
0.0
 11
-344.51529777331359
 21
45.394451143240097
 31
0.0
  0
LINE
  5
54E2
  8
0
 10
-346.1553128501136
 20
45.376196036340097
 30
0.0
 11
-346.06501526771359
 21
45.817643906440082
 31
0.0
  0
LINE
  5
54E3
  8
0
 10
-344.51529777331359
 20
43.403661194640101
 30
0.0
 11
-344.57865758341359
 21
43.713415515940078
 31
0.0
  0
LINE
  5
54E4
  8
0
 10
-346.06501526771359
 20
42.980467095340082
 30
0.0
 11
-346.1553128501136
 21
43.421914965540097
 31
0.0
  0
LINE
  5
54E5
  8
0
 10
-344.51529777331359
 20
45.394451143240097
 30
0.0
 11
-344.43003023171372
 21
45.665953106340112
 31
0.0
  0
LINE
  5
54E6
  8
0
 10
-346.06501526771359
 20
45.817643906440082
 30
0.0
 11
-345.94349536041358
 21
46.20457628804013
 31
0.0
  0
LINE
  5
54E7
  8
0
 10
-344.43003023171372
 20
43.132157895540097
 30
0.0
 11
-344.51529777331359
 21
43.403661194640101
 31
0.0
  0
LINE
  5
54E8
  8
0
 10
-345.94349536041358
 20
42.593536049840111
 30
0.0
 11
-346.06501526771359
 21
42.980467095340082
 31
0.0
  0
LINE
  5
54E9
  8
0
 10
-344.43003023171372
 20
45.665953106340112
 30
0.0
 11
-344.32613083121362
 21
45.888769885840127
 31
0.0
  0
LINE
  5
54EA
  8
0
 10
-345.94349536041358
 20
46.20457628804013
 30
0.0
 11
-345.79542244881361
 21
46.522122162540079
 31
0.0
  0
LINE
  5
54EB
  8
0
 10
-344.32613083121362
 20
42.909341116040139
 30
0.0
 11
-344.43003023171372
 21
43.132157895540097
 31
0.0
  0
LINE
  5
54EC
  8
0
 10
-344.32613083121362
 20
45.888769885840127
 30
0.0
 11
-344.20759287641363
 21
46.0543363841401
 31
0.0
  0
LINE
  5
54ED
  8
0
 10
-345.79542244881361
 20
42.275988839340087
 30
0.0
 11
-345.94349536041358
 21
42.593536049840111
 31
0.0
  0
LINE
  5
54EE
  8
0
 10
-347.33371580541359
 20
44.399056168940113
 30
0.0
 11
-347.31936849911358
 21
44.779734733440073
 31
0.0
  0
LINE
  5
54EF
  8
0
 10
-347.31936849911358
 20
44.018376268440079
 30
0.0
 11
-347.33371580541359
 21
44.399056168940113
 31
0.0
  0
LINE
  5
54F0
  8
0
 10
-347.31936849911358
 20
44.779734733440073
 30
0.0
 11
-347.27687434041371
 21
45.145784095640117
 31
0.0
  0
LINE
  5
54F1
  8
0
 10
-350.51178910271358
 20
44.399056168940113
 30
0.0
 11
-350.4897290672136
 21
44.984327133940091
 31
0.0
  0
LINE
  5
54F2
  8
0
 10
-350.4897290672136
 20
43.813785203840098
 30
0.0
 11
-350.51178910271358
 21
44.399056168940113
 31
0.0
  0
LINE
  5
54F3
  8
0
 10
-347.27687434041371
 20
43.652326906240113
 30
0.0
 11
-347.31936849911358
 21
44.018376268440079
 31
0.0
  0
LINE
  5
54F4
  8
0
 10
-347.27687434041371
 20
45.145784095640117
 30
0.0
 11
-347.20786992941362
 21
45.483137509340082
 31
0.0
  0
LINE
  5
54F5
  8
0
 10
-345.79542244881361
 20
46.522122162540079
 30
0.0
 11
-345.62648789401362
 21
46.758081176040093
 31
0.0
  0
LINE
  5
54F6
  8
0
 10
-344.20759287641363
 20
42.74377461774008
 30
0.0
 11
-344.32613083121362
 21
42.909341116040139
 31
0.0
  0
LINE
  5
54F7
  8
0
 10
-344.20759287641363
 20
46.0543363841401
 30
0.0
 11
-344.07897079191372
 21
46.156293240340119
 31
0.0
  0
LINE
  5
54F8
  8
0
 10
-350.4897290672136
 20
44.984327133940091
 30
0.0
 11
-350.42439865681371
 21
45.547106535440093
 31
0.0
  0
LINE
  5
54F9
  8
0
 10
-350.42439865681371
 20
43.251005802440091
 30
0.0
 11
-350.4897290672136
 21
43.813785203840098
 31
0.0
  0
LINE
  5
54FA
  8
0
 10
-347.20786992941362
 20
43.314973492540098
 30
0.0
 11
-347.27687434041371
 21
43.652326906240113
 31
0.0
  0
LINE
  5
54FB
  8
0
 10
-345.62648789401362
 20
42.040029825840122
 30
0.0
 11
-345.79542244881361
 21
42.275988839340087
 31
0.0
  0
LINE
  5
54FC
  8
0
 10
-347.20786992941362
 20
45.483137509340082
 30
0.0
 11
-347.11500455461362
 21
45.778830428340093
 31
0.0
  0
LINE
  5
54FD
  8
0
 10
-350.42439865681371
 20
45.547106535440093
 30
0.0
 11
-350.31830821601358
 21
46.065765865940079
 31
0.0
  0
LINE
  5
54FE
  8
0
 10
-350.31830821601358
 20
42.732345135940072
 30
0.0
 11
-350.42439865681371
 21
43.251005802440091
 31
0.0
  0
LINE
  5
54FF
  8
0
 10
-347.11500455461362
 20
43.019280573540129
 30
0.0
 11
-347.20786992941362
 21
43.314973492540098
 31
0.0
  0
LINE
  5
5500
  8
0
 10
-344.07897079191372
 20
46.156293240340119
 30
0.0
 11
-343.94520911471358
 21
46.190719293840118
 31
0.0
  0
LINE
  5
5501
  8
0
 10
-345.62648789401362
 20
46.758081176040093
 30
0.0
 11
-345.44318332081372
 21
46.903384559140079
 31
0.0
  0
LINE
  5
5502
  8
0
 10
-344.20759287641363
 20
42.74377461774008
 30
0.0
 11
-344.07897079191372
 21
42.641817761540104
 31
0.0
  0
LINE
  5
5503
  8
0
 10
-347.11500455461362
 20
45.778830428340093
 30
0.0
 11
-347.00184800871358
 21
46.021498834940132
 31
0.0
  0
LINE
  5
5504
  8
0
 10
-345.62648789401362
 20
42.040029825840122
 30
0.0
 11
-345.44318332081372
 21
41.894727778740098
 31
0.0
  0
LINE
  5
5505
  8
0
 10
-347.00184800871358
 20
42.776612166940112
 30
0.0
 11
-347.11500455461362
 21
43.019280573540129
 31
0.0
  0
LINE
  5
5506
  8
0
 10
-350.31830821601358
 20
46.065765865940079
 30
0.0
 11
-350.17553254531367
 21
46.520376010240113
 31
0.0
  0
LINE
  5
5507
  8
0
 10
-350.17553254531367
 20
42.277734991640102
 30
0.0
 11
-350.31830821601358
 21
42.732345135940072
 31
0.0
  0
LINE
  5
5508
  8
0
 10
-347.00184800871358
 20
46.021498834940132
 30
0.0
 11
-346.87274763611367
 21
46.201817447540122
 31
0.0
  0
LINE
  5
5509
  8
0
 10
-346.29722813661363
 20
46.577365771240089
 30
0.0
 11
-346.12796492571363
 21
46.711537600640099
 31
0.0
  0
LINE
  5
550A
  8
0
 10
-345.44318332081372
 20
46.903384559140079
 30
0.0
 11
-345.25255212251358
 21
46.952446494940091
 31
0.0
  0
LINE
  5
550B
  8
0
 10
-343.94520911471358
 20
46.190719293840118
 30
0.0
 11
-343.81144743741368
 21
46.156293240340119
 31
0.0
  0
LINE
  5
550C
  8
0
 10
-344.07897079191372
 20
42.641817761540104
 30
0.0
 11
-343.94520911471358
 21
42.607391708040097
 31
0.0
  0
LINE
  5
550D
  8
0
 10
-346.87274763611367
 20
42.596293554340093
 30
0.0
 11
-347.00184800871358
 21
42.776612166940112
 31
0.0
  0
LINE
  5
550E
  8
0
 10
-350.68939296301357
 20
44.399056168940113
 30
0.0
 11
-350.02656584961358
 21
47.399055333940098
 31
0.0
  0
LINE
  5
550F
  8
0
 10
-350.02656584961358
 20
41.399055667940097
 30
0.0
 11
-350.68939296301357
 21
44.399056168940113
 31
0.0
  0
LINE
  5
5510
  8
0
 10
-346.12796492571363
 20
46.711537600640099
 30
0.0
 11
-345.80193277791358
 21
46.876036634740103
 31
0.0
  0
LINE
  5
5511
  8
0
 10
-345.80193277791358
 20
46.876036634740103
 30
0.0
 11
-345.6133844039137
 21
46.924564170440078
 31
0.0
  0
LINE
  5
5512
  8
0
 10
-345.44318332081372
 20
41.894727778740098
 30
0.0
 11
-345.25255212251358
 21
41.845664506940089
 31
0.0
  0
LINE
  5
5513
  8
0
 10
-350.17553254531367
 20
46.520376010240113
 30
0.0
 11
-350.0015612696136
 21
46.893464757540073
 31
0.0
  0
LINE
  5
5514
  8
0
 10
-350.0015612696136
 20
41.904646244340078
 30
0.0
 11
-350.17553254531367
 21
42.277734991640102
 31
0.0
  0
LINE
  5
5515
  8
0
 10
-346.87274763611367
 20
46.201817447540122
 30
0.0
 11
-346.7326666779137
 21
46.312857769240111
 31
0.0
  0
LINE
  5
5516
  8
0
 10
-346.68191202981359
 20
46.346320566540101
 30
0.0
 11
-346.12796492571363
 21
46.711537600640099
 31
0.0
  0
LINE
  5
5517
  8
0
 10
-345.80193277791358
 20
41.922074367140112
 30
0.0
 11
-345.6133844039137
 21
41.873548167340111
 31
0.0
  0
LINE
  5
5518
  8
0
 10
-346.12796492571363
 20
42.086573401240123
 30
0.0
 11
-345.80193277791358
 21
41.922074367140112
 31
0.0
  0
LINE
  5
5519
  8
0
 10
-346.87274763611367
 20
42.596293554340093
 30
0.0
 11
-346.7326666779137
 21
42.485253232640098
 31
0.0
  0
LINE
  5
551A
  8
0
 10
-345.6133844039137
 20
46.924564170440078
 30
0.0
 11
-345.25255212251358
 21
46.952446494940091
 31
0.0
  0
LINE
  5
551B
  8
0
 10
-345.25255212251358
 20
46.952446494940091
 30
0.0
 11
-345.06192226021358
 21
46.903384559140079
 31
0.0
  0
LINE
  5
551C
  8
0
 10
-343.81144743741368
 20
46.156293240340119
 30
0.0
 11
-343.68282668891362
 21
46.0543363841401
 31
0.0
  0
LINE
  5
551D
  8
0
 10
-345.06192226021358
 20
46.903384559140079
 30
0.0
 11
-343.81144743741368
 21
46.156293240340119
 31
0.0
  0
LINE
  5
551E
  8
0
 10
-343.94520911471358
 20
42.607391708040097
 30
0.0
 11
-343.81144743741368
 21
42.641817761540104
 31
0.0
  0
LINE
  5
551F
  8
0
 10
-346.68191202981359
 20
42.451790435340108
 30
0.0
 11
-346.12796492571363
 21
42.086573401240123
 31
0.0
  0
LINE
  5
5520
  8
0
 10
-345.6133844039137
 20
41.873548167340111
 30
0.0
 11
-345.25255212251358
 21
41.845664506940089
 31
0.0
  0
LINE
  5
5521
  8
0
 10
-345.25255212251358
 20
41.845664506940089
 30
0.0
 11
-345.06192226021358
 21
41.894727778740098
 31
0.0
  0
LINE
  5
5522
  8
0
 10
-350.0015612696136
 20
46.893464757540073
 30
0.0
 11
-349.8030783981136
 21
47.170694153640113
 31
0.0
  0
LINE
  5
5523
  8
0
 10
-349.8030783981136
 20
41.627416848240102
 30
0.0
 11
-350.0015612696136
 21
41.904646244340078
 31
0.0
  0
LINE
  5
5524
  8
0
 10
-351.71498020601359
 20
41.399055667940097
 30
0.0
 11
-352.37780731941359
 21
44.399056168940113
 31
0.0
  0
LINE
  5
5525
  8
0
 10
-352.37780731941359
 20
44.399056168940113
 30
0.0
 11
-350.68939296301357
 21
44.399056168940113
 31
0.0
  0
LINE
  5
5526
  8
0
 10
-352.37780731941359
 20
44.399056168940113
 30
0.0
 11
-351.71498020601359
 21
47.399055333940098
 31
0.0
  0
LINE
  5
5527
  8
0
 10
-343.56428873411357
 20
45.888769885840127
 30
0.0
 11
-343.68282668891362
 21
46.0543363841401
 31
0.0
  0
LINE
  5
5528
  8
0
 10
-343.81144743741368
 20
42.641817761540104
 30
0.0
 11
-343.68282668891362
 21
42.74377461774008
 31
0.0
  0
LINE
  5
5529
  8
0
 10
-345.06192226021358
 20
41.894727778740098
 30
0.0
 11
-343.81144743741368
 21
42.641817761540104
 31
0.0
  0
LINE
  5
552A
  8
0
 10
-346.8968357200136
 20
46.337194349140077
 30
0.0
 11
-346.68191202981359
 21
46.346320566540101
 31
0.0
  0
LINE
  5
552B
  8
0
 10
-346.8968357200136
 20
42.460917988740107
 30
0.0
 11
-346.68191202981359
 21
42.451790435340108
 31
0.0
  0
LINE
  5
552C
  8
0
 10
-349.8030783981136
 20
47.170694153640113
 30
0.0
 11
-349.58771249181359
 21
47.341410932740096
 31
0.0
  0
LINE
  5
552D
  8
0
 10
-349.8030783981136
 20
41.627416848240102
 30
0.0
 11
-349.58771249181359
 21
41.45670006914014
 31
0.0
  0
LINE
  5
552E
  8
0
 10
-343.4603893336137
 20
45.665953106340112
 30
0.0
 11
-343.56428873411357
 21
45.888769885840127
 31
0.0
  0
LINE
  5
552F
  8
0
 10
-343.68282668891362
 20
42.74377461774008
 30
0.0
 11
-343.56428873411357
 21
42.909341116040139
 31
0.0
  0
LINE
  5
5530
  8
0
 10
-347.1379583743136
 20
46.435596108740093
 30
0.0
 11
-346.8968357200136
 21
46.337194349140077
 31
0.0
  0
LINE
  5
5531
  8
0
 10
-347.1379583743136
 20
42.362514893140087
 30
0.0
 11
-346.8968357200136
 21
42.460917988740107
 31
0.0
  0
LINE
  5
5532
  8
0
 10
-343.37512045601358
 20
45.394451143240097
 30
0.0
 11
-343.4603893336137
 21
45.665953106340112
 31
0.0
  0
LINE
  5
5533
  8
0
 10
-343.56428873411357
 20
42.909341116040139
 30
0.0
 11
-343.4603893336137
 21
43.132157895540097
 31
0.0
  0
LINE
  5
5534
  8
0
 10
-349.58771249181359
 20
47.341410932740096
 30
0.0
 11
-349.36373873621358
 21
47.399055333940098
 31
0.0
  0
LINE
  5
5535
  8
0
 10
-349.58771249181359
 20
41.45670006914014
 30
0.0
 11
-349.36373873621358
 21
41.399055667940097
 31
0.0
  0
LINE
  5
5536
  8
0
 10
-343.31176064591358
 20
45.084695485940102
 30
0.0
 11
-343.37512045601358
 21
45.394451143240097
 31
0.0
  0
LINE
  5
5537
  8
0
 10
-344.21974379831357
 20
42.760747164440119
 30
0.0
 11
-344.21784534201367
 21
42.761675684540108
 31
0.0
  0
LINE
  5
5538
  8
0
 10
-343.4603893336137
 20
43.132157895540097
 30
0.0
 11
-343.37512045601358
 21
43.403661194640101
 31
0.0
  0
LINE
  5
5539
  8
0
 10
-343.27274409571362
 20
44.748592568540118
 30
0.0
 11
-343.31176064591358
 21
45.084695485940102
 31
0.0
  0
LINE
  5
553A
  8
0
 10
-343.37512045601358
 20
43.403661194640101
 30
0.0
 11
-343.31176064591358
 21
43.713415515940078
 31
0.0
  0
LINE
  5
553B
  8
0
 10
-349.13976498061362
 20
47.341410932740096
 30
0.0
 11
-347.1379583743136
 21
46.435596108740093
 31
0.0
  0
LINE
  5
553C
  8
0
 10
-349.36373873621358
 20
47.399055333940098
 30
0.0
 11
-349.13976498061362
 21
47.341410932740096
 31
0.0
  0
LINE
  5
553D
  8
0
 10
-349.36373873621358
 20
41.399055667940097
 30
0.0
 11
-349.13976498061362
 21
41.45670006914014
 31
0.0
  0
LINE
  5
553E
  8
0
 10
-343.25956979761361
 20
44.399056168940113
 30
0.0
 11
-343.27274409571362
 21
44.748592568540118
 31
0.0
  0
LINE
  5
553F
  8
0
 10
-343.31176064591358
 20
43.713415515940078
 30
0.0
 11
-343.27274409571362
 21
44.049519769340087
 31
0.0
  0
LINE
  5
5540
  8
0
 10
-343.27274409571362
 20
44.049519769340087
 30
0.0
 11
-343.25956979761361
 21
44.399056168940113
 31
0.0
  0
LINE
  5
5541
  8
0
 10
-349.13976498061362
 20
41.45670006914014
 30
0.0
 11
-347.1379583743136
 21
42.362514893140087
 31
0.0
  0
LINE
  5
5542
  8
0
 10
-351.71498020601359
 20
47.399055333940098
 30
0.0
 11
-348.70091162281358
 21
47.399055333940098
 31
0.0
  0
LINE
  5
5543
  8
0
 10
-348.70091162281358
 20
41.399055667940097
 30
0.0
 11
-348.63801273281359
 21
41.683742617240107
 31
0.0
  0
LINE
  5
5544
  8
0
 10
-348.63801273281359
 20
47.114368384640102
 30
0.0
 11
-348.70091162281358
 21
47.399055333940098
 31
0.0
  0
LINE
  5
5545
  8
0
 10
-351.71498020601359
 20
41.399055667940097
 30
0.0
 11
-348.70091162281358
 21
41.399055667940097
 31
0.0
  0
LINE
  5
5546
  8
0
 10
-350.12973445801367
 20
41.399055667940097
 30
0.0
 11
-350.70708427781358
 21
40.399055500940108
 31
0.0
  0
LINE
  5
5547
  8
0
 10
-350.70708427781358
 20
40.399055500940108
 30
0.0
 11
-355.32588684421358
 21
40.399055500940108
 31
0.0
  0
LINE
  5
5548
  8
0
 10
-357.63528745941358
 20
44.399056168940113
 30
0.0
 11
-355.32588684421358
 21
40.399055500940108
 31
0.0
  0
LINE
  5
5549
  8
0
 10
-355.32588684421358
 20
48.399055500940108
 30
0.0
 11
-357.63528745941358
 21
44.399056168940113
 31
0.0
  0
LINE
  5
554A
  8
0
 10
-355.32588684421358
 20
48.399055500940108
 30
0.0
 11
-350.7070856138136
 21
48.399055500940108
 31
0.0
  0
LINE
  5
554B
  8
0
 10
-350.12973445801367
 20
47.399055333940098
 30
0.0
 11
-350.7070856138136
 21
48.399055500940108
 31
0.0
  0
ARC
  5
554C
  8
0
 10
-353.01648622901359
 20
44.399056168940113
 30
0.0
 40
3.999999331999998
 50
48.590377998899569
 51
311.4096220031991
  0
POLYLINE
  5
554D
  8
0
 66
     1
 10
0.0
 20
0.0
 30
0.0
  0
VERTEX
  5
5758
  8
0
 10
-344.0647985017136
 20
44.399056168940092
 30
0.0
  0
VERTEX
  5
5759
  8
0
 10
-344.03125020031359
 20
44.182018926440087
 30
0.0
  0
VERTEX
  5
575A
  8
0
 10
-343.99835921111361
 20
44.119114692440121
 30
0.0
  0
VERTEX
  5
575B
  8
0
 10
-343.96178887731372
 20
44.089573055740118
 30
0.0
  0
VERTEX
  5
575C
  8
0
 10
-343.92781171991362
 20
44.089880335740112
 30
0.0
  0
VERTEX
  5
575D
  8
0
 10
-343.89131887411361
 20
44.120084628540098
 30
0.0
  0
VERTEX
  5
575E
  8
0
 10
-343.85997497311359
 20
44.179854606040088
 30
0.0
  0
VERTEX
  5
575F
  8
0
 10
-343.83058831241362
 20
44.309927586740109
 30
0.0
  0
VERTEX
  5
5760
  8
0
 10
-343.8256210636136
 20
44.399056168940092
 30
0.0
  0
VERTEX
  5
5761
  8
0
 10
-343.85916802901357
 20
44.616092075440093
 30
0.0
  0
VERTEX
  5
5762
  8
0
 10
-343.8920603542137
 20
44.678996309440087
 30
0.0
  0
VERTEX
  5
5763
  8
0
 10
-343.92863068801358
 20
44.708537946140098
 30
0.0
  0
VERTEX
  5
5764
  8
0
 10
-343.9626065094136
 20
44.708230666040087
 30
0.0
  0
VERTEX
  5
5765
  8
0
 10
-343.9991006912137
 20
44.678026373240101
 30
0.0
  0
VERTEX
  5
5766
  8
0
 10
-344.03044325621369
 20
44.618256395740097
 30
0.0
  0
VERTEX
  5
5767
  8
0
 10
-344.05983125291363
 20
44.488183415140099
 30
0.0
  0
VERTEX
  5
5768
  8
0
 10
-344.0647985017136
 20
44.399056168940092
 30
0.0
  0
SEQEND
  5
5769
  8
0
  0
LINE
  5
554E
  8
0
 10
-326.01648622901359
 20
49.89905616880236
 30
0.0
 11
-380.01648622901359
 21
49.89905616880236
 31
0.0
  0
LINE
  5
554F
  8
0
 10
-380.01648622901359
 20
14.899056168802421
 30
0.0
 11
-366.31616451411719
 21
14.899056168802421
 31
0.0
  0
LINE
  5
5550
  8
0
 10
-326.01648622901359
 20
14.899056168802421
 30
0.0
 11
-339.71680794390988
 21
14.899056168802421
 31
0.0
  0
LINE
  5
5551
  8
¤¤¤ß˝u
 10
-333.01648622901359
 20
36.404227721652717
 30
0.0
 11
-333.01648622901359
 21
56.749320053028953
 31
0.0
  0
LINE
  5
5552
  8
¤¤¤ß˝u
 10
-373.01648622901371
 20
36.40422772165266
 30
0.0
 11
-373.01648622901371
 21
56.749320053028889
 31
0.0
  0
LINE
  5
5553
  8
0
 10
-358.01648622901359
 20
53.89905616880241
 30
0.0
 11
-358.51648622901359
 21
53.39905616880241
 31
0.0
  0
LINE
  5
5554
  8
0
 10
-358.51648622901359
 20
53.39905616880241
 30
0.0
 11
-358.01648622901359
 21
53.89905616880241
 31
0.0
  0
LINE
  5
5555
  8
0
 10
-358.01648622901359
 20
53.89905616880241
 30
0.0
 11
-358.51648622901359
 21
53.39905616880241
 31
0.0
  0
LINE
  5
5556
  8
0
 10
-348.01648622901359
 20
53.89905616880241
 30
0.0
 11
-347.51648622901359
 21
53.39905616880241
 31
0.0
  0
LINE
  5
5557
  8
0
 10
-358.01648622901359
 20
53.89905616880241
 30
0.0
 11
-348.01648622901359
 21
53.89905616880241
 31
0.0
  0
LINE
  5
5558
  8
µę˝u
 10
-328.2137084512359
 20
53.89905616880241
 30
0.0
 11
-329.01648622901359
 21
53.049056168802387
 31
0.0
  0
LINE
  5
5559
  8
0
 10
-324.51648622901371
 20
53.89905616880241
 30
0.0
 11
-323.01648622901371
 21
52.39905616880236
 31
0.0
  0
LINE
  5
555A
  8
0
 10
-339.01648622901371
 20
53.89905616880241
 30
0.0
 11
-339.51648622901371
 21
53.39905616880241
 31
0.0
  0
LINE
  5
555B
  8
0
 10
-339.51648622901371
 20
53.39905616880241
 30
0.0
 11
-347.51648622901359
 21
53.39905616880241
 31
0.0
  0
LINE
  5
555C
  8
µę˝u
 10
-337.81926400679129
 20
53.89905616880241
 30
0.0
 11
-337.01648622901359
 21
53.049056168802387
 31
0.0
  0
LINE
  5
555D
  8
0
 10
-339.01648622901371
 20
53.89905616880241
 30
0.0
 11
-324.51648622901371
 21
53.89905616880241
 31
0.0
  0
LINE
  5
555E
  8
µę˝u
 10
-329.01648622901359
 20
53.049056168802387
 30
0.0
 11
-337.01648622901359
 21
53.049056168802387
 31
0.0
  0
LINE
  5
555F
  8
µę˝u
 10
-329.61648622901362
 20
40.14905616880241
 30
0.0
 11
-333.01648622901359
 21
38.857576893246339
 31
0.0
  0
LINE
  5
5560
  8
0
 10
-323.01648622901371
 20
45.399056168802417
 30
0.0
 11
-323.51648622901371
 21
44.899056168802417
 31
0.0
  0
LINE
  5
5561
  8
µę˝u
 10
-333.01648622901359
 20
38.857576893246339
 30
0.0
 11
-336.41648622901363
 21
40.14905616880241
 31
0.0
  0
LINE
  5
5562
  8
µę˝u
 10
-329.01648622901359
 20
43.89905616880241
 30
0.0
 11
-337.01648622901359
 21
43.89905616880241
 31
0.0
  0
LINE
  5
5563
  8
µę˝u
 10
-329.97648622901357
 20
40.14905616880241
 30
0.0
 11
-336.05648622901361
 21
40.14905616880241
 31
0.0
  0
LINE
  5
5564
  8
0
 10
-323.51648622901371
 20
17.399056168802272
 30
0.0
 11
-323.51648622901371
 21
44.899056168802417
 31
0.0
  0
LINE
  5
5565
  8
µę˝u
 10
-329.01648622901359
 20
53.049056168802387
 30
0.0
 11
-329.01648622901359
 21
43.89905616880241
 31
0.0
  0
LINE
  5
5566
  8
µę˝u
 10
-337.01648622901359
 20
43.89905616880241
 30
0.0
 11
-337.01648622901359
 21
53.049056168802387
 31
0.0
  0
LINE
  5
5567
  8
µę˝u
 10
-329.61648622901362
 20
53.049056168802387
 30
0.0
 11
-329.61648622901362
 21
40.14905616880241
 31
0.0
  0
LINE
  5
5568
  8
µę˝u
 10
-336.41648622901363
 20
40.14905616880241
 30
0.0
 11
-336.41648622901363
 21
53.049056168802387
 31
0.0
  0
LINE
  5
5569
  8
0
 10
-323.01648622901371
 20
45.399056168802417
 30
0.0
 11
-323.01648622901371
 21
52.39905616880236
 31
0.0
  0
LINE
  5
556A
  8
µę˝u
 10
-377.81926400679129
 20
53.89905616880241
 30
0.0
 11
-377.01648622901359
 21
53.049056168802387
 31
0.0
  0
LINE
  5
556B
  8
µę˝u
 10
-368.2137084512359
 20
53.89905616880241
 30
0.0
 11
-369.01648622901359
 21
53.049056168802387
 31
0.0
  0
LINE
  5
556C
  8
µę˝u
 10
-377.01648622901359
 20
53.049056168802387
 30
0.0
 11
-369.01648622901359
 21
53.049056168802387
 31
0.0
  0
LINE
  5
556D
  8
0
 10
-367.01648622901359
 20
53.89905616880241
 30
0.0
 11
-366.51648622901359
 21
53.39905616880241
 31
0.0
  0
LINE
  5
556E
  8
0
 10
-358.51648622901359
 20
53.39905616880241
 30
0.0
 11
-366.51648622901359
 21
53.39905616880241
 31
0.0
  0
LINE
  5
556F
  8
µę˝u
 10
-373.01648622901359
 20
38.857576893246339
 30
0.0
 11
-369.61648622901362
 21
40.14905616880241
 31
0.0
  0
LINE
  5
5570
  8
µę˝u
 10
-376.05648622901361
 20
40.14905616880241
 30
0.0
 11
-369.97648622901357
 21
40.14905616880241
 31
0.0
  0
LINE
  5
5571
  8
µę˝u
 10
-376.41648622901363
 20
40.14905616880241
 30
0.0
 11
-373.01648622901359
 21
38.857576893246339
 31
0.0
  0
LINE
  5
5572
  8
µę˝u
 10
-377.01648622901359
 20
43.89905616880241
 30
0.0
 11
-369.01648622901359
 21
43.89905616880241
 31
0.0
  0
LINE
  5
5573
  8
µę˝u
 10
-369.01648622901359
 20
43.89905616880241
 30
0.0
 11
-369.01648622901359
 21
53.049056168802387
 31
0.0
  0
LINE
  5
5574
  8
µę˝u
 10
-369.61648622901362
 20
40.14905616880241
 30
0.0
 11
-369.61648622901362
 21
53.049056168802387
 31
0.0
  0
LINE
  5
5575
  8
µę˝u
 10
-376.41648622901363
 20
53.049056168802387
 30
0.0
 11
-376.41648622901363
 21
40.14905616880241
 31
0.0
  0
LINE
  5
5576
  8
µę˝u
 10
-377.01648622901359
 20
53.049056168802387
 30
0.0
 11
-377.01648622901359
 21
43.89905616880241
 31
0.0
  0
LINE
  5
5577
  8
0
 10
-381.51648622901359
 20
53.89905616880241
 30
0.0
 11
-383.01648622901359
 21
52.399056168802531
 31
0.0
  0
LINE
  5
5578
  8
0
 10
-383.01648622901359
 20
35.899056168802417
 30
0.0
 11
-382.51648622901359
 21
35.399056168802417
 31
0.0
  0
LINE
  5
5579
  8
0
 10
-382.51648622901359
 20
17.399056168802421
 30
0.0
 11
-382.51648622901359
 21
35.399056168802417
 31
0.0
  0
LINE
  5
557A
  8
0
 10
-383.01648622901359
 20
35.899056168802417
 30
0.0
 11
-383.01648622901359
 21
52.399056168802531
 31
0.0
  0
LINE
  5
557B
  8
0
 10
-381.51648622901359
 20
53.89905616880241
 30
0.0
 11
-367.01648622901359
 21
53.89905616880241
 31
0.0
  0
LINE
  5
557C
  8
0
 10
-83.859766586596663
 20
34.899530406009937
 30
0.0
 11
-115.3814445655009
 21
34.899530406009937
 31
0.0
  0
LINE
  5
557D
  8
0
 10
-83.859766586596564
 20
8.8995304060099443
 30
0.0
 11
-283.85976658659661
 21
8.8995304060099443
 31
0.0
  0
LINE
  5
557E
  8
0
 10
-270.85976658659661
 20
33.999530406010081
 30
0.0
 11
-271.379381828867
 21
34.899530406009937
 31
0.0
  0
LINE
  5
557F
  8
0
 10
-283.85976658659661
 20
8.8995304060099443
 30
0.0
 11
-283.85976658659661
 21
34.899530406009937
 31
0.0
  0
LINE
  5
5580
  8
µę˝u
 10
-96.859766586596663
 20
33.999530406010081
 30
0.0
 11
-110.85976658659651
 21
33.999530406010081
 31
0.0
  0
LINE
  5
5581
  8
µę˝u
 10
-99.359766586596663
 20
9.2995304060100068
 30
0.0
 11
-108.35976658659651
 21
9.2995304060100068
 31
0.0
  0
LINE
  5
5582
  8
µę˝u
 10
-99.359766586596663
 20
22.099530406010022
 30
0.0
 11
-108.35976658659651
 21
22.099530406010022
 31
0.0
  0
LINE
  5
5583
  8
µę˝u
 10
-96.859766586596663
 20
22.39953040601003
 30
0.0
 11
-110.85976658659651
 21
22.39953040601003
 31
0.0
  0
LINE
  5
5584
  8
0
 10
-83.859766586596564
 20
10.399530406009941
 30
0.0
 11
-245.39347847103869
 21
10.399530406009941
 31
0.0
  0
LINE
  5
5585
  8
0
 10
-83.859766586596663
 20
14.19920870601473
 30
0.0
 11
-246.43477257564089
 21
14.19920870601473
 31
0.0
  0
LINE
  5
5586
  8
0
 10
-83.859766586596663
 20
18.89920860600995
 30
0.0
 11
-115.3814445655013
 21
18.899208606009982
 31
0.0
  0
LINE
  5
5587
  8
0
 10
-83.859766586596663
 20
23.079273441269599
 30
0.0
 11
-115.3814445655011
 21
23.07927344126966
 31
0.0
  0
LINE
  5
5588
  8
0
 10
-83.859766586596663
 20
23.69315763106351
 30
0.0
 11
-115.3814445655011
 21
23.69315763106351
 31
0.0
  0
LINE
  5
5589
  8
0
 10
-83.859766586596663
 20
26.194728051798279
 30
0.0
 11
-115.381444565501
 21
26.194728051798311
 31
0.0
  0
LINE
  5
558A
  8
0
 10
-83.859766586596663
 20
27.779271066678412
 30
0.0
 11
-115.381444565501
 21
27.779271066678412
 31
0.0
  0
LINE
  5
558B
  8
0
 10
-83.859766586596663
 20
30.013939719334392
 30
0.0
 11
-115.381444565501
 21
30.013939719334449
 31
0.0
  0
LINE
  5
558C
  8
0
 10
-83.859766586596663
 20
31.604793229572671
 30
0.0
 11
-115.3814445655009
 21
31.604793229572671
 31
0.0
  0
LINE
  5
558D
  8
0
 10
-83.859766586596663
 20
34.099346586467512
 30
0.0
 11
-115.3814445655009
 21
34.099346586467561
 31
0.0
  0
LINE
  5
558E
  8
¤¤¤ß˝u
 10
-263.85976658659672
 20
6.2995304060100628
 30
0.0
 11
-263.85976658659672
 21
35.899530406010058
 31
0.0
  0
LINE
  5
558F
  8
«Řşc˝u
 10
-246.49236206123391
 20
25.015987936391529
 30
0.0
 11
-245.70587551306099
 21
22.279273441269741
 31
0.0
  0
LINE
  5
5590
  8
0
 10
-270.85976658659661
 20
22.39953040601003
 30
0.0
 11
-270.85976658659661
 21
33.999530406010081
 31
0.0
  0
LINE
  5
5591
  8
0
 10
-256.85976658659672
 20
22.39953040601003
 30
0.0
 11
-256.85976658659672
 21
33.999530406010081
 31
0.0
  0
LINE
  5
5592
  8
¤¤¤ß˝u
 10
-263.85976658659672
 20
6.2995304060100628
 30
0.0
 11
-263.85976658659672
 21
35.899530406010058
 31
0.0
  0
LINE
  5
5593
  8
0
 10
-268.35976658659661
 20
9.2995304060100068
 30
0.0
 11
-268.35976658659661
 21
22.099530406010022
 31
0.0
  0
LINE
  5
5594
  8
0
 10
-259.35976658659672
 20
9.2995304060100068
 30
0.0
 11
-259.35976658659672
 21
22.099530406010022
 31
0.0
  0
LINE
  5
5595
  8
0
 10
-259.35976658659672
 20
9.2995304060100068
 30
0.0
 11
-268.35976658659661
 21
9.2995304060100068
 31
0.0
  0
LINE
  5
5596
  8
0
 10
-268.75976658659658
 20
8.8995304060100295
 30
0.0
 11
-268.35976658659661
 21
9.2995304060100068
 31
0.0
  0
LINE
  5
5597
  8
0
 10
-258.95976658659657
 20
8.8995304060100295
 30
0.0
 11
-259.35976658659672
 21
9.2995304060100068
 31
0.0
  0
LINE
  5
5598
  8
0
 10
-259.35976658659672
 20
22.099530406010022
 30
0.0
 11
-268.35976658659661
 21
22.099530406010022
 31
0.0
  0
LINE
  5
5599
  8
0
 10
-256.85976658659672
 20
22.39953040601003
 30
0.0
 11
-270.85976658659661
 21
22.39953040601003
 31
0.0
  0
LINE
  5
559A
  8
0
 10
-268.65976658659662
 20
22.39953040601003
 30
0.0
 11
-268.35976658659661
 21
22.099530406010022
 31
0.0
  0
LINE
  5
559B
  8
0
 10
-259.05976658659671
 20
22.39953040601003
 30
0.0
 11
-259.35976658659672
 21
22.099530406010022
 31
0.0
  0
LINE
  5
559C
  8
«Řşc˝u
 10
-247.50355961053529
 20
18.09920860601008
 30
0.0
 11
-245.2564544886925
 21
9.8995304060100295
 31
0.0
  0
LINE
  5
559D
  8
«Řşc˝u
 10
-245.2564544886925
 20
9.8995304060100011
 30
0.0
 11
-246.26765203799391
 21
8.8995304060099443
 31
0.0
  0
LINE
  5
559E
  8
«Řşc˝u
 10
-245.70587551306099
 20
22.279273441269741
 30
0.0
 11
-247.50355961053529
 21
18.09920860601008
 31
0.0
  0
LINE
  5
559F
  8
0
 10
-256.85976658659672
 20
33.999530406010081
 30
0.0
 11
-270.85976658659661
 21
33.999530406010081
 31
0.0
  0
LINE
  5
55A0
  8
0
 10
-256.3401513443261
 20
34.899530406009937
 30
0.0
 11
-256.85976658659672
 21
33.999530406010081
 31
0.0
  0
LINE
  5
55A1
  8
«Řşc˝u
 10
-245.77501210524801
 20
34.899530406009937
 30
0.0
 11
-246.15529653742951
 21
32.919075740830984
 31
0.0
  0
LINE
  5
55A2
  8
«Řşc˝u
 10
-245.36880998925679
 20
27.279270428725429
 30
0.0
 11
-246.49236206123391
 21
25.015987936391529
 31
0.0
  0
LINE
  5
55A3
  8
«Řşc˝u
 10
-244.58232246319531
 20
31.185064405674151
 30
0.0
 11
-246.1881181443608
 21
28.913940350108849
 31
0.0
  0
LINE
  5
55A4
  8
«Řşc˝u
 10
-246.1881181443608
 20
28.913940350108849
 30
0.0
 11
-245.36880998925679
 21
27.279270428725429
 31
0.0
  0
LINE
  5
55A5
  8
«Řşc˝u
 10
-246.15529653742951
 20
32.919075740830984
 30
0.0
 11
-244.58232246319531
 21
31.185064405674151
 31
0.0
  0
LINE
  5
55A6
  8
¤¤¤ß˝u
 10
-183.85976658659669
 20
6.2995304060100628
 30
0.0
 11
-183.85976658659669
 21
16.074520171256719
 31
0.0
  0
LINE
  5
55A7
  8
µę˝u
 10
-188.35976658659661
 20
9.2995304060100068
 30
0.0
 11
-188.35976658659661
 21
14.900004643217439
 31
0.0
  0
LINE
  5
55A8
  8
µę˝u
 10
-179.35976658659661
 20
9.2995304060100068
 30
0.0
 11
-179.35976658659661
 21
14.900004643217381
 31
0.0
  0
LINE
  5
55A9
  8
µę˝u
 10
-179.35976658659661
 20
9.2995304060100068
 30
0.0
 11
-188.35976658659661
 21
9.2995304060100068
 31
0.0
  0
LINE
  5
55AA
  8
µę˝u
 10
-188.75976658659661
 20
8.8995304060100295
 30
0.0
 11
-188.35976658659661
 21
9.2995304060100068
 31
0.0
  0
LINE
  5
55AB
  8
µę˝u
 10
-178.95976658659669
 20
8.8995304060100295
 30
0.0
 11
-179.35976658659661
 21
9.2995304060100068
 31
0.0
  0
LINE
  5
55AC
  8
µę˝u
 10
-110.85976658659651
 20
22.39953040601003
 30
0.0
 11
-110.85976658659651
 21
33.999530406010081
 31
0.0
  0
LINE
  5
55AD
  8
µę˝u
 10
-108.35976658659651
 20
9.2995304060100068
 30
0.0
 11
-108.35976658659651
 21
22.099530406010022
 31
0.0
  0
LINE
  5
55AE
  8
µę˝u
 10
-108.7597665865966
 20
8.8995304060100295
 30
0.0
 11
-108.35976658659651
 21
9.2995304060100068
 31
0.0
  0
LINE
  5
55AF
  8
µę˝u
 10
-108.6597665865966
 20
22.39953040601003
 30
0.0
 11
-108.35976658659651
 21
22.099530406010022
 31
0.0
  0
LINE
  5
55B0
  8
µę˝u
 10
-110.85976658659651
 20
33.999530406010081
 30
0.0
 11
-111.0907066942723
 21
34.399530406010058
 31
0.0
  0
LINE
  5
55B1
  8
µę˝u
 10
-96.859766586596663
 20
22.39953040601003
 30
0.0
 11
-96.859766586596663
 21
33.999530406010081
 31
0.0
  0
LINE
  5
55B2
  8
0
 10
-83.859766586596564
 20
8.8995304060100011
 30
0.0
 11
-83.859766586596663
 21
34.899530406009937
 31
0.0
  0
LINE
  5
55B3
  8
µę˝u
 10
-99.359766586596663
 20
9.2995304060100068
 30
0.0
 11
-99.359766586596663
 21
22.099530406010022
 31
0.0
  0
LINE
  5
55B4
  8
µę˝u
 10
-98.959766586596615
 20
8.8995304060100295
 30
0.0
 11
-99.359766586596663
 21
9.2995304060100068
 31
0.0
  0
LINE
  5
55B5
  8
µę˝u
 10
-99.059766586596666
 20
22.39953040601003
 30
0.0
 11
-99.359766586596663
 21
22.099530406010022
 31
0.0
  0
LINE
  5
55B6
  8
µę˝u
 10
-96.628826478920885
 20
34.399530406010058
 30
0.0
 11
-96.859766586596663
 21
33.999530406010081
 31
0.0
  0
LINE
  5
55B7
  8
¤¤¤ß˝u
 10
-103.85976658659661
 20
6.2995304060100628
 30
0.0
 11
-103.85976658659661
 21
35.899530406010058
 31
0.0
  0
LINE
  5
55B8
  8
0
 10
-235.78144456550149
 20
34.099346586467512
 30
0.0
 11
-245.92866240323551
 21
34.099346586467512
 31
0.0
  0
LINE
  5
55B9
  8
0
 10
-235.78144456550149
 20
34.899530406009937
 30
0.0
 11
-283.85976658659661
 21
34.899530406009937
 31
0.0
  0
LINE
  5
55BA
  8
0
 10
-235.78144456550149
 20
31.604793229572671
 30
0.0
 11
-244.9630711612086
 21
31.604793229572671
 31
0.0
  0
LINE
  5
55BB
  8
0
 10
-235.78144456550149
 20
30.013939719334392
 30
0.0
 11
-245.41036484107531
 21
30.013939719334392
 31
0.0
  0
LINE
  5
55BC
  8
0
 10
-235.78144456550149
 20
27.779271066678412
 30
0.0
 11
-245.6194138542165
 21
27.779271066678412
 31
0.0
  0
LINE
  5
55BD
  8
0
 10
-235.78144456550149
 20
26.194728051798279
 30
0.0
 11
-245.90720492619951
 21
26.194728051798279
 31
0.0
  0
LINE
  5
55BE
  8
0
 10
-235.78144456550149
 20
23.69315763106351
 30
0.0
 11
-246.11220247845301
 21
23.69315763106351
 31
0.0
  0
LINE
  5
55BF
  8
0
 10
-235.7814445655014
 20
23.079273441269599
 30
0.0
 11
-245.93578230080209
 21
23.079273441269599
 31
0.0
  0
LINE
  5
55C0
  8
0
 10
-235.7814445655014
 20
18.89920860600995
 30
0.0
 11
-247.15951057429831
 21
18.89920860600995
 31
0.0
  0
LINE
  5
55C1
  8
0
 10
-115.3814445655009
 20
36.173269115737781
 30
0.0
 11
-115.3814445655013
 21
14.899530406010451
 31
0.0
  0
LINE
  5
55C2
  8
0
 10
-116.881444565501
 20
37.039294519522201
 30
0.0
 11
-116.8814445655012
 21
14.899530406010451
 31
0.0
  0
LINE
  5
55C3
  8
0
 10
-115.9971167061428
 20
18.549530406010909
 30
0.0
 11
-115.9971167061428
 21
16.549530406010941
 31
0.0
  0
ARC
  5
55C4
  8
0
 10
-117.2169683849952
 20
16.56928204402805
 30
0.0
 40
1.220011576012179
 50
285.96302216882867
 51
359.07235721200237
  0
LINE
  5
55C5
  8
0
 10
-118.5814445655011
 20
14.899530406010451
 30
0.0
 11
-115.3814445655013
 21
14.899530406010451
 31
0.0
  0
ARC
  5
55C6
  8
0
 10
-117.2169683849952
 20
18.529778767993829
 30
0.0
 40
1.220011576012179
 50
0.9276427879975832
 51
74.036977831171257
  0
LINE
  5
55C7
  8
0
 10
-116.881444565501
 20
49.899530406010399
 30
0.0
 11
-116.881444565501
 21
37.039294519522201
 31
0.0
  0
LINE
  5
55C8
  8
0
 10
-116.8814445655014
 20
49.899530406010541
 30
0.0
 11
-116.8814445655012
 21
37.039294519522322
 31
0.0
  0
LINE
  5
55C9
  8
0
 10
-116.881444565501
 20
37.039294519522201
 30
0.0
 11
-115.3814445655009
 21
36.173269115737781
 31
0.0
  0
LINE
  5
55CA
  8
0
 10
-116.8814445655012
 20
37.039294519522322
 30
0.0
 11
-115.3814445655013
 21
36.173269115737867
 31
0.0
  0
ARC
  5
55CB
  8
0
 10
-117.2169683849951
 20
45.37977707442235
 30
0.0
 40
1.220011576012179
 50
0.9276427879975832
 51
74.036977831171257
  0
ARC
  5
55CC
  8
0
 10
-117.2169683849952
 20
45.379777074422456
 30
0.0
 40
1.220011576012179
 50
0.9276427879975832
 51
74.036977831171257
  0
ARC
  5
55CD
  8
0
 10
-117.2169683849951
 20
43.419280350456567
 30
0.0
 40
1.220011576012179
 50
285.96302216882867
 51
359.07235721200237
  0
ARC
  5
55CE
  8
0
 10
-117.2169683849952
 20
43.41928035045671
 30
0.0
 40
1.220011576012179
 50
285.96302216882867
 51
359.07235721200237
  0
LINE
  5
55CF
  8
0
 10
-115.99711670614261
 20
45.399528712439491
 30
0.0
 11
-115.99711670614261
 21
43.399528712439462
 31
0.0
  0
LINE
  5
55D0
  8
0
 10
-115.9971167061428
 20
45.399528712439633
 30
0.0
 11
-115.9971167061428
 21
43.399528712439661
 31
0.0
  0
LINE
  5
55D1
  8
0
 10
-118.581444565501
 20
49.899530406010399
 30
0.0
 11
-116.881444565501
 21
49.899530406010399
 31
0.0
  0
LINE
  5
55D2
  8
0
 10
-118.5814445655011
 20
49.899530406010541
 30
0.0
 11
-116.8814445655014
 21
49.899530406010541
 31
0.0
  0
LINE
  5
55D3
  8
0
 10
-235.7814445655018
 20
36.173269115737781
 30
0.0
 11
-235.78144456550169
 21
14.899530406010451
 31
0.0
  0
LINE
  5
55D4
  8
0
 10
-234.28144456550169
 20
37.039294519522201
 30
0.0
 11
-234.28144456550169
 21
14.899530406010451
 31
0.0
  0
LINE
  5
55D5
  8
0
 10
-235.78144456550169
 20
36.173269115737902
 30
0.0
 11
-235.78144456550169
 21
14.8995304060106
 31
0.0
  0
LINE
  5
55D6
  8
0
 10
-234.28144456550169
 20
37.039294519522322
 30
0.0
 11
-234.28144456550169
 21
14.8995304060106
 31
0.0
  0
LINE
  5
55D7
  8
¤¤¤ß˝u
 10
-236.06529436187299
 20
17.549530406010941
 30
0.0
 11
-230.3136573874921
 21
17.549530406010941
 31
0.0
  0
LINE
  5
55D8
  8
¤¤¤ß˝u
 10
-236.06529436187299
 20
17.549530406010941
 30
0.0
 11
-230.3136573874921
 21
17.549530406010941
 31
0.0
  0
LINE
  5
55D9
  8
0
 10
-235.16577242486011
 20
18.549530406010941
 30
0.0
 11
-235.16577242486011
 21
16.549530406010941
 31
0.0
  0
LINE
  5
55DA
  8
0
 10
-235.16577242486011
 20
18.549530406010941
 30
0.0
 11
-235.16577242486011
 21
16.549530406010941
 31
0.0
  0
ARC
  5
55DB
  8
0
 10
-233.9459207460076
 20
16.56928204402805
 30
0.0
 40
1.220011576012179
 50
180.9276427879976
 51
254.03697783117121
  0
ARC
  5
55DC
  8
0
 10
-233.9459207460076
 20
16.56928204402805
 30
0.0
 40
1.220011576012179
 50
180.9276427879976
 51
254.03697783117121
  0
LINE
  5
55DD
  8
0
 10
-232.5814445655017
 20
14.899530406010451
 30
0.0
 11
-235.78144456550169
 21
14.899530406010451
 31
0.0
  0
LINE
  5
55DE
  8
0
 10
-232.58144456550161
 20
14.8995304060106
 30
0.0
 11
-235.78144456550169
 21
14.8995304060106
 31
0.0
  0
ARC
  5
55DF
  8
0
 10
-233.9459207460076
 20
18.529778767993829
 30
0.0
 40
1.220011576012179
 50
105.9630221688287
 51
179.0723572120024
  0
ARC
  5
55E0
  8
0
 10
-233.9459207460076
 20
18.529778767993829
 30
0.0
 40
1.220011576012179
 50
105.9630221688287
 51
179.0723572120024
  0
LINE
  5
55E1
  8
0
 10
-234.28144456550169
 20
49.899530406010427
 30
0.0
 11
-234.28144456550169
 21
37.039294519522201
 31
0.0
  0
LINE
  5
55E2
  8
0
 10
-234.2814445655016
 20
49.899530406010541
 30
0.0
 11
-234.28144456550169
 21
37.039294519522322
 31
0.0
  0
LINE
  5
55E3
  8
0
 10
-234.28144456550169
 20
37.039294519522201
 30
0.0
 11
-235.7814445655018
 21
36.173269115737781
 31
0.0
  0
LINE
  5
55E4
  8
0
 10
-234.28144456550169
 20
37.039294519522322
 30
0.0
 11
-235.78144456550169
 21
36.173269115737902
 31
0.0
  0
ARC
  5
55E5
  8
0
 10
-233.9459207460078
 20
45.379777074422371
 30
0.0
 40
1.220011576012179
 50
105.9630221688287
 51
179.0723572120024
  0
ARC
  5
55E6
  8
0
 10
-233.9459207460076
 20
45.379777074422456
 30
0.0
 40
1.220011576012179
 50
105.9630221688287
 51
179.0723572120024
  0
ARC
  5
55E7
  8
0
 10
-233.9459207460078
 20
43.419280350456567
 30
0.0
 40
1.220011576012179
 50
180.9276427879976
 51
254.03697783117121
  0
ARC
  5
55E8
  8
0
 10
-233.9459207460076
 20
43.41928035045671
 30
0.0
 40
1.220011576012179
 50
180.9276427879976
 51
254.03697783117121
  0
LINE
  5
55E9
  8
0
 10
-235.16577242486019
 20
45.399528712439491
 30
0.0
 11
-235.16577242486019
 21
43.399528712439491
 31
0.0
  0
LINE
  5
55EA
  8
0
 10
-235.16577242486011
 20
45.399528712439661
 30
0.0
 11
-235.16577242486011
 21
43.399528712439661
 31
0.0
  0
LINE
  5
55EB
  8
0
 10
-232.58144456550181
 20
49.899530406010427
 30
0.0
 11
-234.28144456550169
 21
49.899530406010427
 31
0.0
  0
LINE
  5
55EC
  8
0
 10
-232.58144456550161
 20
49.899530406010541
 30
0.0
 11
-234.2814445655016
 21
49.899530406010541
 31
0.0
  0
LINE
  5
55ED
  8
0
 10
-222.0814445655015
 20
52.39953040601069
 30
0.0
 11
-129.0814445655011
 21
52.399530406010648
 31
0.0
  0
LINE
  5
55EE
  8
0
 10
-222.0814445655015
 20
53.899530406010562
 30
0.0
 11
-129.0814445655011
 21
53.899530406010541
 31
0.0
  0
LINE
  5
55EF
  8
0
 10
-129.08144456550099
 20
14.8995304060096
 30
0.0
 11
-222.0814445655015
 21
14.89953040601017
 31
0.0
  0
LINE
  5
55F0
  8
0
 10
-222.0814445655017
 20
17.399530406010541
 30
0.0
 11
-129.0814445655011
 21
17.399530406010509
 31
0.0
  0
LINE
  5
55F1
  8
0
 10
-152.08144456550141
 20
17.399530406010541
 30
0.0
 11
-222.0814445655015
 21
17.399530406010541
 31
0.0
  0
LINE
  5
55F2
  8
0
 10
-222.0814445655015
 20
14.89953040600974
 30
0.0
 11
-152.0814445655015
 21
14.89953040601017
 31
0.0
  0
LINE
  5
55F3
  8
0
 10
-152.0814445655015
 20
53.899530406010562
 30
0.0
 11
-222.0814445655017
 21
53.899530406010562
 31
0.0
  0
LINE
  5
55F4
  8
0
 10
-222.0814445655015
 20
53.899530406010562
 30
0.0
 11
-222.0814445655015
 21
14.89953040601017
 31
0.0
  0
LINE
  5
55F5
  8
0
 10
-222.0814445655015
 20
14.89953040601017
 30
0.0
 11
-222.0814445655015
 21
49.899530406010172
 31
0.0
  0
LINE
  5
55F6
  8
0
 10
-222.0814445655015
 20
14.89953040600974
 30
0.0
 11
-222.0814445655015
 21
49.899530406009802
 31
0.0
  0
LINE
  5
55F7
  8
0
 10
-222.0814445655017
 20
53.899530406010562
 30
0.0
 11
-222.0814445655017
 21
14.89953040600974
 31
0.0
  0
LINE
  5
55F8
  8
0
 10
-232.58144456550161
 20
14.89953040601017
 30
0.0
 11
-232.58144456550161
 21
49.899530406010172
 31
0.0
  0
LINE
  5
55F9
  8
0
 10
-232.58144456550161
 20
49.899530406010122
 30
0.0
 11
-232.58144456550161
 21
14.89953040601017
 31
0.0
  0
LINE
  5
55FA
  8
0
 10
-232.58144456550161
 20
49.899530406009802
 30
0.0
 11
-232.58144456550161
 21
14.89953040600974
 31
0.0
  0
LINE
  5
55FB
  8
0
 10
-232.58144456550161
 20
16.899530406010172
 30
0.0
 11
-222.0814445655015
 21
16.899530406010172
 31
0.0
  0
LINE
  5
55FC
  8
0
 10
-232.58144456550161
 20
14.89953040601017
 30
0.0
 11
-222.0814445655015
 21
14.89953040601017
 31
0.0
  0
LINE
  5
55FD
  8
0
 10
-232.58144456550161
 20
14.89953040600974
 30
0.0
 11
-222.0814445655015
 21
14.89953040600974
 31
0.0
  0
LINE
  5
55FE
  8
0
 10
-232.58144456550161
 20
16.899530406009742
 30
0.0
 11
-222.0814445655015
 21
16.899530406009742
 31
0.0
  0
LINE
  5
55FF
  8
µę˝u
 10
-211.88422234327919
 20
53.899530406010562
 30
0.0
 11
-211.0814445655015
 21
53.049530406010547
 31
0.0
  0
LINE
  5
5600
  8
µę˝u
 10
-211.8842223432793
 20
53.899530406010463
 30
0.0
 11
-211.0814445655017
 21
53.049530406010433
 31
0.0
  0
LINE
  5
5601
  8
¤¤¤ß˝u
 10
-232.92288179704499
 20
40.099530406009762
 30
0.0
 11
-223.240007333958
 21
40.099530406009762
 31
0.0
  0
LINE
  5
5602
  8
¤¤¤ß˝u
 10
-232.92288179704511
 20
40.099530406009762
 30
0.0
 11
-223.24000733395809
 21
40.099530406009762
 31
0.0
  0
CIRCLE
  5
5603
  8
0
 10
-228.0814445655015
 20
40.09953040601016
 30
0.0
 40
0.7185553324000003
  0
CIRCLE
  5
5604
  8
0
 10
-228.0814445655015
 20
40.099530406009762
 30
0.0
 40
0.7185553324000003
  0
CIRCLE
  5
5605
  8
0
 10
-228.0814445655015
 20
40.09953040601016
 30
0.0
 40
2.185553324299998
  0
CIRCLE
  5
5606
  8
0
 10
-228.0814445655015
 20
40.099530406009762
 30
0.0
 40
2.185553324299998
  0
CIRCLE
  5
5607
  8
0
 10
-228.0814445655015
 20
40.09953040601016
 30
0.0
 40
2.75
  0
CIRCLE
  5
5608
  8
0
 10
-228.0814445655015
 20
40.09953040601016
 30
0.0
 40
2.486916010899999
  0
CIRCLE
  5
5609
  8
0
 10
-228.0814445655015
 20
40.099530406009762
 30
0.0
 40
2.486916010899999
  0
CIRCLE
  5
560A
  8
0
 10
-228.0814445655015
 20
40.099530406009762
 30
0.0
 40
2.75
  0
LINE
  5
560B
  8
0
 10
-232.58144456550161
 20
47.899530406010172
 30
0.0
 11
-222.0814445655015
 21
47.899530406010172
 31
0.0
  0
LINE
  5
560C
  8
0
 10
-232.58144456550161
 20
47.899530406009767
 30
0.0
 11
-222.0814445655015
 21
47.899530406009767
 31
0.0
  0
LINE
  5
560D
  8
¤¤¤ß˝u
 10
-228.0814445655015
 20
35.258093174466239
 30
0.0
 11
-228.0814445655015
 21
44.940967637553292
 31
0.0
  0
LINE
  5
560E
  8
¤¤¤ß˝u
 10
-228.0814445655015
 20
35.258093174466239
 30
0.0
 11
-228.0814445655015
 21
44.940967637553292
 31
0.0
  0
LINE
  5
560F
  8
0
 10
-222.0814445655015
 20
47.902937897110171
 30
0.0
 11
-224.0814445655015
 21
47.902937897110171
 31
0.0
  0
LINE
  5
5610
  8
0
 10
-232.58144456550161
 20
49.899530406010172
 30
0.0
 11
-222.0814445655015
 21
49.899530406010172
 31
0.0
  0
LINE
  5
5611
  8
0
 10
-232.58144456550161
 20
49.899530406009802
 30
0.0
 11
-222.0814445655015
 21
49.899530406009802
 31
0.0
  0
LINE
  5
5612
  8
µę˝u
 10
-210.4814445655015
 20
40.149530406010562
 30
0.0
 11
-210.4814445655015
 21
53.049530406010547
 31
0.0
  0
LINE
  5
5613
  8
µę˝u
 10
-211.0814445655015
 20
43.899530406010562
 30
0.0
 11
-211.0814445655015
 21
53.049530406010547
 31
0.0
  0
LINE
  5
5614
  8
µę˝u
 10
-203.68144456550161
 20
53.049530406010547
 30
0.0
 11
-203.68144456550161
 21
40.149530406010562
 31
0.0
  0
LINE
  5
5615
  8
µę˝u
 10
-203.0814445655015
 20
53.049530406010547
 30
0.0
 11
-203.0814445655015
 21
43.899530406010562
 31
0.0
  0
LINE
  5
5616
  8
µę˝u
 10
-210.4814445655017
 20
40.149530406010449
 30
0.0
 11
-210.4814445655017
 21
53.049530406010433
 31
0.0
  0
LINE
  5
5617
  8
µę˝u
 10
-211.0814445655017
 20
43.899530406010449
 30
0.0
 11
-211.0814445655017
 21
53.049530406010433
 31
0.0
  0
LINE
  5
5618
  8
µę˝u
 10
-203.68144456550169
 20
53.049530406010433
 30
0.0
 11
-203.68144456550169
 21
40.149530406010449
 31
0.0
  0
LINE
  5
5619
  8
µę˝u
 10
-203.0814445655017
 20
53.049530406010433
 30
0.0
 11
-203.0814445655017
 21
43.899530406010449
 31
0.0
  0
LINE
  5
561A
  8
¤¤¤ß˝u
 10
-207.0814445655015
 20
38.772784892119319
 30
0.0
 11
-207.0814445655015
 21
54.928337302060129
 31
0.0
  0
LINE
  5
561B
  8
¤¤¤ß˝u
 10
-207.0814445655017
 20
35.901954301405539
 30
0.0
 11
-207.0814445655017
 21
54.928337302060129
 31
0.0
  0
LINE
  5
561C
  8
µę˝u
 10
-203.68144456550149
 20
40.149530406010562
 30
0.0
 11
-210.48144456550159
 21
40.149530406010562
 31
0.0
  0
LINE
  5
561D
  8
µę˝u
 10
-203.68144456550161
 20
40.149530406010562
 30
0.0
 11
-207.0814445655015
 21
38.858051130454498
 31
0.0
  0
LINE
  5
561E
  8
µę˝u
 10
-203.68144456550169
 20
40.149530406010449
 30
0.0
 11
-210.48144456550179
 21
40.149530406010449
 31
0.0
  0
LINE
  5
561F
  8
µę˝u
 10
-203.68144456550169
 20
40.149530406010449
 30
0.0
 11
-207.0814445655017
 21
38.858051130454392
 31
0.0
  0
LINE
  5
5620
  8
µę˝u
 10
-207.0814445655015
 20
38.858051130454498
 30
0.0
 11
-210.4814445655015
 21
40.149530406010562
 31
0.0
  0
LINE
  5
5621
  8
µę˝u
 10
-207.0814445655017
 20
38.858051130454392
 30
0.0
 11
-210.4814445655017
 21
40.149530406010449
 31
0.0
  0
LINE
  5
5622
  8
µę˝u
 10
-203.0814445655015
 20
43.899530406010562
 30
0.0
 11
-211.0814445655015
 21
43.899530406010562
 31
0.0
  0
LINE
  5
5623
  8
µę˝u
 10
-203.0814445655017
 20
43.899530406010449
 30
0.0
 11
-211.0814445655017
 21
43.899530406010449
 31
0.0
  0
LINE
  5
5624
  8
µę˝u
 10
-202.27866678772389
 20
53.899530406010562
 30
0.0
 11
-203.0814445655015
 21
53.049530406010547
 31
0.0
  0
LINE
  5
5625
  8
µę˝u
 10
-202.27866678772401
 20
53.899530406010463
 30
0.0
 11
-203.0814445655017
 21
53.049530406010433
 31
0.0
  0
LINE
  5
5626
  8
µę˝u
 10
-203.0814445655015
 20
53.049530406010547
 30
0.0
 11
-211.0814445655015
 21
53.049530406010547
 31
0.0
  0
LINE
  5
5627
  8
µę˝u
 10
-203.0814445655017
 20
53.049530406010433
 30
0.0
 11
-211.0814445655017
 21
53.049530406010433
 31
0.0
  0
LINE
  5
5628
  8
0
 10
-129.08144456550099
 20
53.899530406010562
 30
0.0
 11
-129.08144456550099
 21
14.89953040600974
 31
0.0
  0
LINE
  5
5629
  8
0
 10
-118.5814445655011
 20
49.899530406009802
 30
0.0
 11
-118.5814445655011
 21
14.89953040600974
 31
0.0
  0
LINE
  5
562A
  8
0
 10
-118.5814445655011
 20
49.899530406010122
 30
0.0
 11
-118.5814445655011
 21
14.89953040601017
 31
0.0
  0
LINE
  5
562B
  8
0
 10
-118.5814445655011
 20
14.89953040601017
 30
0.0
 11
-118.5814445655011
 21
49.899530406010172
 31
0.0
  0
LINE
  5
562C
  8
0
 10
-118.5814445655011
 20
16.899530406009742
 30
0.0
 11
-129.0814445655011
 21
16.899530406009742
 31
0.0
  0
LINE
  5
562D
  8
0
 10
-118.5814445655011
 20
14.89953040600974
 30
0.0
 11
-129.0814445655011
 21
14.89953040600974
 31
0.0
  0
LINE
  5
562E
  8
0
 10
-118.5814445655011
 20
16.899530406010172
 30
0.0
 11
-129.0814445655011
 21
16.899530406010172
 31
0.0
  0
LINE
  5
562F
  8
¤¤¤ß˝u
 10
-118.24000733395771
 20
40.099530406009762
 30
0.0
 11
-127.9228817970447
 21
40.099530406009762
 31
0.0
  0
LINE
  5
5630
  8
¤¤¤ß˝u
 10
-118.24000733395771
 20
40.099530406009762
 30
0.0
 11
-127.92288179704479
 21
40.099530406009762
 31
0.0
  0
LINE
  5
5631
  8
0
 10
-118.5814445655011
 20
49.899530406009802
 30
0.0
 11
-129.0814445655011
 21
49.899530406009802
 31
0.0
  0
LINE
  5
5632
  8
0
 10
-118.5814445655011
 20
49.899530406010172
 30
0.0
 11
-129.0814445655011
 21
49.899530406010172
 31
0.0
  0
LINE
  5
5633
  8
0
 10
-118.5814445655011
 20
47.899530406009767
 30
0.0
 11
-129.0814445655011
 21
47.899530406009767
 31
0.0
  0
LINE
  5
5634
  8
µę˝u
 10
-149.58321567033241
 20
53.049530406010433
 30
0.0
 11
-149.58321567033241
 21
43.899530406010449
 31
0.0
  0
LINE
  5
5635
  8
µę˝u
 10
-148.98321567033241
 20
53.049530406010433
 30
0.0
 11
-148.98321567033241
 21
40.149530406010449
 31
0.0
  0
LINE
  5
5636
  8
µę˝u
 10
-141.58321567033241
 20
43.899530406010449
 30
0.0
 11
-141.58321567033241
 21
53.049530406010433
 31
0.0
  0
LINE
  5
5637
  8
µę˝u
 10
-142.1832156703324
 20
40.149530406010449
 30
0.0
 11
-142.1832156703324
 21
53.049530406010433
 31
0.0
  0
LINE
  5
5638
  8
µę˝u
 10
-149.58321567033269
 20
53.049530406010547
 30
0.0
 11
-149.58321567033269
 21
43.899530406010562
 31
0.0
  0
LINE
  5
5639
  8
µę˝u
 10
-148.9832156703327
 20
53.049530406010547
 30
0.0
 11
-148.9832156703327
 21
40.149530406010562
 31
0.0
  0
LINE
  5
563A
  8
µę˝u
 10
-141.58321567033261
 20
43.899530406010562
 30
0.0
 11
-141.58321567033261
 21
53.049530406010547
 31
0.0
  0
LINE
  5
563B
  8
µę˝u
 10
-142.18321567033269
 20
40.149530406010562
 30
0.0
 11
-142.18321567033269
 21
53.049530406010547
 31
0.0
  0
LINE
  5
563C
  8
¤¤¤ß˝u
 10
-145.58321567033241
 20
38.772784892119212
 30
0.0
 11
-145.58321567033241
 21
54.928337302060129
 31
0.0
  0
LINE
  5
563D
  8
¤¤¤ß˝u
 10
-145.58321567033269
 20
36.403191088918867
 30
0.0
 11
-145.58321567033269
 21
54.928337302060129
 31
0.0
  0
LINE
  5
563E
  8
µę˝u
 10
-148.98321567033241
 20
40.149530406010449
 30
0.0
 11
-145.58321567033241
 21
38.858051130454392
 31
0.0
  0
LINE
  5
563F
  8
µę˝u
 10
-148.9832156703327
 20
40.149530406010562
 30
0.0
 11
-145.58321567033269
 21
38.858051130454498
 31
0.0
  0
LINE
  5
5640
  8
µę˝u
 10
-149.58321567033241
 20
43.899530406010449
 30
0.0
 11
-141.58321567033241
 21
43.899530406010449
 31
0.0
  0
LINE
  5
5641
  8
µę˝u
 10
-148.98321567033241
 20
40.149530406010449
 30
0.0
 11
-142.1832156703324
 21
40.149530406010449
 31
0.0
  0
LINE
  5
5642
  8
µę˝u
 10
-149.58321567033269
 20
43.899530406010562
 30
0.0
 11
-141.58321567033261
 21
43.899530406010562
 31
0.0
  0
LINE
  5
5643
  8
µę˝u
 10
-148.9832156703327
 20
40.149530406010562
 30
0.0
 11
-142.1832156703326
 21
40.149530406010562
 31
0.0
  0
LINE
  5
5644
  8
µę˝u
 10
-145.58321567033241
 20
38.858051130454392
 30
0.0
 11
-142.1832156703324
 21
40.149530406010449
 31
0.0
  0
LINE
  5
5645
  8
µę˝u
 10
-145.58321567033269
 20
38.858051130454498
 30
0.0
 11
-142.18321567033269
 21
40.149530406010562
 31
0.0
  0
LINE
  5
5646
  8
¤¤¤ß˝u
 10
-123.0814445655012
 20
35.258093174466239
 30
0.0
 11
-123.0814445655012
 21
44.940967637553292
 31
0.0
  0
LINE
  5
5647
  8
¤¤¤ß˝u
 10
-123.0814445655012
 20
35.258093174466239
 30
0.0
 11
-123.0814445655012
 21
44.940967637553292
 31
0.0
  0
CIRCLE
  5
5648
  8
0
 10
-123.0814445655012
 20
40.099530406009762
 30
0.0
 40
2.75
  0
CIRCLE
  5
5649
  8
0
 10
-123.0814445655012
 20
40.09953040601016
 30
0.0
 40
2.75
  0
CIRCLE
  5
564A
  8
0
 10
-123.0814445655012
 20
40.099530406009762
 30
0.0
 40
0.7185553324000003
  0
CIRCLE
  5
564B
  8
0
 10
-123.0814445655012
 20
40.09953040601016
 30
0.0
 40
0.7185553324000003
  0
CIRCLE
  5
564C
  8
0
 10
-123.0814445655012
 20
40.099530406009762
 30
0.0
 40
2.185553324299998
  0
CIRCLE
  5
564D
  8
0
 10
-123.0814445655012
 20
40.09953040601016
 30
0.0
 40
2.185553324299998
  0
CIRCLE
  5
564E
  8
0
 10
-123.0814445655012
 20
40.099530406009762
 30
0.0
 40
2.486916010899999
  0
CIRCLE
  5
564F
  8
0
 10
-123.0814445655012
 20
40.09953040601016
 30
0.0
 40
2.486916010899999
  0
LINE
  5
5650
  8
µę˝u
 10
-149.58321567033241
 20
53.049530406010433
 30
0.0
 11
-141.58321567033241
 21
53.049530406010433
 31
0.0
  0
LINE
  5
5651
  8
µę˝u
 10
-149.58321567033269
 20
53.049530406010547
 30
0.0
 11
-141.58321567033261
 21
53.049530406010547
 31
0.0
  0
LINE
  5
5652
  8
µę˝u
 10
-150.38599344811021
 20
53.899530406010463
 30
0.0
 11
-149.58321567033241
 21
53.049530406010433
 31
0.0
  0
LINE
  5
5653
  8
µę˝u
 10
-150.38599344811041
 20
53.899530406010562
 30
0.0
 11
-149.58321567033269
 21
53.049530406010547
 31
0.0
  0
LINE
  5
5654
  8
µę˝u
 10
-140.78043789255469
 20
53.899530406010463
 30
0.0
 11
-141.58321567033241
 21
53.049530406010433
 31
0.0
  0
LINE
  5
5655
  8
µę˝u
 10
-140.78043789255489
 20
53.899530406010562
 30
0.0
 11
-141.58321567033261
 21
53.049530406010547
 31
0.0
  0
ARC
  5
5656
  8
0
 10
-235.08982756550171
 20
42.3995497371101
 30
0.0
 40
2.9541109999999762
 50
137.38859300450031
 51
222.6114069976008
  0
ARC
  5
5657
  8
0
 10
-235.08982656550171
 20
46.399549737109993
 30
0.0
 40
2.954111999999975
 50
137.38859800219919
 51
222.61140199989831
  0
POLYLINE
  5
5658
  8
0
 66
     1
 10
0.0
 20
0.0
 30
0.0
  0
VERTEX
  5
576A
  8
0
 10
-245.3726555655015
 20
44.399549737110021
 30
0.0
  0
VERTEX
  5
576B
  8
0
 10
-245.40547356550161
 20
44.609804737110032
 30
0.0
  0
VERTEX
  5
576C
  8
0
 10
-245.44962056550159
 20
44.715291737110022
 30
0.0
  0
VERTEX
  5
576D
  8
0
 10
-245.51265356550161
 20
44.813070737110017
 30
0.0
  0
VERTEX
  5
576E
  8
0
 10
-245.59212956550161
 20
44.897183737110019
 30
0.0
  0
VERTEX
  5
576F
  8
0
 10
-245.6836205655016
 20
44.96305673711003
 30
0.0
  0
VERTEX
  5
5770
  8
0
 10
-245.78154056550159
 20
45.008337737109962
 30
0.0
  0
VERTEX
  5
5771
  8
0
 10
-245.91417656550161
 20
45.03727873711
 30
0.0
  0
VERTEX
  5
5772
  8
0
 10
-246.0371855655016
 20
45.034619737109999
 30
0.0
  0
VERTEX
  5
5773
  8
0
 10
-246.14410956550159
 20
45.009113737109999
 30
0.0
  0
VERTEX
  5
5774
  8
0
 10
-246.2603145655016
 20
44.953345737109998
 30
0.0
  0
VERTEX
  5
5775
  8
0
 10
-246.3708845655016
 20
44.863856737110041
 30
0.0
  0
VERTEX
  5
5776
  8
0
 10
-246.45911456550161
 20
44.749306737110032
 30
0.0
  0
VERTEX
  5
5777
  8
0
 10
-246.51574856550161
 20
44.629467737110069
 30
0.0
  0
VERTEX
  5
5778
  8
0
 10
-246.54359956550149
 20
44.525811737110018
 30
0.0
  0
VERTEX
  5
5779
  8
0
 10
-246.5552205655016
 20
44.399549737110021
 30
0.0
  0
VERTEX
  5
577A
  8
0
 10
-246.52240256550161
 20
44.189294737110053
 30
0.0
  0
VERTEX
  5
577B
  8
0
 10
-246.4782545655016
 20
44.083806737110017
 30
0.0
  0
VERTEX
  5
577C
  8
0
 10
-246.41522256550161
 20
43.986028737110011
 30
0.0
  0
VERTEX
  5
577D
  8
0
 10
-246.33574656550149
 20
43.901915737110009
 30
0.0
  0
VERTEX
  5
577E
  8
0
 10
-246.24425556550159
 20
43.836042737109999
 30
0.0
  0
VERTEX
  5
577F
  8
0
 10
-246.1463355655016
 20
43.79076173711001
 30
0.0
  0
VERTEX
  5
5780
  8
0
 10
-246.0136995655015
 20
43.761819737109981
 30
0.0
  0
VERTEX
  5
5781
  8
0
 10
-245.8906905655015
 20
43.764479737110037
 30
0.0
  0
VERTEX
  5
5782
  8
0
 10
-245.78376656550159
 20
43.789984737110039
 30
0.0
  0
VERTEX
  5
5783
  8
0
 10
-245.66756156550159
 20
43.84575273711004
 30
0.0
  0
VERTEX
  5
5784
  8
0
 10
-245.55699156550159
 20
43.935242737110002
 30
0.0
  0
VERTEX
  5
5785
  8
0
 10
-245.46876156550161
 20
44.049791737110013
 30
0.0
  0
VERTEX
  5
5786
  8
0
 10
-245.41212756550161
 20
44.169630737110019
 30
0.0
  0
VERTEX
  5
5787
  8
0
 10
-245.38427556550161
 20
44.273287737110081
 30
0.0
  0
VERTEX
  5
5788
  8
0
 10
-245.3726555655015
 20
44.399549737110021
 30
0.0
  0
SEQEND
  5
5789
  8
0
  0
ARC
  5
5659
  8
0
 10
-241.79227856550159
 20
44.39954973711005
 30
0.0
 40
3.999999999999968
 50
90.0
 51
131.4096219995991
  0
ARC
  5
565A
  8
0
 10
-241.79227856550159
 20
44.39954973711005
 30
0.0
 40
3.999999999999968
 50
228.59037799730081
 51
270.0
  0
LINE
  5
565B
  8
0
 10
-234.2814445655016
 20
48.39954973711005
 30
0.0
 11
-241.79227856550159
 21
48.39954973711005
 31
0.0
  0
LINE
  5
565C
  8
0
 10
-241.79227856550159
 20
40.399549737110043
 30
0.0
 11
-234.2814445655016
 21
40.399549737110043
 31
0.0
  0
LINE
  5
565D
  8
0
 10
-238.04393856550161
 20
48.39954973711005
 30
0.0
 11
-238.04393856550161
 21
40.399549737110043
 31
0.0
  0
LINE
  5
565E
  8
0
 10
-245.31971556550161
 20
47.399549737110021
 30
0.0
 11
-241.41993956550161
 21
47.399549737110021
 31
0.0
  0
LINE
  5
565F
  8
0
 10
-245.56610856550159
 20
41.861476737110053
 30
0.0
 11
-245.31971556550161
 21
41.399549737110078
 31
0.0
  0
LINE
  5
5660
  8
0
 10
-245.31971556550161
 20
47.399549737110021
 30
0.0
 11
-245.56610856550159
 21
46.93762273711004
 31
0.0
  0
LINE
  5
5661
  8
0
 10
-240.5190975655016
 20
44.39954973711005
 30
0.0
 11
-239.81973356550159
 21
44.39954973711005
 31
0.0
  0
LINE
  5
5662
  8
0
 10
-241.41993956550161
 20
47.399549737110021
 30
0.0
 11
-239.81973356550159
 21
44.39954973711005
 31
0.0
  0
LINE
  5
5663
  8
0
 10
-241.41993956550161
 20
41.399549737110078
 30
0.0
 11
-245.31971556550161
 21
41.399549737110078
 31
0.0
  0
LINE
  5
5664
  8
0
 10
-239.81973356550159
 20
44.39954973711005
 30
0.0
 11
-241.41993956550161
 21
41.399549737110078
 31
0.0
  0
LINE
  5
5665
  8
0
 10
-245.1986365655016
 20
46.929083737110027
 30
0.0
 11
-244.78016956550161
 21
47.171187737110017
 31
0.0
  0
LINE
  5
5666
  8
0
 10
-245.1986365655016
 20
41.87001473711009
 30
0.0
 11
-244.78016956550161
 21
41.627910737110049
 31
0.0
  0
LINE
  5
5667
  8
0
 10
-244.78016956550161
 20
47.171187737110017
 30
0.0
 11
-244.26022956550159
 21
47.341905737109983
 31
0.0
  0
LINE
  5
5668
  8
0
 10
-244.78016956550161
 20
41.627910737110049
 30
0.0
 11
-244.26022956550159
 21
41.457193737110117
 31
0.0
  0
LINE
  5
5669
  8
0
 10
-244.26022956550159
 20
47.341905737109983
 30
0.0
 11
-243.7195095655016
 21
47.399549737110021
 31
0.0
  0
LINE
  5
566A
  8
0
 10
-244.26022956550159
 20
41.457193737110117
 30
0.0
 11
-243.7195095655016
 21
41.399549737110078
 31
0.0
  0
LINE
  5
566B
  8
0
 10
-243.7195095655016
 20
47.399549737110021
 30
0.0
 11
-243.1787895655016
 21
47.341905737109983
 31
0.0
  0
LINE
  5
566C
  8
0
 10
-243.7195095655016
 20
41.399549737110078
 30
0.0
 11
-243.1787895655016
 21
41.457193737110117
 31
0.0
  0
LINE
  5
566D
  8
0
 10
-243.1787895655016
 20
47.341905737109983
 30
0.0
 11
-242.6588495655015
 21
47.171187737110017
 31
0.0
  0
LINE
  5
566E
  8
0
 10
-243.1787895655016
 20
41.457193737110117
 30
0.0
 11
-242.6588495655015
 21
41.627910737110049
 31
0.0
  0
LINE
  5
566F
  8
0
 10
-242.6588495655015
 20
47.171187737110017
 30
0.0
 11
-242.1796695655016
 21
46.89395873711004
 31
0.0
  0
LINE
  5
5670
  8
0
 10
-242.6588495655015
 20
41.627910737110049
 30
0.0
 11
-242.1796695655016
 21
41.905140737110059
 31
0.0
  0
LINE
  5
5671
  8
0
 10
-242.1796695655016
 20
46.89395873711004
 30
0.0
 11
-241.75966556550159
 21
46.52086973711004
 31
0.0
  0
LINE
  5
5672
  8
0
 10
-242.1796695655016
 20
41.905140737110059
 30
0.0
 11
-241.75966556550159
 21
42.27822873711002
 31
0.0
  0
LINE
  5
5673
  8
0
 10
-242.1193035655015
 20
47.399549737110021
 30
0.0
 11
-240.5190975655016
 21
44.39954973711005
 31
0.0
  0
LINE
  5
5674
  8
0
 10
-240.5190975655016
 20
44.39954973711005
 30
0.0
 11
-242.1193035655015
 21
41.399549737110078
 31
0.0
  0
LINE
  5
5675
  8
0
 10
-241.75966556550159
 20
46.52086973711004
 30
0.0
 11
-241.4149765655016
 21
46.066259737110038
 31
0.0
  0
LINE
  5
5676
  8
0
 10
-241.4149765655016
 20
42.732838737110029
 30
0.0
 11
-241.75966556550159
 21
42.27822873711002
 31
0.0
  0
LINE
  5
5677
  8
0
 10
-241.4149765655016
 20
46.066259737110038
 30
0.0
 11
-241.15884956550161
 21
45.547599737110033
 31
0.0
  0
LINE
  5
5678
  8
0
 10
-241.15884956550161
 20
43.25149873711009
 30
0.0
 11
-241.4149765655016
 21
42.732838737110029
 31
0.0
  0
LINE
  5
5679
  8
0
 10
-241.15884956550161
 20
45.547599737110033
 30
0.0
 11
-241.0011275655016
 21
44.984820737110077
 31
0.0
  0
LINE
  5
567A
  8
0
 10
-241.0011275655016
 20
43.814278737110008
 30
0.0
 11
-241.15884956550161
 21
43.25149873711009
 31
0.0
  0
LINE
  5
567B
  8
0
 10
-241.0011275655016
 20
44.984820737110077
 30
0.0
 11
-240.9478715655016
 21
44.39954973711005
 31
0.0
  0
LINE
  5
567C
  8
0
 10
-240.9478715655016
 20
44.39954973711005
 30
0.0
 11
-241.0011275655016
 21
43.814278737110008
 31
0.0
  0
LINE
  5
567D
  8
0
 10
-246.62340656550151
 20
46.039776737110003
 30
0.0
 11
-246.62043556550151
 21
46.038161737110038
 31
0.0
  0
LINE
  5
567E
  8
0
 10
-246.62340656550151
 20
42.759321737110071
 30
0.0
 11
-246.62043556550151
 21
42.760937737110048
 31
0.0
  0
LINE
  5
567F
  8
0
 10
-247.7361165655015
 20
44.897691737110051
 30
0.0
 11
-247.78144456550149
 21
44.39954973711005
 31
0.0
  0
LINE
  5
5680
  8
0
 10
-247.60187456550159
 20
45.376689737110041
 30
0.0
 11
-247.7361165655015
 21
44.897691737110051
 31
0.0
  0
LINE
  5
5681
  8
0
 10
-247.78144456550149
 20
44.39954973711005
 30
0.0
 11
-247.7361165655015
 21
43.901407737110048
 31
0.0
  0
LINE
  5
5682
  8
0
 10
-247.38387756550151
 20
45.818137737110042
 30
0.0
 11
-247.60187456550159
 21
45.376689737110041
 31
0.0
  0
LINE
  5
5683
  8
0
 10
-247.7361165655015
 20
43.901407737110048
 30
0.0
 11
-247.60187456550159
 21
43.422408737110032
 31
0.0
  0
LINE
  5
5684
  8
0
 10
-247.0905015655016
 20
46.20506973711008
 30
0.0
 11
-247.38387756550151
 21
45.818137737110042
 31
0.0
  0
LINE
  5
5685
  8
0
 10
-247.60187456550159
 20
43.422408737110032
 30
0.0
 11
-247.38387756550151
 21
42.980961737110043
 31
0.0
  0
LINE
  5
5686
  8
0
 10
-247.0905015655016
 20
46.20506973711008
 30
0.0
 11
-246.7330235655015
 21
46.522616737110042
 31
0.0
  0
LINE
  5
5687
  8
0
 10
-247.38387756550151
 20
42.980961737110043
 30
0.0
 11
-247.0905015655016
 21
42.59402973711002
 31
0.0
  0
LINE
  5
5688
  8
0
 10
-247.58741356550161
 20
44.74908573711005
 30
0.0
 11
-247.61921956550151
 21
44.39954973711005
 31
0.0
  0
LINE
  5
5689
  8
0
 10
-247.49321856550159
 20
45.085189737110049
 30
0.0
 11
-247.58741356550161
 21
44.74908573711005
 31
0.0
  0
LINE
  5
568A
  8
0
 10
-247.61921956550151
 20
44.39954973711005
 30
0.0
 11
-247.58741356550161
 21
44.050013737110042
 31
0.0
  0
LINE
  5
568B
  8
0
 10
-247.34025456550151
 20
45.394944737110023
 30
0.0
 11
-247.49321856550159
 21
45.085189737110049
 31
0.0
  0
LINE
  5
568C
  8
0
 10
-247.58741356550161
 20
44.050013737110042
 30
0.0
 11
-247.49321856550159
 21
43.713909737110043
 31
0.0
  0
LINE
  5
568D
  8
0
 10
-246.7330235655015
 20
46.522616737110042
 30
0.0
 11
-246.3251785655016
 21
46.758575737110007
 31
0.0
  0
LINE
  5
568E
  8
0
 10
-247.0905015655016
 20
42.59402973711002
 30
0.0
 11
-246.7330235655015
 21
42.276482737110058
 31
0.0
  0
LINE
  5
568F
  8
0
 10
-247.1343985655015
 20
45.66644673711005
 30
0.0
 11
-247.34025456550151
 21
45.394944737110023
 31
0.0
  0
LINE
  5
5690
  8
0
 10
-247.49321856550159
 20
43.713909737110043
 30
0.0
 11
-247.34025456550151
 21
43.404154737110069
 31
0.0
  0
LINE
  5
5691
  8
0
 10
-246.3251785655016
 20
46.758575737110007
 30
0.0
 11
-245.8826415655015
 21
46.903877737109973
 31
0.0
  0
LINE
  5
5692
  8
0
 10
-246.7330235655015
 20
42.276482737110058
 30
0.0
 11
-246.3251785655016
 21
42.04052373711005
 31
0.0
  0
LINE
  5
5693
  8
0
 10
-247.1343985655015
 20
45.66644673711005
 30
0.0
 11
-246.8835635655015
 21
45.889263737110007
 31
0.0
  0
LINE
  5
5694
  8
0
 10
-247.34025456550151
 20
43.404154737110069
 30
0.0
 11
-247.1343985655015
 21
43.132651737110109
 31
0.0
  0
LINE
  5
5695
  8
0
 10
-245.8826415655015
 20
46.903877737109973
 30
0.0
 11
-245.4224185655016
 21
46.952940737110033
 31
0.0
  0
LINE
  5
5696
  8
0
 10
-246.3251785655016
 20
42.04052373711005
 30
0.0
 11
-245.8826415655015
 21
41.89522073711003
 31
0.0
  0
LINE
  5
5697
  8
0
 10
-246.8835635655015
 20
45.889263737110007
 30
0.0
 11
-246.59738656550161
 21
46.054830737109988
 31
0.0
  0
LINE
  5
5698
  8
0
 10
-247.1343985655015
 20
43.132651737110109
 30
0.0
 11
-246.8835635655015
 21
42.909835737110093
 31
0.0
  0
LINE
  5
5699
  8
0
 10
-244.8177595655016
 20
46.876530737110009
 30
0.0
 11
-244.38005556550149
 21
46.732814737109997
 31
0.0
  0
LINE
  5
569A
  8
0
 10
-246.59738656550161
 20
46.054830737109988
 30
0.0
 11
-246.28686756550161
 21
46.156786737110018
 31
0.0
  0
LINE
  5
569B
  8
0
 10
-246.8835635655015
 20
42.909835737110093
 30
0.0
 11
-246.59738656550161
 21
42.744267737110079
 31
0.0
  0
LINE
  5
569C
  8
0
 10
-244.96219556550159
 20
46.903877737109973
 30
0.0
 11
-244.8177595655016
 21
46.876530737110009
 31
0.0
  0
LINE
  5
569D
  8
0
 10
-245.4224185655016
 20
46.952940737110033
 30
0.0
 11
-244.96219556550159
 21
46.903877737109973
 31
0.0
  0
LINE
  5
569E
  8
0
 10
-245.8826415655015
 20
41.89522073711003
 30
0.0
 11
-245.4224185655016
 21
41.846158737110073
 31
0.0
  0
LINE
  5
569F
  8
0
 10
-244.38005556550149
 20
46.732814737109997
 30
0.0
 11
-243.97666456550161
 21
46.49943273711002
 31
0.0
  0
LINE
  5
56A0
  8
0
 10
-244.8177595655016
 20
41.922568737110083
 30
0.0
 11
-244.38005556550149
 21
42.066284737110088
 31
0.0
  0
LINE
  5
56A1
  8
0
 10
-243.97666456550161
 20
46.49943273711002
 30
0.0
 11
-243.6230895655016
 21
46.185353737110027
 31
0.0
  0
LINE
  5
56A2
  8
0
 10
-244.38005556550149
 20
42.066284737110088
 30
0.0
 11
-243.97666456550161
 21
42.299666737110073
 31
0.0
  0
LINE
  5
56A3
  8
0
 10
-246.28686756550161
 20
46.156786737110018
 30
0.0
 11
-245.9639375655016
 21
46.191212737110042
 31
0.0
  0
LINE
  5
56A4
  8
0
 10
-246.59738656550161
 20
42.744267737110079
 30
0.0
 11
-246.28686756550161
 21
42.642311737110049
 31
0.0
  0
LINE
  5
56A5
  8
0
 10
-244.96219556550159
 20
46.903877737109973
 30
0.0
 11
-244.5196585655016
 21
46.758575737110007
 31
0.0
  0
LINE
  5
56A6
  8
0
 10
-244.96219556550159
 20
41.89522073711003
 30
0.0
 11
-244.8177595655016
 21
41.922568737110083
 31
0.0
  0
LINE
  5
56A7
  8
0
 10
-245.4224185655016
 20
41.846158737110073
 30
0.0
 11
-244.96219556550159
 21
41.89522073711003
 31
0.0
  0
LINE
  5
56A8
  8
0
 10
-243.6230895655016
 20
46.185353737110027
 30
0.0
 11
-243.33291856550159
 21
45.802646737110017
 31
0.0
  0
LINE
  5
56A9
  8
0
 10
-243.97666456550161
 20
42.299666737110073
 30
0.0
 11
-243.6230895655016
 21
42.613745737110037
 31
0.0
  0
LINE
  5
56AA
  8
0
 10
-245.9639375655016
 20
46.191212737110042
 30
0.0
 11
-245.64100856550149
 21
46.156786737110018
 31
0.0
  0
LINE
  5
56AB
  8
0
 10
-246.28686756550161
 20
42.642311737110049
 30
0.0
 11
-245.9639375655016
 21
42.607885737110081
 31
0.0
  0
LINE
  5
56AC
  8
0
 10
-244.5196585655016
 20
46.758575737110007
 30
0.0
 11
-244.11181456550159
 21
46.522616737110042
 31
0.0
  0
LINE
  5
56AD
  8
0
 10
-244.96219556550159
 20
41.89522073711003
 30
0.0
 11
-244.5196585655016
 21
42.04052373711005
 31
0.0
  0
LINE
  5
56AE
  8
0
 10
-243.33291856550159
 20
45.802646737110017
 30
0.0
 11
-243.11730156550149
 21
45.36601973711003
 31
0.0
  0
LINE
  5
56AF
  8
0
 10
-243.33291856550159
 20
42.996452737110069
 30
0.0
 11
-243.6230895655016
 21
42.613745737110037
 31
0.0
  0
LINE
  5
56B0
  8
0
 10
-243.11730156550149
 20
45.36601973711003
 30
0.0
 11
-242.9845255655016
 21
44.892251737110051
 31
0.0
  0
LINE
  5
56B1
  8
0
 10
-243.11730156550149
 20
43.433079737110063
 30
0.0
 11
-243.33291856550159
 21
42.996452737110069
 31
0.0
  0
LINE
  5
56B2
  8
0
 10
-244.11181456550159
 20
46.522616737110042
 30
0.0
 11
-243.75433556550161
 21
46.20506973711008
 31
0.0
  0
LINE
  5
56B3
  8
0
 10
-244.5196585655016
 20
42.04052373711005
 30
0.0
 11
-244.11181456550159
 21
42.276482737110058
 31
0.0
  0
LINE
  5
56B4
  8
0
 10
-242.9845255655016
 20
44.892251737110051
 30
0.0
 11
-242.93969256550159
 21
44.39954973711005
 31
0.0
  0
LINE
  5
56B5
  8
0
 10
-242.9845255655016
 20
43.906847737110027
 30
0.0
 11
-243.11730156550149
 21
43.433079737110063
 31
0.0
  0
LINE
  5
56B6
  8
0
 10
-245.64100856550149
 20
46.156786737110018
 30
0.0
 11
-245.33048956550161
 21
46.054830737109988
 31
0.0
  0
LINE
  5
56B7
  8
0
 10
-245.9639375655016
 20
42.607885737110081
 30
0.0
 11
-245.64100856550149
 21
42.642311737110049
 31
0.0
  0
LINE
  5
56B8
  8
0
 10
-242.93969256550159
 20
44.39954973711005
 30
0.0
 11
-242.9845255655016
 21
43.906847737110027
 31
0.0
  0
LINE
  5
56B9
  8
0
 10
-243.75433556550161
 20
46.20506973711008
 30
0.0
 11
-243.46096056550161
 21
45.818137737110042
 31
0.0
  0
LINE
  5
56BA
  8
0
 10
-244.11181456550159
 20
42.276482737110058
 30
0.0
 11
-243.75433556550161
 21
42.59402973711002
 31
0.0
  0
LINE
  5
56BB
  8
0
 10
-245.33048956550161
 20
46.054830737109988
 30
0.0
 11
-245.0443125655016
 21
45.889263737110007
 31
0.0
  0
LINE
  5
56BC
  8
0
 10
-245.64100856550149
 20
42.642311737110049
 30
0.0
 11
-245.33048956550161
 21
42.744267737110079
 31
0.0
  0
LINE
  5
56BD
  8
0
 10
-243.46096056550161
 20
45.818137737110042
 30
0.0
 11
-243.24296356550161
 21
45.376689737110041
 31
0.0
  0
LINE
  5
56BE
  8
0
 10
-243.46096056550161
 20
42.980961737110043
 30
0.0
 11
-243.75433556550161
 21
42.59402973711002
 31
0.0
  0
LINE
  5
56BF
  8
0
 10
-243.24296356550161
 20
45.376689737110041
 30
0.0
 11
-243.10872056550161
 21
44.897691737110051
 31
0.0
  0
LINE
  5
56C0
  8
0
 10
-243.24296356550161
 20
43.422408737110032
 30
0.0
 11
-243.46096056550161
 21
42.980961737110043
 31
0.0
  0
LINE
  5
56C1
  8
0
 10
-245.0443125655016
 20
45.889263737110007
 30
0.0
 11
-244.7934775655016
 21
45.66644673711005
 31
0.0
  0
LINE
  5
56C2
  8
0
 10
-245.33048956550161
 20
42.744267737110079
 30
0.0
 11
-245.0443125655016
 21
42.909835737110093
 31
0.0
  0
LINE
  5
56C3
  8
0
 10
-243.10872056550161
 20
44.897691737110051
 30
0.0
 11
-243.0633925655016
 21
44.39954973711005
 31
0.0
  0
LINE
  5
56C4
  8
0
 10
-243.10872056550161
 20
43.901407737110048
 30
0.0
 11
-243.24296356550161
 21
43.422408737110032
 31
0.0
  0
LINE
  5
56C5
  8
0
 10
-243.0633925655016
 20
44.39954973711005
 30
0.0
 11
-243.10872056550161
 21
43.901407737110048
 31
0.0
  0
LINE
  5
56C6
  8
0
 10
-244.7934775655016
 20
45.66644673711005
 30
0.0
 11
-244.58762156550159
 21
45.394944737110023
 31
0.0
  0
LINE
  5
56C7
  8
0
 10
-245.0443125655016
 20
42.909835737110093
 30
0.0
 11
-244.7934775655016
 21
43.132651737110109
 31
0.0
  0
LINE
  5
56C8
  8
0
 10
-244.58762156550159
 20
45.394944737110023
 30
0.0
 11
-244.4346575655016
 21
45.085189737110049
 31
0.0
  0
LINE
  5
56C9
  8
0
 10
-244.58762156550159
 20
43.404154737110069
 30
0.0
 11
-244.7934775655016
 21
43.132651737110109
 31
0.0
  0
LINE
  5
56CA
  8
0
 10
-244.4346575655016
 20
45.085189737110049
 30
0.0
 11
-244.34046256550161
 21
44.74908573711005
 31
0.0
  0
LINE
  5
56CB
  8
0
 10
-244.4346575655016
 20
43.713909737110043
 30
0.0
 11
-244.58762156550159
 21
43.404154737110069
 31
0.0
  0
LINE
  5
56CC
  8
0
 10
-244.34046256550161
 20
44.74908573711005
 30
0.0
 11
-244.30865656550159
 21
44.39954973711005
 31
0.0
  0
LINE
  5
56CD
  8
0
 10
-244.34046256550161
 20
44.050013737110042
 30
0.0
 11
-244.4346575655016
 21
43.713909737110043
 31
0.0
  0
LINE
  5
56CE
  8
0
 10
-244.30865656550159
 20
44.39954973711005
 30
0.0
 11
-244.34046256550161
 21
44.050013737110042
 31
0.0
  0
POINT
  5
56CF
  8
0
 10
-247.78144456550149
 20
44.39954973711005
 30
0.0
1001
PNTFLAG
1000
endpoint
  0
LINE
  5
56D0
  8
¤¤¤ß˝u
 10
-236.06529436187279
 20
44.399528712439661
 30
0.0
 11
-230.3136573874921
 21
44.399528712439661
 31
0.0
  0
LINE
  5
56D1
  8
¤¤¤ß˝u
 10
-113.7644776946844
 20
137.4579478479798
 30
0.0
 11
-235.9229124622388
 21
137.4579478479798
 31
0.0
  0
LINE
  5
56D2
  8
0
 10
-222.08144456550119
 20
108.9236047225763
 30
0.0
 11
-129.0814445655011
 21
108.9236047225763
 31
0.0
  0
LINE
  5
56D3
  8
0
 10
-222.08144456550119
 20
107.3724497549567
 30
0.0
 11
-129.0814445655011
 21
107.3724497549568
 31
0.0
  0
LINE
  5
56D4
  8
0
 10
-222.08144456550119
 20
123.9236047225762
 30
0.0
 11
-129.0814445655011
 21
123.9236047225762
 31
0.0
  0
LINE
  5
56D5
  8
0
 10
-222.08144456550119
 20
123.4236047225763
 30
0.0
 11
-129.0814445655011
 21
123.4236047225763
 31
0.0
  0
LINE
  5
56D6
  8
0
 10
-222.08144456550119
 20
132.4236047225761
 30
0.0
 11
-129.0814445655011
 21
132.4236047225761
 31
0.0
  0
LINE
  5
56D7
  8
0
 10
-222.08144456550119
 20
131.9236047225761
 30
0.0
 11
-129.0814445655011
 21
131.9236047225761
 31
0.0
  0
LINE
  5
56D8
  8
0
 10
-222.08144456550119
 20
142.9236047225761
 30
0.0
 11
-129.0814445655011
 21
142.9236047225761
 31
0.0
  0
LINE
  5
56D9
  8
0
 10
-222.08144456550119
 20
142.4236047225761
 30
0.0
 11
-129.0814445655011
 21
142.4236047225761
 31
0.0
  0
LINE
  5
56DA
  8
0
 10
-222.08144456550119
 20
150.92360472257619
 30
0.0
 11
-129.0814445655011
 21
150.9236047225761
 31
0.0
  0
LINE
  5
56DB
  8
0
 10
-222.08144456550119
 20
151.42360472257619
 30
0.0
 11
-129.0814445655011
 21
151.4236047225761
 31
0.0
  0
LINE
  5
56DC
  8
0
 10
-222.08144456550119
 20
165.9236047225761
 30
0.0
 11
-129.0814445655011
 21
165.9236047225761
 31
0.0
  0
LINE
  5
56DD
  8
0
 10
-222.08144456550119
 20
167.3724497549567
 30
0.0
 11
-129.0814445655011
 21
167.3724497549567
 31
0.0
  0
LINE
  5
56DE
  8
0
 10
-222.08144456550119
 20
167.3724497549567
 30
0.0
 11
-222.08144456550119
 21
107.3724497549567
 31
0.0
  0
ARC
  5
56DF
  8
ĽĐµů˝u
 10
-205.6314445655012
 20
157.45794784797971
 30
0.0
 40
4.0
 50
193.78456357938259
 51
102.5781507675697
  0
LINE
  5
56E0
  8
¤¤¤ß˝u
 10
-205.6314445655012
 20
161.70794784797971
 30
0.0
 11
-205.6314445655012
 21
153.20794784797971
 31
0.0
  0
LINE
  5
56E1
  8
¤¤¤ß˝u
 10
-209.8814445655012
 20
157.45794784797971
 30
0.0
 11
-201.3814445655012
 21
157.45794784797971
 31
0.0
  0
CIRCLE
  5
56E2
  8
0
 10
-205.6314445655012
 20
157.45794784797971
 30
0.0
 40
3.399999999999975
  0
LINE
  5
56E3
  8
¤¤¤ß˝u
 10
-209.8387063839011
 20
117.28405714391771
 30
0.0
 11
-201.33872562335429
 21
117.30214222983329
 31
0.0
  0
ARC
  5
56E4
  8
ĽĐµů˝u
 10
-205.5887160036277
 20
117.29309968687539
 30
0.0
 40
4.0
 50
257.54375510029962
 51
166.33734228848789
  0
CIRCLE
  5
56E5
  8
0
 10
-205.5887160036277
 20
117.29309968687539
 30
0.0
 40
3.399999999999975
  0
LINE
  5
56E6
  8
¤¤¤ß˝u
 10
-205.57967346066999
 20
113.0431093066021
 30
0.0
 11
-205.5977585465854
 21
121.5430900671488
 31
0.0
  0
LINE
  5
56E7
  8
0
 10
-129.0814445655011
 20
167.3724497549567
 30
0.0
 11
-129.0814445655011
 21
107.3724497549568
 31
0.0
  0
LINE
  5
56E8
  8
¤¤¤ß˝u
 10
-175.5814445655013
 20
106.25794784797981
 30
0.0
 11
-175.5814445655013
 21
168.45794784797971
 31
0.0
  0
LINE
  5
56E9
  8
¤¤¤ß˝u
 10
-145.53144456550109
 20
161.70794784797971
 30
0.0
 11
-145.53144456550109
 21
153.20794784797971
 31
0.0
  0
ARC
  5
56EA
  8
ĽĐµů˝u
 10
-145.53144456550109
 20
157.45794784797971
 30
0.0
 40
4.0
 50
77.421849232430205
 51
346.21543642061732
  0
LINE
  5
56EB
  8
¤¤¤ß˝u
 10
-141.28144456550109
 20
157.45794784797971
 30
0.0
 11
-149.78144456550109
 21
157.45794784797971
 31
0.0
  0
CIRCLE
  5
56EC
  8
0
 10
-145.53144456550109
 20
157.45794784797971
 30
0.0
 40
3.399999999999975
  0
LINE
  5
56ED
  8
¤¤¤ß˝u
 10
-145.58321567033241
 20
113.0431093066021
 30
0.0
 11
-145.56513058441689
 21
121.5430900671488
 31
0.0
  0
CIRCLE
  5
56EE
  8
0
 10
-145.57417312737471
 20
117.29309968687539
 30
0.0
 40
3.399999999999975
  0
ARC
  5
56EF
  8
ĽĐµů˝u
 10
-145.57417312737471
 20
117.29309968687539
 30
0.0
 40
4.0
 50
13.66265771151202
 51
282.45624489970038
  0
LINE
  5
56F0
  8
¤¤¤ß˝u
 10
-141.3241827471013
 20
117.28405714391771
 30
0.0
 11
-149.82416350764819
 21
117.30214222983329
 31
0.0
  0
LINE
  5
56F1
  8
0
 10
-222.08144456550119
 20
108.4579478473143
 30
0.0
 11
-234.2814445655014
 21
108.4580304969342
 31
0.0
  0
LINE
  5
56F2
  8
0
 10
-234.2814445655012
 20
166.45803049826529
 30
0.0
 11
-222.08144456550119
 21
166.45794784864529
 31
0.0
  0
LINE
  5
56F3
  8
¤¤¤ß˝u
 10
-263.85976658659609
 20
125.57196435753769
 30
0.0
 11
-263.85976658659609
 21
149.43355336703129
 31
0.0
  0
ARC
  5
56F4
  8
0
  6
CONTINUOUS
 10
-244.7931743105963
 20
129.13464267956209
 30
0.0
 40
2.860349020536761
 50
331.41351417373693
 51
16.413514173737632
  0
LINE
  5
56F5
  8
0
  6
CONTINUOUS
 10
-248.04393856550129
 20
127.1208878485514
 30
0.0
 11
-248.04393856550129
 21
130.15288381093731
 31
0.0
  0
LINE
  5
56F6
  8
0
  6
CONTINUOUS
 10
-248.04393856550129
 20
130.15288381093731
 30
0.0
 11
-242.28151368170029
 21
127.7660092719106
 31
0.0
  0
LINE
  5
56F7
  8
0
 10
-232.5814445655011
 20
166.4580189815147
 30
0.0
 11
-232.5814445655011
 21
108.45801898018409
 31
0.0
  0
LINE
  5
56F8
  8
0
 10
-234.2814445655012
 20
166.45803049826529
 30
0.0
 11
-234.2814445655014
 21
108.4580304969342
 31
0.0
  0
LINE
  5
56F9
  8
0
 10
-283.85976658659649
 20
151.45818464135621
 30
0.0
 11
-283.85976658659661
 21
123.4581846413562
 31
0.0
  0
LINE
  5
56FA
  8
0
 10
-283.85976658659661
 20
123.4581846413562
 30
0.0
 11
-234.28144456550129
 21
123.4581846413559
 31
0.0
  0
LINE
  5
56FB
  8
0
  6
CONTINUOUS
 10
-248.04393856550129
 20
127.1208878485514
 30
0.0
 11
-244.42545858723361
 21
125.6220643663773
 31
0.0
  0
LINE
  5
56FC
  8
¤¤¤ß˝u
 10
-236.0652943618725
 20
113.65818464190239
 30
0.0
 11
-230.31365738749159
 21
113.65818464190239
 31
0.0
  0
LINE
  5
56FD
  8
0
 10
-235.1657724248598
 20
114.6581846419021
 30
0.0
 11
-235.1657724248598
 21
112.6581846419021
 31
0.0
  0
LINE
  5
56FE
  8
0
 10
-235.16577242485971
 20
114.65818464190239
 30
0.0
 11
-235.16577242485971
 21
112.65818464190239
 31
0.0
  0
ARC
  5
56FF
  8
0
 10
-233.94592074600729
 20
112.67793627991929
 30
0.0
 40
1.220011576012179
 50
180.9276427879976
 51
254.03697783117121
  0
ARC
  5
5700
  8
0
 10
-233.9459207460072
 20
112.67793627991951
 30
0.0
 40
1.220011576012179
 50
180.9276427879976
 51
254.03697783117121
  0
ARC
  5
5701
  8
0
 10
-233.9459207460072
 20
114.6384330038852
 30
0.0
 40
1.220011576012179
 50
105.9630221688287
 51
179.0723572120024
  0
LINE
  5
5702
  8
0
  6
CONTINUOUS
 10
-244.42545858723361
 20
125.6220643663773
 30
0.0
 11
-242.28151368170029
 21
127.7660092719106
 31
0.0
  0
CIRCLE
  5
5703
  8
0
 10
-263.85976658659609
 20
137.4184206527728
 30
0.0
 40
7.000000000000381
  0
LINE
  5
5704
  8
¤¤¤ß˝u
 10
-253.20810327115021
 20
137.4184206527728
 30
0.0
 11
-274.61227219551807
 21
137.4184206527728
 31
0.0
  0
LINE
  5
5705
  8
0
 10
-283.85976658659649
 20
151.45818464135621
 30
0.0
 11
-234.2814445655012
 21
151.4581846413559
 31
0.0
  0
ARC
  5
5706
  8
0
  6
CONTINUOUS
 10
-245.30015633926089
 20
129.34464151171451
 30
0.0
 40
2.860349020536761
 50
118.5864858262624
 51
163.5864858262623
  0
CIRCLE
  5
5707
  8
0
 10
-263.85976658659609
 20
137.4184206527728
 30
0.0
 40
4.5000000000003668
  0
ARC
  5
5708
  8
0
  6
CONTINUOUS
 10
-230.07650458586761
 20
137.45803049759979
 30
0.0
 40
7.9674339796336771
 50
163.22134999791231
 51
196.7786500020876
  0
LINE
  5
5709
  8
0
  6
CONTINUOUS
 10
-238.04393856550121
 20
134.00803039800689
 30
0.0
 11
-238.04393856550121
 21
140.90803059719269
 31
0.0
  0
ARC
  5
570A
  8
0
  6
CONTINUOUS
 10
-241.64249738798631
 20
137.45803049759979
 30
0.0
 40
4.0
 50
90.0
 51
210.83520489408599
  0
LINE
  5
570B
  8
0
  6
CONTINUOUS
 10
-237.70468602339179
 20
135.1580306967856
 30
0.0
 11
-234.28144456550129
 21
135.15803069678569
 31
0.0
  0
LINE
  5
570C
  8
0
  6
CONTINUOUS
 10
-237.70468602339179
 20
132.85803049759971
 30
0.0
 11
-234.28144456550129
 21
132.85803049759971
 31
0.0
  0
ARC
  5
570D
  8
0
  6
CONTINUOUS
 10
-240.79094911289491
 20
131.62547576418211
 30
0.0
 40
1.8541337299152461
 50
34.632779998936591
 51
100.3672200010636
  0
ARC
  5
570E
  8
0
  6
CONTINUOUS
 10
-235.92492858845529
 20
134.00803039800689
 30
0.0
 40
2.119009977045994
 50
147.13277999893791
 51
212.86722000106201
  0
LINE
  5
570F
  8
0
  6
CONTINUOUS
 10
-245.41534697536611
 20
133.60848133314579
 30
0.0
 11
-244.84326970685049
 21
134.98959803352159
 31
0.0
  0
ARC
  5
5710
  8
0
  6
CONTINUOUS
 10
-248.5481646916449
 20
132.6990388706098
 30
0.0
 40
2.0596736098176041
 50
335.84790116505968
 51
45.84790116506116
  0
ARC
  5
5711
  8
0
  6
CONTINUOUS
 10
-245.74905277300539
 20
135.43230292060969
 30
0.0
 40
1.8541337299152461
 50
214.6327799989366
 51
280.36722000106357
  0
LINE
  5
5712
  8
0
  6
CONTINUOUS
 10
-245.65932569162479
 20
135.64892325739081
 30
0.0
 11
-240.08140285306709
 21
133.33847196778959
 31
0.0
  0
LINE
  5
5713
  8
0
  6
CONTINUOUS
 10
-246.45859903283309
 20
133.7193067170021
 30
0.0
 11
-240.88067619427551
 21
131.40885542740099
 31
0.0
  0
ARC
  5
5714
  8
0
  6
CONTINUOUS
 10
-245.53824363200579
 20
128.052867079724
 30
0.0
 40
6.9715047321794721
 50
50.721349997912313
 51
84.278650002086238
  0
LINE
  5
5715
  8
0
  6
CONTINUOUS
 10
-246.48401384041011
 20
131.77976545413739
 30
0.0
 11
-242.23416799085811
 21
130.01942166525799
 31
0.0
  0
ARC
  5
5716
  8
0
  6
CONTINUOUS
 10
-241.00175825389439
 20
139.0049116050678
 30
0.0
 40
6.9715047321794721
 50
230.72134999791231
 51
264.27865000208948
  0
ARC
  5
5717
  8
0
  6
CONTINUOUS
 10
-240.12456846000569
 20
129.20987106751011
 30
0.0
 40
2.0596736098176041
 50
89.152098834939196
 51
159.15209883493981
  0
LINE
  5
5718
  8
0
  6
CONTINUOUS
 10
-239.83746671089651
 20
131.2979873976679
 30
0.0
 11
-239.26534681753071
 21
132.6792070035352
 31
0.0
  0
LINE
  5
5719
  8
0
  6
CONTINUOUS
 10
-240.5088940873456
 20
133.45803049759979
 30
0.0
 11
-237.9713164774862
 21
133.45803049759979
 31
0.0
  0
LINE
  5
571A
  8
0
  6
CONTINUOUS
 10
-241.69673217904969
 20
132.0681806512701
 30
0.0
 11
-241.1246549105341
 21
133.44929735164609
 31
0.0
  0
ARC
  5
571B
  8
0
  6
CONTINUOUS
 10
-240.17112993444769
 20
133.1218516310085
 30
0.0
 40
1.8541337299152461
 50
214.6327799989366
 51
280.36722000106357
  0
ARC
  5
571C
  8
0
  6
CONTINUOUS
 10
-246.3688719514526
 20
133.9359270537833
 30
0.0
 40
1.8541337299152461
 50
34.632779998936591
 51
100.3672200010636
  0
LINE
  5
571D
  8
0
  6
CONTINUOUS
 10
-247.27465469556591
 20
134.37863180747749
 30
0.0
 11
-246.7025774270503
 21
135.7597485078532
 31
0.0
  0
LINE
  5
571E
  8
0
  6
CONTINUOUS
 10
-237.70468602339179
 20
142.05803049759979
 30
0.0
 11
-234.28144456550129
 21
142.05803049759979
 31
0.0
  0
LINE
  5
571F
  8
0
  6
CONTINUOUS
 10
-237.70468602339179
 20
139.75803029841401
 30
0.0
 11
-234.28144456550129
 21
139.75803029841401
 31
0.0
  0
LINE
  5
5720
  8
0
  6
CONTINUOUS
 10
-241.64249738798631
 20
141.45803049759979
 30
0.0
 11
-237.9713164774862
 21
141.45803049759979
 31
0.0
  0
ARC
  5
5721
  8
0
  6
CONTINUOUS
 10
-235.92492858845529
 20
140.90803059719269
 30
0.0
 40
2.119009977045994
 50
147.13277999893791
 51
212.86722000106201
  0
LINE
  5
5722
  8
0
 10
-235.1657724248598
 20
162.2581846408097
 30
0.0
 11
-235.1657724248598
 21
160.2581846408097
 31
0.0
  0
LINE
  5
5723
  8
0
 10
-235.16577242485971
 20
162.25818464080999
 30
0.0
 11
-235.16577242485971
 21
160.25818464080999
 31
0.0
  0
LINE
  5
5724
  8
¤¤¤ß˝u
 10
-236.0652943618725
 20
161.25818464080999
 30
0.0
 11
-230.31365738749159
 21
161.25818464080999
 31
0.0
  0
ARC
  5
5725
  8
0
 10
-233.94592074600729
 20
160.27793627882679
 30
0.0
 40
1.220011576012179
 50
180.9276427879976
 51
254.03697783117121
  0
ARC
  5
5726
  8
0
 10
-233.9459207460072
 20
160.27793627882701
 30
0.0
 40
1.220011576012179
 50
180.9276427879976
 51
254.03697783117121
  0
ARC
  5
5727
  8
0
 10
-233.9459207460072
 20
162.23843300279279
 30
0.0
 40
1.220011576012179
 50
105.9630221688287
 51
179.0723572120024
  0
LINE
  5
5728
  8
¤¤¤ß˝u
 10
-103.85976658659661
 20
125.6114915527446
 30
0.0
 11
-103.85976658659661
 21
149.4730805622381
 31
0.0
  0
LINE
  5
5729
  8
0
 10
-83.859766586596834
 20
151.4977118365635
 30
0.0
 11
-83.859766586596834
 21
123.4977118365635
 31
0.0
  0
CIRCLE
  5
572A
  8
0
 10
-103.85976658659661
 20
137.4579478479798
 30
0.0
 40
4.5000000000003668
  0
CIRCLE
  5
572B
  8
0
 10
-103.85976658659661
 20
137.4579478479798
 30
0.0
 40
7.000000000000381
  0
LINE
  5
572C
  8
¤¤¤ß˝u
 10
-93.208103271150719
 20
137.4579478479798
 30
0.0
 11
-114.6122721955186
 21
137.4579478479798
 31
0.0
  0
LINE
  5
572D
  8
0
 10
-129.08144456550119
 20
108.4579478473142
 30
0.0
 11
-116.881444565501
 21
108.4580304969342
 31
0.0
  0
LINE
  5
572E
  8
0
 10
-118.5814445655011
 20
166.4580189815147
 30
0.0
 11
-118.5814445655012
 21
108.45801898018389
 31
0.0
  0
LINE
  5
572F
  8
0
 10
-116.8814445655013
 20
166.4580304982652
 30
0.0
 11
-116.881444565501
 21
108.4580304969342
 31
0.0
  0
ARC
  5
5730
  8
0
 10
-117.216968384995
 20
112.67793627991929
 30
0.0
 40
1.220011576012179
 50
285.96302216882867
 51
359.07235721200237
  0
ARC
  5
5731
  8
0
 10
-117.2169683849952
 20
112.67793627991929
 30
0.0
 40
1.220011576012179
 50
285.96302216882867
 51
359.07235721200237
  0
LINE
  5
5732
  8
¤¤¤ß˝u
 10
-115.0975947691299
 20
113.65818464190239
 30
0.0
 11
-120.8492317435108
 21
113.65818464190239
 31
0.0
  0
ARC
  5
5733
  8
0
 10
-117.2169683849952
 20
114.6384330038851
 30
0.0
 40
1.220011576012179
 50
0.9276427879975832
 51
74.036977831171242
  0
LINE
  5
5734
  8
0
 10
-115.99711670614271
 20
114.6581846419021
 30
0.0
 11
-115.99711670614271
 21
112.6581846419021
 31
0.0
  0
LINE
  5
5735
  8
0
 10
-115.99711670614271
 20
114.65818464190239
 30
0.0
 11
-115.99711670614271
 21
112.6581846419022
 31
0.0
  0
LINE
  5
5736
  8
0
 10
-116.8814445655013
 20
166.45803049826529
 30
0.0
 11
-129.0814445655011
 21
166.45794784864529
 31
0.0
  0
LINE
  5
5737
  8
0
 10
-115.99711670614261
 20
162.25818464080959
 30
0.0
 11
-115.99711670614261
 21
160.25818464080959
 31
0.0
  0
LINE
  5
5738
  8
0
 10
-115.99711670614271
 20
162.25818464080979
 30
0.0
 11
-115.99711670614271
 21
160.25818464080979
 31
0.0
  0
LINE
  5
5739
  8
¤¤¤ß˝u
 10
-115.0975947691299
 20
161.25818464080979
 30
0.0
 11
-120.8492317435108
 21
161.25818464080979
 31
0.0
  0
ARC
  5
573A
  8
0
 10
-117.216968384995
 20
160.27793627882679
 30
0.0
 40
1.220011576012179
 50
285.96302216882867
 51
359.07235721200237
  0
ARC
  5
573B
  8
0
 10
-117.2169683849952
 20
160.27793627882701
 30
0.0
 40
1.220011576012179
 50
285.96302216882867
 51
359.07235721200237
  0
ARC
  5
573C
  8
0
 10
-117.2169683849952
 20
162.23843300279279
 30
0.0
 40
1.220011576012179
 50
0.9276427879975832
 51
74.036977831171242
  0
LINE
  5
573D
  8
0
 10
-83.859766586596834
 20
123.4977118365635
 30
0.0
 11
-116.881444565501
 21
123.4977118365634
 31
0.0
  0
LINE
  5
573E
  8
0
 10
-83.859766586596834
 20
151.4977118365635
 30
0.0
 11
-116.8814445655013
 21
151.4977118365633
 31
0.0
  0
ENDSEC
  0
EOF
