  0
SECTION
  2
HEADER
  9
$ACADVER
  1
AC1009
  9
$INSBASE
 10
0.0
 20
0.0
 30
0.0
  9
$EXTMIN
 10
-290.06140457437891
 20
-52.871460208009331
 30
0.0
  9
$EXTMAX
 10
-58.152412236654378
 20
127.5770256585833
 30
0.0
  9
$LIMMIN
 10
-10.0
 20
-15.0
  9
$LIMMAX
 10
120.0
 20
90.0
  9
$ORTHOMODE
 70
     1
  9
$REGENMODE
 70
     0
  9
$FILLMODE
 70
     1
  9
$QTEXTMODE
 70
     0
  9
$MIRRTEXT
 70
     0
  9
$DRAGMODE
 70
     2
  9
$LTSCALE
 40
20.0
  9
$OSMODE
 70
  3071
  9
$ATTMODE
 70
     1
  9
$TEXTSIZE
 40
3.0
  9
$TRACEWID
 40
1.0
  9
$TEXTSTYLE
  7
STANDARD
  9
$CLAYER
  8
0
  9
$CELTYPE
  6
ByLayer
  9
$CECOLOR
 62
   256
  9
$DIMSCALE
 40
1.0
  9
$DIMASZ
 40
0.18
  9
$DIMEXO
 40
0.0625
  9
$DIMDLI
 40
0.38
  9
$DIMRND
 40
0.0
  9
$DIMDLE
 40
0.0
  9
$DIMEXE
 40
0.18
  9
$DIMTP
 40
0.0
  9
$DIMTM
 40
0.0
  9
$DIMTXT
 40
0.18
  9
$DIMCEN
 40
0.09
  9
$DIMTSZ
 40
0.0
  9
$DIMTOL
 70
     0
  9
$DIMLIM
 70
     0
  9
$DIMTIH
 70
     1
  9
$DIMTOH
 70
     1
  9
$DIMSE1
 70
     0
  9
$DIMSE2
 70
     0
  9
$DIMTAD
 70
     0
  9
$DIMZIN
 70
     0
  9
$DIMBLK
  1

  9
$DIMASO
 70
     1
  9
$DIMSHO
 70
     0
  9
$DIMPOST
  1

  9
$DIMAPOST
  1

  9
$DIMALT
 70
     0
  9
$DIMALTD
 70
     2
  9
$DIMALTF
 40
25.399999999999999
  9
$DIMLFAC
 40
1.0
  9
$DIMTOFL
 70
     0
  9
$DIMTVP
 40
0.0
  9
$DIMTIX
 70
     0
  9
$DIMSOXD
 70
     0
  9
$DIMSAH
 70
     0
  9
$DIMBLK1
  1

  9
$DIMBLK2
  1

  9
$DIMSTYLE
  2
STANDARD
  9
$DIMCLRD
 70
     0
  9
$DIMCLRE
 70
     0
  9
$DIMCLRT
 70
     0
  9
$DIMTFAC
 40
1.0
  9
$DIMGAP
 40
0.09
  9
$LUNITS
 70
     2
  9
$LUPREC
 70
     4
  9
$SKETCHINC
 40
0.5
  9
$FILLETRAD
 40
0.0
  9
$AUNITS
 70
     0
  9
$AUPREC
 70
     0
  9
$MENU
  1
ACAD
  9
$ELEVATION
 40
0.0
  9
$PELEVATION
 40
0.0
  9
$THICKNESS
 40
0.0
  9
$LIMCHECK
 70
     0
  9
$BLIPMODE
 70
     0
  9
$CHAMFERA
 40
0.0
  9
$CHAMFERB
 40
0.0
  9
$SKPOLY
 70
     0
  9
$TDCREATE
 40
2444975.333333334
  9
$TDUPDATE
 40
2453686.5565722571
  9
$TDINDWG
 40
0.1083628125
  9
$TDUSRTIMER
 40
0.0
  9
$USRTIMER
 70
     0
  9
$ANGBASE
 50
0.0
  9
$ANGDIR
 70
     0
  9
$PDMODE
 70
   171
  9
$PDSIZE
 40
0.001
  9
$PLINEWID
 40
0.0
  9
$COORDS
 70
     2
  9
$SPLFRAME
 70
     0
  9
$SPLINETYPE
 70
     6
  9
$SPLINESEGS
 70
   200
  9
$ATTDIA
 70
     0
  9
$ATTREQ
 70
     1
  9
$HANDLING
 70
     1
  9
$HANDSEED
  5
4D3B
  9
$SURFTAB1
 70
     6
  9
$SURFTAB2
 70
     6
  9
$SURFTYPE
 70
     6
  9
$SURFU
 70
     6
  9
$SURFV
 70
     6
  9
$UCSNAME
  2

  9
$UCSORG
 10
0.0
 20
0.0
 30
0.0
  9
$UCSXDIR
 10
1.0
 20
0.0
 30
0.0
  9
$UCSYDIR
 10
0.0
 20
1.0
 30
0.0
  9
$PUCSNAME
  2

  9
$PUCSORG
 10
0.0
 20
0.0
 30
0.0
  9
$PUCSXDIR
 10
1.0
 20
0.0
 30
0.0
  9
$PUCSYDIR
 10
0.0
 20
1.0
 30
0.0
  9
$USERI1
 70
     0
  9
$USERI2
 70
     0
  9
$USERI3
 70
     0
  9
$USERI4
 70
     0
  9
$USERI5
 70
     0
  9
$USERR1
 40
0.0
  9
$USERR2
 40
0.0
  9
$USERR3
 40
0.0
  9
$USERR4
 40
0.0
  9
$USERR5
 40
0.0
  9
$WORLDVIEW
 70
     1
  9
$SHADEDGE
 70
     3
  9
$SHADEDIF
 70
    70
  9
$TILEMODE
 70
     1
  9
$MAXACTVP
 70
    48
  9
$PLIMCHECK
 70
     0
  9
$PEXTMIN
 10
1.0000000000000000E+020
 20
1.0000000000000000E+020
 30
1.0000000000000000E+020
  9
$PEXTMAX
 10
-1.0000000000000000E+020
 20
-1.0000000000000000E+020
 30
-1.0000000000000000E+020
  9
$PLIMMIN
 10
0.0
 20
0.0
  9
$PLIMMAX
 10
12.0
 20
9.0
  9
$UNITMODE
 70
     0
  9
$VISRETAIN
 70
     1
  9
$PLINEGEN
 70
     0
  9
$PSLTSCALE
 70
     0
  0
ENDSEC
  0
SECTION
  2
TABLES
  0
TABLE
  2
VPORT
 70
     2
  0
VPORT
  2
*ACTIVE
 70
     0
 10
0.0
 20
0.0
 11
1.0
 21
1.0
 12
-180.76364512618309
 22
33.967582482537182
 13
457.99999999999972
 23
1082.0
 14
10.0
 24
10.0
 15
10.0
 25
10.0
 16
0.0
 26
0.0
 36
1.0
 17
0.0
 27
0.0
 37
0.0
 40
213.83868437007351
 41
1.7038081805359659
 42
1.0
 43
0.0
 44
0.0
 50
0.0
 51
0.0
 71
     0
 72
 20000
 73
     1
 74
     1
 75
     0
 76
     0
 77
     0
 78
     0
  0
ENDTAB
  0
TABLE
  2
LTYPE
 70
     5
  0
LTYPE
  2
ByBlock
 70
     0
  3

 72
    65
 73
     0
 40
0.0
  0
LTYPE
  2
ByLayer
 70
     0
  3

 72
    65
 73
     0
 40
0.0
  0
LTYPE
  2
CONTINUOUS
 70
     0
  3
łsÄň˝u ________________________
 72
    65
 73
     2
 40
200000.0
 49
200000.0
 49
0.0
  0
LTYPE
  2
CENTER2
 70
     0
  3
Center (.5x) ___ _ ___ _ ___ _ ___ _ ___ _ ___
 72
    65
 73
     4
 40
1.125
 49
0.75
 49
-0.125
 49
0.125
 49
-0.125
  0
LTYPE
  2
DASHED2
 70
     0
  3
Dashed (.5x) _ _ _ _ _ _ _ _ _ _ _ _ _ _ _ _ _
 72
    65
 73
     2
 40
0.375
 49
0.25
 49
-0.125
  0
ENDTAB
  0
TABLE
  2
LAYER
 70
    14
  0
LAYER
  2
0
 70
     0
 62
     7
  6
CONTINUOUS
  0
LAYER
  2
¤¤¤ß˝u
 70
     0
 62
     4
  6
CENTER2
  0
LAYER
  2
µę˝u
 70
     0
 62
     6
  6
DASHED2
  0
LAYER
  2
«ü˝u
 70
     0
 62
     3
  6
CONTINUOUS
  0
LAYER
  2
«Řşc˝u
 70
     0
 62
     1
  6
CONTINUOUS
  0
LAYER
  2
DASH
 70
     0
 62
     6
  6
DASHED2
  0
LAYER
  2
MID
 70
     0
 62
     3
  6
CONTINUOUS
  0
LAYER
  2
CENTER
 70
     0
 62
     4
  6
CENTER2
  0
LAYER
  2
DEFPOINTS
 70
     0
 62
     7
  6
CONTINUOUS
  0
LAYER
  2
AM3
 70
     0
 62
     6
  6
DASHED2
  0
LAYER
  2
AM5
 70
     0
 62
     3
  6
CONTINUOUS
  0
LAYER
  2
AM7
 70
     0
 62
     4
  6
CENTER2
  0
LAYER
  2
AM4
 70
     0
 62
     3
  6
CONTINUOUS
  0
LAYER
  2
CK_LEVEL_1
 70
     0
 62
     7
  6
CONTINUOUS
  0
ENDTAB
  0
TABLE
  2
STYLE
 70
     2
  0
STYLE
  2
STANDARD
 70
     0
 40
0.0
 41
1.0
 50
0.0
 71
     0
 42
3.0
  3
txt
  4

  0
STYLE
  2
«¬¦ˇ2
 70
     0
 40
0.0
 41
1.0
 50
0.0
 71
     0
 42
2.5
  3
txt
  4

  0
ENDTAB
  0
TABLE
  2
VIEW
 70
     0
  0
ENDTAB
  0
TABLE
  2
UCS
 70
     0
  0
ENDTAB
  0
TABLE
  2
APPID
 70
     3
  0
APPID
  2
ACAD
 70
     0
  0
APPID
  2
TCAD
 70
     0
  0
APPID
  2
PNTFLAG
 70
     0
  0
ENDTAB
  0
TABLE
  2
DIMSTYLE
 70
     2
  0
DIMSTYLE
  2
STANDARD
 70
     0
  3

  4

  5

  6

  7

 40
1.0
 41
0.18
 42
0.0625
 43
0.38
 44
0.18
 45
0.0
 46
0.0
 47
0.0
 48
0.0
140
0.18
141
0.09
142
0.0
143
25.399999999999999
144
1.0
145
0.0
146
1.0
147
0.09
 71
     0
 72
     0
 73
     1
 74
     1
 75
     0
 76
     0
 77
     0
 78
     0
170
     0
171
     2
172
     0
173
     0
174
     0
175
     0
176
     0
177
     0
178
     0
  0
DIMSTYLE
  2
ISO-25
 70
     0
  3

  4

  5

  6

  7

 40
1.0
 41
1.1999999999999991
 42
0.7
 43
3.75
 44
0.3
 45
0.0
 46
0.0
 47
0.0
 48
0.0
140
1.5
141
2.5
142
0.0
143
0.03937007874016
144
1.0
145
0.0
146
1.0
147
0.5
 71
     0
 72
     0
 73
     0
 74
     0
 75
     0
 76
     0
 77
     1
 78
     8
170
     0
171
     3
172
     1
173
     0
174
     0
175
     0
176
     3
177
     3
178
     2
  0
ENDTAB
  0
ENDSEC
  0
SECTION
  2
BLOCKS
  0
BLOCK
  8
0
  2
$MODEL_SPACE
 70
     0
 10
0.0
 20
0.0
 30
0.0
  3
$MODEL_SPACE
  1

  0
ENDBLK
  5
255
  8
0
  0
BLOCK
 67
     1
  8
0
  2
$PAPER_SPACE
 70
     0
 10
0.0
 20
0.0
 30
0.0
  3
$PAPER_SPACE
  1

  0
ENDBLK
  5
253
 67
     1
  8
0
  0
BLOCK
  8
0
  2
I1
 70
     0
 10
0.0
 20
0.0
 30
0.0
  3
I1
  1

  0
LINE
  5
4030
  8
¤¤¤ß˝u
 10
-1.783849796371328
 20
0.0
 30
0.0
 11
3.967787178009643
 21
0.0
 31
0.0
  0
ARC
  5
4031
  8
0
 10
0.335523819494028
 20
0.9802483619828871
 30
0.0
 40
1.220011576012179
 50
105.9630221688284
 51
179.0723572120024
  0
LINE
  5
4032
  8
0
 10
-0.88432785935845
 20
1.0
 30
0.0
 11
-0.88432785935845
 21
-1.0
 31
0.0
  0
ARC
  5
4033
  8
0
 10
0.335523819494028
 20
-0.9802483619828871
 30
0.0
 40
1.220011576012179
 50
180.92764278799751
 51
254.0369778311715
  0
ENDBLK
  5
4035
  8
0
  0
BLOCK
  8
0
  2
A$C2C967825
 70
     0
 10
0.0
 20
0.0
 30
0.0
  3
A$C2C967825
  1

  0
LINE
  5
4350
  8
DASH
 10
1.500000000000056
 20
6.0
 30
0.0
 11
-1.4999999999999429
 21
5.9999999999999432
 31
0.0
  0
LINE
  5
4351
  8
DASH
 10
1.250000000000056
 20
7.5
 30
0.0
 11
-1.25
 21
7.4999999999999432
 31
0.0
  0
LINE
  5
4352
  8
DASH
 10
0.0000000000001137
 20
8.2216878364870922
 30
0.0
 11
-1.25
 21
7.4999999999999432
 31
0.0
  0
LINE
  5
4353
  8
DASH
 10
1.250000000000056
 20
0.5
 30
0.0
 11
-1.2499999999999429
 21
0.5
 31
0.0
  0
LINE
  5
4354
  8
DASH
 10
-1.4999999999999429
 20
6.000000000000056
 30
0.0
 11
-1.4999999999999429
 21
0.25
 31
0.0
  0
LINE
  5
4355
  8
DASH
 10
-1.2499999999999429
 20
7.500000000000056
 30
0.0
 11
-1.2499999999999429
 21
0.5
 31
0.0
  0
LINE
  5
4356
  8
DASH
 10
-1.2499999999999429
 20
0.5
 30
0.0
 11
-1.7499999999999429
 21
0.0
 31
0.0
  0
LINE
  5
4357
  8
DASH
 10
1.500000000000056
 20
6.0
 30
0.0
 11
1.500000000000056
 21
0.25
 31
0.0
  0
LINE
  5
4358
  8
DASH
 10
1.250000000000056
 20
7.500000000000056
 30
0.0
 11
1.250000000000056
 21
0.5
 31
0.0
  0
LINE
  5
4359
  8
DASH
 10
0.0
 20
8.2216878364870922
 30
0.0
 11
1.250000000000056
 21
7.4999999999999432
 31
0.0
  0
LINE
  5
435A
  8
DASH
 10
1.250000000000056
 20
0.5
 30
0.0
 11
1.7499999999999429
 21
0.0
 31
0.0
  0
ENDBLK
  5
435C
  8
0
  0
BLOCK
  8
0
  2
A$C7D0D2398
 70
     0
 10
0.0
 20
0.0
 30
0.0
  3
A$C7D0D2398
  1

  0
LINE
  5
435E
  8
DASH
 10
-17.950000000073711
 20
-8.2000000000000171
 30
0.0
 11
-16.450000000073711
 21
-8.2000000000000171
 31
0.0
  0
LINE
  5
435F
  8
DASH
 10
-16.450000000073711
 20
-8.2000000000000171
 30
0.0
 11
-16.450000000073711
 21
-9.9500000000000171
 31
0.0
  0
LINE
  5
4360
  8
DASH
 10
-17.950000000073711
 20
-8.2000000000000171
 30
0.0
 11
-17.950000000073711
 21
-9.9500000000000171
 31
0.0
  0
LINE
  5
4361
  8
CENTER
 10
-17.200000000073711
 20
-7.7000000000000171
 30
0.0
 11
-17.200000000073711
 21
-10.700000000000021
 31
0.0
  0
LINE
  5
4362
  8
DASH
 10
-17.950000000073711
 20
-9.9500000000000171
 30
0.0
 11
-18.200000000073711
 21
-10.200000000000021
 31
0.0
  0
LINE
  5
4363
  8
DASH
 10
-16.450000000073711
 20
-9.9500000000000171
 30
0.0
 11
-16.200000000073711
 21
-10.200000000000021
 31
0.0
  0
LINE
  5
4364
  8
DASH
 10
-17.950000000073711
 20
-9.9500000000000171
 30
0.0
 11
-16.450000000073711
 21
-9.9500000000000171
 31
0.0
  0
ENDBLK
  5
4366
  8
0
  0
BLOCK
  8
0
  2
A$C344751FB
 70
     0
 10
0.0
 20
0.0
 30
0.0
  3
A$C344751FB
  1

  0
ARC
  5
447C
  8
CK_LEVEL_1
  6
CONTINUOUS
 62
     4
 10
17.967433683629618
 20
11.83596615068938
 30
0.0
 40
7.9674339796336797
 50
163.22134999791189
 51
196.77865000208811
  0
ARC
  5
447D
  8
CK_LEVEL_1
  6
CONTINUOUS
 62
     4
 10
6.4014408815108359
 20
11.83596615068938
 30
0.0
 40
4.0
 50
90.0
 51
210.8352048940861
  0
LINE
  5
447E
  8
CK_LEVEL_1
  6
CONTINUOUS
 62
     4
 10
9.9999997039959396
 20
8.3859660510964602
 30
0.0
 11
9.9999997039959396
 21
15.285966250282311
 31
0.0
  0
LINE
  5
447F
  8
CK_LEVEL_1
  6
CONTINUOUS
 62
     4
 10
8.2064715586006969
 20
5.6759230507575458
 30
0.0
 11
8.7785914519665198
 21
7.0571426566247624
 31
0.0
  0
ARC
  5
4480
  8
CK_LEVEL_1
  6
CONTINUOUS
 62
     4
 10
7.2529891566022391
 20
6.0034114172716491
 30
0.0
 40
1.8541337299152469
 50
34.6327799989376
 51
100.36722000106199
  0
LINE
  5
4481
  8
CK_LEVEL_1
  6
CONTINUOUS
 62
     4
 10
7.5350441821515801
 20
7.8359661506893872
 30
0.0
 11
10.072621792010951
 21
7.8359661506893872
 31
0.0
  0
LINE
  5
4482
  8
CK_LEVEL_1
  6
CONTINUOUS
 62
     4
 10
5.4544458134859886
 20
1.835966150689387
 30
0.0
 11
11.250199703995939
 21
1.835966150689387
 31
0.0
  0
ARC
  5
4483
  8
CK_LEVEL_1
  6
CONTINUOUS
 62
     4
 10
3.2507639589009041
 20
3.5125783326517701
 30
0.0
 40
2.8603490205367619
 50
331.41351417373772
 51
16.41351417373809
  0
LINE
  5
4484
  8
CK_LEVEL_1
  6
CONTINUOUS
 62
     4
 10
-0.0000002960040604
 20
1.498823501640913
 30
0.0
 11
-0.0000002960040604
 21
4.5308194640268482
 31
0.0
  0
LINE
  5
4485
  8
CK_LEVEL_1
  6
CONTINUOUS
 62
     4
 10
-0.0000002960040604
 20
4.5308194640268482
 30
0.0
 11
5.762424587796886
 21
2.1439449250002829
 31
0.0
  0
LINE
  5
4486
  8
CK_LEVEL_1
  6
CONTINUOUS
 62
     4
 10
-0.0000002960040604
 20
1.498823501640913
 30
0.0
 11
3.6184796822635681
 21
0.0000000194669667
 31
0.0
  0
LINE
  5
4487
  8
CK_LEVEL_1
  6
CONTINUOUS
 62
     4
 10
3.6184796822635681
 20
0.0000000194669667
 30
0.0
 11
5.762424587796886
 21
2.1439449250002829
 31
0.0
  0
LINE
  5
4488
  8
CK_LEVEL_1
  6
CONTINUOUS
 62
     4
 10
1.585339236664054
 20
8.0972423700917773
 30
0.0
 11
7.1632620752216951
 21
5.7867910804905591
 31
0.0
  0
LINE
  5
4489
  8
CK_LEVEL_1
  6
CONTINUOUS
 62
   252
 10
1.5599244290871459
 20
6.157701107226984
 30
0.0
 11
5.8097702786390641
 21
4.3973573183475594
 31
0.0
  0
LINE
  5
448A
  8
CK_LEVEL_1
  6
CONTINUOUS
 62
     4
 10
2.3846125778724452
 20
10.026858910480369
 30
0.0
 11
7.9625354164301143
 21
7.7164076208791519
 31
0.0
  0
ARC
  5
448B
  8
CK_LEVEL_1
  6
CONTINUOUS
 62
     4
 10
2.2948854964918999
 20
9.8102385736992801
 30
0.0
 40
1.8541337299152469
 50
214.63277999893759
 51
280.36722000106209
  0
ARC
  5
448C
  8
CK_LEVEL_1
  6
CONTINUOUS
 62
     4
 10
1.675066318044599
 20
8.3138627068728681
 30
0.0
 40
1.8541337299152469
 50
34.6327799989376
 51
100.36722000106199
  0
ARC
  5
448D
  8
CK_LEVEL_1
  6
CONTINUOUS
 62
     4
 10
-0.5042264221477524
 20
7.0769745236995041
 30
0.0
 40
2.0596736098176049
 50
335.84790116505968
 51
45.847901165060023
  0
ARC
  5
448E
  8
CK_LEVEL_1
  6
CONTINUOUS
 62
     4
 10
2.7437819302363371
 20
3.7225771648040502
 30
0.0
 40
2.8603490205367619
 50
118.5864858262623
 51
163.5864858262623
  0
LINE
  5
448F
  8
CK_LEVEL_1
  6
CONTINUOUS
 62
     4
 10
0.7692835739313182
 20
8.7565674605670552
 30
0.0
 11
1.3413608424469601
 21
10.13768416094285
 31
0.0
  0
LINE
  5
4490
  8
CK_LEVEL_1
  6
CONTINUOUS
 62
     4
 10
6.3472060904474574
 20
6.446116304359804
 30
0.0
 11
6.9192833589630993
 21
7.8272330047356027
 31
0.0
  0
ARC
  5
4491
  8
CK_LEVEL_1
  6
CONTINUOUS
 62
     4
 10
7.0421800156027814
 20
13.382847258157369
 30
0.0
 40
6.971504732179473
 50
230.7213499979124
 51
264.27865000208942
  0
ARC
  5
4492
  8
CK_LEVEL_1
  6
CONTINUOUS
 62
     4
 10
7.9193698094914557
 20
3.587806720599644
 30
0.0
 40
2.0596736098176041
 50
89.152098834940844
 51
159.15209883493981
  0
ARC
  5
4493
  8
CK_LEVEL_1
  6
CONTINUOUS
 62
     4
 10
7.872808335049541
 20
7.4997872840980904
 30
0.0
 40
1.8541337299152469
 50
214.63277999893759
 51
280.36722000106209
  0
ARC
  5
4494
  8
CK_LEVEL_1
  6
CONTINUOUS
 62
     4
 10
2.5056946374913589
 20
2.43080273281356
 30
0.0
 40
6.971504732179473
 50
50.721349997912462
 51
84.278650002087815
  0
LINE
  5
4495
  8
CK_LEVEL_1
  6
CONTINUOUS
 62
     4
 10
2.628591294131041
 20
7.9864169862353256
 30
0.0
 11
3.2006685626466829
 21
9.3675336866111252
 31
0.0
  0
ARC
  5
4496
  8
CK_LEVEL_1
  6
CONTINUOUS
 62
     4
 10
12.119009681041939
 20
8.3859660510964602
 30
0.0
 40
2.1190099770459958
 50
147.13277999893791
 51
212.86722000106201
  0
LINE
  5
4497
  8
CK_LEVEL_1
  6
CONTINUOUS
 62
     4
 10
10.33925224610533
 20
7.235966150689392
 30
0.0
 11
11.250199703995939
 21
7.235966150689392
 31
0.0
  0
LINE
  5
4498
  8
CK_LEVEL_1
  6
CONTINUOUS
 62
     4
 10
10.33925224610533
 20
9.5359663498752241
 30
0.0
 11
11.250199703995939
 21
9.5359663498752241
 31
0.0
  0
LINE
  5
4499
  8
CK_LEVEL_1
  6
CONTINUOUS
 62
     4
 10
6.4014408815108359
 20
15.835966150689391
 30
0.0
 11
10.072621792010951
 21
15.835966150689391
 31
0.0
  0
ARC
  5
449A
  8
CK_LEVEL_1
  6
CONTINUOUS
 62
     4
 10
12.119009681041939
 20
15.285966250282311
 30
0.0
 40
2.1190099770459958
 50
147.13277999893791
 51
212.86722000106201
  0
LINE
  5
449B
  8
CK_LEVEL_1
  6
CONTINUOUS
 62
     4
 10
10.33925224610533
 20
14.13596595150355
 30
0.0
 11
11.250199703995939
 21
14.13596595150355
 31
0.0
  0
LINE
  5
449C
  8
CK_LEVEL_1
  6
CONTINUOUS
 62
     4
 10
10.33925224610533
 20
16.435966150689381
 30
0.0
 11
11.250199703995939
 21
16.435966150689381
 31
0.0
  0
ENDBLK
  5
449E
  8
0
  0
BLOCK
  8
0
  2
A$C3C7B33E6
 70
     0
 10
0.0
 20
0.0
 30
0.0
  3
A$C3C7B33E6
  1

  0
LINE
  5
45B6
  8
0
 10
9.9999999999997655
 20
4.0000768000366378
 30
0.0
 11
9.9999999999997655
 21
0.9991443500001233
 31
0.0
  0
LINE
  5
45B7
  8
0
 10
-10.000000000000229
 20
3.9993274000223238
 30
0.0
 11
-10.0
 21
1.000171169400176
 31
0.0
  0
LINE
  5
45B8
  8
µę˝u
 10
3.0001220999999978
 20
8.6999999999997968
 30
0.0
 11
3.0001220999999978
 21
0.5000223852734829
 31
0.0
  0
LINE
  5
45B9
  8
µę˝u
 10
-2.9998779000000009
 20
8.6999999999997968
 30
0.0
 11
-2.9998779000000009
 21
0.5000223852734829
 31
0.0
  0
LINE
  5
45BA
  8
¤¤¤ß˝u
 10
0.0
 20
0.0
 30
0.0
 11
0.0
 21
18.382972174047129
 31
0.0
  0
LINE
  5
45BB
  8
0
 10
-10.0
 20
1.000171169400176
 30
0.0
 11
-8.9998275141015256
 21
0.0000000000000009
 31
0.0
  0
LINE
  5
45BC
  8
µę˝u
 10
-2.9998779000000009
 20
0.5000223852734829
 30
0.0
 11
2.999884683361187
 21
0.4999816868844258
 31
0.0
  0
LINE
  5
45BD
  8
0
 10
9.0008556494003642
 20
0.0000000000000009
 30
0.0
 11
3.0000437594142109
 21
0.0000000000000009
 31
0.0
  0
LINE
  5
45BE
  8
µę˝u
 10
3.4998528042599442
 20
0.0000000000000009
 30
0.0
 11
2.999884683361187
 21
0.4999816868844258
 31
0.0
  0
LINE
  5
45BF
  8
0
 10
2.500043790017116
 20
0.4999999999999725
 30
0.0
 11
3.0000437594142109
 21
0.0000000000000009
 31
0.0
  0
LINE
  5
45C0
  8
0
 10
9.9999999999997655
 20
0.9991443500001233
 30
0.0
 11
9.0008556494003642
 21
0.0000000000000009
 31
0.0
  0
LINE
  5
45C1
  8
0
 10
-2.9991642746651901
 20
0.0000000000000009
 30
0.0
 11
-8.9998275141015256
 21
0.0000000000000009
 31
0.0
  0
LINE
  5
45C2
  8
µę˝u
 10
-3.499900285273724
 20
0.0000000000000009
 30
0.0
 11
-2.9998779000000009
 21
0.5000223852734829
 31
0.0
  0
LINE
  5
45C3
  8
0
 10
-2.9991642746651901
 20
0.0000000000000009
 30
0.0
 11
-2.4991643200344238
 21
0.4999999999999654
 31
0.0
  0
LINE
  5
45C4
  8
0
 10
-2.4991643200344238
 20
0.4999999999999654
 30
0.0
 11
2.500043790017116
 21
0.4999999999999725
 31
0.0
  0
ARC
  5
45C5
  8
0
 10
-9.7800566501177855
 20
17.199734150117798
 30
0.0
 40
2.029999999999998
 50
278.9381683556295
 51
351.0618490513782
  0
ARC
  5
45C6
  8
0
 10
-9.7800566501177855
 20
10.800021849882331
 30
0.0
 40
2.0299999999999989
 50
8.5780441959913851
 51
81.421986179370265
  0
LINE
  5
45C7
  8
0
 10
-10.000000000000229
 20
3.9993274000223238
 30
0.0
 11
-6.5498047000000952
 21
7.4495225000102261
 31
0.0
  0
LINE
  5
45C8
  8
0
 10
-10.0
 20
14.659044600670841
 30
0.0
 11
-9.4646586058759112
 21
15.194385284292119
 31
0.0
  0
LINE
  5
45C9
  8
0
 10
-10.0
 20
14.659044600670841
 30
0.0
 11
-10.000000000000229
 21
13.33004360008588
 31
0.0
  0
LINE
  5
45CA
  8
0
 10
-10.000000000000229
 20
13.33004360008588
 30
0.0
 11
-9.4772701411434355
 21
12.80731363982296
 31
0.0
  0
ARC
  5
45CB
  8
0
 10
9.7800566501177855
 20
17.199734150117798
 30
0.0
 40
2.029999999999998
 50
188.90452530252281
 51
261.09548141754442
  0
LINE
  5
45CC
  8
µę˝u
 10
4.7501220999999978
 20
17.099999999999891
 30
0.0
 11
4.7501220999999978
 21
8.9999999999999911
 31
0.0
  0
LINE
  5
45CD
  8
0
 10
6.5500487999995576
 20
9.8792357003491773
 30
0.0
 11
7.7726128043846074
 21
11.10179859883352
 31
0.0
  0
ARC
  5
45CE
  8
0
 10
9.7800566501177855
 20
10.800021849882331
 30
0.0
 40
2.0299999999999989
 50
98.549219819438363
 51
171.45080749747331
  0
LINE
  5
45CF
  8
µę˝u
 10
3.0
 20
8.6999999999997968
 30
0.0
 11
3.2999999999999541
 21
8.9999999999999911
 31
0.0
  0
LINE
  5
45D0
  8
0
 10
9.4658364002559665
 20
15.194200397084391
 30
0.0
 11
10.0
 21
14.660036999840591
 31
0.0
  0
LINE
  5
45D1
  8
0
 10
10.0
 20
14.660036999840591
 30
0.0
 11
10.000000000000229
 21
13.32918600046359
 31
0.0
  0
LINE
  5
45D2
  8
0
 10
9.4782789440776014
 20
12.80746555173725
 30
0.0
 11
10.000000000000229
 21
13.32918600046359
 31
0.0
  0
LINE
  5
45D3
  8
0
 10
7.1600367000635279
 20
17.499999999999989
 30
0.0
 11
7.774522933938214
 21
16.885513665032661
 31
0.0
  0
LINE
  5
45D4
  8
µę˝u
 10
4.750122281758876
 20
17.09999932166691
 30
0.0
 11
4.9810627810704773
 21
17.499999999999989
 31
0.0
  0
LINE
  5
45D5
  8
µę˝u
 10
-4.7498779000000013
 20
17.099999999999891
 30
0.0
 11
-4.7498779000000013
 21
8.9999999999999911
 31
0.0
  0
LINE
  5
45D6
  8
0
 10
-7.7727650206995804
 20
11.102809423022309
 30
0.0
 11
-6.5498047000000952
 21
9.8798487000431532
 31
0.0
  0
LINE
  5
45D7
  8
µę˝u
 10
-2.9998779000000009
 20
8.6999999999997968
 30
0.0
 11
-3.299877899999955
 21
8.9999999999999911
 31
0.0
  0
LINE
  5
45D8
  8
µę˝u
 10
-4.7498780817588786
 20
17.09999932166691
 30
0.0
 11
-4.9808185810707073
 21
17.499999999999989
 31
0.0
  0
LINE
  5
45D9
  8
0
 10
-7.774707688470925
 20
16.884336715120309
 30
0.0
 11
-7.1590440997802034
 21
17.499999999999989
 31
0.0
  0
LINE
  5
45DA
  8
µę˝u
 10
-4.7498779000000013
 20
8.9999999999999911
 30
0.0
 11
4.7501220999999978
 21
8.9999999999999911
 31
0.0
  0
LINE
  5
45DB
  8
µę˝u
 10
-2.9998779000000009
 20
8.6999999999997968
 30
0.0
 11
3.0001220999999978
 21
8.6999999999997968
 31
0.0
  0
LINE
  5
45DC
  8
0
 10
-7.1590440997802034
 20
17.499999999999989
 30
0.0
 11
7.1600367000635279
 21
17.499999999999989
 31
0.0
  0
LINE
  5
45DD
  8
µę˝u
 10
-4.7498792566666452
 20
17.099999999999891
 30
0.0
 11
4.7501220999999978
 21
17.099999999999891
 31
0.0
  0
LINE
  5
45DE
  8
0
 10
6.5500488000002397
 20
7.45002840004208
 30
0.0
 11
9.9999999999997655
 21
4.0000768000366378
 31
0.0
  0
LINE
  5
45DF
  8
0
 10
-6.5498047000000952
 20
9.8798487000431532
 30
0.0
 11
-6.5498047000000952
 21
7.4495225000102261
 31
0.0
  0
LINE
  5
45E0
  8
0
 10
6.5500487999995576
 20
9.8792357003491773
 30
0.0
 11
6.5500488000002397
 21
7.45002840004208
 31
0.0
  0
ENDBLK
  5
45E3
  8
0
  0
BLOCK
  8
0
  2
A$C781E382E
 70
     0
 10
0.0
 20
0.0
 30
0.0
  3
A$C781E382E
  1

  0
ARC
  5
462F
  8
0
 10
9.7800566501177855
 20
17.199734150117798
 30
0.0
 40
2.129999999999999
 50
185.36290811337429
 51
264.6370985380525
  0
ARC
  5
4630
  8
0
 10
9.7800566501177855
 20
10.800021849882331
 30
0.0
 40
2.129999999999999
 50
95.049881965108554
 51
174.95013512119729
  0
ARC
  5
4631
  8
0
 10
-9.7800566501177855
 20
10.800021849882331
 30
0.0
 40
2.129999999999999
 50
5.0753009504657109
 51
84.924724058902711
  0
ARC
  5
4632
  8
0
 10
-9.7800566501177855
 20
17.199734150117798
 30
0.0
 40
2.129999999999999
 50
275.39251268205442
 51
354.60749637709461
  0
LINE
  5
4633
  8
0
 10
9.9999999999997655
 20
4.0000768000366378
 30
0.0
 11
9.9999999999997655
 21
0.9991443500001233
 31
0.0
  0
LINE
  5
4634
  8
0
 10
-10.000000000000229
 20
3.9993274000223238
 30
0.0
 11
-10.0
 21
1.000171169400176
 31
0.0
  0
LINE
  5
4635
  8
µę˝u
 10
3.0001220999999978
 20
8.6999999999997968
 30
0.0
 11
3.0001220999999978
 21
0.5000223852734829
 31
0.0
  0
LINE
  5
4636
  8
µę˝u
 10
-2.9998779000000009
 20
8.6999999999997968
 30
0.0
 11
-2.9998779000000009
 21
0.5000223852734829
 31
0.0
  0
LINE
  5
4637
  8
¤¤¤ß˝u
 10
0.0
 20
0.0
 30
0.0
 11
0.0
 21
18.382972174047129
 31
0.0
  0
LINE
  5
4638
  8
0
 10
-10.0
 20
1.000171169400176
 30
0.0
 11
-8.9998275141015256
 21
0.0000000000000009
 31
0.0
  0
LINE
  5
4639
  8
µę˝u
 10
-2.9998779000000009
 20
0.5000223852734829
 30
0.0
 11
2.999884683361187
 21
0.4999816868844258
 31
0.0
  0
LINE
  5
463A
  8
0
 10
9.0008556494003642
 20
0.0000000000000009
 30
0.0
 11
3.0000437594142109
 21
0.0000000000000009
 31
0.0
  0
LINE
  5
463B
  8
µę˝u
 10
3.4998528042599442
 20
0.0000000000000009
 30
0.0
 11
2.999884683361187
 21
0.4999816868844258
 31
0.0
  0
LINE
  5
463C
  8
0
 10
2.500043790017116
 20
0.4999999999999725
 30
0.0
 11
3.0000437594142109
 21
0.0000000000000009
 31
0.0
  0
LINE
  5
463D
  8
0
 10
9.9999999999997655
 20
0.9991443500001233
 30
0.0
 11
9.0008556494003642
 21
0.0000000000000009
 31
0.0
  0
LINE
  5
463E
  8
0
 10
-2.9991642746651901
 20
0.0000000000000009
 30
0.0
 11
-8.9998275141015256
 21
0.0000000000000009
 31
0.0
  0
LINE
  5
463F
  8
µę˝u
 10
-3.499900285273724
 20
0.0000000000000009
 30
0.0
 11
-2.9998779000000009
 21
0.5000223852734829
 31
0.0
  0
LINE
  5
4640
  8
0
 10
-2.9991642746651901
 20
0.0000000000000009
 30
0.0
 11
-2.4991643200344238
 21
0.4999999999999654
 31
0.0
  0
LINE
  5
4641
  8
0
 10
-2.4991643200344238
 20
0.4999999999999654
 30
0.0
 11
2.500043790017116
 21
0.4999999999999725
 31
0.0
  0
LINE
  5
4642
  8
0
 10
-10.000000000000229
 20
3.9993274000223238
 30
0.0
 11
-6.5498047000000952
 21
7.4495225000102261
 31
0.0
  0
LINE
  5
4643
  8
0
 10
-10.0
 20
14.659044600670841
 30
0.0
 11
-9.5798830540417725
 21
15.079160989051671
 31
0.0
  0
LINE
  5
4644
  8
0
 10
-10.0
 20
14.659044600670841
 30
0.0
 11
-10.000000000000229
 21
13.33004360008588
 31
0.0
  0
LINE
  5
4645
  8
0
 10
-10.000000000000229
 20
13.33004360008588
 30
0.0
 11
-9.5916273061934163
 21
12.92167082705747
 31
0.0
  0
LINE
  5
4646
  8
µę˝u
 10
4.7501220999999978
 20
17.099999999999891
 30
0.0
 11
4.7501220999999978
 21
8.9999999999999911
 31
0.0
  0
LINE
  5
4647
  8
0
 10
6.5500487999995576
 20
9.8792357003491773
 30
0.0
 11
7.6583243119304916
 21
10.98751020976191
 31
0.0
  0
LINE
  5
4648
  8
µę˝u
 10
3.0
 20
8.6999999999997968
 30
0.0
 11
3.2999999999999541
 21
8.9999999999999911
 31
0.0
  0
LINE
  5
4649
  8
0
 10
9.5809790211101742
 20
15.0790578198805
 30
0.0
 11
10.0
 21
14.660036999840591
 31
0.0
  0
LINE
  5
464A
  8
0
 10
10.0
 20
14.660036999840591
 30
0.0
 11
10.000000000000229
 21
13.32918600046359
 31
0.0
  0
LINE
  5
464B
  8
0
 10
9.5925676575115446
 20
12.92175413215819
 30
0.0
 11
10.000000000000229
 21
13.32918600046359
 31
0.0
  0
LINE
  5
464C
  8
0
 10
7.1600367000635279
 20
17.499999999999989
 30
0.0
 11
7.6593803429912759
 21
17.00065627492236
 31
0.0
  0
LINE
  5
464D
  8
µę˝u
 10
4.750122281758876
 20
17.09999932166691
 30
0.0
 11
4.9810627810704773
 21
17.499999999999989
 31
0.0
  0
LINE
  5
464E
  8
µę˝u
 10
-4.7498779000000013
 20
17.099999999999891
 30
0.0
 11
-4.7498779000000013
 21
8.9999999999999911
 31
0.0
  0
LINE
  5
464F
  8
0
 10
-7.6584077551914609
 20
10.988452119897611
 30
0.0
 11
-6.5498047000000952
 21
9.8798487000431532
 31
0.0
  0
LINE
  5
4650
  8
µę˝u
 10
-2.9998779000000009
 20
8.6999999999997968
 30
0.0
 11
-3.299877899999955
 21
8.9999999999999911
 31
0.0
  0
LINE
  5
4651
  8
µę˝u
 10
-4.7498780817588786
 20
17.09999932166691
 30
0.0
 11
-4.9808185810707073
 21
17.499999999999989
 31
0.0
  0
LINE
  5
4652
  8
0
 10
-7.6594834574018194
 20
16.9995608893298
 30
0.0
 11
-7.1590440997802034
 21
17.499999999999989
 31
0.0
  0
LINE
  5
4653
  8
µę˝u
 10
-4.7498779000000013
 20
8.9999999999999911
 30
0.0
 11
4.7501220999999978
 21
8.9999999999999911
 31
0.0
  0
LINE
  5
4654
  8
µę˝u
 10
-2.9998779000000009
 20
8.6999999999997968
 30
0.0
 11
3.0001220999999978
 21
8.6999999999997968
 31
0.0
  0
LINE
  5
4655
  8
0
 10
-7.1590440997802034
 20
17.499999999999989
 30
0.0
 11
7.1600367000635279
 21
17.499999999999989
 31
0.0
  0
LINE
  5
4656
  8
µę˝u
 10
-4.7498792566666452
 20
17.099999999999891
 30
0.0
 11
4.7501220999999978
 21
17.099999999999891
 31
0.0
  0
LINE
  5
4657
  8
0
 10
6.5500488000002397
 20
7.45002840004208
 30
0.0
 11
9.9999999999997655
 21
4.0000768000366378
 31
0.0
  0
LINE
  5
4658
  8
0
 10
-6.5498047000000952
 20
9.8798487000431532
 30
0.0
 11
-6.5498047000000952
 21
7.4495225000102261
 31
0.0
  0
LINE
  5
4659
  8
0
 10
6.5500487999995576
 20
9.8792357003491773
 30
0.0
 11
6.5500488000002397
 21
7.45002840004208
 31
0.0
  0
ENDBLK
  5
465C
  8
0
  0
BLOCK
  8
0
  2
*U6
 70
     1
 10
0.0
 20
0.0
 30
0.0
  3
*U6
  1

  0
TEXT
  5
4D01
  8
0
 10
-289.84208229159998
 20
-22.27762015640948
 30
0.0
 40
7.8000001593418631
  1
HGH20CA
  0
TEXT
  5
4D02
  8
0
 10
-290.06140457437891
 20
-35.376034266815942
 30
0.0
 40
7.8000001593418631
  1
C  : 1810 kgf 
  0
TEXT
  5
4D03
  8
0
 10
-290.06140457437891
 20
-48.574061746236431
 30
0.0
 40
7.8000001593418631
  1
C
  0
TEXT
  5
4D04
  8
0
 10
-282.37950102884099
 20
-43.764061647975609
 30
0.0
 40
5.4600001115393031
  1

  0
TEXT
  5
4D05
  8
0
 10
-283.20811893194718
 20
-51.036663422559812
 30
0.0
 40
5.4600001115393031
  1
0
  0
TEXT
  5
4D06
  8
0
 10
-278.76909445102098
 20
-48.575231746260329
 30
0.0
 40
7.8023401593896651
  1
: 3860 kgf
  0
ENDBLK
  5
4D08
  8
0
  0
ENDSEC
  0
SECTION
  2
ENTITIES
  0
INSERT
  5
413A
  8
0
  2
*U6
 10
0.0
 20
0.0
 30
0.0
  0
ARC
  5
4A3B
  8
0
 10
-167.35101791697869
 20
83.636777296600471
 30
0.0
 40
1.220011576012179
 50
180.9276427879974
 51
254.03697783117121
  0
LINE
  5
4A3C
  8
0
 10
-168.5708695958312
 20
85.617025658583358
 30
0.0
 11
-168.5708695958312
 21
83.61702565858333
 31
0.0
  0
ARC
  5
4A3D
  8
0
 10
-167.35101791697869
 20
85.597274020566203
 30
0.0
 40
1.220011576012179
 50
105.9630221688287
 51
179.0723572120024
  0
ARC
  5
4A3E
  8
0
 10
-167.3510179169788
 20
121.1367772966005
 30
0.0
 40
1.220011576012179
 50
180.9276427879974
 51
254.03697783117121
  0
LINE
  5
4A3F
  8
0
 10
-168.57086959583131
 20
123.1170256585834
 30
0.0
 11
-168.57086959583131
 21
121.1170256585833
 31
0.0
  0
ARC
  5
4A40
  8
0
 10
-167.3510179169788
 20
123.0972740205663
 30
0.0
 40
1.220011576012179
 50
105.9630221688287
 51
179.0723572120024
  0
ARC
  5
4A41
  8
0
 10
-92.290721274683648
 20
121.1367772966003
 30
0.0
 40
1.220011576012179
 50
285.96302216882867
 51
359.07235721200237
  0
LINE
  5
4A42
  8
0
 10
-91.070869595831226
 20
123.1170256585832
 30
0.0
 11
-91.070869595831226
 21
121.1170256585832
 31
0.0
  0
ARC
  5
4A43
  8
0
 10
-92.290721274683648
 20
123.0972740205662
 30
0.0
 40
1.220011576012179
 50
0.9276427879975832
 51
74.036977831171271
  0
ARC
  5
4A44
  8
0
 10
-92.290721274683747
 20
83.636777296600457
 30
0.0
 40
1.220011576012179
 50
285.96302216882867
 51
359.07235721200237
  0
LINE
  5
4A45
  8
0
 10
-91.070869595831326
 20
85.617025658583316
 30
0.0
 11
-91.070869595831326
 21
83.617025658583316
 31
0.0
  0
ARC
  5
4A46
  8
0
 10
-92.290721274683747
 20
85.597274020566203
 30
0.0
 40
1.220011576012179
 50
0.9276427879975832
 51
74.036977831171271
  0
ARC
  5
4A47
  8
0
 10
-167.35101791697869
 20
17.411473767324029
 30
0.0
 40
1.220011576012179
 50
180.92764278799731
 51
254.03697783117121
  0
LINE
  5
4A48
  8
0
 10
-168.5708695958312
 20
19.39172212930692
 30
0.0
 11
-168.5708695958312
 21
17.39172212930692
 31
0.0
  0
ARC
  5
4A49
  8
0
 10
-167.35101791697869
 20
19.371970491289801
 30
0.0
 40
1.220011576012179
 50
105.9630221688287
 51
179.0723572120024
  0
ARC
  5
4A4A
  8
0
 10
-92.290721274683747
 20
17.411473767324029
 30
0.0
 40
1.220011576012179
 50
285.96302216882867
 51
359.07235721200271
  0
LINE
  5
4A4B
  8
0
 10
-91.070869595831326
 20
19.39172212930692
 30
0.0
 11
-91.070869595831326
 21
17.39172212930692
 31
0.0
  0
ARC
  5
4A4C
  8
0
 10
-92.290721274683747
 20
19.371970491289801
 30
0.0
 40
1.220011576012179
 50
0.9276427879975832
 51
74.036977831171271
  0
LINE
  5
4A4D
  8
0
 10
-167.6865417364728
 20
5.991726072706796
 30
0.0
 11
-91.955197455189776
 21
5.991726072706796
 31
0.0
  0
LINE
  5
4A4E
  8
0
 10
-272.1055050699282
 20
5.991726072706796
 30
0.0
 11
-282.70592594884261
 21
5.991726072706796
 31
0.0
  0
LINE
  5
4A4F
  8
0
 10
-242.70632190386769
 20
5.991726072706796
 30
0.0
 11
-253.30570487825699
 21
5.991726072706796
 31
0.0
  0
LINE
  5
4A50
  8
0
 10
-274.70592594884272
 20
31.391726072706899
 30
0.0
 11
-283.7063219038676
 21
31.391726072706899
 31
0.0
  0
LINE
  5
4A51
  8
0
 10
-258.70592594884272
 20
31.391726072706899
 30
0.0
 11
-266.70632190386772
 21
31.391726072706899
 31
0.0
  0
LINE
  5
4A52
  8
0
 10
-241.70592594884269
 20
31.391726072706891
 30
0.0
 11
-250.70632190386769
 21
31.391726072706891
 31
0.0
  0
LINE
  5
4A53
  8
0
 10
-265.63038773742397
 20
21.031924051168311
 30
0.0
 11
-270.89396230605507
 21
21.031924051168311
 31
0.0
  0
LINE
  5
4A54
  8
0
 10
-252.7061239263551
 20
5.3921450512863869
 30
0.0
 11
-252.7061239263551
 21
2.3909925227071529
 31
0.0
  0
LINE
  5
4A55
  8
0
 10
-272.70612392635519
 20
5.3911072510984326
 30
0.0
 11
-272.70612392635519
 21
2.3917751422677478
 31
0.0
  0
LINE
  5
4A56
  8
¤¤¤ß˝u
 10
-262.70612392635508
 20
33.404582647867748
 30
0.0
 11
-262.70612392635508
 21
-0.5040017546982636
 31
0.0
  0
LINE
  5
4A57
  8
0
 10
-256.15592688507212
 20
11.27096177305603
 30
0.0
 11
-256.15592688507138
 21
8.8417544727489403
 31
0.0
  0
LINE
  5
4A58
  8
0
 10
-269.25578038507177
 20
11.271574772750011
 30
0.0
 11
-269.25578038507177
 21
8.8412485727170846
 31
0.0
  0
LINE
  5
4A59
  8
µę˝u
 10
-267.45612528302178
 20
18.491726072706751
 30
0.0
 11
-257.95612392635508
 21
18.491726072706751
 31
0.0
  0
LINE
  5
4A5A
  8
0
 10
-269.86501978485188
 20
18.891726072706849
 30
0.0
 11
-255.54593898500821
 21
18.891726072706849
 31
0.0
  0
LINE
  5
4A5B
  8
µę˝u
 10
-265.70612392635508
 20
10.091726072706649
 30
0.0
 11
-259.70612392635508
 21
10.091726072706649
 31
0.0
  0
LINE
  5
4A5C
  8
µę˝u
 10
-267.45612392635508
 20
10.391726072706851
 30
0.0
 11
-257.95612392635508
 21
10.391726072706851
 31
0.0
  0
LINE
  5
4A5D
  8
0
 10
-270.36545914247353
 20
18.391286962036659
 30
0.0
 11
-269.86501978485188
 21
18.891726072706849
 31
0.0
  0
LINE
  5
4A5E
  8
µę˝u
 10
-267.45617340604139
 20
18.49172539437377
 30
0.0
 11
-267.68711390535333
 21
18.891726072706849
 31
0.0
  0
LINE
  5
4A5F
  8
µę˝u
 10
-265.70612392635508
 20
10.091726072706649
 30
0.0
 11
-266.00612392635509
 21
10.391726072706851
 31
0.0
  0
LINE
  5
4A60
  8
0
 10
-270.36438344026323
 20
12.38017819260447
 30
0.0
 11
-269.25578038507177
 21
11.271574772750011
 31
0.0
  0
LINE
  5
4A61
  8
µę˝u
 10
-267.45612392635508
 20
18.491726072706751
 30
0.0
 11
-267.45612392635508
 21
10.391726072706851
 31
0.0
  0
LINE
  5
4A62
  8
µę˝u
 10
-257.95570410538539
 20
18.491725393424812
 30
0.0
 11
-257.72476360607391
 21
18.891726071757901
 31
0.0
  0
LINE
  5
4A63
  8
0
 10
-255.54593898500821
 20
18.891726072706849
 30
0.0
 11
-255.04659534208039
 21
18.392382347629219
 31
0.0
  0
LINE
  5
4A64
  8
0
 10
-253.1134080275601
 20
14.31348020486505
 30
0.0
 11
-252.70597568507151
 21
14.720912073170449
 31
0.0
  0
LINE
  5
4A65
  8
0
 10
-252.70597568507171
 20
16.051763072547448
 30
0.0
 11
-252.70597568507151
 21
14.720912073170449
 31
0.0
  0
LINE
  5
4A66
  8
0
 10
-253.1249966639615
 20
16.47078389258736
 30
0.0
 11
-252.70597568507171
 21
16.051763072547448
 31
0.0
  0
LINE
  5
4A67
  8
µę˝u
 10
-259.70624602635507
 20
10.091726072706649
 30
0.0
 11
-259.40624602635518
 21
10.391726072706851
 31
0.0
  0
LINE
  5
4A68
  8
0
 10
-256.15592688507212
 20
11.27096177305603
 30
0.0
 11
-255.04765137314121
 21
12.379236282468771
 31
0.0
  0
LINE
  5
4A69
  8
µę˝u
 10
-257.95612392635508
 20
18.491726072706751
 30
0.0
 11
-257.95612392635508
 21
10.391726072706851
 31
0.0
  0
LINE
  5
4A6A
  8
0
 10
-272.70597568507191
 20
14.721769672792741
 30
0.0
 11
-272.29760299126508
 21
14.31339689976433
 31
0.0
  0
LINE
  5
4A6B
  8
0
 10
-272.70597568507168
 20
16.050770673377698
 30
0.0
 11
-272.70597568507191
 21
14.721769672792741
 31
0.0
  0
LINE
  5
4A6C
  8
0
 10
-272.70597568507168
 20
16.050770673377698
 30
0.0
 11
-272.28585873911339
 21
16.470887061758528
 31
0.0
  0
LINE
  5
4A6D
  8
0
 10
-265.20541034638961
 20
1.8917260727068259
 30
0.0
 11
-260.20620223633802
 21
1.891726072706833
 31
0.0
  0
LINE
  5
4A6E
  8
0
 10
-265.70541030102032
 20
1.391726072706861
 30
0.0
 11
-265.20541034638961
 21
1.8917260727068259
 31
0.0
  0
LINE
  5
4A6F
  8
µę˝u
 10
-266.2061463116288
 20
1.391726072706861
 30
0.0
 11
-265.70612392635508
 21
1.8917484579803441
 31
0.0
  0
LINE
  5
4A70
  8
0
 10
-265.70541030102032
 20
1.391726072706861
 30
0.0
 11
-271.70607354045671
 21
1.391726072706861
 31
0.0
  0
LINE
  5
4A71
  8
0
 10
-252.7061239263551
 20
2.3909925227071529
 30
0.0
 11
-253.7053903769548
 21
1.391726072706861
 31
0.0
  0
LINE
  5
4A72
  8
0
 10
-260.20620223633802
 20
1.891726072706833
 30
0.0
 11
-259.70620226694092
 21
1.391726072706861
 31
0.0
  0
LINE
  5
4A73
  8
µę˝u
 10
-259.20639322209519
 20
1.391726072706861
 30
0.0
 11
-259.706361342994
 21
1.8917077595912859
 31
0.0
  0
LINE
  5
4A74
  8
0
 10
-253.7053903769548
 20
1.391726072706861
 30
0.0
 11
-259.70620226694092
 21
1.391726072706861
 31
0.0
  0
LINE
  5
4A75
  8
µę˝u
 10
-265.70612392635508
 20
1.8917484579803441
 30
0.0
 11
-259.706361342994
 21
1.8917077595912859
 31
0.0
  0
LINE
  5
4A76
  8
0
 10
-272.70612392635519
 20
2.3917751422677478
 30
0.0
 11
-271.70607354045671
 21
1.391726072706861
 31
0.0
  0
LINE
  5
4A77
  8
µę˝u
 10
-265.70612392635508
 20
10.091726072706649
 30
0.0
 11
-265.70612392635508
 21
1.8917484579803441
 31
0.0
  0
LINE
  5
4A78
  8
µę˝u
 10
-259.70612392635508
 20
10.091726072706649
 30
0.0
 11
-259.70612392635508
 21
1.8917484579803441
 31
0.0
  0
ARC
  5
4A79
  8
0
 10
-272.48603233518952
 20
18.591460222824661
 30
0.0
 40
2.129999999999999
 50
275.39251268205282
 51
354.60749637709461
  0
ARC
  5
4A7A
  8
0
 10
-272.48603233518952
 20
12.19174792258919
 30
0.0
 40
2.129999999999999
 50
5.0753009504655733
 51
84.924724058901901
  0
ARC
  5
4A7B
  8
0
 10
-252.92591903495389
 20
12.19174792258919
 30
0.0
 40
2.129999999999999
 50
95.049881965107787
 51
174.95013512119721
  0
ARC
  5
4A7C
  8
0
 10
-252.92591903495389
 20
18.591460222824661
 30
0.0
 40
2.129999999999999
 50
185.3629081133742
 51
264.6370985380517
  0
LINE
  5
4A7D
  8
0
 10
-256.15612192655499
 20
11.271212951268319
 30
0.0
 11
-256.15612192655499
 21
8.8420726777682912
 31
0.0
  0
LINE
  5
4A7E
  8
0
 10
-269.25612192655512
 20
8.8420196245683016
 30
0.0
 11
-269.25612192655512
 21
11.27186605146831
 31
0.0
  0
LINE
  5
4A7F
  8
0
 10
-272.70612392635519
 20
16.051924051168289
 30
0.0
 11
-272.28705192375509
 21
16.47099605376831
 31
0.0
  0
ARC
  5
4A80
  8
0
 10
-272.4862805764551
 20
18.591658201268292
 30
0.0
 40
2.129999999999999
 50
275.36698178749913
 51
354.63301821250133
  0
LINE
  5
4A81
  8
0
 10
-272.70612392635519
 20
14.72186765126829
 30
0.0
 11
-272.70612392635519
 21
16.051924051168289
 31
0.0
  0
LINE
  5
4A82
  8
0
 10
-272.29785123255522
 20
14.31359487826832
 30
0.0
 11
-272.70612392635519
 21
14.72186765126829
 31
0.0
  0
ARC
  5
4A83
  8
0
 10
-272.4862805764551
 20
12.191945901068291
 30
0.0
 40
2.129999999999999
 50
5.0753009505004281
 51
84.924724058898633
  0
LINE
  5
4A84
  8
0
 10
-269.25612192655512
 20
11.27186605146831
 30
0.0
 11
-270.36463168155512
 21
12.38037617106831
 31
0.0
  0
LINE
  5
4A85
  8
0
 10
-270.36561842895509
 20
18.392429548568309
 30
0.0
 11
-269.96612392635512
 21
18.791924051168301
 31
0.0
  0
LINE
  5
4A86
  8
0
 10
-253.1251517289551
 20
16.47099605376831
 30
0.0
 11
-252.7061239263551
 21
16.051968251168311
 31
0.0
  0
ARC
  5
4A87
  8
0
 10
-252.9259230761551
 20
18.591658201268292
 30
0.0
 40
2.129999999999999
 50
185.36698178750021
 51
264.63301821250087
  0
LINE
  5
4A88
  8
0
 10
-252.7061239263551
 20
16.051968251168311
 30
0.0
 11
-252.7061239263551
 21
14.721210051568301
 31
0.0
  0
ARC
  5
4A89
  8
0
 10
-252.9261672761551
 20
12.191945901068291
 30
0.0
 40
2.129999999999999
 50
95.049881965097967
 51
174.95013512120039
  0
LINE
  5
4A8A
  8
0
 10
-252.7061239263551
 20
14.721210051568301
 30
0.0
 11
-253.1136562688551
 21
14.313678183368291
 31
0.0
  0
LINE
  5
4A8B
  8
0
 10
-255.04789961435509
 20
12.379434260968299
 30
0.0
 11
-256.15612192655499
 21
11.271212951268319
 31
0.0
  0
LINE
  5
4A8C
  8
0
 10
-255.44607972635509
 20
18.791924051168301
 30
0.0
 11
-255.0465852237551
 21
18.392429548568309
 31
0.0
  0
LINE
  5
4A8D
  8
0
 10
-253.91612192655509
 20
10.3433739780683
 30
0.0
 11
-253.1094786722179
 21
11.150016502672081
 31
0.0
  0
LINE
  5
4A8E
  8
0
 10
-254.95612192655511
 20
9.339128952568295
 30
0.0
 11
-254.95612192655511
 21
10.77415635846832
 31
0.0
  0
LINE
  5
4A8F
  8
0
 10
-256.15612192655499
 20
11.271212951268319
 30
0.0
 11
-253.91612192655509
 21
10.3433739780683
 31
0.0
  0
LINE
  5
4A90
  8
0
 10
-241.20612392635519
 20
7.491924050219338
 30
0.0
 11
-241.20612392635519
 21
28.891924050219369
 31
0.0
  0
LINE
  5
4A91
  8
0
 10
-269.25612192655512
 20
11.27186605146831
 30
0.0
 11
-271.49612192655508
 21
10.34402788756832
 31
0.0
  0
LINE
  5
4A92
  8
0
 10
-270.45612192655511
 20
10.7748098922683
 30
0.0
 11
-270.45612192655511
 21
9.3390758994683196
 31
0.0
  0
LINE
  5
4A93
  8
0
 10
-272.30278768988092
 20
11.15069391625336
 30
0.0
 11
-271.49612192655508
 21
10.34402788756832
 31
0.0
  0
LINE
  5
4A94
  8
0
 10
-284.20612392635508
 20
7.491924050219338
 30
0.0
 11
-284.20612392635508
 21
28.891924050219369
 31
0.0
  0
LINE
  5
4A95
  8
0
 10
-273.80347175331661
 20
5.9917260727067978
 30
0.0
 11
-270.45612192655511
 21
9.3390758994683196
 31
0.0
  0
LINE
  5
4A96
  8
0
 10
-271.49612192655508
 20
9.7698580043683236
 30
0.0
 11
-275.27425385821653
 21
5.9917260727067978
 31
0.0
  0
LINE
  5
4A97
  8
0
 10
-284.20612392635508
 20
7.4919240502193949
 30
0.0
 11
-282.70592594884261
 21
5.991726072706796
 31
0.0
  0
LINE
  5
4A98
  8
0
 10
-269.25612192655512
 20
8.8420196245683016
 30
0.0
 11
-271.49612192655508
 21
9.7698580043683236
 31
0.0
  0
LINE
  5
4A99
  8
0
 10
-271.49612192655508
 20
10.34402788756832
 30
0.0
 11
-271.49612192655508
 21
9.7698580043683236
 31
0.0
  0
LINE
  5
4A9A
  8
0
 10
-272.70612392635519
 20
5.3911072510984326
 30
0.0
 11
-269.25561082627303
 21
8.8416201511504582
 31
0.0
  0
LINE
  5
4A9B
  8
0
 10
-250.13793694179361
 20
5.9917260727067978
 30
0.0
 11
-253.91612192655509
 21
9.769911057468299
 31
0.0
  0
LINE
  5
4A9C
  8
0
 10
-253.91612192655509
 20
9.769911057468299
 30
0.0
 11
-253.91612192655509
 21
10.3433739780683
 31
0.0
  0
LINE
  5
4A9D
  8
0
 10
-256.15612192655499
 20
8.8420726777682912
 30
0.0
 11
-253.91612192655509
 21
9.769911057468299
 31
0.0
  0
LINE
  5
4A9E
  8
0
 10
-251.60871904669369
 20
5.991726072706796
 30
0.0
 11
-254.95612192655511
 21
9.339128952568295
 31
0.0
  0
LINE
  5
4A9F
  8
0
 10
-256.1555666262729
 20
8.8415881511504253
 30
0.0
 11
-252.7061239263551
 21
5.3921450512863869
 31
0.0
  0
LINE
  5
4AA0
  8
0
 10
-241.20612392635519
 20
7.4919240502193949
 30
0.0
 11
-242.70632190386769
 21
5.991726072706796
 31
0.0
  0
LINE
  5
4AA1
  8
0
 10
-241.20612392635519
 20
7.4919240502193949
 30
0.0
 11
-242.70612392635519
 21
5.9919240502193398
 31
0.0
  0
LINE
  5
4AA2
  8
0
 10
-282.70612392635508
 20
30.39192405021938
 30
0.0
 11
-264.3069049857134
 21
30.39192405021938
 31
0.0
  0
LINE
  5
4AA3
  8
0
 10
-254.94902345145519
 20
19.99192405116829
 30
0.0
 11
-270.46318020115513
 21
19.99192405116829
 31
0.0
  0
ARC
  5
4AA4
  8
0
 10
-257.79191036398203
 20
31.89192405021938
 30
0.0
 40
1.0
 50
224.99999999998531
 51
270.0
  0
LINE
  5
4AA5
  8
µę˝u
 10
-278.70612392635542
 20
21.179488484921041
 30
0.0
 11
-276.60612392635522
 21
22.39192405021949
 31
0.0
  0
LINE
  5
4AA6
  8
µę˝u
 10
-278.7061239263553
 20
21.179488484921041
 30
0.0
 11
-280.8061239263551
 21
22.391924050219369
 31
0.0
  0
LINE
  5
4AA7
  8
¤¤¤ß˝u
 10
-278.70612392635508
 20
33.404582647867748
 30
0.0
 11
-278.70612392635542
 21
20.679488484921091
 31
0.0
  0
ARC
  5
4AA8
  8
0
 10
-273.17397880473192
 20
12.728992350024351
 30
0.0
 40
0.5
 50
224.99999444431191
 51
284.99998426762022
  0
ARC
  5
4AA9
  8
0
 10
-273.16907341125773
 20
18.049706164779231
 30
0.0
 40
0.5
 50
74.999999999998792
 51
135.00000000000881
  0
LINE
  5
4AAA
  8
0
 10
-272.70612392635519
 20
14.72186765126829
 30
0.0
 11
-274.94612392635509
 21
13.7940309655683
 31
0.0
  0
LINE
  5
4AAB
  8
0
 10
-273.90612395735508
 20
14.2248114316683
 30
0.0
 11
-272.76157800375512
 21
13.08026525606831
 31
0.0
  0
LINE
  5
4AAC
  8
0
 10
-272.70612392635519
 20
16.051924051168289
 30
0.0
 11
-274.94612392635509
 21
16.979762430868298
 31
0.0
  0
LINE
  5
4AAD
  8
0
 10
-272.75406042055522
 20
17.70104383186829
 30
0.0
 11
-273.90612392635512
 21
16.54898032606831
 31
0.0
  0
LINE
  5
4AAE
  8
0
 10
-273.90612392635512
 20
16.54898032606831
 30
0.0
 11
-273.90612392635512
 21
14.224811444568299
 31
0.0
  0
LINE
  5
4AAF
  8
0
 10
-274.94612392635509
 20
16.979762430868298
 30
0.0
 11
-274.94612392635509
 21
13.7940309655683
 31
0.0
  0
ARC
  5
4AB0
  8
0
 10
-281.45612392635519
 20
18.391924050219369
 30
0.0
 40
3.0
 50
270.0
 51
90.0
  0
LINE
  5
4AB1
  8
0
 10
-284.20612392635508
 20
15.391924050219369
 30
0.0
 11
-281.45612392635519
 21
15.391924050219369
 31
0.0
  0
LINE
  5
4AB2
  8
0
 10
-274.94612392635509
 20
13.7940309655683
 30
0.0
 11
-273.52753222960752
 21
12.37543899371334
 31
0.0
  0
LINE
  5
4AB3
  8
0
 10
-284.20612392635508
 20
21.391924050219369
 30
0.0
 11
-281.45612392635519
 21
21.391924050219369
 31
0.0
  0
LINE
  5
4AB4
  8
0
 10
-273.522626801851
 20
18.40325955537249
 30
0.0
 11
-274.94612392635509
 21
16.979762430868298
 31
0.0
  0
ARC
  5
4AB5
  8
0
 10
-271.94923424113551
 20
11.50424724869452
 30
0.0
 40
0.5
 50
164.9999905762399
 51
224.9999905760441
  0
LINE
  5
4AB6
  8
0
 10
-270.36463168155512
 20
12.38037617106831
 30
0.0
 11
-271.5979609422551
 21
11.91664928356831
 31
0.0
  0
LINE
  5
4AB7
  8
0
 10
-272.29785123255522
 20
14.31359487826832
 30
0.0
 11
-272.76157800375512
 21
13.08026525606831
 31
0.0
  0
LINE
  5
4AB8
  8
0
 10
-272.76157803055509
 20
13.0802652828683
 30
0.0
 11
-273.20893161678538
 21
12.23021554530148
 31
0.0
  0
ARC
  5
4AB9
  8
0
 10
-272.4862805764551
 20
12.191945901068291
 30
0.0
 40
0.9300000000000001
 50
342.78141675980117
 51
107.2186346986017
  0
LINE
  5
4ABA
  8
0
 10
-271.5979609422551
 20
11.91664928356831
 30
0.0
 11
-270.45612192655511
 21
10.7748098922683
 31
0.0
  0
ARC
  5
4ABB
  8
0
 10
-272.91516002485508
 20
11.7630664526683
 30
0.0
 40
0.5
 50
344.99999057624001
 51
104.99998426762021
  0
LINE
  5
4ABC
  8
0
 10
-271.5979609422551
 20
11.91664928356831
 30
0.0
 11
-272.44801107040013
 21
11.46929478685492
 31
0.0
  0
LINE
  5
4ABD
  8
0
 10
-254.51824134655499
 20
21.031924051168311
 30
0.0
 11
-259.78131943271939
 21
21.031924051168311
 31
0.0
  0
ARC
  5
4ABE
  8
0
 10
-271.94432853986598
 20
19.274451036170849
 30
0.0
 40
0.5
 50
134.9999999999996
 51
194.99999999999869
  0
LINE
  5
4ABF
  8
0
 10
-269.96612392635512
 20
18.791924051168301
 30
0.0
 11
-270.89396230605507
 21
21.031924051168311
 31
0.0
  0
LINE
  5
4AC0
  8
0
 10
-270.46318020115513
 20
19.99192405116829
 30
0.0
 11
-271.595666206955
 21
18.8594380453683
 31
0.0
  0
LINE
  5
4AC1
  8
0
 10
-270.36561842895509
 20
18.392429548568309
 30
0.0
 11
-271.595666206955
 21
18.8594380453683
 31
0.0
  0
ARC
  5
4AC2
  8
0
 10
-272.91025436615507
 20
19.015631991068311
 30
0.0
 40
0.5
 50
254.99999999999881
 51
14.99999999999876
  0
LINE
  5
4AC3
  8
0
 10
-272.75406042055522
 20
17.70104383186829
 30
0.0
 11
-273.20357170481208
 21
18.548514612724791
 31
0.0
  0
LINE
  5
4AC4
  8
0
 10
-271.595666206955
 20
18.8594380453683
 30
0.0
 11
-272.44313698781241
 21
19.308949329713801
 31
0.0
  0
LINE
  5
4AC5
  8
0
 10
-270.89396230605507
 20
21.031924051168311
 30
0.0
 11
-272.2978819304592
 21
19.628004426764068
 31
0.0
  0
ARC
  5
4AC6
  8
0
 10
-272.4862805764551
 20
18.591658201268292
 30
0.0
 40
0.9300000000000001
 50
253.2656132808988
 51
16.73438671909874
  0
LINE
  5
4AC7
  8
0
 10
-272.28705192375509
 20
16.47099605376831
 30
0.0
 11
-272.75406042055522
 21
17.70104383186829
 31
0.0
  0
LINE
  5
4AC8
  8
0
 10
-273.79191036398203
 20
30.891924050219369
 30
0.0
 11
-267.6203374887283
 21
30.89192405021943
 31
0.0
  0
LINE
  5
4AC9
  8
µę˝u
 10
-276.60612392635522
 20
30.39192405021938
 30
0.0
 11
-276.60612392635522
 21
22.391924050219369
 31
0.0
  0
LINE
  5
4ACA
  8
0
 10
-284.70612392635508
 20
30.39192405021938
 30
0.0
 11
-284.70612392635508
 21
23.391924050219369
 31
0.0
  0
LINE
  5
4ACB
  8
µę˝u
 10
-280.80612392635533
 20
30.39192405021938
 30
0.0
 11
-280.8061239263551
 21
22.391924050219369
 31
0.0
  0
LINE
  5
4ACC
  8
µę˝u
 10
-276.2061239263553
 20
30.79192405021935
 30
0.0
 11
-276.2061239263553
 21
24.79192405021935
 31
0.0
  0
LINE
  5
4ACD
  8
µę˝u
 10
-281.2061239263553
 20
30.79192405021935
 30
0.0
 11
-281.2061239263553
 21
24.79192405021935
 31
0.0
  0
LINE
  5
4ACE
  8
µę˝u
 10
-276.2061239263553
 20
24.79192405021935
 30
0.0
 11
-281.2061239263553
 21
24.79192405021935
 31
0.0
  0
LINE
  5
4ACF
  8
0
 10
-284.20612392635508
 20
22.891924050219369
 30
0.0
 11
-284.70612392635508
 21
23.391924050219369
 31
0.0
  0
LINE
  5
4AD0
  8
µę˝u
 10
-276.60612392635522
 20
22.391924050219369
 30
0.0
 11
-280.8061239263551
 21
22.391924050219369
 31
0.0
  0
LINE
  5
4AD1
  8
µę˝u
 10
-280.80612392635533
 20
30.39192405021938
 30
0.0
 11
-281.80612392635533
 21
31.391924050219369
 31
0.0
  0
LINE
  5
4AD2
  8
0
 10
-282.70612392635508
 20
30.39192405021938
 30
0.0
 11
-284.20612392635508
 21
28.891924050219369
 31
0.0
  0
LINE
  5
4AD3
  8
0
 10
-283.7063219038676
 20
31.391726072706899
 30
0.0
 11
-284.70612392635508
 21
30.39192405021938
 31
0.0
  0
LINE
  5
4AD4
  8
0
 10
-274.49901714516858
 20
31.18481726903282
 30
0.0
 11
-274.70592594884272
 21
31.391726072706899
 31
0.0
  0
LINE
  5
4AD5
  8
µę˝u
 10
-276.60612392635522
 20
30.39192405021938
 30
0.0
 11
-275.60612392635522
 21
31.391924050219369
 31
0.0
  0
ARC
  5
4AD6
  8
0
 10
-273.79191036398203
 20
31.89192405021938
 30
0.0
 40
1.0
 50
224.9999999999998
 51
270.0
  0
LINE
  5
4AD7
  8
µę˝u
 10
-276.60612392635522
 20
30.39192405021938
 30
0.0
 11
-280.80612392635533
 21
30.39192405021938
 31
0.0
  0
LINE
  5
4AD8
  8
0
 10
-267.70612392635508
 20
30.39192405021938
 30
0.0
 11
-267.70612392635508
 21
26.992705109577571
 31
0.0
  0
LINE
  5
4AD9
  8
0
 10
-266.70632190386772
 20
31.391726072706899
 30
0.0
 11
-266.91323070754157
 21
31.18481726903288
 31
0.0
  0
ARC
  5
4ADA
  8
0
 10
-267.6203374887283
 20
31.89192405021943
 30
0.0
 40
1.0
 50
270.0
 51
315.00000000000023
  0
LINE
  5
4ADB
  8
0
 10
-258.70592594884272
 20
31.391726072706899
 30
0.0
 11
-258.49901714516869
 21
31.18481726903282
 31
0.0
  0
LINE
  5
4ADC
  8
µę˝u
 10
-246.70612392635499
 20
21.179488484921041
 30
0.0
 11
-244.60612392635511
 21
22.391924050219369
 31
0.0
  0
LINE
  5
4ADD
  8
µę˝u
 10
-246.70612392635499
 20
21.179488484921041
 30
0.0
 11
-248.8061239263551
 21
22.39192405021949
 31
0.0
  0
LINE
  5
4ADE
  8
0
 10
-240.70612392635519
 20
18.391924050219259
 30
0.0
 11
-240.70612392635519
 21
30.39192405021938
 31
0.0
  0
LINE
  5
4ADF
  8
¤¤¤ß˝u
 10
-246.70612392635519
 20
33.404582647867748
 30
0.0
 11
-246.70612392635499
 21
20.679488484921091
 31
0.0
  0
LINE
  5
4AE0
  8
0
 10
-241.20612392635519
 20
21.391924050219369
 30
0.0
 11
-243.9561239263551
 21
21.391924050219369
 31
0.0
  0
LINE
  5
4AE1
  8
0
 10
-241.20612392635519
 20
15.391924050219369
 30
0.0
 11
-243.9561239263551
 21
15.391924050219369
 31
0.0
  0
LINE
  5
4AE2
  8
0
 10
-250.4661239263551
 20
13.79336853136831
 30
0.0
 11
-250.4661239263551
 21
16.979806630868289
 31
0.0
  0
LINE
  5
4AE3
  8
0
 10
-251.50612392635509
 20
14.224153367568301
 30
0.0
 11
-251.50612392635509
 21
16.549024526068301
 31
0.0
  0
LINE
  5
4AE4
  8
0
 10
-252.7061239263551
 20
16.051968251168311
 30
0.0
 11
-250.4661239263551
 21
16.979806630868289
 31
0.0
  0
ARC
  5
4AE5
  8
0
 10
-243.9561239263551
 20
18.391924050219369
 30
0.0
 40
3.0
 50
90.0
 51
270.0
  0
LINE
  5
4AE6
  8
0
 10
-251.88423740257829
 20
12.375256705542959
 30
0.0
 11
-250.4661239263551
 21
13.79336853136831
 31
0.0
  0
LINE
  5
4AE7
  8
0
 10
-252.7061239263551
 20
14.721210051568301
 30
0.0
 11
-250.4661239263551
 21
13.79336853136831
 31
0.0
  0
ARC
  5
4AE8
  8
0
 10
-252.23779058743889
 20
12.72881030186865
 30
0.0
 40
0.5
 50
254.9597677363551
 51
314.99996665961748
  0
ARC
  5
4AE9
  8
0
 10
-253.4630319028891
 20
11.503570053187239
 30
0.0
 40
0.5
 50
314.99997408353272
 51
15.040182378474039
  0
LINE
  5
4AEA
  8
0
 10
-255.04789961435509
 20
12.379434260968299
 30
0.0
 11
-253.81428349335519
 21
11.9159937587683
 31
0.0
  0
ARC
  5
4AEB
  8
0
 10
-252.9261672761551
 20
12.191945901068291
 30
0.0
 40
0.9300000000000001
 50
72.739198784101262
 51
197.26086881189971
  0
LINE
  5
4AEC
  8
0
 10
-252.7061239263551
 20
14.721210051568301
 30
0.0
 11
-253.1136562688551
 21
14.313678183368291
 31
0.0
  0
LINE
  5
4AED
  8
0
 10
-253.1136562688551
 20
14.313678183368291
 30
0.0
 11
-252.65021620475511
 21
13.080062505068289
 31
0.0
  0
LINE
  5
4AEE
  8
0
 10
-252.65021625625511
 20
13.080062453568321
 30
0.0
 11
-252.2031645321712
 21
12.230010706543441
 31
0.0
  0
ARC
  5
4AEF
  8
0
 10
-252.49728782775509
 20
11.7630664526683
 30
0.0
 40
0.5
 50
74.959767736355133
 51
195.04018237847359
  0
LINE
  5
4AF0
  8
0
 10
-254.95612192655511
 20
10.77415635846832
 30
0.0
 11
-253.81428349335519
 21
11.9159937587683
 31
0.0
  0
LINE
  5
4AF1
  8
0
 10
-253.81428349335519
 20
11.9159937587683
 30
0.0
 11
-252.96423235600679
 21
11.468943300091
 31
0.0
  0
LINE
  5
4AF2
  8
0
 10
-252.65021620475511
 20
13.080062505068289
 30
0.0
 11
-251.5061239859551
 21
14.22415339236831
 31
0.0
  0
LINE
  5
4AF3
  8
0
 10
-250.4661239263551
 20
16.979806630868289
 30
0.0
 11
-251.88962847252131
 21
18.403311177119221
 31
0.0
  0
ARC
  5
4AF4
  8
0
 10
-252.2431818631251
 20
18.049757786536489
 30
0.0
 40
0.5
 50
44.999999998296182
 51
105.0114234594156
  0
ARC
  5
4AF5
  8
0
 10
-253.4680676909837
 20
19.27464361441044
 30
0.0
 40
0.5
 50
344.98857653986721
 51
44.999999999994039
  0
ARC
  5
4AF6
  8
0
 10
-252.50219348645521
 20
19.015631991068311
 30
0.0
 40
0.5
 50
164.98857653986431
 51
285.0114234594156
  0
LINE
  5
4AF7
  8
0
 10
-253.81653744565509
 20
18.8594380453683
 30
0.0
 11
-254.94902345145519
 21
19.99192405116829
 31
0.0
  0
LINE
  5
4AF8
  8
0
 10
-255.44607972635509
 20
18.791924051168301
 30
0.0
 11
-254.51824134655499
 21
21.031924051168311
 31
0.0
  0
LINE
  5
4AF9
  8
0
 10
-253.81653744565509
 20
18.8594380453683
 30
0.0
 11
-252.96925058644371
 21
19.309016513884149
 31
0.0
  0
LINE
  5
4AFA
  8
0
 10
-255.0465852237551
 20
18.392429548568309
 30
0.0
 11
-253.81653744565509
 21
18.8594380453683
 31
0.0
  0
LINE
  5
4AFB
  8
0
 10
-255.44607972635509
 20
18.791924051168301
 30
0.0
 11
-255.0465852237551
 21
18.392429548568309
 31
0.0
  0
LINE
  5
4AFC
  8
0
 10
-252.65814323215511
 20
17.70104383186829
 30
0.0
 11
-252.20876633528769
 21
18.54857195177609
 31
0.0
  0
LINE
  5
4AFD
  8
0
 10
-253.11451430039031
 20
19.62819700500372
 30
0.0
 11
-254.51824134655499
 21
21.031924051168311
 31
0.0
  0
LINE
  5
4AFE
  8
0
 10
-251.50612392635509
 20
16.549024526068301
 30
0.0
 11
-252.65814323215511
 21
17.70104383186829
 31
0.0
  0
ARC
  5
4AFF
  8
0
 10
-252.9259230761551
 20
18.591658201268292
 30
0.0
 40
0.9300000000000001
 50
163.26561328090119
 51
286.73438671910122
  0
LINE
  5
4B00
  8
0
 10
-253.1251517289551
 20
16.47099605376831
 30
0.0
 11
-252.65814323215511
 21
17.70104383186829
 31
0.0
  0
LINE
  5
4B01
  8
0
 10
-241.20612392635519
 20
17.891924050219369
 30
0.0
 11
-240.70612392635499
 21
18.391924050219369
 31
0.0
  0
LINE
  5
4B02
  8
0
 10
-257.70612392635508
 20
30.39192405021938
 30
0.0
 11
-257.70612392635508
 21
27.8259966745353
 31
0.0
  0
LINE
  5
4B03
  8
µę˝u
 10
-248.8061239263551
 20
30.39192405021938
 30
0.0
 11
-248.8061239263551
 21
22.391924050219369
 31
0.0
  0
LINE
  5
4B04
  8
µę˝u
 10
-244.606123926355
 20
30.39192405021938
 30
0.0
 11
-244.60612392635511
 21
22.391924050219369
 31
0.0
  0
LINE
  5
4B05
  8
µę˝u
 10
-244.2061239263551
 20
30.79192405021935
 30
0.0
 11
-244.2061239263551
 21
24.79192405021935
 31
0.0
  0
LINE
  5
4B06
  8
µę˝u
 10
-249.20612392635499
 20
30.79192405021935
 30
0.0
 11
-249.20612392635499
 21
24.79192405021935
 31
0.0
  0
LINE
  5
4B07
  8
µę˝u
 10
-248.8061239263551
 20
22.391924050219369
 30
0.0
 11
-244.60612392635511
 21
22.391924050219369
 31
0.0
  0
LINE
  5
4B08
  8
µę˝u
 10
-249.20612392635499
 20
24.79192405021935
 30
0.0
 11
-244.2061239263551
 21
24.79192405021935
 31
0.0
  0
ARC
  5
4B09
  8
0
 10
-251.62033748872821
 20
31.89192405021943
 30
0.0
 40
1.0
 50
270.0
 51
315.00000000000023
  0
LINE
  5
4B0A
  8
0
 10
-251.62033748872821
 20
30.89192405021943
 30
0.0
 11
-257.79191036398203
 21
30.891924050219369
 31
0.0
  0
LINE
  5
4B0B
  8
µę˝u
 10
-248.8061239263551
 20
30.39192405021938
 30
0.0
 11
-249.8061239263551
 21
31.391924050219369
 31
0.0
  0
LINE
  5
4B0C
  8
0
 10
-250.9132307075416
 20
31.18481726903288
 30
0.0
 11
-250.70632190386769
 21
31.391726072706891
 31
0.0
  0
LINE
  5
4B0D
  8
µę˝u
 10
-244.606123926355
 20
30.39192405021938
 30
0.0
 11
-243.606123926355
 21
31.391924050219369
 31
0.0
  0
LINE
  5
4B0E
  8
µę˝u
 10
-248.8061239263551
 20
30.39192405021938
 30
0.0
 11
-244.606123926355
 21
30.39192405021938
 31
0.0
  0
LINE
  5
4B0F
  8
0
 10
-241.20612392635519
 20
28.891924050219369
 30
0.0
 11
-242.70612392635519
 21
30.39192405021938
 31
0.0
  0
LINE
  5
4B10
  8
0
 10
-241.70592594884269
 20
31.391726072706891
 30
0.0
 11
-240.70612392635519
 21
30.39192405021938
 31
0.0
  0
LINE
  5
4B11
  8
«ü˝u
 10
-244.4716882357107
 20
18.90026625871559
 30
0.0
 11
-246.45055042513891
 21
18.900621024891009
 31
0.0
  0
LINE
  5
4B12
  8
«ü˝u
 10
-244.47184541059951
 20
17.88415302867638
 30
0.0
 11
-246.4507076000277
 21
17.884507794851778
 31
0.0
  0
LINE
  5
4B13
  8
«ü˝u
 10
-243.45557704471429
 20
18.900108987008242
 30
0.0
 11
-241.47264254509531
 21
18.899850553695732
 31
0.0
  0
LINE
  5
4B14
  8
«ü˝u
 10
-243.4557342196029
 20
17.883995756969249
 30
0.0
 11
-241.4727997199839
 21
17.883737323656518
 31
0.0
  0
LINE
  5
4B15
  8
«ü˝u
 10
-244.47184541059951
 20
17.88415302867638
 30
0.0
 11
-244.4719891021922
 21
16.955208532968339
 31
0.0
  0
LINE
  5
4B16
  8
«ü˝u
 10
-243.4557342196029
 20
17.883995756969249
 30
0.0
 11
-243.45587791099251
 21
16.955051261265609
 31
0.0
  0
LINE
  5
4B17
  8
«ü˝u
 10
-244.47154454432129
 20
19.829210754419019
 30
0.0
 11
-244.4716882357107
 21
18.90026625871559
 31
0.0
  0
LINE
  5
4B18
  8
«ü˝u
 10
-243.45543335312161
 20
19.829053482716521
 30
0.0
 11
-243.45557704471429
 21
18.900108987008242
 31
0.0
  0
CIRCLE
  5
4B19
  8
«ü˝u
 10
-243.9561239263551
 20
18.391924050219369
 30
0.0
 40
2.539472436122904
  0
ARC
  5
4B1A
  8
«ü˝u
 10
-243.9561239263551
 20
18.391924050219369
 30
0.0
 40
1.5214629431971141
 50
109.80177390166109
 51
160.47474608153169
  0
ARC
  5
4B1B
  8
«ü˝u
 10
-243.9561239263551
 20
18.391924050219369
 30
0.0
 40
1.5214629431971141
 50
199.48927687566029
 51
250.18050078877499
  0
ARC
  5
4B1C
  8
«ü˝u
 10
-243.9561239263551
 20
18.391924050219369
 30
0.0
 40
1.5214629431971141
 50
289.19551791561452
 51
340.4929998358229
  0
ARC
  5
4B1D
  8
«ü˝u
 10
-243.9561239263551
 20
18.391924050219369
 30
0.0
 40
1.5214629431971141
 50
19.50753063170206
 51
70.78675677481354
  0
CIRCLE
  5
4B1E
  8
«ü˝u
 10
-281.45612392635519
 20
18.391924050219369
 30
0.0
 40
2.539472436122904
  0
LINE
  5
4B1F
  8
«ü˝u
 10
-281.97184541059949
 20
17.88415302867638
 30
0.0
 11
-283.95070760002773
 21
17.884507794851778
 31
0.0
  0
ARC
  5
4B20
  8
«ü˝u
 10
-281.45612392635519
 20
18.391924050219369
 30
0.0
 40
1.5214629431971141
 50
199.48927687566029
 51
250.18050078877499
  0
LINE
  5
4B21
  8
«ü˝u
 10
-281.97184541059949
 20
17.88415302867638
 30
0.0
 11
-281.9719891021922
 21
16.955208532968339
 31
0.0
  0
ARC
  5
4B22
  8
«ü˝u
 10
-281.45612392635519
 20
18.391924050219369
 30
0.0
 40
1.5214629431971141
 50
289.19551791561452
 51
340.4929998358229
  0
LINE
  5
4B23
  8
«ü˝u
 10
-280.9557342196029
 20
17.883995756969249
 30
0.0
 11
-278.97279971998393
 21
17.883737323656518
 31
0.0
  0
LINE
  5
4B24
  8
«ü˝u
 10
-280.9557342196029
 20
17.883995756969249
 30
0.0
 11
-280.95587791099251
 21
16.955051261265609
 31
0.0
  0
LINE
  5
4B25
  8
«ü˝u
 10
-281.9716882357107
 20
18.90026625871559
 30
0.0
 11
-283.95055042513889
 21
18.900621024891009
 31
0.0
  0
ARC
  5
4B26
  8
«ü˝u
 10
-281.45612392635519
 20
18.391924050219369
 30
0.0
 40
1.5214629431971141
 50
109.80177390166109
 51
160.47474608153169
  0
LINE
  5
4B27
  8
«ü˝u
 10
-281.97154454432138
 20
19.829210754419019
 30
0.0
 11
-281.9716882357107
 21
18.90026625871559
 31
0.0
  0
ARC
  5
4B28
  8
«ü˝u
 10
-281.45612392635519
 20
18.391924050219369
 30
0.0
 40
1.5214629431971141
 50
19.50753063170206
 51
70.78675677481354
  0
LINE
  5
4B29
  8
«ü˝u
 10
-280.95557704471429
 20
18.900108987008242
 30
0.0
 11
-278.97264254509531
 21
18.899850553695732
 31
0.0
  0
LINE
  5
4B2A
  8
«ü˝u
 10
-280.95543335312158
 20
19.829053482716521
 30
0.0
 11
-280.95557704471429
 21
18.900108987008242
 31
0.0
  0
LINE
  5
4B2B
  8
0
 10
-58.152412236654378
 20
1.3917260727067391
 30
0.0
 11
-218.15241223665419
 21
1.3917260727070511
 31
0.0
  0
LINE
  5
4B2C
  8
0
 10
-58.152412236654378
 20
2.3921173221070409
 30
0.0
 11
-184.4061552831661
 21
2.3921173221070409
 31
0.0
  0
LINE
  5
4B2D
  8
0
 10
-58.152412236654378
 20
5.391873222106895
 30
0.0
 11
-184.90672314781381
 21
5.391873222106895
 31
0.0
  0
LINE
  5
4B2E
  8
0
 10
-58.152412236654378
 20
1.391726072707016
 30
0.0
 11
-58.152412236654378
 21
18.891726072707009
 31
0.0
  0
LINE
  5
4B2F
  8
¤¤¤ß˝u
 10
-78.152412236654385
 20
0.8917260727070167
 30
0.0
 11
-78.152412236654385
 21
19.491726072707031
 31
0.0
  0
LINE
  5
4B30
  8
0
 10
-58.152412236654378
 20
8.8417814221070472
 30
0.0
 11
-91.955197455189776
 21
8.8417814221067559
 31
0.0
  0
LINE
  5
4B31
  8
0
 10
-58.152412236654378
 20
11.27173932210691
 30
0.0
 11
-91.955197455189776
 21
11.27173932210715
 31
0.0
  0
LINE
  5
4B32
  8
0
 10
-58.152412236654378
 20
12.49391592093464
 30
0.0
 11
-91.955197455189776
 21
12.49391592093464
 31
0.0
  0
LINE
  5
4B33
  8
0
 10
-58.152412236654378
 20
14.19958287385005
 30
0.0
 11
-91.955197455189776
 21
14.19958287385005
 31
0.0
  0
LINE
  5
4B34
  8
0
 10
-58.152412236654378
 20
14.72170132210694
 30
0.0
 11
-91.955197455189776
 21
14.72170132210694
 31
0.0
  0
LINE
  5
4B35
  8
0
 10
-58.152412236654378
 20
16.051734322107009
 30
0.0
 11
-91.955197455189776
 21
16.051734322107009
 31
0.0
  0
LINE
  5
4B36
  8
0
 10
-58.152412236654378
 20
16.586317719185399
 30
0.0
 11
-91.39244520069505
 21
16.58631771918515
 31
0.0
  0
LINE
  5
4B37
  8
0
 10
-58.152412236654378
 20
18.27763098714582
 30
0.0
 11
-91.070869595831226
 21
18.277630987145731
 31
0.0
  0
LINE
  5
4B38
  8
0
 10
-58.152412236654378
 20
18.891726072707112
 30
0.0
 11
-91.070869595831226
 21
18.891726072706881
 31
0.0
  0
LINE
  5
4B39
  8
µę˝u
 10
-141.15229209281671
 20
5.9921173221247424
 30
0.0
 11
-141.15229209281671
 21
1.8919440758102299
 31
0.0
  0
LINE
  5
4B3A
  8
µę˝u
 10
-135.15229209281671
 20
5.9921173221247424
 30
0.0
 11
-135.15229209281671
 21
1.8919440758102299
 31
0.0
  0
LINE
  5
4B3B
  8
µę˝u
 10
-141.1523497509981
 20
1.891944075810116
 30
0.0
 11
-135.15229209281671
 21
1.891944075810116
 31
0.0
  0
LINE
  5
4B3C
  8
µę˝u
 10
-141.65231447809029
 20
1.3919216905364209
 30
0.0
 11
-141.15229209281671
 21
1.8919440758102299
 31
0.0
  0
LINE
  5
4B3D
  8
µę˝u
 10
-134.65256138855671
 20
1.3919216905365059
 30
0.0
 11
-135.15252950945509
 21
1.891903377420832
 31
0.0
  0
LINE
  5
4B3E
  8
«Řşc˝u
 10
-185.19401833739229
 20
18.89172607270692
 30
0.0
 11
-183.7109975268356
 21
14.246459121448719
 31
0.0
  0
LINE
  5
4B3F
  8
«Řşc˝u
 10
-183.7109975268356
 20
14.246459121448719
 30
0.0
 11
-184.97136487639131
 21
11.098397309750119
 31
0.0
  0
LINE
  5
4B40
  8
«Řşc˝u
 10
-184.97136487639131
 20
11.098397309750119
 30
0.0
 11
-183.97184301315951
 21
9.8710863096627151
 31
0.0
  0
LINE
  5
4B41
  8
«Řşc˝u
 10
-183.97184301315951
 20
9.8710863096627151
 30
0.0
 11
-185.12891032147559
 21
6.723375566079894
 31
0.0
  0
LINE
  5
4B42
  8
«Řşc˝u
 10
-185.12891032147559
 20
6.723375566079894
 30
0.0
 11
-184.23922046306129
 21
1.3917260727068379
 31
0.0
  0
LINE
  5
4B43
  8
0
 10
-168.5708695958312
 20
18.89172607270703
 30
0.0
 11
-218.15241223665419
 21
18.891726072707179
 31
0.0
  0
LINE
  5
4B44
  8
0
 10
-168.5708695958312
 20
18.277630987145699
 30
0.0
 11
-184.9979659250975
 21
18.27763098714572
 31
0.0
  0
LINE
  5
4B45
  8
0
 10
-168.2492939909676
 20
16.586317719185342
 30
0.0
 11
-184.45800712404801
 21
16.586317719185342
 31
0.0
  0
LINE
  5
4B46
  8
0
 10
-167.6865417364728
 20
14.72170132210694
 30
0.0
 11
-183.86272057763679
 21
14.72170132210694
 31
0.0
  0
LINE
  5
4B47
  8
0
 10
-167.6865417364728
 20
16.051734322107009
 30
0.0
 11
-184.28733914927631
 21
16.051734322107009
 31
0.0
  0
LINE
  5
4B48
  8
0
 10
-167.6865417364728
 20
14.19958287385005
 30
0.0
 11
-183.72976504014281
 21
14.19958287385003
 31
0.0
  0
LINE
  5
4B49
  8
0
 10
-167.6865417364728
 20
12.49391592093464
 30
0.0
 11
-184.41265091254911
 21
12.49391592093464
 31
0.0
  0
LINE
  5
4B4A
  8
0
 10
-167.6865417364728
 20
11.27173932210713
 30
0.0
 11
-184.90196515499159
 21
11.271739322107139
 31
0.0
  0
LINE
  5
4B4B
  8
0
 10
-167.6865417364728
 20
8.8417814221069335
 30
0.0
 11
-184.35020530013551
 21
8.8417814221069264
 31
0.0
  0
LINE
  5
4B4C
  8
0
 10
-104.5708695958312
 20
7.4917260727069239
 30
0.0
 11
-155.0708695958312
 21
7.4917260727069239
 31
0.0
  0
LINE
  5
4B4D
  8
0
 10
-104.5708695958312
 20
31.391726072706891
 30
0.0
 11
-155.0708695958312
 21
31.391726072706891
 31
0.0
  0
LINE
  5
4B4E
  8
0
 10
-104.5708695958312
 20
30.391726072706891
 30
0.0
 11
-155.0708695958312
 21
30.391726072706891
 31
0.0
  0
LINE
  5
4B4F
  8
0
 10
-155.0708695958312
 20
5.991726072706868
 30
0.0
 11
-155.0708695958312
 21
31.391726072706891
 31
0.0
  0
LINE
  5
4B50
  8
0
 10
-166.1865417364728
 20
5.9917260727069239
 30
0.0
 11
-166.1865417364728
 21
30.39173001600696
 31
0.0
  0
LINE
  5
4B51
  8
µę˝u
 10
-150.32086959583111
 20
24.791726072706862
 30
0.0
 11
-145.32086959583111
 21
24.791726072706862
 31
0.0
  0
LINE
  5
4B52
  8
µę˝u
 10
-149.92086959583111
 20
30.391726072706891
 30
0.0
 11
-150.92086959583111
 21
31.391726072706891
 31
0.0
  0
CIRCLE
  5
4B53
  8
0
 10
-161.4865417364727
 20
24.39172607270682
 30
0.0
 40
2.8277919627000001
  0
CIRCLE
  5
4B54
  8
0
 10
-161.4865417364727
 20
24.39172607270682
 30
0.0
 40
2.4999999728999991
  0
CIRCLE
  5
4B55
  8
0
 10
-161.4865417364727
 20
24.39172607270682
 30
0.0
 40
3.1447818619999981
  0
LINE
  5
4B56
  8
¤¤¤ß˝u
 10
-161.4865417364727
 20
20.64172607270682
 30
0.0
 11
-161.4865417364727
 21
28.141726072706842
 31
0.0
  0
LINE
  5
4B57
  8
µę˝u
 10
-150.32086959583111
 20
30.791726072706879
 30
0.0
 11
-150.32086959583111
 21
24.791726072706862
 31
0.0
  0
LINE
  5
4B58
  8
¤¤¤ß˝u
 10
-165.2365417364727
 20
24.39172607270682
 30
0.0
 11
-157.7365417364727
 21
24.39172607270682
 31
0.0
  0
CIRCLE
  5
4B59
  8
0
 10
-161.4865417364727
 20
24.39172607270682
 30
0.0
 40
1.0
  0
LINE
  5
4B5A
  8
0
 10
-155.0708695958312
 20
28.891730016006932
 30
0.0
 11
-166.1865417364728
 21
28.891730016006932
 31
0.0
  0
LINE
  5
4B5B
  8
µę˝u
 10
-147.82086959583111
 20
21.17929050740856
 30
0.0
 11
-145.7208695958312
 21
22.391726072706891
 31
0.0
  0
LINE
  5
4B5C
  8
¤¤¤ß˝u
 10
-147.8208695958312
 20
31.891726072706891
 30
0.0
 11
-147.820869595831
 21
20.67929050740862
 31
0.0
  0
LINE
  5
4B5D
  8
µę˝u
 10
-147.820869595831
 20
21.17929050740856
 30
0.0
 11
-149.92086959583111
 21
22.391726072707009
 31
0.0
  0
LINE
  5
4B5E
  8
µę˝u
 10
-149.92086959583111
 20
30.391726072706891
 30
0.0
 11
-149.92086959583111
 21
22.391726072706891
 31
0.0
  0
LINE
  5
4B5F
  8
µę˝u
 10
-145.72086959583109
 20
30.391726072706891
 30
0.0
 11
-145.7208695958312
 21
22.391726072706891
 31
0.0
  0
LINE
  5
4B60
  8
µę˝u
 10
-145.32086959583111
 20
30.791726072706879
 30
0.0
 11
-145.32086959583111
 21
24.791726072706862
 31
0.0
  0
LINE
  5
4B61
  8
µę˝u
 10
-149.92086959583111
 20
22.391726072706891
 30
0.0
 11
-145.7208695958312
 21
22.391726072706891
 31
0.0
  0
LINE
  5
4B62
  8
µę˝u
 10
-149.92086959583111
 20
30.391726072706891
 30
0.0
 11
-145.72086959583109
 21
30.391726072706891
 31
0.0
  0
LINE
  5
4B63
  8
µę˝u
 10
-145.72086959583109
 20
30.391726072706891
 30
0.0
 11
-144.72086959583109
 21
31.391726072706891
 31
0.0
  0
LINE
  5
4B64
  8
0
 10
-104.5708695958312
 20
5.991726072706868
 30
0.0
 11
-104.5708695958312
 21
31.391726072706891
 31
0.0
  0
LINE
  5
4B65
  8
¤¤¤ß˝u
 10
-111.8208695958312
 20
31.891726072706891
 30
0.0
 11
-111.820869595831
 21
20.67929050740862
 31
0.0
  0
LINE
  5
4B66
  8
µę˝u
 10
-111.8208695958311
 20
21.17929050740856
 30
0.0
 11
-109.7208695958312
 21
22.391726072706891
 31
0.0
  0
LINE
  5
4B67
  8
µę˝u
 10
-111.820869595831
 20
21.17929050740856
 30
0.0
 11
-113.92086959583111
 21
22.391726072707009
 31
0.0
  0
LINE
  5
4B68
  8
µę˝u
 10
-114.3208695958311
 20
30.791726072706879
 30
0.0
 11
-114.3208695958311
 21
24.791726072706862
 31
0.0
  0
LINE
  5
4B69
  8
µę˝u
 10
-113.92086959583111
 20
30.391726072706891
 30
0.0
 11
-113.92086959583111
 21
22.391726072706891
 31
0.0
  0
LINE
  5
4B6A
  8
µę˝u
 10
-109.3208695958312
 20
30.791726072706879
 30
0.0
 11
-109.3208695958312
 21
24.791726072706862
 31
0.0
  0
LINE
  5
4B6B
  8
µę˝u
 10
-109.7208695958311
 20
30.391726072706891
 30
0.0
 11
-109.7208695958312
 21
22.391726072706891
 31
0.0
  0
LINE
  5
4B6C
  8
µę˝u
 10
-114.3208695958311
 20
24.791726072706862
 30
0.0
 11
-109.3208695958312
 21
24.791726072706862
 31
0.0
  0
LINE
  5
4B6D
  8
µę˝u
 10
-113.92086959583111
 20
22.391726072706891
 30
0.0
 11
-109.7208695958312
 21
22.391726072706891
 31
0.0
  0
LINE
  5
4B6E
  8
µę˝u
 10
-113.92086959583111
 20
30.391726072706891
 30
0.0
 11
-109.7208695958311
 21
30.391726072706891
 31
0.0
  0
LINE
  5
4B6F
  8
µę˝u
 10
-113.92086959583111
 20
30.391726072706891
 30
0.0
 11
-114.92086959583111
 21
31.391726072706891
 31
0.0
  0
LINE
  5
4B70
  8
µę˝u
 10
-109.7208695958311
 20
30.391726072706891
 30
0.0
 11
-108.7208695958311
 21
31.391726072706891
 31
0.0
  0
LINE
  5
4B71
  8
0
 10
-167.6865417364728
 20
5.991726072706796
 30
0.0
 11
-167.6865417364728
 21
30.391726072706891
 31
0.0
  0
LINE
  5
4B72
  8
0
 10
-155.0708695958312
 20
7.4917221293068934
 30
0.0
 11
-167.6865417364728
 21
7.4917221293068934
 31
0.0
  0
LINE
  5
4B73
  8
0
 10
-166.1865417364728
 20
28.891726072706891
 30
0.0
 11
-167.6865417364728
 21
28.891726072706891
 31
0.0
  0
LINE
  5
4B74
  8
0
 10
-155.0708695958312
 20
30.391726072706891
 30
0.0
 11
-167.6865417364728
 21
30.391726072706891
 31
0.0
  0
LINE
  5
4B75
  8
0
 10
-261.10534286699698
 20
30.39192405021938
 30
0.0
 11
-242.70612392635519
 21
30.39192405021938
 31
0.0
  0
ARC
  5
4B76
  8
0
 10
-262.70612392635508
 20
25.39192405021938
 30
0.0
 40
5.2499999999999938
 50
30.243297773999519
 51
329.7566907592996
  0
POLYLINE
  5
4B77
  8
0
 66
     1
 10
0.0
 20
0.0
 30
0.0
  0
VERTEX
  5
4D09
  8
0
 10
-253.75443619905519
 20
25.391924050219352
 30
0.0
  0
VERTEX
  5
4D0A
  8
0
 10
-253.7208878976551
 20
25.174886807719339
 30
0.0
  0
VERTEX
  5
4D0B
  8
0
 10
-253.6879969084552
 20
25.11198257371937
 30
0.0
  0
VERTEX
  5
4D0C
  8
0
 10
-253.6514265746552
 20
25.08244093701936
 30
0.0
  0
VERTEX
  5
4D0D
  8
0
 10
-253.61744941725519
 20
25.082748217019368
 30
0.0
  0
VERTEX
  5
4D0E
  8
0
 10
-253.5809565714552
 20
25.112952509819358
 30
0.0
  0
VERTEX
  5
4D0F
  8
0
 10
-253.5496126704551
 20
25.172722487319351
 30
0.0
  0
VERTEX
  5
4D10
  8
0
 10
-253.52022600975511
 20
25.302795468019351
 30
0.0
  0
VERTEX
  5
4D11
  8
0
 10
-253.51525876095511
 20
25.391924050219352
 30
0.0
  0
VERTEX
  5
4D12
  8
0
 10
-253.5488057263552
 20
25.60895995671935
 30
0.0
  0
VERTEX
  5
4D13
  8
0
 10
-253.58169805155521
 20
25.671864190719351
 30
0.0
  0
VERTEX
  5
4D14
  8
0
 10
-253.61826838535521
 20
25.701405827419361
 30
0.0
  0
VERTEX
  5
4D15
  8
0
 10
-253.6522442067552
 20
25.701098547319351
 30
0.0
  0
VERTEX
  5
4D16
  8
0
 10
-253.68873838855509
 20
25.67089425451935
 30
0.0
  0
VERTEX
  5
4D17
  8
0
 10
-253.7200809535552
 20
25.611124277019371
 30
0.0
  0
VERTEX
  5
4D18
  8
0
 10
-253.74946895025519
 20
25.481051296419349
 30
0.0
  0
VERTEX
  5
4D19
  8
0
 10
-253.75443619905519
 20
25.391924050219352
 30
0.0
  0
SEQEND
  5
4D1A
  8
0
  0
ARC
  5
4B78
  8
0
 10
-262.70612392635508
 20
25.39192405021938
 30
0.0
 40
3.999999331999998
 50
48.590377998899349
 51
311.4096220031991
  0
LINE
  5
4B79
  8
0
 10
-259.81937215535521
 20
28.39192321521935
 30
0.0
 11
-260.39672331115509
 21
29.39192338221936
 31
0.0
  0
LINE
  5
4B7A
  8
0
 10
-265.01552454155512
 20
29.39192338221936
 30
0.0
 11
-260.39672331115509
 21
29.39192338221936
 31
0.0
  0
LINE
  5
4B7B
  8
0
 10
-265.01552454155512
 20
29.39192338221936
 30
0.0
 11
-267.32492515675523
 21
25.39192405021938
 31
0.0
  0
LINE
  5
4B7C
  8
0
 10
-267.32492515675523
 20
25.39192405021938
 30
0.0
 11
-265.01552454155512
 21
21.39192338221936
 31
0.0
  0
LINE
  5
4B7D
  8
0
 10
-260.39672197515517
 20
21.39192338221936
 30
0.0
 11
-265.01552454155512
 21
21.39192338221936
 31
0.0
  0
LINE
  5
4B7E
  8
0
 10
-259.81937215535521
 20
22.39192354921936
 30
0.0
 11
-260.39672197515517
 21
21.39192338221936
 31
0.0
  0
LINE
  5
4B7F
  8
0
 10
-261.40461790335507
 20
22.39192354921936
 30
0.0
 11
-258.39054932015517
 21
22.39192354921936
 31
0.0
  0
LINE
  5
4B80
  8
0
 10
-258.32765043015507
 20
28.107236265919369
 30
0.0
 11
-258.39054932015517
 21
28.39192321521935
 31
0.0
  0
LINE
  5
4B81
  8
0
 10
-258.39054932015517
 20
22.39192354921936
 30
0.0
 11
-258.32765043015507
 21
22.676610498519359
 31
0.0
  0
LINE
  5
4B82
  8
0
 10
-261.40461790335507
 20
28.39192321521935
 30
0.0
 11
-258.39054932015517
 21
28.39192321521935
 31
0.0
  0
LINE
  5
4B83
  8
0
 10
-258.82940267795522
 20
22.449567950419361
 30
0.0
 11
-256.82759607165519
 21
23.355382774419368
 31
0.0
  0
LINE
  5
4B84
  8
0
 10
-252.96238179305519
 20
25.04238765061935
 30
0.0
 11
-252.94920749495509
 21
25.39192405021938
 31
0.0
  0
LINE
  5
4B85
  8
0
 10
-253.0013983432552
 20
24.706283397219352
 30
0.0
 11
-252.96238179305519
 21
25.04238765061935
 31
0.0
  0
LINE
  5
4B86
  8
0
 10
-252.94920749495509
 20
25.39192405021938
 30
0.0
 11
-252.96238179305519
 21
25.741460449819371
 31
0.0
  0
LINE
  5
4B87
  8
0
 10
-259.05337643355517
 20
22.39192354921936
 30
0.0
 11
-258.82940267795522
 21
22.449567950419361
 31
0.0
  0
LINE
  5
4B88
  8
0
 10
-259.05337643355517
 20
28.39192321521935
 30
0.0
 11
-258.82940267795522
 21
28.33427881401936
 31
0.0
  0
LINE
  5
4B89
  8
0
 10
-258.82940267795522
 20
28.33427881401936
 30
0.0
 11
-256.82759607165519
 21
27.42846399001937
 31
0.0
  0
LINE
  5
4B8A
  8
0
 10
-253.0647581533552
 20
24.396529075919361
 30
0.0
 11
-253.0013983432552
 21
24.706283397219352
 31
0.0
  0
LINE
  5
4B8B
  8
0
 10
-252.96238179305519
 20
25.741460449819371
 30
0.0
 11
-253.0013983432552
 21
26.077563367219341
 31
0.0
  0
LINE
  5
4B8C
  8
0
 10
-253.15002703095519
 20
24.125025776819349
 30
0.0
 11
-253.0647581533552
 21
24.396529075919361
 31
0.0
  0
LINE
  5
4B8D
  8
0
 10
-253.9093814956552
 20
23.753615045719371
 30
0.0
 11
-253.9074830393551
 21
23.754543565819361
 31
0.0
  0
LINE
  5
4B8E
  8
0
 10
-253.0013983432552
 20
26.077563367219341
 30
0.0
 11
-253.0647581533552
 21
26.387319024519371
 31
0.0
  0
LINE
  5
4B8F
  8
0
 10
-259.27735018915519
 20
22.449567950419361
 30
0.0
 11
-259.05337643355517
 21
22.39192354921936
 31
0.0
  0
LINE
  5
4B90
  8
0
 10
-259.27735018915519
 20
28.33427881401936
 30
0.0
 11
-259.05337643355517
 21
28.39192321521935
 31
0.0
  0
LINE
  5
4B91
  8
0
 10
-253.2539264314552
 20
23.902208997319359
 30
0.0
 11
-253.15002703095519
 21
24.125025776819349
 31
0.0
  0
LINE
  5
4B92
  8
0
 10
-253.0647581533552
 20
26.387319024519371
 30
0.0
 11
-253.15002703095519
 21
26.65882098761935
 31
0.0
  0
LINE
  5
4B93
  8
0
 10
-256.82759607165519
 20
23.355382774419368
 30
0.0
 11
-256.58647341735519
 21
23.453785870019392
 31
0.0
  0
LINE
  5
4B94
  8
0
 10
-256.82759607165519
 20
27.42846399001937
 30
0.0
 11
-256.58647341735519
 21
27.330062230419362
 31
0.0
  0
LINE
  5
4B95
  8
0
 10
-253.37246438625519
 20
23.736642499019371
 30
0.0
 11
-253.2539264314552
 21
23.902208997319359
 31
0.0
  0
LINE
  5
4B96
  8
0
 10
-253.15002703095519
 20
26.65882098761935
 30
0.0
 11
-253.2539264314552
 21
26.881637767119368
 31
0.0
  0
LINE
  5
4B97
  8
0
 10
-259.49271609545519
 20
22.620284729519351
 30
0.0
 11
-259.27735018915519
 21
22.449567950419361
 31
0.0
  0
LINE
  5
4B98
  8
0
 10
-259.49271609545519
 20
28.163562034919369
 30
0.0
 11
-259.27735018915519
 21
28.33427881401936
 31
0.0
  0
LINE
  5
4B99
  8
0
 10
-256.58647341735519
 20
23.453785870019392
 30
0.0
 11
-256.37154972715518
 21
23.444658316619371
 31
0.0
  0
LINE
  5
4B9A
  8
0
 10
-256.58647341735519
 20
27.330062230419362
 30
0.0
 11
-256.37154972715518
 21
27.339188447819339
 31
0.0
  0
LINE
  5
4B9B
  8
0
 10
-254.7515599575552
 20
22.887595660019372
 30
0.0
 11
-253.50108513475519
 21
23.63468564281936
 31
0.0
  0
LINE
  5
4B9C
  8
0
 10
-253.50108513475519
 20
23.63468564281936
 30
0.0
 11
-253.37246438625519
 21
23.736642499019371
 31
0.0
  0
LINE
  5
4B9D
  8
0
 10
-253.2539264314552
 20
26.881637767119368
 30
0.0
 11
-253.37246438625519
 21
27.047204265419349
 31
0.0
  0
LINE
  5
4B9E
  8
0
 10
-262.06744501675519
 20
25.39192405021938
 30
0.0
 11
-261.40461790335507
 21
28.39192321521935
 31
0.0
  0
LINE
  5
4B9F
  8
0
 10
-262.06744501675519
 20
25.39192405021938
 30
0.0
 11
-260.37903066035523
 21
25.39192405021938
 31
0.0
  0
LINE
  5
4BA0
  8
0
 10
-261.40461790335507
 20
22.39192354921936
 30
0.0
 11
-262.06744501675519
 21
25.39192405021938
 31
0.0
  0
LINE
  5
4BA1
  8
0
 10
-259.49271609545519
 20
22.620284729519351
 30
0.0
 11
-259.6911989669552
 21
22.89751412561937
 31
0.0
  0
LINE
  5
4BA2
  8
0
 10
-259.6911989669552
 20
27.886332638819361
 30
0.0
 11
-259.49271609545519
 21
28.163562034919369
 31
0.0
  0
LINE
  5
4BA3
  8
0
 10
-254.9421898198552
 20
22.838532388219349
 30
0.0
 11
-254.7515599575552
 21
22.887595660019372
 31
0.0
  0
LINE
  5
4BA4
  8
0
 10
-255.30302210125521
 20
22.86641604861935
 30
0.0
 11
-254.9421898198552
 21
22.838532388219349
 31
0.0
  0
LINE
  5
4BA5
  8
0
 10
-256.37154972715518
 20
23.444658316619371
 30
0.0
 11
-255.81760262305511
 21
23.079441282519351
 31
0.0
  0
LINE
  5
4BA6
  8
0
 10
-253.6348468120552
 20
23.60025958931935
 30
0.0
 11
-253.50108513475519
 21
23.63468564281936
 31
0.0
  0
LINE
  5
4BA7
  8
0
 10
-254.7515599575552
 20
27.896252440419349
 30
0.0
 11
-253.50108513475519
 21
27.149161121619368
 31
0.0
  0
LINE
  5
4BA8
  8
0
 10
-253.50108513475519
 20
27.149161121619368
 30
0.0
 11
-253.37246438625519
 21
27.047204265419349
 31
0.0
  0
LINE
  5
4BA9
  8
0
 10
-254.9421898198552
 20
27.945314376219361
 30
0.0
 11
-254.7515599575552
 21
27.896252440419349
 31
0.0
  0
LINE
  5
4BAA
  8
0
 10
-255.30302210125521
 20
27.917432051719359
 30
0.0
 11
-254.9421898198552
 21
27.945314376219361
 31
0.0
  0
LINE
  5
4BAB
  8
0
 10
-256.5623853334551
 20
23.58916143561936
 30
0.0
 11
-256.42230437525518
 21
23.478121113919379
 31
0.0
  0
LINE
  5
4BAC
  8
0
 10
-255.81760262305511
 20
23.079441282519351
 30
0.0
 11
-255.4915704752552
 21
22.914942248419361
 31
0.0
  0
LINE
  5
4BAD
  8
0
 10
-255.4915704752552
 20
22.914942248419361
 30
0.0
 11
-255.30302210125521
 21
22.86641604861935
 31
0.0
  0
LINE
  5
4BAE
  8
0
 10
-256.37154972715518
 20
27.339188447819339
 30
0.0
 11
-255.81760262305511
 21
27.704405481919348
 31
0.0
  0
LINE
  5
4BAF
  8
0
 10
-256.5623853334551
 20
27.194685328819372
 30
0.0
 11
-256.42230437525518
 21
27.30572565051936
 31
0.0
  0
LINE
  5
4BB0
  8
0
 10
-259.6911989669552
 20
22.89751412561937
 30
0.0
 11
-259.8651702426551
 21
23.270602872919351
 31
0.0
  0
LINE
  5
4BB1
  8
0
 10
-259.8651702426551
 20
27.513243891519341
 30
0.0
 11
-259.6911989669552
 21
27.886332638819361
 31
0.0
  0
LINE
  5
4BB2
  8
0
 10
-255.1328210181552
 20
22.887595660019372
 30
0.0
 11
-254.9421898198552
 21
22.838532388219349
 31
0.0
  0
LINE
  5
4BB3
  8
0
 10
-255.4915704752552
 20
27.86890451601937
 30
0.0
 11
-255.30302210125521
 21
27.917432051719359
 31
0.0
  0
LINE
  5
4BB4
  8
0
 10
-255.81760262305511
 20
27.704405481919348
 30
0.0
 11
-255.4915704752552
 21
27.86890451601937
 31
0.0
  0
LINE
  5
4BB5
  8
0
 10
-259.71620354695523
 20
22.39192354921936
 30
0.0
 11
-260.37903066035523
 21
25.39192405021938
 31
0.0
  0
LINE
  5
4BB6
  8
0
 10
-260.37903066035523
 20
25.39192405021938
 30
0.0
 11
-259.71620354695523
 21
28.39192321521935
 31
0.0
  0
LINE
  5
4BB7
  8
0
 10
-256.5623853334551
 20
23.58916143561936
 30
0.0
 11
-256.69148570605518
 21
23.769480048219361
 31
0.0
  0
LINE
  5
4BB8
  8
0
 10
-253.7686084892552
 20
23.63468564281936
 30
0.0
 11
-253.6348468120552
 21
23.60025958931935
 31
0.0
  0
LINE
  5
4BB9
  8
0
 10
-253.6348468120552
 20
27.18358717511936
 30
0.0
 11
-253.50108513475519
 21
27.149161121619368
 31
0.0
  0
LINE
  5
4BBA
  8
0
 10
-255.1328210181552
 20
27.896252440419349
 30
0.0
 11
-254.9421898198552
 21
27.945314376219361
 31
0.0
  0
LINE
  5
4BBB
  8
0
 10
-255.98686583395519
 20
27.570233652519342
 30
0.0
 11
-255.81760262305511
 21
27.704405481919348
 31
0.0
  0
LINE
  5
4BBC
  8
0
 10
-256.69148570605518
 20
27.014366716219371
 30
0.0
 11
-256.5623853334551
 21
27.194685328819372
 31
0.0
  0
LINE
  5
4BBD
  8
0
 10
-259.8651702426551
 20
23.270602872919351
 30
0.0
 11
-260.00794591335517
 21
23.72521301721935
 31
0.0
  0
LINE
  5
4BBE
  8
0
 10
-260.00794591335517
 20
27.058633747219361
 30
0.0
 11
-259.8651702426551
 21
27.513243891519341
 31
0.0
  0
LINE
  5
4BBF
  8
0
 10
-256.69148570605518
 20
23.769480048219361
 30
0.0
 11
-256.80464225195522
 21
24.012148454819371
 31
0.0
  0
LINE
  5
4BC0
  8
0
 10
-255.3161255913551
 20
23.032897707119361
 30
0.0
 11
-255.1328210181552
 21
22.887595660019372
 31
0.0
  0
LINE
  5
4BC1
  8
0
 10
-256.80464225195522
 20
26.771698309619349
 30
0.0
 11
-256.69148570605518
 21
27.014366716219371
 31
0.0
  0
LINE
  5
4BC2
  8
0
 10
-253.89723057375511
 20
23.736642499019371
 30
0.0
 11
-253.7686084892552
 21
23.63468564281936
 31
0.0
  0
LINE
  5
4BC3
  8
0
 10
-255.3161255913551
 20
27.750949057319371
 30
0.0
 11
-255.1328210181552
 21
27.896252440419349
 31
0.0
  0
LINE
  5
4BC4
  8
0
 10
-253.7686084892552
 20
27.149161121619368
 30
0.0
 11
-253.6348468120552
 21
27.18358717511936
 31
0.0
  0
LINE
  5
4BC5
  8
0
 10
-256.80464225195522
 20
24.012148454819371
 30
0.0
 11
-256.89750762675521
 21
24.307841373819372
 31
0.0
  0
LINE
  5
4BC6
  8
0
 10
-260.00794591335517
 20
23.72521301721935
 30
0.0
 11
-260.11403635415508
 21
24.243873683719372
 31
0.0
  0
LINE
  5
4BC7
  8
0
 10
-260.11403635415508
 20
26.53997441671935
 30
0.0
 11
-260.00794591335517
 21
27.058633747219361
 31
0.0
  0
LINE
  5
4BC8
  8
0
 10
-256.89750762675521
 20
26.476005390619349
 30
0.0
 11
-256.80464225195522
 21
26.771698309619349
 31
0.0
  0
LINE
  5
4BC9
  8
0
 10
-255.3161255913551
 20
23.032897707119361
 30
0.0
 11
-255.48506014615521
 21
23.268856720619372
 31
0.0
  0
LINE
  5
4BCA
  8
0
 10
-256.89750762675521
 20
24.307841373819372
 30
0.0
 11
-256.96651203775519
 21
24.645194787519369
 31
0.0
  0
LINE
  5
4BCB
  8
0
 10
-260.11403635415508
 20
24.243873683719372
 30
0.0
 11
-260.17936676455508
 21
24.806653085119361
 31
0.0
  0
LINE
  5
4BCC
  8
0
 10
-260.17936676455508
 20
25.977195015219351
 30
0.0
 11
-260.11403635415508
 21
26.53997441671935
 31
0.0
  0
LINE
  5
4BCD
  8
0
 10
-253.89723057375511
 20
27.047204265419349
 30
0.0
 11
-253.7686084892552
 21
27.149161121619368
 31
0.0
  0
LINE
  5
4BCE
  8
0
 10
-253.89723057375511
 20
23.736642499019371
 30
0.0
 11
-254.01576852855521
 21
23.902208997319359
 31
0.0
  0
LINE
  5
4BCF
  8
0
 10
-255.48506014615521
 20
27.514990043819338
 30
0.0
 11
-255.3161255913551
 21
27.750949057319371
 31
0.0
  0
LINE
  5
4BD0
  8
0
 10
-256.96651203775519
 20
26.138651976919341
 30
0.0
 11
-256.89750762675521
 21
26.476005390619349
 31
0.0
  0
LINE
  5
4BD1
  8
0
 10
-256.96651203775519
 20
24.645194787519369
 30
0.0
 11
-257.00900619645518
 21
25.011244149719339
 31
0.0
  0
LINE
  5
4BD2
  8
0
 10
-260.17936676455508
 20
24.806653085119361
 30
0.0
 11
-260.20142680005517
 21
25.39192405021938
 31
0.0
  0
LINE
  5
4BD3
  8
0
 10
-260.20142680005517
 20
25.39192405021938
 30
0.0
 11
-260.17936676455508
 21
25.977195015219351
 31
0.0
  0
LINE
  5
4BD4
  8
0
 10
-257.00900619645518
 20
25.77260261471935
 30
0.0
 11
-256.96651203775519
 21
26.138651976919341
 31
0.0
  0
LINE
  5
4BD5
  8
0
 10
-257.00900619645518
 20
25.011244149719339
 30
0.0
 11
-257.02335350275519
 21
25.39192405021938
 31
0.0
  0
LINE
  5
4BD6
  8
0
 10
-257.02335350275519
 20
25.39192405021938
 30
0.0
 11
-257.00900619645518
 21
25.77260261471935
 31
0.0
  0
LINE
  5
4BD7
  8
0
 10
-255.48506014615521
 20
23.268856720619372
 30
0.0
 11
-255.6331330577552
 21
23.586403931119371
 31
0.0
  0
LINE
  5
4BD8
  8
0
 10
-254.01576852855521
 20
26.881637767119368
 30
0.0
 11
-253.89723057375511
 21
27.047204265419349
 31
0.0
  0
LINE
  5
4BD9
  8
0
 10
-254.01576852855521
 20
23.902208997319359
 30
0.0
 11
-254.1196679290552
 21
24.125025776819349
 31
0.0
  0
LINE
  5
4BDA
  8
0
 10
-255.6331330577552
 20
27.197444169319368
 30
0.0
 11
-255.48506014615521
 21
27.514990043819338
 31
0.0
  0
LINE
  5
4BDB
  8
0
 10
-254.1196679290552
 20
26.65882098761935
 30
0.0
 11
-254.01576852855521
 21
26.881637767119368
 31
0.0
  0
LINE
  5
4BDC
  8
0
 10
-255.6331330577552
 20
23.586403931119371
 30
0.0
 11
-255.75465296505519
 21
23.973334976619348
 31
0.0
  0
LINE
  5
4BDD
  8
0
 10
-254.1196679290552
 20
24.125025776819349
 30
0.0
 11
-254.20493547065519
 21
24.396529075919361
 31
0.0
  0
LINE
  5
4BDE
  8
0
 10
-255.75465296505519
 20
26.81051178771936
 30
0.0
 11
-255.6331330577552
 21
27.197444169319368
 31
0.0
  0
LINE
  5
4BDF
  8
0
 10
-254.20493547065519
 20
26.387319024519371
 30
0.0
 11
-254.1196679290552
 21
26.65882098761935
 31
0.0
  0
LINE
  5
4BE0
  8
0
 10
-255.75465296505519
 20
23.973334976619348
 30
0.0
 11
-255.84495054745511
 21
24.41478284681935
 31
0.0
  0
LINE
  5
4BE1
  8
0
 10
-254.20493547065519
 20
24.396529075919361
 30
0.0
 11
-254.26829528075521
 21
24.706283397219352
 31
0.0
  0
LINE
  5
4BE2
  8
0
 10
-255.84495054745511
 20
26.369063917619361
 30
0.0
 11
-255.75465296505519
 21
26.81051178771936
 31
0.0
  0
LINE
  5
4BE3
  8
0
 10
-254.26829528075521
 20
26.077563367219341
 30
0.0
 11
-254.20493547065519
 21
26.387319024519371
 31
0.0
  0
LINE
  5
4BE4
  8
0
 10
-255.84495054745511
 20
24.41478284681935
 30
0.0
 11
-255.9005548762552
 21
24.893781675019369
 31
0.0
  0
LINE
  5
4BE5
  8
0
 10
-254.26829528075521
 20
24.706283397219352
 30
0.0
 11
-254.3073131669552
 21
25.04238765061935
 31
0.0
  0
LINE
  5
4BE6
  8
0
 10
-255.9005548762552
 20
25.89006508941937
 30
0.0
 11
-255.84495054745511
 21
26.369063917619361
 31
0.0
  0
LINE
  5
4BE7
  8
0
 10
-254.3073131669552
 20
25.741460449819371
 30
0.0
 11
-254.26829528075521
 21
26.077563367219341
 31
0.0
  0
LINE
  5
4BE8
  8
0
 10
-255.9005548762552
 20
24.893781675019369
 30
0.0
 11
-255.91933102325521
 21
25.39192405021938
 31
0.0
  0
LINE
  5
4BE9
  8
0
 10
-254.3073131669552
 20
25.04238765061935
 30
0.0
 11
-254.32048746505521
 21
25.39192405021938
 31
0.0
  0
LINE
  5
4BEA
  8
0
 10
-254.32048746505521
 20
25.39192405021938
 30
0.0
 11
-254.3073131669552
 21
25.741460449819371
 31
0.0
  0
LINE
  5
4BEB
  8
0
 10
-255.91933102325521
 20
25.39192405021938
 30
0.0
 11
-255.9005548762552
 21
25.89006508941937
 31
0.0
  0
LINE
  5
4BEC
  8
0
 10
-256.42230437525518
 20
23.478121113919379
 30
0.0
 11
-256.37154972715518
 21
23.444658316619371
 31
0.0
  0
LINE
  5
4BED
  8
0
 10
-256.63482727295508
 20
23.45583930241936
 30
0.0
 11
-256.58647341735519
 21
23.453785870019392
 31
0.0
  0
LINE
  5
4BEE
  8
0
 10
-256.42230437525518
 20
27.30572565051936
 30
0.0
 11
-256.37154972715518
 21
27.339188447819339
 31
0.0
  0
LINE
  5
4BEF
  8
¤¤¤ß˝u
 10
-251.4492074949552
 20
25.39192405021938
 30
0.0
 11
-269.45612392635508
 21
25.39192405021938
 31
0.0
  0
POINT
  5
4BF0
  8
0
 10
-252.94920749495509
 20
25.39192405021938
 30
0.0
1001
PNTFLAG
1000
endpoint
  0
LINE
  5
4BF1
  8
¤¤¤ß˝u
 10
-182.68653997745611
 20
25.39172607270703
 30
0.0
 11
-167.38207186291919
 21
25.39172607270703
 31
0.0
  0
ARC
  5
4BF2
  8
0
 10
-168.49492473647291
 20
23.391745403807061
 30
0.0
 40
2.9541109999999762
 50
137.38859300450031
 51
222.61140699760111
  0
ARC
  5
4BF3
  8
0
 10
-168.49492373647291
 20
27.391745403806951
 30
0.0
 40
2.954111999999975
 50
137.38859800219939
 51
222.61140199989811
  0
POLYLINE
  5
4BF4
  8
0
 66
     1
 10
0.0
 20
0.0
 30
0.0
  0
VERTEX
  5
4D1B
  8
0
 10
-178.77775273647279
 20
25.39174540380699
 30
0.0
  0
VERTEX
  5
4D1C
  8
0
 10
-178.81057073647281
 20
25.602000403807011
 30
0.0
  0
VERTEX
  5
4D1D
  8
0
 10
-178.85471773647291
 20
25.70748740380699
 30
0.0
  0
VERTEX
  5
4D1E
  8
0
 10
-178.91775073647281
 20
25.805266403806979
 30
0.0
  0
VERTEX
  5
4D1F
  8
0
 10
-178.99722673647281
 20
25.889379403806991
 30
0.0
  0
VERTEX
  5
4D20
  8
0
 10
-179.0887177364728
 20
25.955252403806991
 30
0.0
  0
VERTEX
  5
4D21
  8
0
 10
-179.18663773647279
 20
26.00053340380693
 30
0.0
  0
VERTEX
  5
4D22
  8
0
 10
-179.31927373647281
 20
26.029474403806962
 30
0.0
  0
VERTEX
  5
4D23
  8
0
 10
-179.44228273647281
 20
26.02681540380696
 30
0.0
  0
VERTEX
  5
4D24
  8
0
 10
-179.5492067364728
 20
26.00130940380696
 30
0.0
  0
VERTEX
  5
4D25
  8
0
 10
-179.66541173647281
 20
25.94554140380697
 30
0.0
  0
VERTEX
  5
4D26
  8
0
 10
-179.7759817364728
 20
25.856052403807009
 30
0.0
  0
VERTEX
  5
4D27
  8
0
 10
-179.86421173647281
 20
25.741502403807011
 30
0.0
  0
VERTEX
  5
4D28
  8
0
 10
-179.92084573647281
 20
25.62166340380703
 30
0.0
  0
VERTEX
  5
4D29
  8
0
 10
-179.94869673647281
 20
25.51800740380699
 30
0.0
  0
VERTEX
  5
4D2A
  8
0
 10
-179.9603177364728
 20
25.39174540380699
 30
0.0
  0
VERTEX
  5
4D2B
  8
0
 10
-179.92749973647281
 20
25.181490403807022
 30
0.0
  0
VERTEX
  5
4D2C
  8
0
 10
-179.8833517364728
 20
25.076002403806982
 30
0.0
  0
VERTEX
  5
4D2D
  8
0
 10
-179.82031973647281
 20
24.97822440380698
 30
0.0
  0
VERTEX
  5
4D2E
  8
0
 10
-179.74084373647281
 20
24.894111403806981
 30
0.0
  0
VERTEX
  5
4D2F
  8
0
 10
-179.64935273647279
 20
24.82823840380696
 30
0.0
  0
VERTEX
  5
4D30
  8
0
 10
-179.5514327364728
 20
24.782957403806972
 30
0.0
  0
VERTEX
  5
4D31
  8
0
 10
-179.41879673647281
 20
24.75401540380695
 30
0.0
  0
VERTEX
  5
4D32
  8
0
 10
-179.29578773647279
 20
24.756675403806991
 30
0.0
  0
VERTEX
  5
4D33
  8
0
 10
-179.1888637364728
 20
24.782180403807011
 30
0.0
  0
VERTEX
  5
4D34
  8
0
 10
-179.07265873647279
 20
24.837948403807001
 30
0.0
  0
VERTEX
  5
4D35
  8
0
 10
-178.96208873647279
 20
24.927438403806971
 30
0.0
  0
VERTEX
  5
4D36
  8
0
 10
-178.87385873647281
 20
25.041987403806971
 30
0.0
  0
VERTEX
  5
4D37
  8
0
 10
-178.81722473647281
 20
25.16182640380698
 30
0.0
  0
VERTEX
  5
4D38
  8
0
 10
-178.78937273647281
 20
25.265483403807039
 30
0.0
  0
VERTEX
  5
4D39
  8
0
 10
-178.77775273647279
 20
25.39174540380699
 30
0.0
  0
SEQEND
  5
4D3A
  8
0
  0
ARC
  5
4BF5
  8
0
 10
-175.19737573647279
 20
25.391745403807011
 30
0.0
 40
3.999999999999968
 50
90.0
 51
131.4096219995991
  0
ARC
  5
4BF6
  8
0
 10
-175.19737573647279
 20
25.391745403807011
 30
0.0
 40
3.999999999999968
 50
228.59037799730069
 51
270.0
  0
LINE
  5
4BF7
  8
0
 10
-167.6865417364728
 20
29.391745403807011
 30
0.0
 11
-175.19737573647279
 21
29.391745403807011
 31
0.0
  0
LINE
  5
4BF8
  8
0
 10
-170.66903973647291
 20
25.391745403807011
 30
0.0
 11
-167.6865417364728
 21
25.391745403807011
 31
0.0
  0
LINE
  5
4BF9
  8
0
 10
-175.19737573647279
 20
21.391745403807011
 30
0.0
 11
-167.6865417364728
 21
21.391745403807011
 31
0.0
  0
LINE
  5
4BFA
  8
0
 10
-171.44903573647289
 20
29.391745403807011
 30
0.0
 11
-171.44903573647289
 21
21.391745403807011
 31
0.0
  0
LINE
  5
4BFB
  8
0
 10
-178.72481273647281
 20
28.39174540380699
 30
0.0
 11
-174.82503673647281
 21
28.39174540380699
 31
0.0
  0
LINE
  5
4BFC
  8
0
 10
-178.9712057364728
 20
22.85367240380701
 30
0.0
 11
-178.72481273647281
 21
22.39174540380705
 31
0.0
  0
LINE
  5
4BFD
  8
0
 10
-178.72481273647281
 20
28.39174540380699
 30
0.0
 11
-178.9712057364728
 21
27.929818403807008
 31
0.0
  0
LINE
  5
4BFE
  8
0
 10
-173.92419473647291
 20
25.391745403807011
 30
0.0
 11
-173.22483073647291
 21
25.391745403807011
 31
0.0
  0
LINE
  5
4BFF
  8
0
 10
-174.82503673647281
 20
28.39174540380699
 30
0.0
 11
-173.22483073647291
 21
25.391745403807011
 31
0.0
  0
LINE
  5
4C00
  8
0
 10
-174.82503673647281
 20
22.39174540380705
 30
0.0
 11
-178.72481273647281
 21
22.39174540380705
 31
0.0
  0
LINE
  5
4C01
  8
0
 10
-173.22483073647291
 20
25.391745403807011
 30
0.0
 11
-174.82503673647281
 21
22.39174540380705
 31
0.0
  0
LINE
  5
4C02
  8
0
 10
-178.6037337364728
 20
27.921279403806999
 30
0.0
 11
-178.18526673647281
 21
28.163383403806989
 31
0.0
  0
LINE
  5
4C03
  8
0
 10
-178.6037337364728
 20
22.862210403807051
 30
0.0
 11
-178.18526673647281
 21
22.620106403807021
 31
0.0
  0
LINE
  5
4C04
  8
0
 10
-178.18526673647281
 20
28.163383403806989
 30
0.0
 11
-177.66532673647291
 21
28.334101403806962
 31
0.0
  0
LINE
  5
4C05
  8
0
 10
-178.18526673647281
 20
22.620106403807021
 30
0.0
 11
-177.66532673647291
 21
22.449389403807071
 31
0.0
  0
LINE
  5
4C06
  8
0
 10
-177.66532673647291
 20
28.334101403806962
 30
0.0
 11
-177.1246067364728
 21
28.39174540380699
 31
0.0
  0
LINE
  5
4C07
  8
0
 10
-177.66532673647291
 20
22.449389403807071
 30
0.0
 11
-177.1246067364728
 21
22.39174540380705
 31
0.0
  0
LINE
  5
4C08
  8
0
 10
-177.1246067364728
 20
28.39174540380699
 30
0.0
 11
-176.58388673647281
 21
28.334101403806962
 31
0.0
  0
LINE
  5
4C09
  8
0
 10
-177.1246067364728
 20
22.39174540380705
 30
0.0
 11
-176.58388673647281
 21
22.449389403807071
 31
0.0
  0
LINE
  5
4C0A
  8
0
 10
-176.58388673647281
 20
28.334101403806962
 30
0.0
 11
-176.06394673647279
 21
28.163383403806989
 31
0.0
  0
LINE
  5
4C0B
  8
0
 10
-176.58388673647281
 20
22.449389403807071
 30
0.0
 11
-176.06394673647279
 21
22.620106403807021
 31
0.0
  0
LINE
  5
4C0C
  8
0
 10
-176.06394673647279
 20
28.163383403806989
 30
0.0
 11
-175.5847667364728
 21
27.886154403807009
 31
0.0
  0
LINE
  5
4C0D
  8
0
 10
-176.06394673647279
 20
22.620106403807021
 30
0.0
 11
-175.5847667364728
 21
22.897336403807032
 31
0.0
  0
LINE
  5
4C0E
  8
0
 10
-175.5847667364728
 20
27.886154403807009
 30
0.0
 11
-175.1647627364728
 21
27.513065403807001
 31
0.0
  0
LINE
  5
4C0F
  8
0
 10
-175.5847667364728
 20
22.897336403807032
 30
0.0
 11
-175.1647627364728
 21
23.270424403806992
 31
0.0
  0
LINE
  5
4C10
  8
0
 10
-175.52440073647281
 20
28.39174540380699
 30
0.0
 11
-173.92419473647291
 21
25.391745403807011
 31
0.0
  0
LINE
  5
4C11
  8
0
 10
-173.92419473647291
 20
25.391745403807011
 30
0.0
 11
-175.52440073647281
 21
22.39174540380705
 31
0.0
  0
LINE
  5
4C12
  8
0
 10
-175.1647627364728
 20
27.513065403807001
 30
0.0
 11
-174.82007373647281
 21
27.05845540380701
 31
0.0
  0
LINE
  5
4C13
  8
0
 10
-174.82007373647281
 20
23.725034403807001
 30
0.0
 11
-175.1647627364728
 21
23.270424403806992
 31
0.0
  0
LINE
  5
4C14
  8
0
 10
-174.82007373647281
 20
27.05845540380701
 30
0.0
 11
-174.5639467364729
 21
26.539795403806981
 31
0.0
  0
LINE
  5
4C15
  8
0
 10
-174.5639467364729
 20
24.243694403807051
 30
0.0
 11
-174.82007373647281
 21
23.725034403807001
 31
0.0
  0
LINE
  5
4C16
  8
0
 10
-174.5639467364729
 20
26.539795403806981
 30
0.0
 11
-174.40622473647289
 21
25.977016403807038
 31
0.0
  0
LINE
  5
4C17
  8
0
 10
-174.40622473647289
 20
24.80647440380697
 30
0.0
 11
-174.5639467364729
 21
24.243694403807051
 31
0.0
  0
LINE
  5
4C18
  8
0
 10
-174.40622473647289
 20
25.977016403807038
 30
0.0
 11
-174.3529687364728
 21
25.391745403807011
 31
0.0
  0
LINE
  5
4C19
  8
0
 10
-174.3529687364728
 20
25.391745403807011
 30
0.0
 11
-174.40622473647289
 21
24.80647440380697
 31
0.0
  0
LINE
  5
4C1A
  8
0
 10
-180.0285037364728
 20
27.031972403806961
 30
0.0
 11
-180.0255327364728
 21
27.03035740380701
 31
0.0
  0
LINE
  5
4C1B
  8
0
 10
-180.0285037364728
 20
23.751517403807028
 30
0.0
 11
-180.0255327364728
 21
23.75313340380702
 31
0.0
  0
LINE
  5
4C1C
  8
0
 10
-181.14121373647279
 20
25.889887403807009
 30
0.0
 11
-181.1865417364728
 21
25.391745403807011
 31
0.0
  0
LINE
  5
4C1D
  8
0
 10
-181.00697173647279
 20
26.36888540380701
 30
0.0
 11
-181.14121373647279
 21
25.889887403807009
 31
0.0
  0
LINE
  5
4C1E
  8
0
 10
-181.1865417364728
 20
25.391745403807011
 30
0.0
 11
-181.14121373647279
 21
24.89360340380702
 31
0.0
  0
LINE
  5
4C1F
  8
0
 10
-180.7889747364728
 20
26.810333403807011
 30
0.0
 11
-181.00697173647279
 21
26.36888540380701
 31
0.0
  0
LINE
  5
4C20
  8
0
 10
-181.14121373647279
 20
24.89360340380702
 30
0.0
 11
-181.00697173647279
 21
24.414604403807001
 31
0.0
  0
LINE
  5
4C21
  8
0
 10
-180.4955987364728
 20
27.197265403807041
 30
0.0
 11
-180.7889747364728
 21
26.810333403807011
 31
0.0
  0
LINE
  5
4C22
  8
0
 10
-181.00697173647279
 20
24.414604403807001
 30
0.0
 11
-180.7889747364728
 21
23.973157403807011
 31
0.0
  0
LINE
  5
4C23
  8
0
 10
-180.4955987364728
 20
27.197265403807041
 30
0.0
 11
-180.13812073647281
 21
27.514812403806999
 31
0.0
  0
LINE
  5
4C24
  8
0
 10
-180.7889747364728
 20
23.973157403807011
 30
0.0
 11
-180.4955987364728
 21
23.586225403806989
 31
0.0
  0
LINE
  5
4C25
  8
0
 10
-180.99251073647281
 20
25.741281403807012
 30
0.0
 11
-181.0243167364728
 21
25.391745403807011
 31
0.0
  0
LINE
  5
4C26
  8
0
 10
-180.8983157364728
 20
26.077385403807021
 30
0.0
 11
-180.99251073647281
 21
25.741281403807012
 31
0.0
  0
LINE
  5
4C27
  8
0
 10
-181.0243167364728
 20
25.391745403807011
 30
0.0
 11
-180.99251073647281
 21
25.042209403807021
 31
0.0
  0
LINE
  5
4C28
  8
0
 10
-180.7453517364728
 20
26.387140403806981
 30
0.0
 11
-180.8983157364728
 21
26.077385403807021
 31
0.0
  0
LINE
  5
4C29
  8
0
 10
-180.99251073647281
 20
25.042209403807021
 30
0.0
 11
-180.8983157364728
 21
24.706105403807001
 31
0.0
  0
LINE
  5
4C2A
  8
0
 10
-180.13812073647281
 20
27.514812403806999
 30
0.0
 11
-179.73027573647281
 21
27.75077140380699
 31
0.0
  0
LINE
  5
4C2B
  8
0
 10
-180.4955987364728
 20
23.586225403806989
 30
0.0
 11
-180.13812073647281
 21
23.26867840380703
 31
0.0
  0
LINE
  5
4C2C
  8
0
 10
-180.53949573647279
 20
26.658642403807011
 30
0.0
 11
-180.7453517364728
 21
26.387140403806981
 31
0.0
  0
LINE
  5
4C2D
  8
0
 10
-180.8983157364728
 20
24.706105403807001
 30
0.0
 11
-180.7453517364728
 21
24.396350403807041
 31
0.0
  0
LINE
  5
4C2E
  8
0
 10
-179.73027573647281
 20
27.75077140380699
 30
0.0
 11
-179.28773873647279
 21
27.896073403806941
 31
0.0
  0
LINE
  5
4C2F
  8
0
 10
-180.13812073647281
 20
23.26867840380703
 30
0.0
 11
-179.73027573647281
 21
23.032719403807011
 31
0.0
  0
LINE
  5
4C30
  8
0
 10
-180.53949573647279
 20
26.658642403807011
 30
0.0
 11
-180.28866073647279
 21
26.881459403806971
 31
0.0
  0
LINE
  5
4C31
  8
0
 10
-180.7453517364728
 20
24.396350403807041
 30
0.0
 11
-180.53949573647279
 21
24.12484740380707
 31
0.0
  0
LINE
  5
4C32
  8
0
 10
-179.28773873647279
 20
27.896073403806941
 30
0.0
 11
-178.8275157364728
 21
27.94513640380698
 31
0.0
  0
LINE
  5
4C33
  8
0
 10
-179.73027573647281
 20
23.032719403807011
 30
0.0
 11
-179.28773873647279
 21
22.887416403806991
 31
0.0
  0
LINE
  5
4C34
  8
0
 10
-180.28866073647279
 20
26.881459403806971
 30
0.0
 11
-180.00248373647281
 21
27.047026403806949
 31
0.0
  0
LINE
  5
4C35
  8
0
 10
-180.53949573647279
 20
24.12484740380707
 30
0.0
 11
-180.28866073647279
 21
23.902031403807051
 31
0.0
  0
LINE
  5
4C36
  8
0
 10
-178.22285673647281
 20
27.868726403806981
 30
0.0
 11
-177.78515273647281
 21
27.72501040380698
 31
0.0
  0
LINE
  5
4C37
  8
0
 10
-180.00248373647281
 20
27.047026403806949
 30
0.0
 11
-179.69196473647281
 21
27.148982403806979
 31
0.0
  0
LINE
  5
4C38
  8
0
 10
-180.28866073647279
 20
23.902031403807051
 30
0.0
 11
-180.00248373647281
 21
23.736463403807051
 31
0.0
  0
LINE
  5
4C39
  8
0
 10
-178.36729273647279
 20
27.896073403806941
 30
0.0
 11
-178.22285673647281
 21
27.868726403806981
 31
0.0
  0
LINE
  5
4C3A
  8
0
 10
-178.8275157364728
 20
27.94513640380698
 30
0.0
 11
-178.36729273647279
 21
27.896073403806941
 31
0.0
  0
LINE
  5
4C3B
  8
0
 10
-179.28773873647279
 20
22.887416403806991
 30
0.0
 11
-178.8275157364728
 21
22.838354403807031
 31
0.0
  0
LINE
  5
4C3C
  8
0
 10
-177.78515273647281
 20
27.72501040380698
 30
0.0
 11
-177.38176173647281
 21
27.491628403806981
 31
0.0
  0
LINE
  5
4C3D
  8
0
 10
-178.22285673647281
 20
22.914764403807052
 30
0.0
 11
-177.78515273647281
 21
23.058480403807049
 31
0.0
  0
LINE
  5
4C3E
  8
0
 10
-177.38176173647281
 20
27.491628403806981
 30
0.0
 11
-177.0281867364728
 21
27.177549403806989
 31
0.0
  0
LINE
  5
4C3F
  8
0
 10
-177.78515273647281
 20
23.058480403807049
 30
0.0
 11
-177.38176173647281
 21
23.291862403807041
 31
0.0
  0
LINE
  5
4C40
  8
0
 10
-179.69196473647281
 20
27.148982403806979
 30
0.0
 11
-179.3690347364728
 21
27.183408403807011
 31
0.0
  0
LINE
  5
4C41
  8
0
 10
-180.00248373647281
 20
23.736463403807051
 30
0.0
 11
-179.69196473647281
 21
23.63450740380701
 31
0.0
  0
LINE
  5
4C42
  8
0
 10
-178.36729273647279
 20
27.896073403806941
 30
0.0
 11
-177.9247557364728
 21
27.75077140380699
 31
0.0
  0
LINE
  5
4C43
  8
0
 10
-178.36729273647279
 20
22.887416403806991
 30
0.0
 11
-178.22285673647281
 21
22.914764403807052
 31
0.0
  0
LINE
  5
4C44
  8
0
 10
-178.8275157364728
 20
22.838354403807031
 30
0.0
 11
-178.36729273647279
 21
22.887416403806991
 31
0.0
  0
LINE
  5
4C45
  8
0
 10
-177.0281867364728
 20
27.177549403806989
 30
0.0
 11
-176.73801573647279
 21
26.794842403806971
 31
0.0
  0
LINE
  5
4C46
  8
0
 10
-177.38176173647281
 20
23.291862403807041
 30
0.0
 11
-177.0281867364728
 21
23.605941403807002
 31
0.0
  0
LINE
  5
4C47
  8
0
 10
-179.3690347364728
 20
27.183408403807011
 30
0.0
 11
-179.04610573647281
 21
27.148982403806979
 31
0.0
  0
LINE
  5
4C48
  8
0
 10
-179.69196473647281
 20
23.63450740380701
 30
0.0
 11
-179.3690347364728
 21
23.600081403807039
 31
0.0
  0
LINE
  5
4C49
  8
0
 10
-177.9247557364728
 20
27.75077140380699
 30
0.0
 11
-177.51691173647291
 21
27.514812403806999
 31
0.0
  0
LINE
  5
4C4A
  8
0
 10
-178.36729273647279
 20
22.887416403806991
 30
0.0
 11
-177.9247557364728
 21
23.032719403807011
 31
0.0
  0
LINE
  5
4C4B
  8
0
 10
-176.73801573647279
 20
26.794842403806971
 30
0.0
 11
-176.52239873647281
 21
26.358215403807002
 31
0.0
  0
LINE
  5
4C4C
  8
0
 10
-176.73801573647279
 20
23.98864840380703
 30
0.0
 11
-177.0281867364728
 21
23.605941403807002
 31
0.0
  0
LINE
  5
4C4D
  8
0
 10
-176.52239873647281
 20
26.358215403807002
 30
0.0
 11
-176.3896227364728
 21
25.88444740380703
 31
0.0
  0
LINE
  5
4C4E
  8
0
 10
-176.52239873647281
 20
24.425275403807021
 30
0.0
 11
-176.73801573647279
 21
23.98864840380703
 31
0.0
  0
LINE
  5
4C4F
  8
0
 10
-177.51691173647291
 20
27.514812403806999
 30
0.0
 11
-177.15943273647289
 21
27.197265403807041
 31
0.0
  0
LINE
  5
4C50
  8
0
 10
-177.9247557364728
 20
23.032719403807011
 30
0.0
 11
-177.51691173647291
 21
23.26867840380703
 31
0.0
  0
LINE
  5
4C51
  8
0
 10
-176.3896227364728
 20
25.88444740380703
 30
0.0
 11
-176.34478973647279
 21
25.391745403807011
 31
0.0
  0
LINE
  5
4C52
  8
0
 10
-176.3896227364728
 20
24.89904340380701
 30
0.0
 11
-176.52239873647281
 21
24.425275403807021
 31
0.0
  0
LINE
  5
4C53
  8
0
 10
-179.04610573647281
 20
27.148982403806979
 30
0.0
 11
-178.73558673647281
 21
27.047026403806949
 31
0.0
  0
LINE
  5
4C54
  8
0
 10
-179.3690347364728
 20
23.600081403807039
 30
0.0
 11
-179.04610573647281
 21
23.63450740380701
 31
0.0
  0
LINE
  5
4C55
  8
0
 10
-176.34478973647279
 20
25.391745403807011
 30
0.0
 11
-176.3896227364728
 21
24.89904340380701
 31
0.0
  0
LINE
  5
4C56
  8
0
 10
-177.15943273647289
 20
27.197265403807041
 30
0.0
 11
-176.86605773647281
 21
26.810333403807011
 31
0.0
  0
LINE
  5
4C57
  8
0
 10
-177.51691173647291
 20
23.26867840380703
 30
0.0
 11
-177.15943273647289
 21
23.586225403806989
 31
0.0
  0
LINE
  5
4C58
  8
0
 10
-178.73558673647281
 20
27.047026403806949
 30
0.0
 11
-178.4494097364728
 21
26.881459403806971
 31
0.0
  0
LINE
  5
4C59
  8
0
 10
-179.04610573647281
 20
23.63450740380701
 30
0.0
 11
-178.73558673647281
 21
23.736463403807051
 31
0.0
  0
LINE
  5
4C5A
  8
0
 10
-176.86605773647281
 20
26.810333403807011
 30
0.0
 11
-176.64806073647279
 21
26.36888540380701
 31
0.0
  0
LINE
  5
4C5B
  8
0
 10
-176.86605773647281
 20
23.973157403807011
 30
0.0
 11
-177.15943273647289
 21
23.586225403806989
 31
0.0
  0
LINE
  5
4C5C
  8
0
 10
-176.64806073647279
 20
26.36888540380701
 30
0.0
 11
-176.5138177364729
 21
25.889887403807009
 31
0.0
  0
LINE
  5
4C5D
  8
0
 10
-176.64806073647279
 20
24.414604403807001
 30
0.0
 11
-176.86605773647281
 21
23.973157403807011
 31
0.0
  0
LINE
  5
4C5E
  8
0
 10
-178.4494097364728
 20
26.881459403806971
 30
0.0
 11
-178.19857473647281
 21
26.658642403807011
 31
0.0
  0
LINE
  5
4C5F
  8
0
 10
-178.73558673647281
 20
23.736463403807051
 30
0.0
 11
-178.4494097364728
 21
23.902031403807051
 31
0.0
  0
LINE
  5
4C60
  8
0
 10
-176.5138177364729
 20
25.889887403807009
 30
0.0
 11
-176.4684897364728
 21
25.391745403807011
 31
0.0
  0
LINE
  5
4C61
  8
0
 10
-176.5138177364729
 20
24.89360340380702
 30
0.0
 11
-176.64806073647279
 21
24.414604403807001
 31
0.0
  0
LINE
  5
4C62
  8
0
 10
-176.4684897364728
 20
25.391745403807011
 30
0.0
 11
-176.5138177364729
 21
24.89360340380702
 31
0.0
  0
LINE
  5
4C63
  8
0
 10
-178.19857473647281
 20
26.658642403807011
 30
0.0
 11
-177.9927187364728
 21
26.387140403806981
 31
0.0
  0
LINE
  5
4C64
  8
0
 10
-178.4494097364728
 20
23.902031403807051
 30
0.0
 11
-178.19857473647281
 21
24.12484740380707
 31
0.0
  0
LINE
  5
4C65
  8
0
 10
-177.9927187364728
 20
26.387140403806981
 30
0.0
 11
-177.8397547364728
 21
26.077385403807021
 31
0.0
  0
LINE
  5
4C66
  8
0
 10
-177.9927187364728
 20
24.396350403807041
 30
0.0
 11
-178.19857473647281
 21
24.12484740380707
 31
0.0
  0
LINE
  5
4C67
  8
0
 10
-177.8397547364728
 20
26.077385403807021
 30
0.0
 11
-177.74555973647281
 21
25.741281403807012
 31
0.0
  0
LINE
  5
4C68
  8
0
 10
-177.8397547364728
 20
24.706105403807001
 30
0.0
 11
-177.9927187364728
 21
24.396350403807041
 31
0.0
  0
LINE
  5
4C69
  8
0
 10
-177.74555973647281
 20
25.741281403807012
 30
0.0
 11
-177.7137537364728
 21
25.391745403807011
 31
0.0
  0
LINE
  5
4C6A
  8
0
 10
-177.74555973647281
 20
25.042209403807021
 30
0.0
 11
-177.8397547364728
 21
24.706105403807001
 31
0.0
  0
LINE
  5
4C6B
  8
0
 10
-177.7137537364728
 20
25.391745403807011
 30
0.0
 11
-177.74555973647281
 21
25.042209403807021
 31
0.0
  0
POINT
  5
4C6C
  8
0
 10
-181.1865417364728
 20
25.391745403807011
 30
0.0
1001
PNTFLAG
1000
endpoint
  0
LINE
  5
4C6D
  8
0
 10
-155.0708695958312
 20
92.281239220983238
 30
0.0
 11
-104.5708695958312
 21
92.281239220983238
 31
0.0
  0
LINE
  5
4C6E
  8
0
 10
-155.0708695958312
 20
91.367025658583316
 30
0.0
 11
-104.5708695958312
 21
91.367025658583316
 31
0.0
  0
LINE
  5
4C6F
  8
0
 10
-155.0708695958312
 20
81.367025658583316
 30
0.0
 11
-104.5708695958312
 21
81.367025658583316
 31
0.0
  0
LINE
  5
4C70
  8
0
 10
-155.0708695958312
 20
82.367025658583316
 30
0.0
 11
-104.5708695958312
 21
82.367025658583316
 31
0.0
  0
LINE
  5
4C71
  8
0
 10
-155.0708695958312
 20
99.36702565858333
 30
0.0
 11
-104.5708695958312
 21
99.36702565858333
 31
0.0
  0
LINE
  5
4C72
  8
0
 10
-155.0708695958312
 20
98.452812096183393
 30
0.0
 11
-104.5708695958312
 21
98.452812096183393
 31
0.0
  0
LINE
  5
4C73
  8
0
 10
-155.0708695958312
 20
107.3670256585833
 30
0.0
 11
-104.5708695958312
 21
107.3670256585833
 31
0.0
  0
LINE
  5
4C74
  8
0
 10
-155.0708695958312
 20
108.2812392209832
 30
0.0
 11
-104.5708695958312
 21
108.2812392209832
 31
0.0
  0
LINE
  5
4C75
  8
0
 10
-155.0708695958312
 20
114.45281209618329
 30
0.0
 11
-104.5708695958312
 21
114.45281209618329
 31
0.0
  0
LINE
  5
4C76
  8
0
 10
-155.0708695958312
 20
115.3670256585833
 30
0.0
 11
-104.5708695958312
 21
115.3670256585832
 31
0.0
  0
LINE
  5
4C77
  8
0
 10
-155.0708695958312
 20
124.3670256585833
 30
0.0
 11
-104.5708695958312
 21
124.3670256585833
 31
0.0
  0
LINE
  5
4C78
  8
0
 10
-155.0708695958312
 20
125.3670256585833
 30
0.0
 11
-104.5708695958312
 21
125.3670256585833
 31
0.0
  0
LINE
  5
4C79
  8
¤¤¤ß˝u
 10
-103.5708695958312
 20
103.3670256585833
 30
0.0
 11
-156.0708695958312
 21
103.3670256585833
 31
0.0
  0
LINE
  5
4C7A
  8
0
 10
-155.0708695958312
 20
125.3670256585833
 30
0.0
 11
-155.0708695958312
 21
81.367025658583316
 31
0.0
  0
CIRCLE
  5
4C7B
  8
0
 10
-147.8208695958312
 20
119.3670256585833
 30
0.0
 40
2.1000000000000001
  0
ARC
  5
4C7C
  8
AM4
 10
-147.8208695958312
 20
119.3670256585833
 30
0.0
 40
2.5
 50
263.10789742065339
 51
186.89210257934619
  0
LINE
  5
4C7D
  8
¤¤¤ß˝u
 10
-147.8208695958312
 20
116.3670256585833
 30
0.0
 11
-147.8208695958312
 21
122.3670256585833
 31
0.0
  0
LINE
  5
4C7E
  8
¤¤¤ß˝u
 10
-150.8208695958312
 20
119.3670256585833
 30
0.0
 11
-144.8208695958312
 21
119.3670256585833
 31
0.0
  0
LINE
  5
4C7F
  8
AM7
 10
-146.37086959583121
 20
103.3670256585833
 30
0.0
 11
-143.37086959583121
 21
103.3670256585833
 31
0.0
  0
ARC
  5
4C80
  8
AM4
 10
-147.8208695958312
 20
87.367025658583316
 30
0.0
 40
2.5
 50
263.10789742065339
 51
186.89210257934619
  0
LINE
  5
4C81
  8
¤¤¤ß˝u
 10
-147.8208695958312
 20
90.367025658583316
 30
0.0
 11
-147.8208695958312
 21
84.367025658583316
 31
0.0
  0
LINE
  5
4C82
  8
¤¤¤ß˝u
 10
-150.8208695958312
 20
87.367025658583316
 30
0.0
 11
-144.8208695958312
 21
87.367025658583316
 31
0.0
  0
CIRCLE
  5
4C83
  8
0
 10
-147.8208695958312
 20
87.367025658583316
 30
0.0
 40
2.1000000000000001
  0
LINE
  5
4C84
  8
¤¤¤ß˝u
 10
-129.8208695958312
 20
127.5770256585833
 30
0.0
 11
-129.8208695958312
 21
78.957025658583376
 31
0.0
  0
LINE
  5
4C85
  8
0
 10
-104.5708695958312
 20
125.3670256585833
 30
0.0
 11
-104.5708695958312
 21
81.367025658583316
 31
0.0
  0
LINE
  5
4C86
  8
¤¤¤ß˝u
 10
-111.8208695958312
 20
116.3670256585833
 30
0.0
 11
-111.8208695958312
 21
122.3670256585833
 31
0.0
  0
ARC
  5
4C87
  8
AM4
 10
-111.8208695958312
 20
119.3670256585833
 30
0.0
 40
2.5
 50
263.10789742065339
 51
186.89210257934619
  0
CIRCLE
  5
4C88
  8
0
 10
-111.8208695958312
 20
119.3670256585833
 30
0.0
 40
2.1000000000000001
  0
LINE
  5
4C89
  8
¤¤¤ß˝u
 10
-108.8208695958312
 20
119.3670256585833
 30
0.0
 11
-114.8208695958311
 21
119.3670256585833
 31
0.0
  0
LINE
  5
4C8A
  8
AM7
 10
-116.2708695958313
 20
103.3670256585833
 30
0.0
 11
-113.2708695958313
 21
103.3670256585833
 31
0.0
  0
LINE
  5
4C8B
  8
¤¤¤ß˝u
 10
-111.8208695958312
 20
90.367025658583316
 30
0.0
 11
-111.8208695958312
 21
84.367025658583316
 31
0.0
  0
ARC
  5
4C8C
  8
AM4
 10
-111.8208695958312
 20
87.367025658583316
 30
0.0
 40
2.5
 50
263.10789742065339
 51
186.89210257934619
  0
LINE
  5
4C8D
  8
¤¤¤ß˝u
 10
-108.8208695958312
 20
87.367025658583316
 30
0.0
 11
-114.8208695958311
 21
87.367025658583316
 31
0.0
  0
CIRCLE
  5
4C8E
  8
0
 10
-111.8208695958312
 20
87.367025658583316
 30
0.0
 40
2.1000000000000001
  0
LINE
  5
4C8F
  8
0
 10
-166.1865417364728
 20
81.867025658583358
 30
0.0
 11
-166.1865417364728
 21
124.8670256585834
 31
0.0
  0
LINE
  5
4C90
  8
0
 10
-167.6865417364728
 20
81.867025658583358
 30
0.0
 11
-167.6865417364728
 21
124.8670256585834
 31
0.0
  0
LINE
  5
4C91
  8
0
 10
-218.15284695114079
 20
93.367025658583316
 30
0.0
 11
-218.15241223665419
 21
113.3670256585833
 31
0.0
  0
ARC
  5
4C92
  8
0
  6
CONTINUOUS
 10
-163.48160175683921
 20
103.3670256585833
 30
0.0
 40
7.9674339796336779
 50
163.221349997912
 51
196.778650002088
  0
ARC
  5
4C93
  8
0
  6
CONTINUOUS
 10
-175.047594558958
 20
103.3670256585833
 30
0.0
 40
4.0
 50
90.0
 51
210.83520489408559
  0
LINE
  5
4C94
  8
0
  6
CONTINUOUS
 10
-171.44903573647289
 20
99.917025558990417
 30
0.0
 11
-171.44903573647289
 21
106.8170257581763
 31
0.0
  0
LINE
  5
4C95
  8
0
  6
CONTINUOUS
 10
-173.24256388186811
 20
97.206982558651504
 30
0.0
 11
-172.67044398850231
 21
98.588202164518691
 31
0.0
  0
ARC
  5
4C96
  8
0
  6
CONTINUOUS
 10
-174.19604628386651
 20
97.534470925165593
 30
0.0
 40
1.8541337299152449
 50
34.632779998936989
 51
100.3672200010603
  0
LINE
  5
4C97
  8
0
  6
CONTINUOUS
 10
-173.9139912583172
 20
99.36702565858333
 30
0.0
 11
-171.3764136484578
 21
99.36702565858333
 31
0.0
  0
ARC
  5
4C98
  8
0
  6
CONTINUOUS
 10
-178.1982714815679
 20
95.043637840545713
 30
0.0
 40
2.860349020536761
 50
331.41351417373693
 51
16.41351417373799
  0
LINE
  5
4C99
  8
0
  6
CONTINUOUS
 10
-181.44903573647289
 20
93.029883009534828
 30
0.0
 11
-181.44903573647289
 21
96.061878971920791
 31
0.0
  0
LINE
  5
4C9A
  8
0
  6
CONTINUOUS
 10
-181.44903573647289
 20
96.061878971920791
 30
0.0
 11
-175.68661085267189
 21
93.675004432894227
 31
0.0
  0
LINE
  5
4C9B
  8
0
  6
CONTINUOUS
 10
-181.44903573647289
 20
93.029883009534828
 30
0.0
 11
-177.83055575820521
 21
91.531059527360924
 31
0.0
  0
LINE
  5
4C9C
  8
0
  6
CONTINUOUS
 10
-177.83055575820521
 20
91.531059527360924
 30
0.0
 11
-175.68661085267189
 21
93.675004432894227
 31
0.0
  0
LINE
  5
4C9D
  8
0
  6
CONTINUOUS
 10
-179.86369620380469
 20
99.628301877985734
 30
0.0
 11
-174.28577336524711
 21
97.317850588384516
 31
0.0
  0
LINE
  5
4C9E
  8
0
  6
CONTINUOUS
 10
-179.8891110113816
 20
97.688760615120955
 30
0.0
 11
-175.63926516182971
 21
95.928416826241502
 31
0.0
  0
LINE
  5
4C9F
  8
0
  6
CONTINUOUS
 10
-179.0644228625963
 20
101.5579184183743
 30
0.0
 11
-173.48650002403869
 21
99.247467128773152
 31
0.0
  0
ARC
  5
4CA0
  8
0
  6
CONTINUOUS
 10
-179.1541499439769
 20
101.34129808159319
 30
0.0
 40
1.8541337299152449
 50
214.632779998937
 51
280.36722000106357
  0
ARC
  5
4CA1
  8
0
  6
CONTINUOUS
 10
-179.77396912242421
 20
99.844922214766825
 30
0.0
 40
1.8541337299152449
 50
34.632779998936989
 51
100.3672200010603
  0
ARC
  5
4CA2
  8
0
  6
CONTINUOUS
 10
-181.9532618626165
 20
98.608034031593476
 30
0.0
 40
2.0596736098176041
 50
335.84790116505968
 51
45.847901165061117
  0
ARC
  5
4CA3
  8
0
  6
CONTINUOUS
 10
-178.7052535102325
 20
95.253636672697979
 30
0.0
 40
2.860349020536761
 50
118.5864858262624
 51
163.5864858262623
  0
LINE
  5
4CA4
  8
0
  6
CONTINUOUS
 10
-180.67975186653749
 20
100.2876269684609
 30
0.0
 11
-180.10767459802179
 21
101.6687436688368
 31
0.0
  0
LINE
  5
4CA5
  8
0
  6
CONTINUOUS
 10
-175.1018293500214
 20
97.977175812253776
 30
0.0
 11
-174.52975208150571
 21
99.358292512629546
 31
0.0
  0
ARC
  5
4CA6
  8
0
  6
CONTINUOUS
 10
-174.406855424866
 20
104.9139067660513
 30
0.0
 40
6.9715047321794721
 50
230.72134999791231
 51
264.27865000208948
  0
ARC
  5
4CA7
  8
0
  6
CONTINUOUS
 10
-173.52966563097741
 20
95.118866228493573
 30
0.0
 40
2.0596736098176041
 50
89.152098834939196
 51
159.15209883493969
  0
ARC
  5
4CA8
  8
0
  6
CONTINUOUS
 10
-173.57622710541929
 20
99.030846791992047
 30
0.0
 40
1.8541337299152449
 50
214.632779998937
 51
280.36722000106357
  0
ARC
  5
4CA9
  8
0
  6
CONTINUOUS
 10
-178.94334080297739
 20
93.961862240707504
 30
0.0
 40
6.9715047321794721
 50
50.721349997912313
 51
84.278650002089464
  0
LINE
  5
4CAA
  8
0
  6
CONTINUOUS
 10
-178.82044414633779
 20
99.517476494129312
 30
0.0
 11
-178.24836687782209
 21
100.898593194505
 31
0.0
  0
ARC
  5
4CAB
  8
0
  6
CONTINUOUS
 10
-169.33002575942689
 20
99.917025558990417
 30
0.0
 40
2.119009977045994
 50
147.13277999893791
 51
212.8672200010619
  0
LINE
  5
4CAC
  8
0
  6
CONTINUOUS
 10
-171.1097831943635
 20
98.767025658583336
 30
0.0
 11
-167.6865417364728
 21
98.767025658583336
 31
0.0
  0
LINE
  5
4CAD
  8
0
  6
CONTINUOUS
 10
-171.1097831943635
 20
101.0670258577692
 30
0.0
 11
-167.6865417364728
 21
101.0670258577692
 31
0.0
  0
LINE
  5
4CAE
  8
0
  6
CONTINUOUS
 10
-175.047594558958
 20
107.3670256585833
 30
0.0
 11
-171.3764136484578
 21
107.3670256585833
 31
0.0
  0
ARC
  5
4CAF
  8
0
  6
CONTINUOUS
 10
-169.33002575942689
 20
106.8170257581763
 30
0.0
 40
2.119009977045994
 50
147.13277999893791
 51
212.8672200010619
  0
LINE
  5
4CB0
  8
0
  6
CONTINUOUS
 10
-171.1097831943635
 20
105.66702545939749
 30
0.0
 11
-167.6865417364728
 21
105.66702545939749
 31
0.0
  0
LINE
  5
4CB1
  8
0
  6
CONTINUOUS
 10
-171.1097831943635
 20
107.9670256585833
 30
0.0
 11
-167.6865417364728
 21
107.9670256585833
 31
0.0
  0
LINE
  5
4CB2
  8
0
 10
-218.15284695114079
 20
93.367025658583316
 30
0.0
 11
-181.44903573647289
 21
93.366227874660879
 31
0.0
  0
LINE
  5
4CB3
  8
0
 10
-218.15241223665419
 20
113.3670256585833
 30
0.0
 11
-167.6865417364728
 21
113.36592874633411
 31
0.0
  0
LINE
  5
4CB4
  8
0
 10
-91.955197455189776
 20
93.364282661262934
 30
0.0
 11
-58.152412236654378
 21
93.363547933241861
 31
0.0
  0
LINE
  5
4CB5
  8
0
 10
-91.955197455189634
 20
113.3642826707118
 30
0.0
 11
-58.152412236654378
 21
113.3635479426907
 31
0.0
  0
LINE
  5
4CB6
  8
0
 10
-175.995088053518
 20
93.366527232048114
 30
0.0
 11
-167.6865417364728
 21
93.366346639775799
 31
0.0
  0
LINE
  5
4CB7
  8
0
 10
-155.0708695958312
 20
81.867025658583358
 30
0.0
 11
-167.6865417364728
 21
81.867025658583358
 31
0.0
  0
LINE
  5
4CB8
  8
0
 10
-155.0708695958312
 20
124.8670256585834
 30
0.0
 11
-167.6865417364728
 21
124.8670256585834
 31
0.0
  0
LINE
  5
4CB9
  8
µę˝u
 10
-82.902787793462565
 20
18.491726072706651
 30
0.0
 11
-73.402786436795935
 21
18.491726072706651
 31
0.0
  0
LINE
  5
4CBA
  8
µę˝u
 10
-73.402786255037171
 20
18.49172539437367
 30
0.0
 11
-73.171845755725371
 21
18.891726072706749
 31
0.0
  0
LINE
  5
4CBB
  8
µę˝u
 10
-73.402786436795935
 20
18.491726072706651
 30
0.0
 11
-73.402786436795935
 21
10.39172607270674
 31
0.0
  0
LINE
  5
4CBC
  8
µę˝u
 10
-82.902786618554757
 20
18.49172539437367
 30
0.0
 11
-83.133727117866556
 21
18.891726072706749
 31
0.0
  0
LINE
  5
4CBD
  8
µę˝u
 10
-82.90278643679585
 20
18.491726072706651
 30
0.0
 11
-82.90278643679585
 21
10.39172607270674
 31
0.0
  0
LINE
  5
4CBE
  8
µę˝u
 10
-81.152786436795864
 20
10.09172607270655
 30
0.0
 11
-75.15278643679585
 21
10.09172607270655
 31
0.0
  0
LINE
  5
4CBF
  8
µę˝u
 10
-82.90278643679585
 20
10.39172607270674
 30
0.0
 11
-73.402786436795935
 21
10.39172607270674
 31
0.0
  0
LINE
  5
4CC0
  8
µę˝u
 10
-81.152786436795864
 20
10.09172607270655
 30
0.0
 11
-81.452786436795876
 21
10.39172607270674
 31
0.0
  0
LINE
  5
4CC1
  8
µę˝u
 10
-81.152786436795864
 20
10.09172607270655
 30
0.0
 11
-81.152786436795864
 21
1.8917484579802351
 31
0.0
  0
LINE
  5
4CC2
  8
µę˝u
 10
-75.152908536795849
 20
10.09172607270655
 30
0.0
 11
-74.852908536795923
 21
10.39172607270674
 31
0.0
  0
LINE
  5
4CC3
  8
µę˝u
 10
-75.15278643679585
 20
10.09172607270655
 30
0.0
 11
-75.15278643679585
 21
1.8917484579802351
 31
0.0
  0
LINE
  5
4CC4
  8
µę˝u
 10
-74.653055732535961
 20
1.3917260727067531
 30
0.0
 11
-75.153023853434661
 21
1.8917077595911771
 31
0.0
  0
LINE
  5
4CC5
  8
µę˝u
 10
-81.152786436795864
 20
1.8917484579802351
 30
0.0
 11
-75.153023853434661
 21
1.8917077595911771
 31
0.0
  0
LINE
  5
4CC6
  8
µę˝u
 10
-81.652808822069574
 20
1.3917260727067531
 30
0.0
 11
-81.152786436795864
 21
1.8917484579802351
 31
0.0
  0
LINE
  5
4CC7
  8
0
 10
-202.90278779346249
 20
18.491726072707031
 30
0.0
 11
-193.40278643679591
 21
18.491726072707031
 31
0.0
  0
LINE
  5
4CC8
  8
0
 10
-193.402786255037
 20
18.49172539437405
 30
0.0
 11
-193.17184575572529
 21
18.891726072707112
 31
0.0
  0
LINE
  5
4CC9
  8
0
 10
-193.40278643679591
 20
18.491726072707031
 30
0.0
 11
-193.40278643679591
 21
10.391726072707129
 31
0.0
  0
LINE
  5
4CCA
  8
0
 10
-202.9027866185547
 20
18.49172539437405
 30
0.0
 11
-203.13372711786661
 21
18.891726072707112
 31
0.0
  0
LINE
  5
4CCB
  8
0
 10
-202.90278643679591
 20
18.491726072707031
 30
0.0
 11
-202.90278643679591
 21
10.391726072707129
 31
0.0
  0
LINE
  5
4CCC
  8
0
 10
-201.15278643679591
 20
10.09172607270693
 30
0.0
 11
-195.15278643679579
 21
10.09172607270693
 31
0.0
  0
LINE
  5
4CCD
  8
0
 10
-202.90278643679591
 20
10.391726072707129
 30
0.0
 11
-193.40278643679591
 21
10.391726072707129
 31
0.0
  0
LINE
  5
4CCE
  8
0
 10
-201.15278643679591
 20
10.09172607270693
 30
0.0
 11
-201.4527864367958
 21
10.391726072707129
 31
0.0
  0
LINE
  5
4CCF
  8
0
 10
-201.15278643679591
 20
10.09172607270693
 30
0.0
 11
-201.15278643679591
 21
1.891748457980619
 31
0.0
  0
LINE
  5
4CD0
  8
0
 10
-195.15290853679579
 20
10.09172607270693
 30
0.0
 11
-194.85290853679589
 21
10.391726072707129
 31
0.0
  0
LINE
  5
4CD1
  8
0
 10
-195.15278643679579
 20
10.09172607270693
 30
0.0
 11
-195.15278643679579
 21
1.891748457980619
 31
0.0
  0
LINE
  5
4CD2
  8
0
 10
-194.6530557325359
 20
1.391726072707137
 30
0.0
 11
-195.15302385343469
 21
1.8917077595915619
 31
0.0
  0
LINE
  5
4CD3
  8
0
 10
-201.15278643679591
 20
1.891748457980619
 30
0.0
 11
-195.15302385343469
 21
1.8917077595915619
 31
0.0
  0
LINE
  5
4CD4
  8
0
 10
-201.6528088220696
 20
1.391726072707137
 30
0.0
 11
-201.15278643679591
 21
1.891748457980619
 31
0.0
  0
LINE
  5
4CD5
  8
0
 10
-104.5708695958312
 20
30.391726072706891
 30
0.0
 11
-91.955197455189776
 21
30.391726072706891
 31
0.0
  0
LINE
  5
4CD6
  8
0
 10
-104.5708695958312
 20
28.891730016006932
 30
0.0
 11
-93.455197455189747
 21
28.891730016006932
 31
0.0
  0
CIRCLE
  5
4CD7
  8
0
 10
-98.155197455189764
 20
24.39172607270682
 30
0.0
 40
1.0
  0
LINE
  5
4CD8
  8
¤¤¤ß˝u
 10
-94.405197455189736
 20
24.39172607270682
 30
0.0
 11
-101.90519745518969
 21
24.39172607270682
 31
0.0
  0
LINE
  5
4CD9
  8
¤¤¤ß˝u
 10
-98.155197455189764
 20
20.64172607270682
 30
0.0
 11
-98.155197455189764
 21
28.141726072706842
 31
0.0
  0
CIRCLE
  5
4CDA
  8
0
 10
-98.155197455189764
 20
24.39172607270682
 30
0.0
 40
3.1447818619999981
  0
CIRCLE
  5
4CDB
  8
0
 10
-98.155197455189764
 20
24.39172607270682
 30
0.0
 40
2.4999999728999991
  0
CIRCLE
  5
4CDC
  8
0
 10
-98.155197455189764
 20
24.39172607270682
 30
0.0
 40
2.8277919627000001
  0
LINE
  5
4CDD
  8
0
 10
-93.455197455189747
 20
5.9917260727069239
 30
0.0
 11
-93.455197455189747
 21
30.39173001600696
 31
0.0
  0
LINE
  5
4CDE
  8
0
 10
-91.955197455189776
 20
5.991726072706796
 30
0.0
 11
-91.955197455189776
 21
30.391726072706891
 31
0.0
  0
LINE
  5
4CDF
  8
0
 10
-93.455197455189747
 20
28.891726072706891
 30
0.0
 11
-91.955197455189776
 21
28.891726072706891
 31
0.0
  0
LINE
  5
4CE0
  8
0
 10
-104.5708695958312
 20
7.4917221293068934
 30
0.0
 11
-91.955197455189776
 21
7.4917221293068934
 31
0.0
  0
LINE
  5
4CE1
  8
0
 10
-104.5708695958312
 20
124.8670256585832
 30
0.0
 11
-91.955197455189634
 21
124.8670256585832
 31
0.0
  0
LINE
  5
4CE2
  8
0
 10
-91.955197455189776
 20
81.867025658583316
 30
0.0
 11
-91.955197455189634
 21
124.8670256585832
 31
0.0
  0
LINE
  5
4CE3
  8
0
 10
-93.455197455189747
 20
81.867025658583316
 30
0.0
 11
-93.455197455189648
 21
124.8670256585832
 31
0.0
  0
LINE
  5
4CE4
  8
0
 10
-104.5708695958312
 20
81.867025658583316
 30
0.0
 11
-91.955197455189776
 21
81.867025658583316
 31
0.0
  0
LINE
  5
4CE5
  8
¤¤¤ß˝u
 10
-138.1524122366541
 20
-0.2812812550308674
 30
0.0
 11
-138.1524122366541
 21
6.736001225708498
 31
0.0
  0
LINE
  5
4CE6
  8
¤¤¤ß˝u
 10
-198.15241223665419
 20
0.8917260727069313
 30
0.0
 11
-198.15241223665419
 21
19.491726072706939
 31
0.0
  0
LINE
  5
4CE7
  8
0
 10
-218.15241223665419
 20
1.3917260727070511
 30
0.0
 11
-218.15241223665419
 21
18.891726072707179
 31
0.0
  0
LINE
  5
4CE8
  8
0
 10
-58.152412236654378
 20
93.363547933241861
 30
0.0
 11
-58.152412236654378
 21
113.3635479426907
 31
0.0
  0
LINE
  5
4CE9
  8
¤¤¤ß˝u
 10
-78.152412236654385
 20
97.590970849670555
 30
0.0
 11
-78.152412236654385
 21
109.1369944552353
 31
0.0
  0
LINE
  5
4CEA
  8
¤¤¤ß˝u
 10
-83.925424039436635
 20
103.3639826524529
 30
0.0
 11
-72.379400433871865
 21
103.3639826524529
 31
0.0
  0
CIRCLE
  5
4CEB
  8
0
 10
-78.152412236654385
 20
103.3639826524529
 30
0.0
 40
4.7498798561624724
  0
CIRCLE
  5
4CEC
  8
0
 10
-78.152412236654385
 20
103.3639826524529
 30
0.0
 40
2.999879856162456
  0
LINE
  5
4CED
  8
¤¤¤ß˝u
 10
-198.15241223665419
 20
97.590970849670612
 30
0.0
 11
-198.15241223665419
 21
109.1369944552353
 31
0.0
  0
LINE
  5
4CEE
  8
¤¤¤ß˝u
 10
-203.92542403943659
 20
103.363982652453
 30
0.0
 11
-192.37940043387181
 21
103.363982652453
 31
0.0
  0
CIRCLE
  5
4CEF
  8
0
 10
-198.15241223665419
 20
103.363982652453
 30
0.0
 40
4.7498798561624724
  0
CIRCLE
  5
4CF0
  8
0
 10
-198.15241223665419
 20
103.363982652453
 30
0.0
 40
2.999879856162456
  0
ENDSEC
  0
EOF
